  0
SECTION
  2
HEADER
  9
$ACADVER
  1
AC1027
  9
$ACADMAINTVER
 70
   105
  9
$DWGCODEPAGE
  3
ANSI_1252
  9
$LASTSAVEDBY
  1
Office Desk
  9
$REQUIREDVERSIONS
160
                 0
  9
$INSBASE
 10
0.0
 20
0.0
 30
0.0
  9
$EXTMIN
 10
-472.4782
 20
-235.0628
 30
0.0
  9
$EXTMAX
 10
-303.4406
 20
-13.444
 30
0.0
  9
$LIMMIN
 10
0.0
 20
0.0
  9
$LIMMAX
 10
12.0
 20
9.0
  9
$ORTHOMODE
 70
     0
  9
$REGENMODE
 70
     1
  9
$FILLMODE
 70
     1
  9
$QTEXTMODE
 70
     0
  9
$MIRRTEXT
 70
     1
  9
$LTSCALE
 40
1.0
  9
$ATTMODE
 70
     1
  9
$TEXTSIZE
 40
0.2
  9
$TRACEWID
 40
0.05
  9
$TEXTSTYLE
  7
Standard
  9
$CLAYER
  8
0
  9
$CELTYPE
  6
ByLayer
  9
$CECOLOR
 62
   256
  9
$CELTSCALE
 40
1.0
  9
$DISPSILH
 70
     0
  9
$DIMSCALE
 40
1.0
  9
$DIMASZ
 40
0.18
  9
$DIMEXO
 40
0.0625
  9
$DIMDLI
 40
0.38
  9
$DIMRND
 40
0.0
  9
$DIMDLE
 40
0.0
  9
$DIMEXE
 40
0.18
  9
$DIMTP
 40
0.0
  9
$DIMTM
 40
0.0
  9
$DIMTXT
 40
0.18
  9
$DIMCEN
 40
0.09
  9
$DIMTSZ
 40
0.0
  9
$DIMTOL
 70
     0
  9
$DIMLIM
 70
     0
  9
$DIMTIH
 70
     1
  9
$DIMTOH
 70
     1
  9
$DIMSE1
 70
     0
  9
$DIMSE2
 70
     0
  9
$DIMTAD
 70
     0
  9
$DIMZIN
 70
     0
  9
$DIMBLK
  1

  9
$DIMASO
 70
     1
  9
$DIMSHO
 70
     1
  9
$DIMPOST
  1

  9
$DIMAPOST
  1

  9
$DIMALT
 70
     0
  9
$DIMALTD
 70
     2
  9
$DIMALTF
 40
25.4
  9
$DIMLFAC
 40
1.0
  9
$DIMTOFL
 70
     0
  9
$DIMTVP
 40
0.0
  9
$DIMTIX
 70
     0
  9
$DIMSOXD
 70
     0
  9
$DIMSAH
 70
     0
  9
$DIMBLK1
  1

  9
$DIMBLK2
  1

  9
$DIMSTYLE
  2
Standard
  9
$DIMCLRD
 70
     0
  9
$DIMCLRE
 70
     0
  9
$DIMCLRT
 70
     0
  9
$DIMTFAC
 40
1.0
  9
$DIMGAP
 40
0.09
  9
$DIMJUST
 70
     0
  9
$DIMSD1
 70
     0
  9
$DIMSD2
 70
     0
  9
$DIMTOLJ
 70
     1
  9
$DIMTZIN
 70
     0
  9
$DIMALTZ
 70
     0
  9
$DIMALTTZ
 70
     0
  9
$DIMUPT
 70
     0
  9
$DIMDEC
 70
     4
  9
$DIMTDEC
 70
     4
  9
$DIMALTU
 70
     2
  9
$DIMALTTD
 70
     2
  9
$DIMTXSTY
  7
Standard
  9
$DIMAUNIT
 70
     0
  9
$DIMADEC
 70
     0
  9
$DIMALTRND
 40
0.0
  9
$DIMAZIN
 70
     0
  9
$DIMDSEP
 70
    46
  9
$DIMATFIT
 70
     3
  9
$DIMFRAC
 70
     0
  9
$DIMLDRBLK
  1

  9
$DIMLUNIT
 70
     2
  9
$DIMLWD
 70
    -2
  9
$DIMLWE
 70
    -2
  9
$DIMTMOVE
 70
     0
  9
$DIMFXL
 40
1.0
  9
$DIMFXLON
 70
     0
  9
$DIMJOGANG
 40
0.7853981633974483
  9
$DIMTFILL
 70
     0
  9
$DIMTFILLCLR
 70
     0
  9
$DIMARCSYM
 70
     0
  9
$DIMLTYPE
  6

  9
$DIMLTEX1
  6

  9
$DIMLTEX2
  6

  9
$DIMTXTDIRECTION
 70
     0
  9
$LUNITS
 70
     2
  9
$LUPREC
 70
     4
  9
$SKETCHINC
 40
0.1
  9
$FILLETRAD
 40
0.0
  9
$AUNITS
 70
     0
  9
$AUPREC
 70
     0
  9
$MENU
  1
.
  9
$ELEVATION
 40
0.0
  9
$PELEVATION
 40
0.0
  9
$THICKNESS
 40
0.0
  9
$LIMCHECK
 70
     0
  9
$CHAMFERA
 40
0.0
  9
$CHAMFERB
 40
0.0
  9
$CHAMFERC
 40
0.0
  9
$CHAMFERD
 40
0.0
  9
$SKPOLY
 70
     0
  9
$TDCREATE
 40
2461015.762675683
  9
$TDUCREATE
 40
2461015.533509016
  9
$TDUPDATE
 40
2461015.762675683
  9
$TDUUPDATE
 40
2461015.533509016
  9
$TDINDWG
 40
0.0000000116
  9
$TDUSRTIMER
 40
0.0000000116
  9
$USRTIMER
 70
     1
  9
$ANGBASE
 50
0.0
  9
$ANGDIR
 70
     0
  9
$PDMODE
 70
     0
  9
$PDSIZE
 40
0.0
  9
$PLINEWID
 40
0.0
  9
$SPLFRAME
 70
     0
  9
$SPLINETYPE
 70
     6
  9
$SPLINESEGS
 70
     8
  9
$HANDSEED
  5
96
  9
$SURFTAB1
 70
     6
  9
$SURFTAB2
 70
     6
  9
$SURFTYPE
 70
     6
  9
$SURFU
 70
     6
  9
$SURFV
 70
     6
  9
$UCSBASE
  2

  9
$UCSNAME
  2

  9
$UCSORG
 10
0.0
 20
0.0
 30
0.0
  9
$UCSXDIR
 10
1.0
 20
0.0
 30
0.0
  9
$UCSYDIR
 10
0.0
 20
1.0
 30
0.0
  9
$UCSORTHOREF
  2

  9
$UCSORTHOVIEW
 70
     0
  9
$UCSORGTOP
 10
0.0
 20
0.0
 30
0.0
  9
$UCSORGBOTTOM
 10
0.0
 20
0.0
 30
0.0
  9
$UCSORGLEFT
 10
0.0
 20
0.0
 30
0.0
  9
$UCSORGRIGHT
 10
0.0
 20
0.0
 30
0.0
  9
$UCSORGFRONT
 10
0.0
 20
0.0
 30
0.0
  9
$UCSORGBACK
 10
0.0
 20
0.0
 30
0.0
  9
$PUCSBASE
  2

  9
$PUCSNAME
  2

  9
$PUCSORG
 10
0.0
 20
0.0
 30
0.0
  9
$PUCSXDIR
 10
1.0
 20
0.0
 30
0.0
  9
$PUCSYDIR
 10
0.0
 20
1.0
 30
0.0
  9
$PUCSORTHOREF
  2

  9
$PUCSORTHOVIEW
 70
     0
  9
$PUCSORGTOP
 10
0.0
 20
0.0
 30
0.0
  9
$PUCSORGBOTTOM
 10
0.0
 20
0.0
 30
0.0
  9
$PUCSORGLEFT
 10
0.0
 20
0.0
 30
0.0
  9
$PUCSORGRIGHT
 10
0.0
 20
0.0
 30
0.0
  9
$PUCSORGFRONT
 10
0.0
 20
0.0
 30
0.0
  9
$PUCSORGBACK
 10
0.0
 20
0.0
 30
0.0
  9
$USERI1
 70
     0
  9
$USERI2
 70
     0
  9
$USERI3
 70
     0
  9
$USERI4
 70
     0
  9
$USERI5
 70
     0
  9
$USERR1
 40
0.0
  9
$USERR2
 40
0.0
  9
$USERR3
 40
0.0
  9
$USERR4
 40
0.0
  9
$USERR5
 40
0.0
  9
$WORLDVIEW
 70
     1
  9
$SHADEDGE
 70
     3
  9
$SHADEDIF
 70
    70
  9
$TILEMODE
 70
     1
  9
$MAXACTVP
 70
    64
  9
$PINSBASE
 10
0.0
 20
0.0
 30
0.0
  9
$PLIMCHECK
 70
     0
  9
$PEXTMIN
 10
1.000000000000000E+20
 20
1.000000000000000E+20
 30
1.000000000000000E+20
  9
$PEXTMAX
 10
-1.000000000000000E+20
 20
-1.000000000000000E+20
 30
-1.000000000000000E+20
  9
$PLIMMIN
 10
0.0
 20
0.0
  9
$PLIMMAX
 10
12.0
 20
9.0
  9
$UNITMODE
 70
     0
  9
$VISRETAIN
 70
     1
  9
$PLINEGEN
 70
     0
  9
$PSLTSCALE
 70
     1
  9
$TREEDEPTH
 70
  3020
  9
$CMLSTYLE
  2
Standard
  9
$CMLJUST
 70
     0
  9
$CMLSCALE
 40
1.0
  9
$PROXYGRAPHICS
 70
     1
  9
$MEASUREMENT
 70
     0
  9
$CELWEIGHT
370
    -1
  9
$ENDCAPS
280
     0
  9
$JOINSTYLE
280
     0
  9
$LWDISPLAY
290
     0
  9
$INSUNITS
 70
     4
  9
$HYPERLINKBASE
  1

  9
$STYLESHEET
  1

  9
$XEDIT
290
     1
  9
$CEPSNTYPE
380
     0
  9
$PSTYLEMODE
290
     1
  9
$FINGERPRINTGUID
  2
{df569cd5-9749-4141-a68f-665821ca3a6f}
  9
$VERSIONGUID
  2
{FAEB1C32-E019-11D5-929B-00C0DF256EC4}
  9
$EXTNAMES
290
     1
  9
$PSVPSCALE
 40
0.0
  9
$OLESTARTUP
290
     0
  9
$SORTENTS
280
   127
  9
$INDEXCTL
280
     0
  9
$HIDETEXT
280
     1
  9
$XCLIPFRAME
280
     2
  9
$HALOGAP
280
     0
  9
$OBSCOLOR
 70
   257
  9
$OBSLTYPE
280
     0
  9
$INTERSECTIONDISPLAY
280
     0
  9
$INTERSECTIONCOLOR
 70
   257
  9
$DIMASSOC
280
     2
  9
$PROJECTNAME
  1

  9
$CAMERADISPLAY
290
     0
  9
$LENSLENGTH
 40
50.0
  9
$CAMERAHEIGHT
 40
0.0
  9
$STEPSPERSEC
 40
2.0
  9
$STEPSIZE
 40
6.0
  9
$3DDWFPREC
 40
2.0
  9
$PSOLWIDTH
 40
0.25
  9
$PSOLHEIGHT
 40
4.0
  9
$LOFTANG1
 40
1.570796326794897
  9
$LOFTANG2
 40
1.570796326794897
  9
$LOFTMAG1
 40
0.0
  9
$LOFTMAG2
 40
0.0
  9
$LOFTPARAM
 70
     7
  9
$LOFTNORMALS
280
     1
  9
$LATITUDE
 40
37.795
  9
$LONGITUDE
 40
-122.394
  9
$NORTHDIRECTION
 40
0.0
  9
$TIMEZONE
 70
 -8000
  9
$LIGHTGLYPHDISPLAY
280
     1
  9
$TILEMODELIGHTSYNCH
280
     1
  9
$CMATERIAL
347
44
  9
$SOLIDHIST
280
     0
  9
$SHOWHIST
280
     1
  9
$DWFFRAME
280
     2
  9
$DGNFRAME
280
     2
  9
$REALWORLDSCALE
290
     1
  9
$INTERFERECOLOR
 62
   256
  9
$CSHADOW
280
     0
  9
$SHADOWPLANELOCATION
 40
0.0
  0
ENDSEC
  0
SECTION
  2
CLASSES
  0
CLASS
  1
ACDBDICTIONARYWDFLT
  2
AcDbDictionaryWithDefault
  3
ObjectDBX Classes
 90
        0
 91
        3
280
     0
281
     0
  0
CLASS
  1
VISUALSTYLE
  2
AcDbVisualStyle
  3
ObjectDBX Classes
 90
     4095
 91
        3
280
     0
281
     0
  0
CLASS
  1
MATERIAL
  2
AcDbMaterial
  3
ObjectDBX Classes
 90
     1153
 91
        3
280
     0
281
     0
  0
CLASS
  1
SCALE
  2
AcDbScale
  3
ObjectDBX Classes
 90
     1153
 91
        3
280
     0
281
     0
  0
CLASS
  1
TABLESTYLE
  2
AcDbTableStyle
  3
ObjectDBX Classes
 90
     4095
 91
        3
280
     0
281
     0
  0
CLASS
  1
MLEADERSTYLE
  2
AcDbMLeaderStyle
  3
ACDB_MLEADERSTYLE_CLASS
 90
     4095
 91
        3
280
     0
281
     0
  0
CLASS
  1
SUN
  2
AcDbSun
  3
SCENEOE
 90
     1153
 91
        3
280
     0
281
     0
  0
CLASS
  1
DICTIONARYVAR
  2
AcDbDictionaryVar
  3
ObjectDBX Classes
 90
        0
 91
        3
280
     0
281
     0
  0
CLASS
  1
CELLSTYLEMAP
  2
AcDbCellStyleMap
  3
ObjectDBX Classes
 90
     1152
 91
        3
280
     0
281
     0
  0
ENDSEC
  0
SECTION
  2
TABLES
  0
TABLE
  2
VPORT
  5
8
330
0
100
AcDbSymbolTable
 70
     1
  0
VPORT
  5
29
330
8
100
AcDbSymbolTableRecord
100
AcDbViewportTableRecord
  2
*Active
 70
     0
 10
0.0
 20
0.0
 11
1.0
 21
1.0
 12
10.42990654205607
 22
4.5
 13
0.0
 23
0.0
 14
0.5
 24
0.5
 15
0.5
 25
0.5
 16
0.0
 26
0.0
 36
1.0
 17
0.0
 27
0.0
 37
0.0
 40
9.0
 41
1.972972972850329
 42
50.0
 43
0.0
 44
0.0
 50
0.0
 51
0.0
 71
     0
 72
   100
 73
     1
 74
     3
 75
     0
 76
     0
 77
     0
 78
     0
281
     0
 65
     1
110
0.0
120
0.0
130
0.0
111
1.0
121
0.0
131
0.0
112
0.0
122
1.0
132
0.0
 79
     0
146
0.0
348
2F
 60
     3
 61
     5
292
     1
282
     1
141
0.0
142
0.0
 63
   250
361
5D
  0
ENDTAB
  0
TABLE
  2
LTYPE
  5
5
330
0
100
AcDbSymbolTable
 70
     1
  0
LTYPE
  5
14
330
5
100
AcDbSymbolTableRecord
100
AcDbLinetypeTableRecord
  2
ByBlock
 70
     0
  3

 72
    65
 73
     0
 40
0.0
  0
LTYPE
  5
15
330
5
100
AcDbSymbolTableRecord
100
AcDbLinetypeTableRecord
  2
ByLayer
 70
     0
  3

 72
    65
 73
     0
 40
0.0
  0
LTYPE
  5
16
330
5
100
AcDbSymbolTableRecord
100
AcDbLinetypeTableRecord
  2
Continuous
 70
     0
  3
Solid line
 72
    65
 73
     0
 40
0.0
  0
ENDTAB
  0
TABLE
  2
LAYER
  5
2
330
0
100
AcDbSymbolTable
 70
     2
  0
LAYER
  5
10
330
2
100
AcDbSymbolTableRecord
100
AcDbLayerTableRecord
  2
0
 70
     0
 62
     7
  6
Continuous
370
    -3
390
F
347
46
348
0
  0
LAYER
  5
5F
330
2
100
AcDbSymbolTableRecord
100
AcDbLayerTableRecord
  2
Layer 1
 70
     0
 62
     7
  6
Continuous
370
    -3
390
F
347
46
348
0
  0
ENDTAB
  0
TABLE
  2
STYLE
  5
3
330
0
100
AcDbSymbolTable
 70
     1
  0
STYLE
  5
11
330
3
100
AcDbSymbolTableRecord
100
AcDbTextStyleTableRecord
  2
Standard
 70
     0
 40
0.0
 41
1.0
 50
0.0
 71
     0
 42
0.2
  3
txt
  4

  0
ENDTAB
  0
TABLE
  2
VIEW
  5
6
330
0
100
AcDbSymbolTable
 70
     0
  0
ENDTAB
  0
TABLE
  2
UCS
  5
7
330
0
100
AcDbSymbolTable
 70
     0
  0
ENDTAB
  0
TABLE
  2
APPID
  5
9
330
0
100
AcDbSymbolTable
 70
     2
  0
APPID
  5
12
330
9
100
AcDbSymbolTableRecord
100
AcDbRegAppTableRecord
  2
ACAD
 70
     0
  0
APPID
  5
5E
330
9
100
AcDbSymbolTableRecord
100
AcDbRegAppTableRecord
  2
ODA
 70
     0
  0
ENDTAB
  0
TABLE
  2
DIMSTYLE
  5
A
330
0
100
AcDbSymbolTable
 70
     1
100
AcDbDimStyleTable
  0
DIMSTYLE
105
27
330
A
100
AcDbSymbolTableRecord
100
AcDbDimStyleTableRecord
  2
Standard
 70
     0
178
     0
340
11
  0
ENDTAB
  0
TABLE
  2
BLOCK_RECORD
  5
1
330
0
100
AcDbSymbolTable
 70
     1
  0
BLOCK_RECORD
  5
1F
330
1
100
AcDbSymbolTableRecord
100
AcDbBlockTableRecord
  2
*Model_Space
340
22
 70
     0
280
     1
281
     0
  0
BLOCK_RECORD
  5
1B
330
1
100
AcDbSymbolTableRecord
100
AcDbBlockTableRecord
  2
*Paper_Space
340
1E
 70
     0
280
     1
281
     0
  0
BLOCK_RECORD
  5
23
330
1
100
AcDbSymbolTableRecord
100
AcDbBlockTableRecord
  2
*Paper_Space0
340
26
 70
     0
280
     1
281
     0
  0
ENDTAB
  0
ENDSEC
  0
SECTION
  2
BLOCKS
  0
BLOCK
  5
20
330
1F
100
AcDbEntity
  8
0
100
AcDbBlockBegin
  2
*Model_Space
 70
     0
 10
0.0
 20
0.0
 30
0.0
  3
*Model_Space
  1

  0
ENDBLK
  5
21
330
1F
100
AcDbEntity
  8
0
100
AcDbBlockEnd
  0
BLOCK
  5
1C
330
1B
100
AcDbEntity
 67
     1
  8
0
100
AcDbBlockBegin
  2
*Paper_Space
 70
     0
 10
0.0
 20
0.0
 30
0.0
  3
*Paper_Space
  1

  0
ENDBLK
  5
1D
330
1B
100
AcDbEntity
 67
     1
  8
0
100
AcDbBlockEnd
  0
BLOCK
  5
24
330
23
100
AcDbEntity
  8
0
100
AcDbBlockBegin
  2
*Paper_Space0
 70
     0
 10
0.0
 20
0.0
 30
0.0
  3
*Paper_Space0
  1

  0
ENDBLK
  5
25
330
23
100
AcDbEntity
  8
0
100
AcDbBlockEnd
  0
ENDSEC
  0
SECTION
  2
ENTITIES
  0
LWPOLYLINE
  5
60
330
1F
100
AcDbEntity
  8
Layer 1
 62
   250
370
     9
100
AcDbPolyline
 90
        5
 70
     1
 43
0.0
 10
-472.4401
 20
-235.0247
 10
-303.4787
 20
-235.0247
 10
-303.4787
 20
-13.4821
 10
-472.4401
 20
-13.4821
 10
-472.4401
 20
-235.0247
  0
LWPOLYLINE
  5
61
330
1F
100
AcDbEntity
  8
Layer 1
 62
     7
370
     9
100
AcDbPolyline
 90
      773
 70
     1
 43
0.0
 10
-378.4782
 20
-100.6392
 10
-378.4816
 20
-100.0185
 10
-378.4925
 20
-99.3071
 10
-378.5116
 20
-98.5355
 10
-378.5398
 20
-97.7344
 10
-378.5779
 20
-96.9343
 10
-378.6267
 20
-96.1659
 10
-378.6871
 20
-95.4597
 10
-378.7599
 20
-94.8463
 10
-378.8979
 20
-93.8107
 10
-380.0846
 20
-85.3161
 10
-380.2172
 20
-84.2791
 10
-380.3664
 20
-83.2137
 10
-380.5261
 20
-82.1306
 10
-380.6902
 20
-81.0404
 10
-380.8527
 20
-79.9537
 10
-381.0076
 20
-78.881
 10
-381.1488
 20
-77.8329
 10
-381.2702
 20
-76.8201
 10
-381.3
 20
-76.5559
 10
-381.3318
 20
-76.2861
 10
-381.3655
 20
-76.0131
 10
-381.4011
 20
-75.7395
 10
-381.4384
 20
-75.4677
 10
-381.4773
 20
-75.2004
 10
-381.5177
 20
-74.94
 10
-381.5596
 20
-74.689
 10
-381.603
 20
-74.4311
 10
-381.6454
 20
-74.1655
 10
-381.6863
 20
-73.8951
 10
-381.7256
 20
-73.6227
 10
-381.7628
 20
-73.351
 10
-381.7976
 20
-73.0827
 10
-381.8298
 20
-72.8208
 10
-381.8589
 20
-72.568
 10
-381.9697
 20
-71.6332
 10
-382.103
 20
-70.6061
 10
-382.2528
 20
-69.5147
 10
-382.4131
 20
-68.3867
 10
-382.5779
 20
-67.25
 10
-382.7411
 20
-66.1326
 10
-382.8967
 20
-65.0622
 10
-383.0387
 20
-64.0668
 10
-384.8624
 20
-51.3681
 10
-384.9792
 20
-50.5234
 10
-385.1638
 20
-49.2288
 10
-385.3944
 20
-47.6425
 10
-385.649
 20
-45.9227
 10
-385.9057
 20
-44.2276
 10
-386.1427
 20
-42.7154
 10
-386.3379
 20
-41.5443
 10
-386.4695
 20
-40.8726
 10
-386.7436
 20
-39.8768
 10
-387.0445
 20
-38.9727
 10
-387.3774
 20
-38.1412
 10
-387.7474
 20
-37.3636
 10
-388.1595
 20
-36.6209
 10
-388.6188
 20
-35.8941
 10
-389.1306
 20
-35.1644
 10
-389.6998
 20
-34.4129
 10
-389.8385
 20
-34.244
 10
-389.9827
 20
-34.0843
 10
-390.132
 20
-33.9322
 10
-390.2861
 20
-33.7861
 10
-390.6071
 20
-33.5059
 10
-390.9427
 20
-33.2313
 10
-391.1218
 20
-33.0961
 10
-391.3045
 20
-32.9721
 10
-391.4921
 20
-32.8512
 10
-391.6859
 20
-32.7248
 10
-391.9131
 20
-32.5809
 10
-392.0678
 20
-32.4959
 10
-392.1655
 20
-32.4518
 10
-392.222
 20
-32.4305
 10
-392.253
 20
-32.4141
 10
-392.2742
 20
-32.3845
 10
-392.3014
 20
-32.3236
 10
-392.3501
 20
-32.2135
 10
-393.1985
 20
-30.6391
 10
-393.4538
 20
-30.2248
 10
-393.6974
 20
-29.8493
 10
-393.9344
 20
-29.5015
 10
-394.1701
 20
-29.1705
 10
-394.4094
 20
-28.8453
 10
-394.6576
 20
-28.5149
 10
-394.9196
 20
-28.1684
 10
-395.2008
 20
-27.7948
 10
-396.3127
 20
-26.4828
 10
-396.7909
 20
-26.0065
 10
-397.2425
 20
-25.5545
 10
-397.6845
 20
-25.1249
 10
-398.1339
 20
-24.7155
 10
-398.6076
 20
-24.3244
 10
-399.1226
 20
-23.9493
 10
-399.6958
 20
-23.5884
 10
-400.3442
 20
-23.2395
 10
-400.659
 20
-23.0876
 10
-400.9068
 20
-22.9768
 10
-401.1073
 20
-22.896
 10
-401.2799
 20
-22.8339
 10
-401.4441
 20
-22.7794
 10
-401.6194
 20
-22.7213
 10
-401.8254
 20
-22.6486
 10
-402.0816
 20
-22.55
 10
-402.3028
 20
-22.4557
 10
-402.5065
 20
-22.3619
 10
-402.7154
 20
-22.2674
 10
-402.9521
 20
-22.1709
 10
-403.8294
 20
-21.8715
 10
-404.0575
 20
-21.8075
 10
-404.2841
 20
-21.7492
 10
-404.5117
 20
-21.6972
 10
-404.7428
 20
-21.6522
 10
-404.9799
 20
-21.6148
 10
-405.2254
 20
-21.5854
 10
-405.4818
 20
-21.5648
 10
-405.7517
 20
-21.5535
 10
-405.9627
 20
-21.5535
 10
-410.3705
 20
-21.9803
 10
-410.9035
 20
-22.0359
 10
-411.4778
 20
-22.0888
 10
-412.0758
 20
-22.1399
 10
-412.6799
 20
-22.1903
 10
-413.2724
 20
-22.2409
 10
-413.8359
 20
-22.2925
 10
-414.3526
 20
-22.3461
 10
-414.8051
 20
-22.4027
 10
-415.0924
 20
-22.4362
 10
-415.3943
 20
-22.4622
 10
-415.689
 20
-22.4839
 10
-415.9546
 20
-22.5047
 10
-417.0458
 20
-22.5912
 10
-417.3063
 20
-22.6197
 10
-417.5773
 20
-22.6506
 10
-417.8558
 20
-22.6825
 10
-418.1392
 20
-22.7138
 10
-418.4247
 20
-22.7427
 10
-418.7094
 20
-22.7678
 10
-418.9905
 20
-22.7874
 10
-419.2653
 20
-22.8
 10
-425.953
 20
-23.3988
 10
-427.3607
 20
-23.539
 10
-428.773
 20
-23.6627
 10
-430.1879
 20
-23.7736
 10
-431.6032
 20
-23.8756
 10
-433.0168
 20
-23.9724
 10
-434.4265
 20
-24.0679
 10
-435.8302
 20
-24.1658
 10
-437.2257
 20
-24.27
 10
-439.5104
 20
-24.4142
 10
-439.8541
 20
-24.4171
 10
-440.1507
 20
-24.4296
 10
-440.4126
 20
-24.4521
 10
-440.6521
 20
-24.4847
 10
-440.8815
 20
-24.5277
 10
-441.113
 20
-24.5813
 10
-441.359
 20
-24.6457
 10
-441.6317
 20
-24.7212
 10
-441.9453
 20
-24.8187
 10
-442.2161
 20
-24.9185
 10
-442.4522
 20
-25.0141
 10
-442.6616
 20
-25.0993
 10
-442.8526
 20
-25.1675
 10
-443.0332
 20
-25.2125
 10
-443.2114
 20
-25.2278
 10
-443.3954
 20
-25.2071
 10
-443.6316
 20
-25.1614
 10
-443.8921
 20
-25.1211
 10
-444.1716
 20
-25.0882
 10
-444.4647
 20
-25.0646
 10
-444.7661
 20
-25.0521
 10
-445.0705
 20
-25.0528
 10
-445.3726
 20
-25.0686
 10
-445.667
 20
-25.1013
 10
-446.0821
 20
-25.168
 10
-446.5562
 20
-25.2579
 10
-447.0657
 20
-25.3701
 10
-447.5864
 20
-25.5039
 10
-448.0945
 20
-25.6585
 10
-448.5661
 20
-25.8329
 10
-448.9772
 20
-26.0265
 10
-449.304
 20
-26.2383
 10
-449.5966
 20
-26.3608
 10
-449.9719
 20
-26.5771
 10
-450.3999
 20
-26.8605
 10
-450.8501
 20
-27.1844
 10
-451.2924
 20
-27.5221
 10
-451.6964
 20
-27.847
 10
-452.0318
 20
-28.1323
 10
-452.2685
 20
-28.3515
 10
-453.2606
 20
-29.416
 10
-453.4933
 20
-29.6665
 10
-453.7678
 20
-29.9974
 10
-454.0679
 20
-30.3838
 10
-454.3773
 20
-30.8012
 10
-454.6798
 20
-31.2248
 10
-454.9594
 20
-31.63
 10
-455.1996
 20
-31.9921
 10
-455.3843
 20
-32.2863
 10
-456.4693
 20
-34.2113
 10
-456.5537
 20
-34.3719
 10
-456.6274
 20
-34.5292
 10
-456.6986
 20
-34.6896
 10
-456.7755
 20
-34.8596
 10
-457.1708
 20
-35.7519
 10
-457.5439
 20
-36.68
 10
-457.8919
 20
-37.6356
 10
-458.2121
 20
-38.6102
 10
-458.5018
 20
-39.5952
 10
-458.7581
 20
-40.5822
 10
-458.9784
 20
-41.5628
 10
-459.1599
 20
-42.5284
 10
-459.5025
 20
-45.0544
 10
-459.6665
 20
-47.4952
 10
-459.6594
 20
-49.8737
 10
-459.4887
 20
-52.2131
 10
-459.1618
 20
-54.5366
 10
-458.6863
 20
-56.8672
 10
-458.0697
 20
-59.228
 10
-457.3194
 20
-61.6422
 10
-457.1865
 20
-62.0216
 10
-457.0442
 20
-62.3971
 10
-456.8974
 20
-62.7669
 10
-456.751
 20
-63.129
 10
-456.5394
 20
-63.6377
 10
-456.3158
 20
-64.1469
 10
-456.081
 20
-64.6546
 10
-455.8362
 20
-65.1587
 10
-455.5822
 20
-65.6572
 10
-455.3201
 20
-66.1482
 10
-455.0508
 20
-66.6295
 10
-454.7753
 20
-67.0992
 10
-453.1092
 20
-69.4724
 10
-452.905
 20
-69.7211
 10
-452.6756
 20
-69.9933
 10
-452.4275
 20
-70.2775
 10
-452.1672
 20
-70.5622
 10
-451.9013
 20
-70.8358
 10
-451.6363
 20
-71.0868
 10
-451.3786
 20
-71.3036
 10
-451.1349
 20
-71.4746
 10
-451.0854
 20
-71.5487
 10
-451.0297
 20
-71.6157
 10
-450.9684
 20
-71.6773
 10
-450.9023
 20
-71.7352
 10
-450.759
 20
-71.8469
 10
-450.6058
 20
-71.9646
 10
-450.1125
 20
-72.3448
 10
-449.6074
 20
-72.7002
 10
-449.0888
 20
-73.0304
 10
-448.5553
 20
-73.335
 10
-448.0051
 20
-73.6134
 10
-447.4367
 20
-73.8652
 10
-446.8484
 20
-74.0898
 10
-446.2388
 20
-74.2869
 10
-446.0333
 20
-74.3463
 10
-445.8368
 20
-74.4004
 10
-445.6454
 20
-74.45
 10
-445.4549
 20
-74.4958
 10
-445.2615
 20
-74.5388
 10
-445.0611
 20
-74.5796
 10
-444.8497
 20
-74.6191
 10
-444.6234
 20
-74.6581
 10
-443.9175
 20
-74.7653
 10
-443.3886
 20
-74.8252
 10
-442.9852
 20
-74.848
 10
-442.6562
 20
-74.8444
 10
-442.3502
 20
-74.8247
 10
-442.0159
 20
-74.7994
 10
-441.6021
 20
-74.779
 10
-441.0575
 20
-74.7739
 10
-440.7858
 20
-74.7669
 10
-440.584
 20
-74.7457
 10
-440.3981
 20
-74.7198
 10
-440.1743
 20
-74.6987
 10
-440.0214
 20
-74.6935
 10
-439.8889
 20
-74.6963
 10
-439.7712
 20
-74.7053
 10
-439.663
 20
-74.7184
 10
-439.4537
 20
-74.7493
 10
-439.218
 20
-74.7732
 10
-438.9892
 20
-74.796
 10
-438.7331
 20
-74.8389
 10
-438.4632
 20
-74.887
 10
-438.1927
 20
-74.9256
 10
-437.9407
 20
-74.9583
 10
-437.6949
 20
-74.9981
 10
-437.4443
 20
-75.0423
 10
-437.1777
 20
-75.088
 10
-436.5511
 20
-75.1802
 10
-435.9779
 20
-75.2532
 10
-435.4545
 20
-75.3237
 10
-434.9772
 20
-75.4083
 10
-434.5425
 20
-75.5236
 10
-434.1466
 20
-75.6865
 10
-433.786
 20
-75.9134
 10
-433.457
 20
-76.2212
 10
-433.1873
 20
-76.5694
 10
-432.9467
 20
-76.9676
 10
-432.7371
 20
-77.4042
 10
-432.5603
 20
-77.8676
 10
-432.4184
 20
-78.346
 10
-432.3131
 20
-78.8278
 10
-432.2465
 20
-79.3014
 10
-432.2203
 20
-79.755
 10
-432.1492
 20
-82.0302
 10
-432.126
 20
-82.6012
 10
-432.1151
 20
-83.1906
 10
-432.1137
 20
-83.7928
 10
-432.119
 20
-84.402
 10
-432.1281
 20
-85.0125
 10
-432.1381
 20
-85.6188
 10
-432.1463
 20
-86.2149
 10
-432.1496
 20
-86.7954
 10
-432.1464
 20
-87.4058
 10
-432.1381
 20
-87.9988
 10
-432.1263
 20
-88.5798
 10
-432.1129
 20
-89.154
 10
-432.0994
 20
-89.7265
 10
-432.0876
 20
-90.3027
 10
-432.0793
 20
-90.8878
 10
-432.0761
 20
-91.487
 10
-432.0761
 20
-96.2518
 10
-432.0729
 20
-96.8598
 10
-432.0646
 20
-97.4499
 10
-432.0527
 20
-98.0281
 10
-432.0392
 20
-98.6
 10
-432.0257
 20
-99.1717
 10
-432.0138
 20
-99.7488
 10
-432.0055
 20
-100.3374
 10
-432.0023
 20
-100.9431
 10
-432.0043
 20
-101.534
 10
-432.0093
 20
-102.1301
 10
-432.0154
 20
-102.7296
 10
-432.0211
 20
-103.3306
 10
-432.0246
 20
-103.9311
 10
-432.0241
 20
-104.5291
 10
-432.0181
 20
-105.1228
 10
-432.0047
 20
-105.7103
 10
-431.9875
 20
-105.9945
 10
-431.9615
 20
-106.2585
 10
-431.938
 20
-106.541
 10
-431.9285
 20
-106.8806
 10
-431.9338
 20
-107.7105
 10
-431.9424
 20
-108.7864
 10
-431.9508
 20
-110.0139
 10
-431.9559
 20
-111.2982
 10
-431.9542
 20
-112.5447
 10
-431.9424
 20
-113.6588
 10
-431.9173
 20
-114.5458
 10
-431.8754
 20
-115.1111
 10
-431.8294
 20
-115.5909
 10
-431.8059
 20
-116.1558
 10
-431.7999
 20
-116.7794
 10
-431.8063
 20
-117.4354
 10
-431.82
 20
-118.0974
 10
-431.8362
 20
-118.7391
 10
-431.8495
 20
-119.3341
 10
-431.8551
 20
-119.856
 10
-431.8519
 20
-120.4664
 10
-431.8436
 20
-121.0607
 10
-431.8318
 20
-121.6435
 10
-431.8184
 20
-122.2194
 10
-431.8049
 20
-122.7931
 10
-431.7931
 20
-123.3693
 10
-431.7848
 20
-123.9524
 10
-431.7816
 20
-124.5473
 10
-431.7816
 20
-129.3125
 10
-431.7784
 20
-129.9153
 10
-431.7701
 20
-130.5021
 10
-431.7582
 20
-131.0786
 10
-431.7447
 20
-131.6504
 10
-431.7312
 20
-132.2232
 10
-431.7193
 20
-132.8025
 10
-431.711
 20
-133.3942
 10
-431.7078
 20
-134.0038
 10
-431.7078
 20
-138.7686
 10
-431.7046
 20
-139.3588
 10
-431.6963
 20
-139.9402
 10
-431.6845
 20
-140.5167
 10
-431.6711
 20
-141.0921
 10
-431.6576
 20
-141.6703
 10
-431.6458
 20
-142.2551
 10
-431.6375
 20
-142.8505
 10
-431.6343
 20
-143.4602
 10
-431.628
 20
-145.8332
 10
-431.6113
 20
-148.2057
 10
-431.5877
 20
-150.5779
 10
-431.5607
 20
-152.9502
 10
-431.5337
 20
-155.3229
 10
-431.5101
 20
-157.6963
 10
-431.4934
 20
-160.0706
 10
-431.4871
 20
-162.4462
 10
-431.4839
 20
-163.0552
 10
-431.4756
 20
-163.6462
 10
-431.4637
 20
-164.2249
 10
-431.4502
 20
-164.7972
 10
-431.4367
 20
-165.3689
 10
-431.4248
 20
-165.9457
 10
-431.4165
 20
-166.5334
 10
-431.4133
 20
-167.1379
 10
-431.4133
 20
-171.9027
 10
-431.4101
 20
-172.5085
 10
-431.4018
 20
-173.0971
 10
-431.39
 20
-173.6743
 10
-431.3766
 20
-174.246
 10
-431.3631
 20
-174.8179
 10
-431.3513
 20
-175.3961
 10
-431.343
 20
-175.9862
 10
-431.3398
 20
-176.5943
 10
-431.3398
 20
-181.3591
 10
-431.3366
 20
-181.9517
 10
-431.3283
 20
-182.534
 10
-431.3164
 20
-183.1102
 10
-431.3029
 20
-183.6847
 10
-431.2894
 20
-184.2617
 10
-431.2775
 20
-184.8454
 10
-431.2692
 20
-185.4403
 10
-431.266
 20
-186.0504
 10
-431.2716
 20
-186.5723
 10
-431.285
 20
-187.1673
 10
-431.3011
 20
-187.809
 10
-431.315
 20
-188.471
 10
-431.3215
 20
-189.1271
 10
-431.3155
 20
-189.7507
 10
-431.292
 20
-190.3156
 10
-431.246
 20
-190.7953
 10
-431.2028
 20
-191.4321
 10
-431.1776
 20
-192.4814
 10
-431.1665
 20
-193.8152
 10
-431.1659
 20
-195.3056
 10
-431.1719
 20
-196.8244
 10
-431.1809
 20
-198.2437
 10
-431.1891
 20
-199.4355
 10
-431.1926
 20
-200.2717
 10
-431.1894
 20
-200.5899
 10
-431.1811
 20
-200.8882
 10
-431.1693
 20
-201.173
 10
-431.1557
 20
-201.4507
 10
-431.1422
 20
-201.7276
 10
-431.1305
 20
-202.0102
 10
-431.1222
 20
-202.3048
 10
-431.1191
 20
-202.6177
 10
-431.1234
 20
-203.3816
 10
-431.1336
 20
-204.2987
 10
-431.1461
 20
-205.3101
 10
-431.1573
 20
-206.357
 10
-431.1634
 20
-207.3807
 10
-431.1608
 20
-208.3224
 10
-431.1459
 20
-209.1232
 10
-431.115
 20
-209.7243
 10
-431.0907
 20
-210.1073
 10
-431.0801
 20
-210.4384
 10
-431.0742
 20
-210.7262
 10
-431.0638
 20
-210.9798
 10
-431.0399
 20
-211.2078
 10
-430.9935
 20
-211.419
 10
-430.9155
 20
-211.6223
 10
-430.7967
 20
-211.8265
 10
-430.3747
 20
-212.3539
 10
-429.8946
 20
-212.8019
 10
-429.3633
 20
-213.18
 10
-428.788
 20
-213.4973
 10
-428.1755
 20
-213.7633
 10
-427.533
 20
-213.9872
 10
-426.8676
 20
-214.1784
 10
-426.1861
 20
-214.3463
 10
-426.2652
 20
-214.6435
 10
-426.3676
 20
-215.0316
 10
-426.413
 20
-215.2307
 10
-426.4467
 20
-215.4177
 10
-426.4628
 20
-215.5808
 10
-426.4555
 20
-215.7085
 10
-426.4098
 20
-215.8773
 10
-426.3506
 20
-216.0235
 10
-426.2868
 20
-216.1553
 10
-426.2273
 20
-216.2808
 10
-426.1807
 20
-216.4084
 10
-426.1559
 20
-216.546
 10
-426.1617
 20
-216.702
 10
-426.2068
 20
-216.8846
 10
-426.3331
 20
-217.201
 10
-426.4472
 20
-217.476
 10
-426.4883
 20
-217.6127
 10
-426.5126
 20
-217.7567
 10
-426.5158
 20
-217.914
 10
-426.4931
 20
-218.0905
 10
-426.4271
 20
-218.3805
 10
-426.3622
 20
-218.5943
 10
-426.2992
 20
-218.7493
 10
-426.2387
 20
-218.8631
 10
-426.1817
 20
-218.9533
 10
-426.1288
 20
-219.0375
 10
-426.081
 20
-219.1331
 10
-426.0389
 20
-219.2577
 10
-426.3526
 20
-219.5481
 10
-426.4944
 20
-219.8658
 10
-426.4945
 20
-220.1998
 10
-426.3831
 20
-220.5393
 10
-426.1905
 20
-220.8731
 10
-425.9469
 20
-221.1903
 10
-425.6825
 20
-221.4801
 10
-425.4274
 20
-221.7314
 10
-425.2501
 20
-221.91
 10
-425.2046
 20
-222.046
 10
-425.1869
 20
-222.2317
 10
-425.172
 20
-222.4642
 10
-425.1345
 20
-222.7406
 10
-425.0493
 20
-223.0579
 10
-424.8912
 20
-223.4133
 10
-424.6351
 20
-223.8038
 10
-424.2556
 20
-224.2265
 10
-423.5344
 20
-224.8018
 10
-422.6734
 20
-225.2781
 10
-421.6941
 20
-225.6636
 10
-420.6177
 20
-225.9665
 10
-419.4657
 20
-226.1949
 10
-418.2595
 20
-226.357
 10
-417.0205
 20
-226.461
 10
-415.7701
 20
-226.5151
 10
-413.6488
 20
-226.5151
 10
-413.1199
 20
-226.5
 10
-412.6022
 20
-226.4802
 10
-412.0975
 20
-226.4563
 10
-411.6077
 20
-226.4292
 10
-411.1347
 20
-226.3994
 10
-410.6804
 20
-226.3677
 10
-410.2466
 20
-226.3349
 10
-409.8353
 20
-226.3015
 10
-409.2028
 20
-226.2325
 10
-408.5311
 20
-226.1301
 10
-407.8371
 20
-225.9996
 10
-407.1377
 20
-225.8463
 10
-406.4498
 20
-225.6756
 10
-405.7905
 20
-225.4927
 10
-405.1766
 20
-225.303
 10
-404.625
 20
-225.1117
 10
-404.3923
 20
-225.0236
 10
-404.1664
 20
-224.933
 10
-403.9461
 20
-224.8389
 10
-403.7303
 20
-224.74
 10
-403.518
 20
-224.6351
 10
-403.308
 20
-224.5231
 10
-403.0993
 20
-224.4029
 10
-402.8907
 20
-224.2732
 10
-402.3724
 20
-223.902
 10
-402.0318
 20
-223.5822
 10
-401.8256
 20
-223.2999
 10
-401.7107
 20
-223.0413
 10
-401.644
 20
-222.7928
 10
-401.5825
 20
-222.5404
 10
-401.4829
 20
-222.2706
 10
-401.3022
 20
-221.9694
 10
-401.178
 20
-221.7963
 10
-401.048
 20
-221.6064
 10
-400.9218
 20
-221.4092
 10
-400.809
 20
-221.2143
 10
-400.6931
 20
-220.9696
 10
-400.6017
 20
-220.7077
 10
-400.5425
 20
-220.4414
 10
-400.5235
 20
-220.1829
 10
-400.5526
 20
-219.9448
 10
-400.6376
 20
-219.7396
 10
-400.7864
 20
-219.5798
 10
-401.007
 20
-219.4778
 10
-400.9386
 20
-219.2294
 10
-400.8654
 20
-219.0231
 10
-400.7916
 20
-218.8407
 10
-400.7216
 20
-218.6637
 10
-400.6596
 20
-218.474
 10
-400.61
 20
-218.2532
 10
-400.5771
 20
-217.983
 10
-400.5652
 20
-217.6452
 10
-400.7096
 20
-217.5461
 10
-400.8536
 20
-217.4579
 10
-400.9322
 20
-217.4208
 10
-401.019
 20
-217.3899
 10
-401.1166
 20
-217.3666
 10
-401.2277
 20
-217.3519
 10
-401.1829
 20
-217.2247
 10
-401.1267
 20
-217.1198
 10
-401.062
 20
-217.0245
 10
-400.9917
 20
-216.926
 10
-400.9188
 20
-216.8117
 10
-400.846
 20
-216.6689
 10
-400.7764
 20
-216.4848
 10
-400.7128
 20
-216.2469
 10
-400.6726
 20
-216.0083
 10
-400.665
 20
-215.8116
 10
-400.6846
 20
-215.6492
 10
-400.7262
 20
-215.5133
 10
-400.7845
 20
-215.396
 10
-400.8542
 20
-215.2898
 10
-400.9302
 20
-215.1869
 10
-401.007
 20
-215.0794
 10
-400.9604
 20
-214.9729
 10
-400.9054
 20
-214.8301
 10
-400.8466
 20
-214.6621
 10
-400.7888
 20
-214.48
 10
-400.7364
 20
-214.295
 10
-400.6942
 20
-214.1181
 10
-400.6667
 20
-213.9605
 10
-400.6587
 20
-213.8333
 10
-400.3919
 20
-213.7791
 10
-400.1302
 20
-213.7265
 10
-399.8721
 20
-213.6744
 10
-399.6164
 20
-213.6215
 10
-399.3619
 20
-213.5666
 10
-399.1073
 20
-213.5086
 10
-398.8513
 20
-213.4462
 10
-398.5926
 20
-213.3783
 10
-397.6294
 20
-213.0912
 10
-397.4024
 20
-213.0216
 10
-397.1591
 20
-212.9462
 10
-397.0401
 20
-212.9031
 10
-396.9277
 20
-212.8547
 10
-396.8254
 20
-212.7997
 10
-396.7368
 20
-212.7368
 10
-396.6198
 20
-212.7203
 10
-396.5332
 20
-212.6966
 10
-396.4701
 20
-212.6643
 10
-396.4237
 20
-212.6219
 10
-396.3539
 20
-212.5004
 10
-396.2689
 20
-212.32
 10
-396.1789
 20
-212.1693
 10
-396.0833
 20
-212.0282
 10
-396.0389
 20
-211.9602
 10
-395.9998
 20
-211.8934
 10
-395.9681
 20
-211.8273
 10
-395.9461
 20
-211.7616
 10
-395.8896
 20
-211.352
 10
-395.8648
 20
-210.7673
 10
-395.8618
 20
-210.0612
 10
-395.871
 20
-209.2877
 10
-395.8824
 20
-208.5005
 10
-395.8865
 20
-207.7536
 10
-395.8734
 20
-207.1009
 10
-395.8333
 20
-206.5961
 10
-395.706
 20
-199.7586
 10
-395.7025
 20
-198.8793
 10
-395.6934
 20
-198.0164
 10
-395.6807
 20
-197.1642
 10
-395.6664
 20
-196.3171
 10
-395.6526
 20
-195.4694
 10
-395.6413
 20
-194.6155
 10
-395.6345
 20
-193.7497
 10
-395.6343
 20
-192.8663
 10
-395.6317
 20
-192.657
 10
-395.6234
 20
-192.4548
 10
-395.6113
 20
-192.256
 10
-395.5973
 20
-192.0568
 10
-395.5832
 20
-191.8536
 10
-395.5709
 20
-191.6425
 10
-395.5621
 20
-191.4199
 10
-395.5588
 20
-191.182
 10
-395.5598
 20
-187.6623
 10
-395.5576
 20
-187.4498
 10
-395.5495
 20
-187.2521
 10
-395.5375
 20
-187.0632
 10
-395.5235
 20
-186.8775
 10
-395.5094
 20
-186.6892
 10
-395.497
 20
-186.4925
 10
-395.4884
 20
-186.2816
 10
-395.4853
 20
-186.0508
 10
-395.4829
 20
-185.1711
 10
-395.475
 20
-184.308
 10
-395.4632
 20
-183.4558
 10
-395.4495
 20
-182.6087
 10
-395.4356
 20
-181.7613
 10
-395.4234
 20
-180.9077
 10
-395.4148
 20
-180.0424
 10
-395.4115
 20
-179.1597
 10
-395.3381
 20
-173.9551
 10
-395.3402
 20
-173.7379
 10
-395.3438
 20
-173.5131
 10
-395.3446
 20
-173.2894
 10
-395.3384
 20
-173.0753
 10
-395.3195
 20
-172.8768
 10
-395.2949
 20
-172.7298
 10
-395.2729
 20
-172.573
 10
-395.2615
 20
-172.3453
 10
-395.2576
 20
-171.9059
 10
-395.2564
 20
-171.4657
 10
-395.2572
 20
-171.025
 10
-395.2593
 20
-170.5839
 10
-395.2621
 20
-170.1427
 10
-395.2647
 20
-169.7018
 10
-395.2666
 20
-169.2613
 10
-395.267
 20
-168.8215
 10
-395.117
 20
-162.0064
 10
-395.1176
 20
-161.5745
 10
-395.1184
 20
-161.1406
 10
-395.1178
 20
-160.7073
 10
-395.1146
 20
-160.2769
 10
-395.1074
 20
-159.8516
 10
-395.0946
 20
-159.4339
 10
-395.0751
 20
-159.0261
 10
-395.0473
 20
-158.6306
 10
-395.0227
 20
-158.229
 10
-395.0108
 20
-157.7991
 10
-395.0087
 20
-157.3496
 10
-395.0135
 20
-156.8894
 10
-395.0223
 20
-156.4271
 10
-395.0321
 20
-155.9715
 10
-395.0402
 20
-155.5315
 10
-395.0435
 20
-155.1157
 10
-395.0403
 20
-154.6769
 10
-395.032
 20
-154.2549
 10
-395.0201
 20
-153.8437
 10
-395.0066
 20
-153.4374
 10
-394.9931
 20
-153.0302
 10
-394.9812
 20
-152.6161
 10
-394.9729
 20
-152.1893
 10
-394.9697
 20
-151.7437
 10
-394.9668
 20
-150.875
 10
-394.9591
 20
-150.0168
 10
-394.9482
 20
-149.1649
 10
-394.9355
 20
-148.315
 10
-394.9227
 20
-147.4629
 10
-394.9113
 20
-146.6043
 10
-394.9028
 20
-145.7349
 10
-394.8987
 20
-144.8506
 10
-394.749
 20
-138.0358
 10
-394.7459
 20
-137.1591
 10
-394.7376
 20
-136.2976
 10
-394.7258
 20
-135.4459
 10
-394.7123
 20
-134.5986
 10
-394.6987
 20
-133.7502
 10
-394.6868
 20
-132.8954
 10
-394.6784
 20
-132.0289
 10
-394.6752
 20
-131.1451
 10
-394.6035
 20
-125.9387
 10
-394.6009
 20
-125.7352
 10
-394.5927
 20
-125.541
 10
-394.5806
 20
-125.3518
 10
-394.5665
 20
-125.1633
 10
-394.5523
 20
-124.9709
 10
-394.54
 20
-124.7704
 10
-394.5312
 20
-124.5574
 10
-394.528
 20
-124.3276
 10
-394.5223
 20
-122.8103
 10
-394.506
 20
-121.2937
 10
-394.4824
 20
-119.7781
 10
-394.4551
 20
-118.264
 10
-394.4278
 20
-116.752
 10
-394.4039
 20
-115.2423
 10
-394.387
 20
-113.7356
 10
-394.3807
 20
-112.2322
 10
-394.3045
 20
-110.6224
 10
-394.3004
 20
-110.1836
 10
-394.2986
 20
-109.7437
 10
-394.2988
 20
-109.3032
 10
-394.3002
 20
-108.8622
 10
-394.3023
 20
-108.4211
 10
-394.3046
 20
-107.9803
 10
-394.3065
 20
-107.5401
 10
-394.3073
 20
-107.1007
 10
-394.302
 20
-106.407
 10
-394.2875
 20
-105.7125
 10
-394.2664
 20
-105.0173
 10
-394.2414
 20
-104.3218
 10
-394.2151
 20
-103.6259
 10
-394.1902
 20
-102.9299
 10
-394.1694
 20
-102.234
 10
-394.1552
 20
-101.5382
 10
-392.0839
 20
-104.8324
 10
-389.6519
 20
-106.96
 10
-387.0556
 20
-108.0177
 10
-384.4911
 20
-108.1021
 10
-382.1549
 20
-107.3098
 10
-380.2431
 20
-105.7375
 10
-378.9521
 20
-103.4817
 10
-378.4782
 20
-100.6392
  0
LWPOLYLINE
  5
62
330
1F
100
AcDbEntity
  8
Layer 1
 62
     7
370
     9
100
AcDbPolyline
 90
      142
 70
     1
 43
0.0
 10
-438.1927
 20
-74.9256
 10
-438.4632
 20
-74.887
 10
-438.7331
 20
-74.8389
 10
-438.9892
 20
-74.796
 10
-439.218
 20
-74.7732
 10
-439.4537
 20
-74.7493
 10
-439.663
 20
-74.7184
 10
-439.7712
 20
-74.7053
 10
-439.8889
 20
-74.6963
 10
-440.0214
 20
-74.6935
 10
-440.1743
 20
-74.6987
 10
-440.3981
 20
-74.7198
 10
-440.584
 20
-74.7457
 10
-440.7858
 20
-74.7669
 10
-441.0575
 20
-74.7739
 10
-441.6021
 20
-74.779
 10
-442.0159
 20
-74.7994
 10
-442.3502
 20
-74.8247
 10
-442.6562
 20
-74.8444
 10
-442.9852
 20
-74.848
 10
-443.3886
 20
-74.8252
 10
-443.9175
 20
-74.7653
 10
-444.6234
 20
-74.6581
 10
-444.8497
 20
-74.6191
 10
-445.0611
 20
-74.5796
 10
-445.2615
 20
-74.5388
 10
-445.4549
 20
-74.4958
 10
-445.6454
 20
-74.45
 10
-445.8368
 20
-74.4004
 10
-446.0333
 20
-74.3463
 10
-446.2388
 20
-74.2869
 10
-446.8484
 20
-74.0898
 10
-447.4367
 20
-73.8652
 10
-448.0051
 20
-73.6134
 10
-448.5553
 20
-73.335
 10
-449.0888
 20
-73.0304
 10
-449.6074
 20
-72.7002
 10
-450.1125
 20
-72.3448
 10
-450.6058
 20
-71.9646
 10
-450.759
 20
-71.8469
 10
-450.9023
 20
-71.7352
 10
-450.9684
 20
-71.6773
 10
-451.0297
 20
-71.6157
 10
-451.0854
 20
-71.5487
 10
-451.1349
 20
-71.4746
 10
-451.3786
 20
-71.3036
 10
-451.6363
 20
-71.0868
 10
-451.9013
 20
-70.8358
 10
-452.1672
 20
-70.5622
 10
-452.4275
 20
-70.2775
 10
-452.6756
 20
-69.9933
 10
-452.905
 20
-69.7211
 10
-453.1092
 20
-69.4724
 10
-454.7753
 20
-67.0992
 10
-455.0508
 20
-66.6295
 10
-455.3201
 20
-66.1482
 10
-455.5822
 20
-65.6572
 10
-455.8362
 20
-65.1587
 10
-456.081
 20
-64.6546
 10
-456.3158
 20
-64.1469
 10
-456.5394
 20
-63.6377
 10
-456.751
 20
-63.129
 10
-456.8974
 20
-62.7669
 10
-457.0442
 20
-62.3971
 10
-457.1865
 20
-62.0216
 10
-457.3194
 20
-61.6422
 10
-458.0697
 20
-59.228
 10
-458.6863
 20
-56.8672
 10
-459.1618
 20
-54.5366
 10
-459.4887
 20
-52.2131
 10
-459.6594
 20
-49.8737
 10
-459.6665
 20
-47.4952
 10
-459.5025
 20
-45.0544
 10
-459.1599
 20
-42.5284
 10
-458.9784
 20
-41.5628
 10
-458.7581
 20
-40.5822
 10
-458.5018
 20
-39.5952
 10
-458.2121
 20
-38.6102
 10
-457.8919
 20
-37.6356
 10
-457.5439
 20
-36.68
 10
-457.1708
 20
-35.7519
 10
-456.7755
 20
-34.8596
 10
-456.6986
 20
-34.6896
 10
-456.6274
 20
-34.5292
 10
-456.5537
 20
-34.3719
 10
-456.4693
 20
-34.2113
 10
-455.3843
 20
-32.2863
 10
-455.1996
 20
-31.9921
 10
-454.9594
 20
-31.63
 10
-454.6798
 20
-31.2248
 10
-454.3773
 20
-30.8012
 10
-454.0679
 20
-30.3838
 10
-453.7678
 20
-29.9974
 10
-453.4933
 20
-29.6665
 10
-453.2606
 20
-29.416
 10
-452.2685
 20
-28.3515
 10
-452.0318
 20
-28.1323
 10
-451.6964
 20
-27.847
 10
-451.2924
 20
-27.5221
 10
-450.8501
 20
-27.1844
 10
-450.3999
 20
-26.8605
 10
-449.9719
 20
-26.5771
 10
-449.5966
 20
-26.3608
 10
-449.304
 20
-26.2383
 10
-448.9772
 20
-26.0265
 10
-448.5661
 20
-25.8329
 10
-448.0945
 20
-25.6585
 10
-447.5864
 20
-25.5039
 10
-447.0657
 20
-25.3701
 10
-446.5562
 20
-25.2579
 10
-446.0821
 20
-25.168
 10
-445.667
 20
-25.1013
 10
-445.3726
 20
-25.0686
 10
-445.0705
 20
-25.0528
 10
-444.7661
 20
-25.0521
 10
-444.4647
 20
-25.0646
 10
-444.1716
 20
-25.0882
 10
-443.8921
 20
-25.1211
 10
-443.6316
 20
-25.1614
 10
-443.3954
 20
-25.2071
 10
-443.2845
 20
-25.2241
 10
-443.1768
 20
-25.2274
 10
-443.0706
 20
-25.2183
 10
-442.9642
 20
-25.1982
 10
-442.7439
 20
-25.1303
 10
-442.5021
 20
-25.0347
 10
-436.6788
 20
-25.6341
 10
-432.0485
 20
-28.4194
 10
-428.5471
 20
-32.8843
 10
-426.1106
 20
-38.5226
 10
-424.6751
 20
-44.8278
 10
-424.1766
 20
-51.2937
 10
-424.5511
 20
-57.414
 10
-425.7347
 20
-62.6823
 10
-426.595
 20
-64.9212
 10
-427.6398
 20
-67.0196
 10
-428.8765
 20
-68.9467
 10
-430.3122
 20
-70.6713
 10
-431.9544
 20
-72.1624
 10
-433.8103
 20
-73.3892
 10
-435.8873
 20
-74.3206
 10
-438.1927
 20
-74.9256
  0
LWPOLYLINE
  5
63
330
1F
100
AcDbEntity
  8
Layer 1
 62
     7
370
     9
100
AcDbPolyline
 90
       99
 70
     1
 43
0.0
 10
-443.5254
 20
-74.8123
 10
-444.6234
 20
-74.6581
 10
-444.8497
 20
-74.6191
 10
-445.0611
 20
-74.5796
 10
-445.2615
 20
-74.5388
 10
-445.4549
 20
-74.4958
 10
-445.6454
 20
-74.45
 10
-445.8368
 20
-74.4004
 10
-446.0333
 20
-74.3463
 10
-446.2388
 20
-74.2869
 10
-446.8484
 20
-74.0898
 10
-447.4367
 20
-73.8652
 10
-448.0051
 20
-73.6134
 10
-448.5553
 20
-73.335
 10
-449.0888
 20
-73.0304
 10
-449.6074
 20
-72.7002
 10
-450.1125
 20
-72.3448
 10
-450.6058
 20
-71.9646
 10
-450.759
 20
-71.8469
 10
-450.9023
 20
-71.7352
 10
-450.9684
 20
-71.6773
 10
-451.0297
 20
-71.6157
 10
-451.0854
 20
-71.5487
 10
-451.1349
 20
-71.4746
 10
-451.3786
 20
-71.3036
 10
-451.6363
 20
-71.0868
 10
-451.9013
 20
-70.8358
 10
-452.1672
 20
-70.5622
 10
-452.4275
 20
-70.2775
 10
-452.6756
 20
-69.9933
 10
-452.905
 20
-69.7211
 10
-453.1092
 20
-69.4724
 10
-454.7753
 20
-67.0992
 10
-455.0508
 20
-66.6295
 10
-455.3201
 20
-66.1482
 10
-455.5822
 20
-65.6572
 10
-455.8362
 20
-65.1587
 10
-456.081
 20
-64.6546
 10
-456.3158
 20
-64.1469
 10
-456.5394
 20
-63.6377
 10
-456.751
 20
-63.129
 10
-456.8974
 20
-62.7669
 10
-457.0442
 20
-62.3971
 10
-457.1865
 20
-62.0216
 10
-457.3194
 20
-61.6422
 10
-458.0697
 20
-59.228
 10
-458.6863
 20
-56.8672
 10
-459.1618
 20
-54.5366
 10
-459.4887
 20
-52.2131
 10
-459.6594
 20
-49.8737
 10
-459.6665
 20
-47.4952
 10
-459.5025
 20
-45.0544
 10
-459.1599
 20
-42.5284
 10
-458.9784
 20
-41.5628
 10
-458.7581
 20
-40.5822
 10
-458.5018
 20
-39.5952
 10
-458.2121
 20
-38.6102
 10
-457.8919
 20
-37.6356
 10
-457.5439
 20
-36.68
 10
-457.1708
 20
-35.7519
 10
-456.7755
 20
-34.8596
 10
-456.6986
 20
-34.6896
 10
-456.6274
 20
-34.5292
 10
-456.5537
 20
-34.3719
 10
-456.4693
 20
-34.2113
 10
-455.3843
 20
-32.2863
 10
-455.1996
 20
-31.9921
 10
-454.9594
 20
-31.63
 10
-454.6798
 20
-31.2248
 10
-454.3773
 20
-30.8012
 10
-454.0679
 20
-30.3838
 10
-453.7678
 20
-29.9974
 10
-453.4933
 20
-29.6665
 10
-453.2606
 20
-29.416
 10
-452.2685
 20
-28.3515
 10
-452.0318
 20
-28.1323
 10
-451.6964
 20
-27.847
 10
-451.2924
 20
-27.5221
 10
-450.8501
 20
-27.1844
 10
-450.3999
 20
-26.8605
 10
-449.9719
 20
-26.5771
 10
-449.5966
 20
-26.3608
 10
-449.304
 20
-26.2383
 10
-449.1495
 20
-26.1281
 10
-448.97
 20
-26.0226
 10
-448.7688
 20
-25.9217
 10
-448.5489
 20
-25.8258
 10
-448.3135
 20
-25.7348
 10
-448.0659
 20
-25.6488
 10
-447.8092
 20
-25.5681
 10
-447.5465
 20
-25.4928
 10
-441.019
 20
-26.5815
 10
-435.8189
 20
-31.3677
 10
-432.1432
 20
-38.728
 10
-430.1889
 20
-47.5387
 10
-430.153
 20
-56.6761
 10
-432.2325
 20
-65.0166
 10
-436.6243
 20
-71.4365
 10
-443.5254
 20
-74.8123
  0
LWPOLYLINE
  5
64
330
1F
100
AcDbEntity
  8
Layer 1
 62
     7
370
     9
100
AcDbPolyline
 90
        9
 70
     0
 43
0.0
 10
-426.1861
 20
-214.3463
 10
-425.727
 20
-214.4882
 10
-424.3841
 20
-214.8284
 10
-422.2091
 20
-215.2382
 10
-419.2535
 20
-215.5892
 10
-415.5691
 20
-215.7527
 10
-411.2074
 20
-215.6002
 10
-406.22
 20
-215.0033
 10
-400.6587
 20
-213.8333
  0
LWPOLYLINE
  5
65
330
1F
100
AcDbEntity
  8
Layer 1
 62
     7
370
     9
100
AcDbPolyline
 90
        9
 70
     0
 43
0.0
 10
-426.2544
 20
-214.6038
 10
-423.8574
 20
-216.069
 10
-420.6818
 20
-217.0604
 10
-417.0083
 20
-217.6141
 10
-413.1181
 20
-217.7662
 10
-409.2919
 20
-217.5527
 10
-405.8107
 20
-217.0097
 10
-402.9554
 20
-216.1733
 10
-401.007
 20
-215.0794
  0
LWPOLYLINE
  5
66
330
1F
100
AcDbEntity
  8
Layer 1
 62
     7
370
     9
100
AcDbPolyline
 90
        9
 70
     0
 43
0.0
 10
-426.1565
 20
-216.6566
 10
-423.8505
 20
-218.207
 10
-420.524
 20
-219.1847
 10
-416.5714
 20
-219.6668
 10
-412.3874
 20
-219.7308
 10
-408.3665
 20
-219.454
 10
-404.9032
 20
-218.9137
 10
-402.3921
 20
-218.1872
 10
-401.2277
 20
-217.3519
  0
LWPOLYLINE
  5
67
330
1F
100
AcDbEntity
  8
Layer 1
 62
     7
370
     9
100
AcDbPolyline
 90
        9
 70
     0
 43
0.0
 10
-426.0389
 20
-219.2577
 10
-423.9699
 20
-220.5338
 10
-420.9967
 20
-221.4369
 10
-417.42
 20
-221.975
 10
-413.5404
 20
-222.1564
 10
-409.6587
 20
-221.9892
 10
-406.0754
 20
-221.4816
 10
-403.0913
 20
-220.6417
 10
-401.007
 20
-219.4778
  0
LWPOLYLINE
  5
68
330
1F
100
AcDbEntity
  8
Layer 1
 62
     7
370
     9
100
AcDbPolyline
 90
       25
 70
     0
 43
0.0
 10
-392.0598
 20
-32.4999
 10
-391.8662
 20
-32.957
 10
-391.3703
 20
-34.2619
 10
-390.6997
 20
-36.3146
 10
-389.9818
 20
-39.0155
 10
-389.3441
 20
-42.2647
 10
-388.9141
 20
-45.9624
 10
-388.8192
 20
-50.0088
 10
-389.187
 20
-54.3041
 10
-389.8203
 20
-58.2627
 10
-390.4256
 20
-61.4215
 10
-390.9854
 20
-63.8643
 10
-391.4824
 20
-65.675
 10
-391.8992
 20
-66.9373
 10
-392.2184
 20
-67.7352
 10
-392.4227
 20
-68.1525
 10
-392.4946
 20
-68.2729
 10
-392.5873
 20
-68.57
 10
-392.8272
 20
-69.5884
 10
-393.1571
 20
-71.5191
 10
-393.5199
 20
-74.5529
 10
-393.8583
 20
-78.8809
 10
-394.1151
 20
-84.6938
 10
-394.2331
 20
-92.1826
 10
-394.1552
 20
-101.5382
  0
LWPOLYLINE
  5
69
330
1F
100
AcDbEntity
  8
Layer 1
 62
     7
370
     9
100
AcDbPolyline
 90
       33
 70
     1
 43
0.0
 10
-446.5346
 20
-31.8172
 10
-446.2071
 20
-31.8573
 10
-445.902
 20
-31.9723
 10
-445.6259
 20
-32.1542
 10
-445.3853
 20
-32.3951
 10
-445.1868
 20
-32.687
 10
-445.037
 20
-33.0221
 10
-444.9422
 20
-33.3923
 10
-444.9092
 20
-33.7898
 10
-444.9422
 20
-34.1875
 10
-445.037
 20
-34.5579
 10
-445.1868
 20
-34.8932
 10
-445.3853
 20
-35.1852
 10
-445.6259
 20
-35.4262
 10
-445.902
 20
-35.6081
 10
-446.2071
 20
-35.7231
 10
-446.5346
 20
-35.7632
 10
-446.8619
 20
-35.7231
 10
-447.1668
 20
-35.6081
 10
-447.4428
 20
-35.4262
 10
-447.6833
 20
-35.1852
 10
-447.8817
 20
-34.8932
 10
-448.0316
 20
-34.5579
 10
-448.1263
 20
-34.1875
 10
-448.1593
 20
-33.7898
 10
-448.1263
 20
-33.3923
 10
-448.0316
 20
-33.0221
 10
-447.8817
 20
-32.687
 10
-447.6833
 20
-32.3951
 10
-447.4428
 20
-32.1542
 10
-447.1668
 20
-31.9723
 10
-446.8619
 20
-31.8573
 10
-446.5346
 20
-31.8172
  0
LWPOLYLINE
  5
6A
330
1F
100
AcDbEntity
  8
Layer 1
 62
     7
370
     9
100
AcDbPolyline
 90
       33
 70
     1
 43
0.0
 10
-445.9639
 20
-37.283
 10
-445.6364
 20
-37.3231
 10
-445.3314
 20
-37.4381
 10
-445.0554
 20
-37.62
 10
-444.815
 20
-37.8609
 10
-444.6166
 20
-38.1528
 10
-444.4668
 20
-38.4879
 10
-444.3722
 20
-38.8581
 10
-444.3392
 20
-39.2556
 10
-444.3722
 20
-39.6533
 10
-444.4668
 20
-40.0237
 10
-444.6166
 20
-40.359
 10
-444.815
 20
-40.651
 10
-445.0554
 20
-40.892
 10
-445.3314
 20
-41.0739
 10
-445.6364
 20
-41.1889
 10
-445.9639
 20
-41.229
 10
-446.2914
 20
-41.1889
 10
-446.5965
 20
-41.0739
 10
-446.8726
 20
-40.892
 10
-447.1132
 20
-40.651
 10
-447.3117
 20
-40.359
 10
-447.4615
 20
-40.0237
 10
-447.5563
 20
-39.6533
 10
-447.5893
 20
-39.2556
 10
-447.5563
 20
-38.8581
 10
-447.4615
 20
-38.4879
 10
-447.3117
 20
-38.1528
 10
-447.1132
 20
-37.8609
 10
-446.8726
 20
-37.62
 10
-446.5965
 20
-37.4381
 10
-446.2914
 20
-37.3231
 10
-445.9639
 20
-37.283
  0
LWPOLYLINE
  5
6B
330
1F
100
AcDbEntity
  8
Layer 1
 62
     7
370
     9
100
AcDbPolyline
 90
       33
 70
     1
 43
0.0
 10
-440.2323
 20
-34.2448
 10
-439.9048
 20
-34.2849
 10
-439.5998
 20
-34.3999
 10
-439.3238
 20
-34.5818
 10
-439.0834
 20
-34.8227
 10
-438.885
 20
-35.1146
 10
-438.7352
 20
-35.4497
 10
-438.6406
 20
-35.8199
 10
-438.6076
 20
-36.2174
 10
-438.6406
 20
-36.6151
 10
-438.7352
 20
-36.9855
 10
-438.885
 20
-37.3208
 10
-439.0834
 20
-37.6128
 10
-439.3238
 20
-37.8538
 10
-439.5998
 20
-38.0357
 10
-439.9048
 20
-38.1507
 10
-440.2323
 20
-38.1908
 10
-440.5598
 20
-38.1507
 10
-440.8648
 20
-38.0357
 10
-441.1407
 20
-37.8538
 10
-441.3812
 20
-37.6128
 10
-441.5795
 20
-37.3208
 10
-441.7293
 20
-36.9855
 10
-441.8239
 20
-36.6151
 10
-441.8569
 20
-36.2174
 10
-441.8239
 20
-35.8199
 10
-441.7293
 20
-35.4497
 10
-441.5795
 20
-35.1146
 10
-441.3812
 20
-34.8227
 10
-441.1407
 20
-34.5818
 10
-440.8648
 20
-34.3999
 10
-440.5598
 20
-34.2849
 10
-440.2323
 20
-34.2448
  0
LWPOLYLINE
  5
6C
330
1F
100
AcDbEntity
  8
Layer 1
 62
     7
370
     9
100
AcDbPolyline
 90
       33
 70
     1
 43
0.0
 10
-441.8006
 20
-39.0719
 10
-441.4731
 20
-39.112
 10
-441.1681
 20
-39.227
 10
-440.8922
 20
-39.4089
 10
-440.6517
 20
-39.6498
 10
-440.4534
 20
-39.9417
 10
-440.3036
 20
-40.2768
 10
-440.209
 20
-40.647
 10
-440.176
 20
-41.0445
 10
-440.209
 20
-41.4422
 10
-440.3036
 20
-41.8126
 10
-440.4534
 20
-42.1478
 10
-440.6517
 20
-42.4398
 10
-440.8922
 20
-42.6808
 10
-441.1681
 20
-42.8627
 10
-441.4731
 20
-42.9777
 10
-441.8006
 20
-43.0178
 10
-442.1282
 20
-42.9777
 10
-442.4333
 20
-42.8627
 10
-442.7094
 20
-42.6808
 10
-442.95
 20
-42.4398
 10
-443.1485
 20
-42.1478
 10
-443.2983
 20
-41.8126
 10
-443.3931
 20
-41.4422
 10
-443.4261
 20
-41.0445
 10
-443.3931
 20
-40.647
 10
-443.2983
 20
-40.2768
 10
-443.1485
 20
-39.9417
 10
-442.95
 20
-39.6498
 10
-442.7094
 20
-39.4089
 10
-442.4333
 20
-39.227
 10
-442.1282
 20
-39.112
 10
-441.8006
 20
-39.0719
  0
LWPOLYLINE
  5
6D
330
1F
100
AcDbEntity
  8
Layer 1
 62
     7
370
     9
100
AcDbPolyline
 90
       33
 70
     1
 43
0.0
 10
-445.4502
 20
-43.0178
 10
-445.1229
 20
-43.0579
 10
-444.8181
 20
-43.1729
 10
-444.5421
 20
-43.3548
 10
-444.3016
 20
-43.5958
 10
-444.1032
 20
-43.8878
 10
-443.9533
 20
-44.2231
 10
-443.8586
 20
-44.5935
 10
-443.8256
 20
-44.9912
 10
-443.8586
 20
-45.3889
 10
-443.9533
 20
-45.7593
 10
-444.1032
 20
-46.0945
 10
-444.3016
 20
-46.3865
 10
-444.5421
 20
-46.6275
 10
-444.8181
 20
-46.8094
 10
-445.1229
 20
-46.9244
 10
-445.4502
 20
-46.9645
 10
-445.7778
 20
-46.9244
 10
-446.0829
 20
-46.8094
 10
-446.359
 20
-46.6275
 10
-446.5996
 20
-46.3865
 10
-446.7981
 20
-46.0945
 10
-446.9479
 20
-45.7593
 10
-447.0427
 20
-45.3889
 10
-447.0757
 20
-44.9912
 10
-447.0427
 20
-44.5935
 10
-446.9479
 20
-44.2231
 10
-446.7981
 20
-43.8878
 10
-446.5996
 20
-43.5958
 10
-446.359
 20
-43.3548
 10
-446.0829
 20
-43.1729
 10
-445.7778
 20
-43.0579
 10
-445.4502
 20
-43.0178
  0
LWPOLYLINE
  5
6E
330
1F
100
AcDbEntity
  8
Layer 1
 62
     7
370
     9
100
AcDbPolyline
 90
       33
 70
     1
 43
0.0
 10
-442.3135
 20
-46.7378
 10
-441.9862
 20
-46.7779
 10
-441.6813
 20
-46.8929
 10
-441.4053
 20
-47.0748
 10
-441.1649
 20
-47.3157
 10
-440.9664
 20
-47.6076
 10
-440.8165
 20
-47.9427
 10
-440.7218
 20
-48.3129
 10
-440.6888
 20
-48.7104
 10
-440.7218
 20
-49.1081
 10
-440.8165
 20
-49.4785
 10
-440.9664
 20
-49.8137
 10
-441.1649
 20
-50.1057
 10
-441.4053
 20
-50.3467
 10
-441.6813
 20
-50.5286
 10
-441.9862
 20
-50.6436
 10
-442.3135
 20
-50.6837
 10
-442.641
 20
-50.6436
 10
-442.9461
 20
-50.5286
 10
-443.2222
 20
-50.3467
 10
-443.4628
 20
-50.1057
 10
-443.6613
 20
-49.8137
 10
-443.8111
 20
-49.4785
 10
-443.9059
 20
-49.1081
 10
-443.9389
 20
-48.7104
 10
-443.9059
 20
-48.3129
 10
-443.8111
 20
-47.9427
 10
-443.6613
 20
-47.6076
 10
-443.4628
 20
-47.3157
 10
-443.2222
 20
-47.0748
 10
-442.9461
 20
-46.8929
 10
-442.641
 20
-46.7779
 10
-442.3135
 20
-46.7378
  0
LWPOLYLINE
  5
6F
330
1F
100
AcDbEntity
  8
Layer 1
 62
     7
370
     9
100
AcDbPolyline
 90
       33
 70
     1
 43
0.0
 10
-438.9203
 20
-44.3813
 10
-438.593
 20
-44.4214
 10
-438.2882
 20
-44.5364
 10
-438.0122
 20
-44.7183
 10
-437.7717
 20
-44.9592
 10
-437.5733
 20
-45.2511
 10
-437.4234
 20
-45.5862
 10
-437.3287
 20
-45.9564
 10
-437.2957
 20
-46.3539
 10
-437.3287
 20
-46.7516
 10
-437.4234
 20
-47.122
 10
-437.5733
 20
-47.4573
 10
-437.7717
 20
-47.7493
 10
-438.0122
 20
-47.9903
 10
-438.2882
 20
-48.1722
 10
-438.593
 20
-48.2872
 10
-438.9203
 20
-48.3273
 10
-439.2479
 20
-48.2872
 10
-439.553
 20
-48.1722
 10
-439.8291
 20
-47.9903
 10
-440.0697
 20
-47.7493
 10
-440.2682
 20
-47.4573
 10
-440.418
 20
-47.122
 10
-440.5128
 20
-46.7516
 10
-440.5458
 20
-46.3539
 10
-440.5128
 20
-45.9564
 10
-440.418
 20
-45.5862
 10
-440.2682
 20
-45.2511
 10
-440.0697
 20
-44.9592
 10
-439.8291
 20
-44.7183
 10
-439.553
 20
-44.5364
 10
-439.2479
 20
-44.4214
 10
-438.9203
 20
-44.3813
  0
LWPOLYLINE
  5
70
330
1F
100
AcDbEntity
  8
Layer 1
 62
     7
370
     9
100
AcDbPolyline
 90
       33
 70
     1
 43
0.0
 10
-435.6132
 20
-42.1945
 10
-435.2856
 20
-42.2346
 10
-434.9805
 20
-42.3496
 10
-434.7044
 20
-42.5315
 10
-434.4639
 20
-42.7725
 10
-434.2653
 20
-43.0645
 10
-434.1155
 20
-43.3998
 10
-434.0207
 20
-43.7702
 10
-433.9877
 20
-44.1679
 10
-434.0207
 20
-44.5654
 10
-434.1155
 20
-44.9356
 10
-434.2653
 20
-45.2707
 10
-434.4639
 20
-45.5626
 10
-434.7044
 20
-45.8035
 10
-434.9805
 20
-45.9854
 10
-435.2856
 20
-46.1004
 10
-435.6132
 20
-46.1405
 10
-435.9407
 20
-46.1004
 10
-436.2457
 20
-45.9854
 10
-436.5216
 20
-45.8035
 10
-436.7621
 20
-45.5626
 10
-436.9604
 20
-45.2707
 10
-437.1102
 20
-44.9356
 10
-437.2048
 20
-44.5654
 10
-437.2378
 20
-44.1679
 10
-437.2048
 20
-43.7702
 10
-437.1102
 20
-43.3998
 10
-436.9604
 20
-43.0645
 10
-436.7621
 20
-42.7725
 10
-436.5216
 20
-42.5315
 10
-436.2457
 20
-42.3496
 10
-435.9407
 20
-42.2346
 10
-435.6132
 20
-42.1945
  0
LWPOLYLINE
  5
71
330
1F
100
AcDbEntity
  8
Layer 1
 62
     7
370
     9
100
AcDbPolyline
 90
       33
 70
     1
 43
0.0
 10
-448.2164
 20
-47.135
 10
-447.8891
 20
-47.1751
 10
-447.5842
 20
-47.2901
 10
-447.3082
 20
-47.472
 10
-447.0678
 20
-47.7129
 10
-446.8693
 20
-48.005
 10
-446.7194
 20
-48.3402
 10
-446.6247
 20
-48.7106
 10
-446.5917
 20
-49.1083
 10
-446.6247
 20
-49.5058
 10
-446.7194
 20
-49.876
 10
-446.8693
 20
-50.2111
 10
-447.0678
 20
-50.503
 10
-447.3082
 20
-50.7439
 10
-447.5842
 20
-50.9258
 10
-447.8891
 20
-51.0408
 10
-448.2164
 20
-51.0809
 10
-448.5439
 20
-51.0408
 10
-448.849
 20
-50.9258
 10
-449.1251
 20
-50.7439
 10
-449.3657
 20
-50.503
 10
-449.5642
 20
-50.2111
 10
-449.714
 20
-49.876
 10
-449.8088
 20
-49.5058
 10
-449.8418
 20
-49.1083
 10
-449.8088
 20
-48.7106
 10
-449.714
 20
-48.3402
 10
-449.5642
 20
-48.005
 10
-449.3657
 20
-47.7129
 10
-449.1251
 20
-47.472
 10
-448.849
 20
-47.2901
 10
-448.5439
 20
-47.1751
 10
-448.2164
 20
-47.135
  0
LWPOLYLINE
  5
72
330
1F
100
AcDbEntity
  8
Layer 1
 62
     7
370
     9
100
AcDbPolyline
 90
       33
 70
     1
 43
0.0
 10
-451.8378
 20
-45.8856
 10
-451.5105
 20
-45.9257
 10
-451.2057
 20
-46.0407
 10
-450.9297
 20
-46.2226
 10
-450.6892
 20
-46.4636
 10
-450.4908
 20
-46.7556
 10
-450.3409
 20
-47.0908
 10
-450.2462
 20
-47.4612
 10
-450.2132
 20
-47.8589
 10
-450.2462
 20
-48.2564
 10
-450.3409
 20
-48.6266
 10
-450.4908
 20
-48.9617
 10
-450.6892
 20
-49.2536
 10
-450.9297
 20
-49.4945
 10
-451.2057
 20
-49.6764
 10
-451.5105
 20
-49.7914
 10
-451.8378
 20
-49.8315
 10
-452.1654
 20
-49.7914
 10
-452.4705
 20
-49.6764
 10
-452.7466
 20
-49.4945
 10
-452.9872
 20
-49.2536
 10
-453.1857
 20
-48.9617
 10
-453.3355
 20
-48.6266
 10
-453.4303
 20
-48.2564
 10
-453.4633
 20
-47.8589
 10
-453.4303
 20
-47.4612
 10
-453.3355
 20
-47.0908
 10
-453.1857
 20
-46.7556
 10
-452.9872
 20
-46.4636
 10
-452.7466
 20
-46.2226
 10
-452.4705
 20
-46.0407
 10
-452.1654
 20
-45.9257
 10
-451.8378
 20
-45.8856
  0
LWPOLYLINE
  5
73
330
1F
100
AcDbEntity
  8
Layer 1
 62
     7
370
     9
100
AcDbPolyline
 90
       33
 70
     1
 43
0.0
 10
-455.6305
 20
-44.3243
 10
-455.303
 20
-44.3644
 10
-454.9979
 20
-44.4793
 10
-454.7218
 20
-44.6612
 10
-454.4812
 20
-44.9021
 10
-454.2827
 20
-45.1941
 10
-454.1329
 20
-45.5291
 10
-454.0381
 20
-45.8994
 10
-454.0051
 20
-46.2968
 10
-454.0381
 20
-46.6945
 10
-454.1329
 20
-47.0649
 10
-454.2827
 20
-47.4002
 10
-454.4812
 20
-47.6922
 10
-454.7218
 20
-47.9332
 10
-454.9979
 20
-48.1151
 10
-455.303
 20
-48.2301
 10
-455.6305
 20
-48.2702
 10
-455.9578
 20
-48.2301
 10
-456.2627
 20
-48.1151
 10
-456.5387
 20
-47.9332
 10
-456.7792
 20
-47.6922
 10
-456.9776
 20
-47.4002
 10
-457.1275
 20
-47.0649
 10
-457.2222
 20
-46.6945
 10
-457.2552
 20
-46.2968
 10
-457.2222
 20
-45.8994
 10
-457.1275
 20
-45.5291
 10
-456.9776
 20
-45.1941
 10
-456.7792
 20
-44.9021
 10
-456.5387
 20
-44.6612
 10
-456.2627
 20
-44.4793
 10
-455.9578
 20
-44.3644
 10
-455.6305
 20
-44.3243
  0
LWPOLYLINE
  5
74
330
1F
100
AcDbEntity
  8
Layer 1
 62
     7
370
     9
100
AcDbPolyline
 90
       33
 70
     1
 43
0.0
 10
-452.2944
 20
-35.778
 10
-451.9669
 20
-35.8181
 10
-451.6618
 20
-35.9331
 10
-451.3857
 20
-36.115
 10
-451.1451
 20
-36.3559
 10
-450.9466
 20
-36.6478
 10
-450.7968
 20
-36.9829
 10
-450.702
 20
-37.3531
 10
-450.669
 20
-37.7506
 10
-450.702
 20
-38.1483
 10
-450.7968
 20
-38.5187
 10
-450.9466
 20
-38.8539
 10
-451.1451
 20
-39.146
 10
-451.3857
 20
-39.3869
 10
-451.6618
 20
-39.5688
 10
-451.9669
 20
-39.6838
 10
-452.2944
 20
-39.7239
 10
-452.6219
 20
-39.6838
 10
-452.9269
 20
-39.5688
 10
-453.2029
 20
-39.3869
 10
-453.4434
 20
-39.146
 10
-453.6417
 20
-38.8539
 10
-453.7915
 20
-38.5187
 10
-453.8861
 20
-38.1483
 10
-453.9191
 20
-37.7506
 10
-453.8861
 20
-37.3531
 10
-453.7915
 20
-36.9829
 10
-453.6417
 20
-36.6478
 10
-453.4434
 20
-36.3559
 10
-453.2029
 20
-36.115
 10
-452.9269
 20
-35.9331
 10
-452.6219
 20
-35.8181
 10
-452.2944
 20
-35.778
  0
LWPOLYLINE
  5
75
330
1F
100
AcDbEntity
  8
Layer 1
 62
     7
370
     9
100
AcDbPolyline
 90
       33
 70
     1
 43
0.0
 10
-449.8707
 20
-39.9514
 10
-449.5432
 20
-39.9915
 10
-449.2381
 20
-40.1065
 10
-448.962
 20
-40.2884
 10
-448.7214
 20
-40.5293
 10
-448.5229
 20
-40.8212
 10
-448.3731
 20
-41.1563
 10
-448.2783
 20
-41.5265
 10
-448.2453
 20
-41.924
 10
-448.2783
 20
-42.3217
 10
-448.3731
 20
-42.6921
 10
-448.5229
 20
-43.0274
 10
-448.7214
 20
-43.3194
 10
-448.962
 20
-43.5604
 10
-449.2381
 20
-43.7423
 10
-449.5432
 20
-43.8573
 10
-449.8707
 20
-43.8974
 10
-450.1982
 20
-43.8573
 10
-450.5032
 20
-43.7423
 10
-450.7792
 20
-43.5604
 10
-451.0197
 20
-43.3194
 10
-451.218
 20
-43.0274
 10
-451.3678
 20
-42.6921
 10
-451.4624
 20
-42.3217
 10
-451.4954
 20
-41.924
 10
-451.4624
 20
-41.5265
 10
-451.3678
 20
-41.1563
 10
-451.218
 20
-40.8212
 10
-451.0197
 20
-40.5293
 10
-450.7792
 20
-40.2884
 10
-450.5032
 20
-40.1065
 10
-450.1982
 20
-39.9915
 10
-449.8707
 20
-39.9514
  0
LWPOLYLINE
  5
76
330
1F
100
AcDbEntity
  8
Layer 1
 62
     7
370
     9
100
AcDbPolyline
 90
       33
 70
     1
 43
0.0
 10
-454.4335
 20
-54.7719
 10
-454.106
 20
-54.812
 10
-453.8009
 20
-54.927
 10
-453.5248
 20
-55.1089
 10
-453.2842
 20
-55.3499
 10
-453.0857
 20
-55.6419
 10
-452.9359
 20
-55.9772
 10
-452.8411
 20
-56.3476
 10
-452.8081
 20
-56.7453
 10
-452.8411
 20
-57.1428
 10
-452.9359
 20
-57.5131
 10
-453.0857
 20
-57.8483
 10
-453.2842
 20
-58.1404
 10
-453.5248
 20
-58.3814
 10
-453.8009
 20
-58.5634
 10
-454.106
 20
-58.6785
 10
-454.4335
 20
-58.7186
 10
-454.7608
 20
-58.6785
 10
-455.0657
 20
-58.5634
 10
-455.3417
 20
-58.3814
 10
-455.5822
 20
-58.1404
 10
-455.7806
 20
-57.8483
 10
-455.9305
 20
-57.5131
 10
-456.0252
 20
-57.1428
 10
-456.0582
 20
-56.7453
 10
-456.0252
 20
-56.3476
 10
-455.9305
 20
-55.9772
 10
-455.7806
 20
-55.6419
 10
-455.5822
 20
-55.3499
 10
-455.3417
 20
-55.1089
 10
-455.0657
 20
-54.927
 10
-454.7608
 20
-54.812
 10
-454.4335
 20
-54.7719
  0
LWPOLYLINE
  5
77
330
1F
100
AcDbEntity
  8
Layer 1
 62
     7
370
     9
100
AcDbPolyline
 90
       33
 70
     1
 43
0.0
 10
-451.296
 20
-52.7274
 10
-450.9687
 20
-52.7675
 10
-450.6638
 20
-52.8825
 10
-450.3879
 20
-53.0644
 10
-450.1474
 20
-53.3054
 10
-449.949
 20
-53.5974
 10
-449.7991
 20
-53.9327
 10
-449.7044
 20
-54.3031
 10
-449.6714
 20
-54.7008
 10
-449.7044
 20
-55.0983
 10
-449.7991
 20
-55.4686
 10
-449.949
 20
-55.8038
 10
-450.1474
 20
-56.0959
 10
-450.3879
 20
-56.3369
 10
-450.6638
 20
-56.5189
 10
-450.9687
 20
-56.634
 10
-451.296
 20
-56.6741
 10
-451.6236
 20
-56.634
 10
-451.9286
 20
-56.5189
 10
-452.2047
 20
-56.3369
 10
-452.4453
 20
-56.0959
 10
-452.6438
 20
-55.8038
 10
-452.7937
 20
-55.4686
 10
-452.8884
 20
-55.0983
 10
-452.9214
 20
-54.7008
 10
-452.8884
 20
-54.3031
 10
-452.7937
 20
-53.9327
 10
-452.6438
 20
-53.5974
 10
-452.4453
 20
-53.3054
 10
-452.2047
 20
-53.0644
 10
-451.9286
 20
-52.8825
 10
-451.6236
 20
-52.7675
 10
-451.296
 20
-52.7274
  0
LWPOLYLINE
  5
78
330
1F
100
AcDbEntity
  8
Layer 1
 62
     7
370
     9
100
AcDbPolyline
 90
       33
 70
     1
 43
0.0
 10
-446.5628
 20
-53.3529
 10
-446.2353
 20
-53.393
 10
-445.9303
 20
-53.508
 10
-445.6543
 20
-53.6899
 10
-445.4139
 20
-53.9308
 10
-445.2155
 20
-54.2227
 10
-445.0657
 20
-54.5578
 10
-444.9711
 20
-54.928
 10
-444.9381
 20
-55.3255
 10
-444.9711
 20
-55.7232
 10
-445.0657
 20
-56.0936
 10
-445.2155
 20
-56.4288
 10
-445.4139
 20
-56.7208
 10
-445.6543
 20
-56.9618
 10
-445.9303
 20
-57.1437
 10
-446.2353
 20
-57.2587
 10
-446.5628
 20
-57.2988
 10
-446.8903
 20
-57.2587
 10
-447.1954
 20
-57.1437
 10
-447.4715
 20
-56.9618
 10
-447.7121
 20
-56.7208
 10
-447.9106
 20
-56.4288
 10
-448.0604
 20
-56.0936
 10
-448.1552
 20
-55.7232
 10
-448.1882
 20
-55.3255
 10
-448.1552
 20
-54.928
 10
-448.0604
 20
-54.5578
 10
-447.9106
 20
-54.2227
 10
-447.7121
 20
-53.9308
 10
-447.4715
 20
-53.6899
 10
-447.1954
 20
-53.508
 10
-446.8903
 20
-53.393
 10
-446.5628
 20
-53.3529
  0
LWPOLYLINE
  5
79
330
1F
100
AcDbEntity
  8
Layer 1
 62
     7
370
     9
100
AcDbPolyline
 90
       33
 70
     1
 43
0.0
 10
-448.558
 20
-57.9532
 10
-448.2305
 20
-57.9933
 10
-447.9255
 20
-58.1083
 10
-447.6496
 20
-58.2902
 10
-447.4091
 20
-58.5311
 10
-447.2108
 20
-58.823
 10
-447.061
 20
-59.1581
 10
-446.9664
 20
-59.5283
 10
-446.9334
 20
-59.9258
 10
-446.9664
 20
-60.3235
 10
-447.061
 20
-60.6939
 10
-447.2108
 20
-61.0291
 10
-447.4091
 20
-61.3212
 10
-447.6496
 20
-61.5621
 10
-447.9255
 20
-61.744
 10
-448.2305
 20
-61.859
 10
-448.558
 20
-61.8991
 10
-448.8855
 20
-61.859
 10
-449.1905
 20
-61.744
 10
-449.4665
 20
-61.5621
 10
-449.707
 20
-61.3212
 10
-449.9053
 20
-61.0291
 10
-450.0551
 20
-60.6939
 10
-450.1497
 20
-60.3235
 10
-450.1827
 20
-59.9258
 10
-450.1497
 20
-59.5283
 10
-450.0551
 20
-59.1581
 10
-449.9053
 20
-58.823
 10
-449.707
 20
-58.5311
 10
-449.4665
 20
-58.2902
 10
-449.1905
 20
-58.1083
 10
-448.8855
 20
-57.9933
 10
-448.558
 20
-57.9532
  0
LWPOLYLINE
  5
7A
330
1F
100
AcDbEntity
  8
Layer 1
 62
     7
370
     9
100
AcDbPolyline
 90
       33
 70
     1
 43
0.0
 10
-450.2124
 20
-62.552
 10
-449.8848
 20
-62.5921
 10
-449.5798
 20
-62.7071
 10
-449.3037
 20
-62.889
 10
-449.0631
 20
-63.1299
 10
-448.8646
 20
-63.422
 10
-448.7147
 20
-63.7572
 10
-448.62
 20
-64.1276
 10
-448.587
 20
-64.5253
 10
-448.62
 20
-64.9228
 10
-448.7147
 20
-65.2931
 10
-448.8646
 20
-65.6283
 10
-449.0631
 20
-65.9204
 10
-449.3037
 20
-66.1615
 10
-449.5798
 20
-66.3435
 10
-449.8848
 20
-66.4586
 10
-450.2124
 20
-66.4987
 10
-450.5397
 20
-66.4586
 10
-450.8446
 20
-66.3435
 10
-451.1205
 20
-66.1615
 10
-451.361
 20
-65.9204
 10
-451.5594
 20
-65.6283
 10
-451.7093
 20
-65.2931
 10
-451.804
 20
-64.9228
 10
-451.837
 20
-64.5253
 10
-451.804
 20
-64.1276
 10
-451.7093
 20
-63.7572
 10
-451.5594
 20
-63.422
 10
-451.361
 20
-63.1299
 10
-451.1205
 20
-62.889
 10
-450.8446
 20
-62.7071
 10
-450.5397
 20
-62.5921
 10
-450.2124
 20
-62.552
  0
LWPOLYLINE
  5
7B
330
1F
100
AcDbEntity
  8
Layer 1
 62
     7
370
     9
100
AcDbPolyline
 90
       33
 70
     1
 43
0.0
 10
-444.1102
 20
-65.3916
 10
-443.7826
 20
-65.4317
 10
-443.4775
 20
-65.5467
 10
-443.2014
 20
-65.7286
 10
-442.9609
 20
-65.9696
 10
-442.7623
 20
-66.2616
 10
-442.6125
 20
-66.5968
 10
-442.5177
 20
-66.9672
 10
-442.4847
 20
-67.3649
 10
-442.5177
 20
-67.7624
 10
-442.6125
 20
-68.1326
 10
-442.7623
 20
-68.4677
 10
-442.9609
 20
-68.7596
 10
-443.2014
 20
-69.0005
 10
-443.4775
 20
-69.1824
 10
-443.7826
 20
-69.2974
 10
-444.1102
 20
-69.3375
 10
-444.4375
 20
-69.2974
 10
-444.7423
 20
-69.1824
 10
-445.0183
 20
-69.0005
 10
-445.2588
 20
-68.7596
 10
-445.4572
 20
-68.4677
 10
-445.6071
 20
-68.1326
 10
-445.7018
 20
-67.7624
 10
-445.7348
 20
-67.3649
 10
-445.7018
 20
-66.9672
 10
-445.6071
 20
-66.5968
 10
-445.4572
 20
-66.2616
 10
-445.2588
 20
-65.9696
 10
-445.0183
 20
-65.7286
 10
-444.7423
 20
-65.5467
 10
-444.4375
 20
-65.4317
 10
-444.1102
 20
-65.3916
  0
LWPOLYLINE
  5
7C
330
1F
100
AcDbEntity
  8
Layer 1
 62
     7
370
     9
100
AcDbPolyline
 90
       33
 70
     1
 43
0.0
 10
-444.3947
 20
-59.7702
 10
-444.0672
 20
-59.8103
 10
-443.7622
 20
-59.9253
 10
-443.4863
 20
-60.1072
 10
-443.2458
 20
-60.3481
 10
-443.0475
 20
-60.64
 10
-442.8977
 20
-60.9751
 10
-442.8031
 20
-61.3453
 10
-442.7701
 20
-61.7428
 10
-442.8031
 20
-62.1405
 10
-442.8977
 20
-62.5109
 10
-443.0475
 20
-62.8461
 10
-443.2458
 20
-63.1381
 10
-443.4863
 20
-63.3791
 10
-443.7622
 20
-63.561
 10
-444.0672
 20
-63.676
 10
-444.3947
 20
-63.7161
 10
-444.7223
 20
-63.676
 10
-445.0274
 20
-63.561
 10
-445.3035
 20
-63.3791
 10
-445.5441
 20
-63.1381
 10
-445.7426
 20
-62.8461
 10
-445.8924
 20
-62.5109
 10
-445.9872
 20
-62.1405
 10
-446.0202
 20
-61.7428
 10
-445.9872
 20
-61.3453
 10
-445.8924
 20
-60.9751
 10
-445.7426
 20
-60.64
 10
-445.5441
 20
-60.3481
 10
-445.3035
 20
-60.1072
 10
-445.0274
 20
-59.9253
 10
-444.7223
 20
-59.8103
 10
-444.3947
 20
-59.7702
  0
LWPOLYLINE
  5
7D
330
1F
100
AcDbEntity
  8
Layer 1
 62
     7
370
     9
100
AcDbPolyline
 90
       33
 70
     1
 43
0.0
 10
-440.5739
 20
-57.2144
 10
-440.2464
 20
-57.2545
 10
-439.9414
 20
-57.3695
 10
-439.6655
 20
-57.5514
 10
-439.425
 20
-57.7924
 10
-439.2267
 20
-58.0844
 10
-439.0769
 20
-58.4196
 10
-438.9823
 20
-58.79
 10
-438.9493
 20
-59.1877
 10
-438.9823
 20
-59.5854
 10
-439.0769
 20
-59.9558
 10
-439.2267
 20
-60.2911
 10
-439.425
 20
-60.5831
 10
-439.6655
 20
-60.8241
 10
-439.9414
 20
-61.006
 10
-440.2464
 20
-61.121
 10
-440.5739
 20
-61.1611
 10
-440.9015
 20
-61.121
 10
-441.2066
 20
-61.006
 10
-441.4827
 20
-60.8241
 10
-441.7233
 20
-60.5831
 10
-441.9218
 20
-60.2911
 10
-442.0716
 20
-59.9558
 10
-442.1664
 20
-59.5854
 10
-442.1994
 20
-59.1877
 10
-442.1664
 20
-58.79
 10
-442.0716
 20
-58.4196
 10
-441.9218
 20
-58.0844
 10
-441.7233
 20
-57.7924
 10
-441.4827
 20
-57.5514
 10
-441.2066
 20
-57.3695
 10
-440.9015
 20
-57.2545
 10
-440.5739
 20
-57.2144
  0
LWPOLYLINE
  5
7E
330
1F
100
AcDbEntity
  8
Layer 1
 62
     7
370
     9
100
AcDbPolyline
 90
       33
 70
     1
 43
0.0
 10
-442.9124
 20
-52.9557
 10
-442.5848
 20
-52.9958
 10
-442.2798
 20
-53.1108
 10
-442.0037
 20
-53.2927
 10
-441.7631
 20
-53.5337
 10
-441.5646
 20
-53.8257
 10
-441.4147
 20
-54.161
 10
-441.32
 20
-54.5314
 10
-441.287
 20
-54.9291
 10
-441.32
 20
-55.3268
 10
-441.4147
 20
-55.6972
 10
-441.5646
 20
-56.0324
 10
-441.7631
 20
-56.3245
 10
-442.0037
 20
-56.5654
 10
-442.2798
 20
-56.7473
 10
-442.5848
 20
-56.8623
 10
-442.9124
 20
-56.9024
 10
-443.2397
 20
-56.8623
 10
-443.5446
 20
-56.7473
 10
-443.8205
 20
-56.5654
 10
-444.061
 20
-56.3245
 10
-444.2594
 20
-56.0324
 10
-444.4093
 20
-55.6972
 10
-444.504
 20
-55.3268
 10
-444.537
 20
-54.9291
 10
-444.504
 20
-54.5314
 10
-444.4093
 20
-54.161
 10
-444.2594
 20
-53.8257
 10
-444.061
 20
-53.5337
 10
-443.8205
 20
-53.2927
 10
-443.5446
 20
-53.1108
 10
-443.2397
 20
-52.9958
 10
-442.9124
 20
-52.9557
  0
LWPOLYLINE
  5
7F
330
1F
100
AcDbEntity
  8
Layer 1
 62
     7
370
     9
100
AcDbPolyline
 90
       33
 70
     1
 43
0.0
 10
-438.549
 20
-51.4796
 10
-438.2214
 20
-51.5197
 10
-437.9163
 20
-51.6347
 10
-437.6402
 20
-51.8166
 10
-437.3997
 20
-52.0575
 10
-437.2011
 20
-52.3494
 10
-437.0513
 20
-52.6845
 10
-436.9565
 20
-53.0547
 10
-436.9235
 20
-53.4522
 10
-436.9565
 20
-53.8499
 10
-437.0513
 20
-54.2203
 10
-437.2011
 20
-54.5555
 10
-437.3997
 20
-54.8476
 10
-437.6402
 20
-55.0885
 10
-437.9163
 20
-55.2704
 10
-438.2214
 20
-55.3854
 10
-438.549
 20
-55.4255
 10
-438.8765
 20
-55.3854
 10
-439.1815
 20
-55.2704
 10
-439.4574
 20
-55.0885
 10
-439.6979
 20
-54.8476
 10
-439.8962
 20
-54.5555
 10
-440.046
 20
-54.2203
 10
-440.1406
 20
-53.8499
 10
-440.1736
 20
-53.4522
 10
-440.1406
 20
-53.0547
 10
-440.046
 20
-52.6845
 10
-439.8962
 20
-52.3494
 10
-439.6979
 20
-52.0575
 10
-439.4574
 20
-51.8166
 10
-439.1815
 20
-51.6347
 10
-438.8765
 20
-51.5197
 10
-438.549
 20
-51.4796
  0
LWPOLYLINE
  5
80
330
1F
100
AcDbEntity
  8
Layer 1
 62
     7
370
     9
100
AcDbPolyline
 90
       33
 70
     1
 43
0.0
 10
-435.1847
 20
-53.0691
 10
-434.8572
 20
-53.1092
 10
-434.5521
 20
-53.2242
 10
-434.276
 20
-53.4061
 10
-434.0354
 20
-53.6471
 10
-433.8369
 20
-53.9391
 10
-433.6871
 20
-54.2743
 10
-433.5923
 20
-54.6447
 10
-433.5593
 20
-55.0424
 10
-433.5923
 20
-55.4399
 10
-433.6871
 20
-55.8102
 10
-433.8369
 20
-56.1454
 10
-434.0354
 20
-56.4375
 10
-434.276
 20
-56.6786
 10
-434.5521
 20
-56.8606
 10
-434.8572
 20
-56.9757
 10
-435.1847
 20
-57.0158
 10
-435.512
 20
-56.9757
 10
-435.8169
 20
-56.8606
 10
-436.0929
 20
-56.6786
 10
-436.3334
 20
-56.4375
 10
-436.5318
 20
-56.1454
 10
-436.6817
 20
-55.8102
 10
-436.7764
 20
-55.4399
 10
-436.8094
 20
-55.0424
 10
-436.7764
 20
-54.6447
 10
-436.6817
 20
-54.2743
 10
-436.5318
 20
-53.9391
 10
-436.3334
 20
-53.6471
 10
-436.0929
 20
-53.4061
 10
-435.8169
 20
-53.2242
 10
-435.512
 20
-53.1092
 10
-435.1847
 20
-53.0691
  0
LWPOLYLINE
  5
81
330
1F
100
AcDbEntity
  8
Layer 1
 62
     7
370
     9
100
AcDbPolyline
 90
       33
 70
     1
 43
0.0
 10
-438.3207
 20
-61.8139
 10
-437.9934
 20
-61.854
 10
-437.6885
 20
-61.969
 10
-437.4125
 20
-62.1509
 10
-437.1721
 20
-62.3919
 10
-436.9736
 20
-62.6839
 10
-436.8237
 20
-63.0192
 10
-436.729
 20
-63.3896
 10
-436.696
 20
-63.7873
 10
-436.729
 20
-64.185
 10
-436.8237
 20
-64.5554
 10
-436.9736
 20
-64.8906
 10
-437.1721
 20
-65.1826
 10
-437.4125
 20
-65.4236
 10
-437.6885
 20
-65.6055
 10
-437.9934
 20
-65.7205
 10
-438.3207
 20
-65.7606
 10
-438.6482
 20
-65.7205
 10
-438.9533
 20
-65.6055
 10
-439.2294
 20
-65.4236
 10
-439.47
 20
-65.1826
 10
-439.6685
 20
-64.8906
 10
-439.8183
 20
-64.5554
 10
-439.9131
 20
-64.185
 10
-439.9461
 20
-63.7873
 10
-439.9131
 20
-63.3896
 10
-439.8183
 20
-63.0192
 10
-439.6685
 20
-62.6839
 10
-439.47
 20
-62.3919
 10
-439.2294
 20
-62.1509
 10
-438.9533
 20
-61.969
 10
-438.6482
 20
-61.854
 10
-438.3207
 20
-61.8139
  0
LWPOLYLINE
  5
82
330
1F
100
AcDbEntity
  8
Layer 1
 62
     7
370
    18
100
AcDbPolyline
 90
       12
 70
     1
 43
0.0
 10
-412.4021
 20
-77.4165
 10
-410.1432
 20
-215.5097
 10
-408.9807
 20
-206.4289
 10
-410.9771
 20
-78.0415
 10
-411.0243
 20
-77.8609
 10
-411.1517
 20
-77.4169
 10
-411.338
 20
-76.8557
 10
-411.5616
 20
-76.3238
 10
-411.8012
 20
-75.9675
 10
-412.0354
 20
-75.9333
 10
-412.2429
 20
-76.3675
 10
-412.4021
 20
-77.4165
  0
LWPOLYLINE
  5
83
330
1F
100
AcDbEntity
  8
Layer 1
 62
     7
370
     9
100
AcDbPolyline
 90
        2
 70
     0
 43
0.0
 10
-425.2672
 20
-214.767
 10
-338.0678
 20
-219.4672
  0
LWPOLYLINE
  5
84
330
1F
100
AcDbEntity
  8
Layer 1
 62
     7
370
     9
100
AcDbPolyline
 90
        2
 70
     0
 43
0.0
 10
-426.3446
 20
-23.6291
 10
-330.515
 20
-27.1601
  0
LWPOLYLINE
  5
85
330
1F
100
AcDbEntity
  8
Layer 1
 62
     7
370
     9
100
AcDbPolyline
 90
        2
 70
     0
 43
0.0
 10
-340.219
 20
-26.8753
 10
-347.7717
 20
-219.0917
  0
LWPOLYLINE
  5
86
330
1F
100
AcDbEntity
  8
Layer 1
 62
     7
370
     9
100
AcDbPolyline
 90
        7
 70
     1
 43
0.0
 10
-317.5529
 20
-169.7385
 10
-317.5091
 20
-168.1959
 10
-332.733
 20
-167.7691
 10
-332.4398
 20
-171.4812
 10
-331.0896
 20
-171.5195
 10
-331.0286
 20
-169.3609
 10
-317.5529
 20
-169.7385
  0
LWPOLYLINE
  5
87
330
1F
100
AcDbEntity
  8
Layer 1
 62
     7
370
     9
100
AcDbPolyline
 90
        4
 70
     1
 43
0.0
 10
-330.5845
 20
-157.5098
 10
-321.8882
 20
-157.753
 10
-322.05
 20
-163.4823
 10
-330.5845
 20
-157.5098
  0
LWPOLYLINE
  5
88
330
1F
100
AcDbEntity
  8
Layer 1
 62
     7
370
     9
100
AcDbPolyline
 90
       11
 70
     1
 43
0.0
 10
-320.2502
 20
-156.1893
 10
-320.1963
 20
-154.2949
 10
-321.7897
 20
-154.2503
 10
-321.8436
 20
-156.1447
 10
-332.2217
 20
-155.8766
 10
-332.2827
 20
-158.0352
 10
-320.5332
 20
-166.2586
 10
-320.2956
 20
-157.7975
 10
-317.219
 20
-157.8843
 10
-317.1737
 20
-156.2761
 10
-320.2502
 20
-156.1893
  0
LWPOLYLINE
  5
89
330
1F
100
AcDbEntity
  8
Layer 1
 62
     7
370
     9
100
AcDbPolyline
 90
        4
 70
     1
 43
0.0
 10
-330.2092
 20
-144.1795
 10
-321.5137
 20
-144.4234
 10
-321.6747
 20
-150.152
 10
-330.2092
 20
-144.1795
  0
LWPOLYLINE
  5
8A
330
1F
100
AcDbEntity
  8
Layer 1
 62
     7
370
     9
100
AcDbPolyline
 90
       11
 70
     1
 43
0.0
 10
-319.8749
 20
-142.8598
 10
-319.8218
 20
-140.9654
 10
-321.4152
 20
-140.9208
 10
-321.4683
 20
-142.8152
 10
-331.8472
 20
-142.547
 10
-331.9074
 20
-144.7057
 10
-320.158
 20
-152.929
 10
-319.9203
 20
-144.468
 10
-316.8438
 20
-144.554
 10
-316.7992
 20
-142.9458
 10
-319.8749
 20
-142.8598
  0
LWPOLYLINE
  5
8B
330
1F
100
AcDbEntity
  8
Layer 1
 62
     7
370
     9
100
AcDbPolyline
 90
      162
 70
     1
 43
0.0
 10
-316.2003
 20
-120.1185
 10
-316.1573
 20
-118.5767
 10
-322.2423
 20
-118.4063
 10
-322.6468
 20
-118.4074
 10
-323.033
 20
-118.4343
 10
-323.4009
 20
-118.4868
 10
-323.7505
 20
-118.5651
 10
-324.0817
 20
-118.6691
 10
-324.3946
 20
-118.7987
 10
-324.6892
 20
-118.954
 10
-324.9655
 20
-119.135
 10
-325.0978
 20
-119.2366
 10
-325.2237
 20
-119.3448
 10
-325.3432
 20
-119.4597
 10
-325.4564
 20
-119.5814
 10
-325.5632
 20
-119.7098
 10
-325.6637
 20
-119.845
 10
-325.7579
 20
-119.987
 10
-325.8458
 20
-120.1357
 10
-325.9257
 20
-120.2939
 10
-325.9958
 20
-120.4649
 10
-326.0562
 20
-120.6486
 10
-326.1069
 20
-120.8449
 10
-326.1478
 20
-121.0539
 10
-326.1791
 20
-121.2755
 10
-326.2006
 20
-121.5097
 10
-326.2125
 20
-121.7565
 10
-326.2108
 20
-122.0063
 10
-326.1917
 20
-122.2487
 10
-326.155
 20
-122.4835
 10
-326.1009
 20
-122.7108
 10
-326.0292
 20
-122.9307
 10
-325.94
 20
-123.1432
 10
-325.8333
 20
-123.3483
 10
-325.709
 20
-123.5461
 10
-325.5844
 20
-123.718
 10
-325.4501
 20
-123.8827
 10
-325.306
 20
-124.04
 10
-325.1523
 20
-124.19
 10
-324.9891
 20
-124.3327
 10
-324.8165
 20
-124.4682
 10
-324.6345
 20
-124.5964
 10
-324.4432
 20
-124.7173
 10
-324.6252
 20
-124.8014
 10
-324.8013
 20
-124.8943
 10
-324.971
 20
-124.9958
 10
-325.1336
 20
-125.1059
 10
-325.2659
 20
-125.2074
 10
-325.3918
 20
-125.3157
 10
-325.5113
 20
-125.4306
 10
-325.6245
 20
-125.5523
 10
-325.7313
 20
-125.6807
 10
-325.8318
 20
-125.8159
 10
-325.926
 20
-125.9578
 10
-326.0139
 20
-126.1066
 10
-326.0938
 20
-126.2648
 10
-326.1639
 20
-126.4358
 10
-326.2243
 20
-126.6195
 10
-326.275
 20
-126.8158
 10
-326.3159
 20
-127.0248
 10
-326.3472
 20
-127.2464
 10
-326.3687
 20
-127.4806
 10
-326.3806
 20
-127.7273
 10
-326.3789
 20
-127.9771
 10
-326.3598
 20
-128.2195
 10
-326.3231
 20
-128.4543
 10
-326.269
 20
-128.6817
 10
-326.1973
 20
-128.9016
 10
-326.1081
 20
-129.1141
 10
-326.0014
 20
-129.3192
 10
-325.8771
 20
-129.517
 10
-325.7585
 20
-129.6808
 10
-325.6314
 20
-129.838
 10
-325.4957
 20
-129.9886
 10
-325.3513
 20
-130.1325
 10
-325.1983
 20
-130.2697
 10
-325.0367
 20
-130.4003
 10
-324.8663
 20
-130.5241
 10
-324.6871
 20
-130.6412
 10
-326.2399
 20
-130.5982
 10
-326.2829
 20
-132.1408
 10
-316.5467
 20
-132.4137
 10
-316.5029
 20
-130.8711
 10
-321.4855
 20
-130.7312
 10
-321.7749
 20
-130.6874
 10
-322.0525
 20
-130.6328
 10
-322.3186
 20
-130.5675
 10
-322.5733
 20
-130.4914
 10
-322.8165
 20
-130.4046
 10
-323.0485
 20
-130.3071
 10
-323.2694
 20
-130.1989
 10
-323.4792
 20
-130.0799
 10
-323.6279
 20
-129.9838
 10
-323.7696
 20
-129.8804
 10
-323.9042
 20
-129.7695
 10
-324.0318
 20
-129.6513
 10
-324.1522
 20
-129.5256
 10
-324.2656
 20
-129.3925
 10
-324.3717
 20
-129.2521
 10
-324.4706
 20
-129.1042
 10
-324.5596
 20
-128.9514
 10
-324.6361
 20
-128.7963
 10
-324.7001
 20
-128.6389
 10
-324.7516
 20
-128.479
 10
-324.7906
 20
-128.3168
 10
-324.817
 20
-128.1521
 10
-324.8311
 20
-127.9851
 10
-324.8326
 20
-127.8157
 10
-324.8245
 20
-127.6504
 10
-324.8103
 20
-127.4964
 10
-324.7898
 20
-127.3536
 10
-324.7632
 20
-127.2221
 10
-324.7303
 20
-127.1018
 10
-324.6912
 20
-126.9927
 10
-324.6458
 20
-126.8947
 10
-324.5941
 20
-126.8079
 10
-324.4229
 20
-126.5905
 10
-324.2242
 20
-126.4035
 10
-323.9981
 20
-126.2468
 10
-323.7444
 20
-126.1204
 10
-323.4631
 20
-126.0244
 10
-323.1544
 20
-125.9588
 10
-322.818
 20
-125.9237
 10
-322.4542
 20
-125.919
 10
-316.3684
 20
-126.0894
 10
-316.3254
 20
-124.5476
 10
-322.4104
 20
-124.3772
 10
-322.7834
 20
-124.3772
 10
-323.3111
 20
-124.109
 10
-323.46
 20
-124.0129
 10
-323.6018
 20
-123.9095
 10
-323.7365
 20
-123.7986
 10
-323.864
 20
-123.6804
 10
-323.9844
 20
-123.5547
 10
-324.0976
 20
-123.4216
 10
-324.2036
 20
-123.2812
 10
-324.3025
 20
-123.1333
 10
-324.3915
 20
-122.9805
 10
-324.468
 20
-122.8254
 10
-324.532
 20
-122.668
 10
-324.5835
 20
-122.5081
 10
-324.6225
 20
-122.3459
 10
-324.6489
 20
-122.1812
 10
-324.663
 20
-122.0142
 10
-324.6645
 20
-121.8448
 10
-324.6567
 20
-121.6795
 10
-324.6425
 20
-121.5255
 10
-324.6221
 20
-121.3827
 10
-324.5954
 20
-121.2512
 10
-324.5624
 20
-121.1309
 10
-324.5232
 20
-121.0218
 10
-324.4777
 20
-120.9238
 10
-324.426
 20
-120.837
 10
-324.2548
 20
-120.6196
 10
-324.0561
 20
-120.4326
 10
-323.83
 20
-120.2759
 10
-323.5763
 20
-120.1495
 10
-323.295
 20
-120.0535
 10
-322.9863
 20
-119.9879
 10
-322.6499
 20
-119.9528
 10
-322.2861
 20
-119.9481
 10
-316.2003
 20
-120.1185
  0
LWPOLYLINE
  5
8C
330
1F
100
AcDbEntity
  8
Layer 1
 62
     7
370
     9
100
AcDbPolyline
 90
      162
 70
     1
 43
0.0
 10
-315.7273
 20
-103.3075
 10
-315.6843
 20
-101.7657
 10
-321.7693
 20
-101.5953
 10
-322.1738
 20
-101.5967
 10
-322.56
 20
-101.6236
 10
-322.9279
 20
-101.6762
 10
-323.2775
 20
-101.7544
 10
-323.6087
 20
-101.8583
 10
-323.9216
 20
-101.9878
 10
-324.2162
 20
-102.143
 10
-324.4925
 20
-102.3239
 10
-324.6248
 20
-102.4255
 10
-324.7507
 20
-102.5339
 10
-324.8702
 20
-102.6489
 10
-324.9834
 20
-102.7707
 10
-325.0902
 20
-102.8991
 10
-325.1907
 20
-103.0343
 10
-325.2849
 20
-103.1762
 10
-325.3728
 20
-103.3247
 10
-325.4527
 20
-103.4829
 10
-325.5228
 20
-103.6539
 10
-325.5832
 20
-103.8376
 10
-325.6339
 20
-104.034
 10
-325.6748
 20
-104.2431
 10
-325.7061
 20
-104.4648
 10
-325.7276
 20
-104.6992
 10
-325.7395
 20
-104.9462
 10
-325.738
 20
-105.1958
 10
-325.719
 20
-105.438
 10
-325.6823
 20
-105.6728
 10
-325.6282
 20
-105.9003
 10
-325.5564
 20
-106.1203
 10
-325.4671
 20
-106.3328
 10
-325.3603
 20
-106.538
 10
-325.236
 20
-106.7358
 10
-325.1115
 20
-106.9076
 10
-324.9772
 20
-107.0721
 10
-324.8332
 20
-107.2294
 10
-324.6796
 20
-107.3795
 10
-324.5164
 20
-107.5223
 10
-324.3438
 20
-107.6578
 10
-324.1617
 20
-107.7861
 10
-323.9702
 20
-107.907
 10
-324.1522
 20
-107.9911
 10
-324.3283
 20
-108.0839
 10
-324.498
 20
-108.1852
 10
-324.6606
 20
-108.2948
 10
-324.7929
 20
-108.3964
 10
-324.9187
 20
-108.5047
 10
-325.0383
 20
-108.6198
 10
-325.1515
 20
-108.7415
 10
-325.2583
 20
-108.87
 10
-325.3588
 20
-109.0052
 10
-325.453
 20
-109.1471
 10
-325.5409
 20
-109.2956
 10
-325.6208
 20
-109.4538
 10
-325.6909
 20
-109.6248
 10
-325.7513
 20
-109.8085
 10
-325.802
 20
-110.0049
 10
-325.8429
 20
-110.214
 10
-325.8742
 20
-110.4357
 10
-325.8957
 20
-110.6701
 10
-325.9076
 20
-110.9171
 10
-325.9059
 20
-111.1667
 10
-325.8867
 20
-111.4089
 10
-325.8501
 20
-111.6437
 10
-325.796
 20
-111.8711
 10
-325.7243
 20
-112.0911
 10
-325.6351
 20
-112.3037
 10
-325.5284
 20
-112.5089
 10
-325.4041
 20
-112.7067
 10
-325.2855
 20
-112.8705
 10
-325.1584
 20
-113.0276
 10
-325.0227
 20
-113.1781
 10
-324.8783
 20
-113.322
 10
-324.7253
 20
-113.4591
 10
-324.5637
 20
-113.5897
 10
-324.3933
 20
-113.7137
 10
-324.2141
 20
-113.831
 10
-325.7669
 20
-113.7872
 10
-325.8106
 20
-115.3298
 10
-316.0737
 20
-115.6026
 10
-316.0299
 20
-114.0601
 10
-321.0125
 20
-113.9209
 10
-321.3019
 20
-113.8769
 10
-321.5795
 20
-113.8221
 10
-321.8456
 20
-113.7567
 10
-322.1002
 20
-113.6806
 10
-322.3435
 20
-113.5938
 10
-322.5755
 20
-113.4964
 10
-322.7964
 20
-113.3883
 10
-323.0062
 20
-113.2696
 10
-323.1549
 20
-113.1733
 10
-323.2966
 20
-113.0697
 10
-323.4312
 20
-112.9587
 10
-323.5588
 20
-112.8404
 10
-323.6792
 20
-112.7148
 10
-323.7926
 20
-112.5818
 10
-323.8987
 20
-112.4415
 10
-323.9976
 20
-112.2939
 10
-324.0866
 20
-112.1409
 10
-324.1631
 20
-111.9856
 10
-324.2271
 20
-111.828
 10
-324.2786
 20
-111.6681
 10
-324.3175
 20
-111.5058
 10
-324.344
 20
-111.3411
 10
-324.358
 20
-111.1741
 10
-324.3595
 20
-111.0047
 10
-324.3517
 20
-110.8394
 10
-324.3375
 20
-110.6854
 10
-324.3171
 20
-110.5426
 10
-324.2904
 20
-110.4111
 10
-324.2575
 20
-110.2907
 10
-324.2183
 20
-110.1816
 10
-324.1728
 20
-110.0837
 10
-324.1211
 20
-109.9969
 10
-323.9499
 20
-109.7795
 10
-323.7512
 20
-109.5925
 10
-323.525
 20
-109.4357
 10
-323.2713
 20
-109.3094
 10
-322.9901
 20
-109.2134
 10
-322.6813
 20
-109.1478
 10
-322.345
 20
-109.1126
 10
-321.9812
 20
-109.1079
 10
-315.8954
 20
-109.2784
 10
-315.8524
 20
-107.7366
 10
-321.9374
 20
-107.5662
 10
-322.3104
 20
-107.5669
 10
-322.8381
 20
-107.2988
 10
-322.987
 20
-107.2025
 10
-323.1288
 20
-107.0988
 10
-323.2634
 20
-106.9879
 10
-323.391
 20
-106.8696
 10
-323.5113
 20
-106.7439
 10
-323.6246
 20
-106.6109
 10
-323.7306
 20
-106.4706
 10
-323.8295
 20
-106.323
 10
-323.9185
 20
-106.17
 10
-323.995
 20
-106.0147
 10
-324.059
 20
-105.8571
 10
-324.1105
 20
-105.6972
 10
-324.1495
 20
-105.5349
 10
-324.1759
 20
-105.3702
 10
-324.19
 20
-105.2032
 10
-324.1915
 20
-105.0338
 10
-324.1836
 20
-104.8685
 10
-324.1695
 20
-104.7145
 10
-324.1491
 20
-104.5717
 10
-324.1225
 20
-104.4402
 10
-324.0896
 20
-104.3199
 10
-324.0505
 20
-104.2108
 10
-324.0052
 20
-104.1128
 10
-323.9538
 20
-104.026
 10
-323.7823
 20
-103.8086
 10
-323.5834
 20
-103.6216
 10
-323.3571
 20
-103.4649
 10
-323.1033
 20
-103.3385
 10
-322.822
 20
-103.2425
 10
-322.5133
 20
-103.1769
 10
-322.1769
 20
-103.1418
 10
-321.8131
 20
-103.1371
 10
-315.7273
 20
-103.3075
  0
ENDSEC
  0
SECTION
  2
OBJECTS
  0
DICTIONARY
  5
C
330
0
100
AcDbDictionary
281
     1
  3
ACAD_DETAILVIEWSTYLE
350
94
  3
ACAD_GROUP
350
D
  3
ACAD_LAYOUT
350
1A
  3
ACAD_MATERIAL
350
43
  3
ACAD_MLEADERSTYLE
350
5B
  3
ACAD_MLINESTYLE
350
17
  3
ACAD_PLOTSETTINGS
350
19
  3
ACAD_PLOTSTYLENAME
350
E
  3
ACAD_SCALELIST
350
47
  3
ACAD_SECTIONVIEWSTYLE
350
95
  3
ACAD_TABLESTYLE
350
59
  3
ACAD_VISUALSTYLE
350
2A
  3
ACDB_RECOMPOSE_DATA
350
91
  3
AcDbVariableDictionary
350
8D
  0
SUN
  5
5D
330
29
100
AcDbSun
 90
        1
290
     0
 63
     7
421
 16777215
 40
1.0
291
     1
 91
  2455826
 92
 54000000
292
     0
 70
     2
 71
   256
280
     1
  0
DICTIONARY
  5
94
102
{ACAD_REACTORS
330
C
102
}
330
C
100
AcDbDictionary
281
     1
  0
DICTIONARY
  5
D
102
{ACAD_REACTORS
330
C
102
}
330
C
100
AcDbDictionary
281
     1
  0
DICTIONARY
  5
1A
102
{ACAD_REACTORS
330
C
102
}
330
C
100
AcDbDictionary
281
     1
  3
Layout1
350
1E
  3
Layout2
350
26
  3
Model
350
22
  0
DICTIONARY
  5
43
102
{ACAD_REACTORS
330
C
102
}
330
C
100
AcDbDictionary
281
     1
  3
ByBlock
350
45
  3
ByLayer
350
44
  3
Global
350
46
  0
DICTIONARY
  5
5B
102
{ACAD_REACTORS
330
C
102
}
330
C
100
AcDbDictionary
281
     1
  3
Standard
350
5C
  0
DICTIONARY
  5
17
102
{ACAD_REACTORS
330
C
102
}
330
C
100
AcDbDictionary
281
     1
  3
Standard
350
18
  0
DICTIONARY
  5
19
102
{ACAD_REACTORS
330
C
102
}
330
C
100
AcDbDictionary
281
     1
  0
ACDBDICTIONARYWDFLT
  5
E
102
{ACAD_REACTORS
330
C
102
}
330
C
100
AcDbDictionary
281
     1
  3
Normal
350
F
100
AcDbDictionaryWithDefault
340
F
  0
DICTIONARY
  5
47
102
{ACAD_REACTORS
330
C
102
}
330
C
100
AcDbDictionary
281
     1
  3
A0
350
48
  3
A1
350
49
  3
A2
350
4A
  3
A3
350
4B
  3
A4
350
4C
  3
A5
350
4D
  3
A6
350
4E
  3
A7
350
4F
  3
A8
350
50
  3
A9
350
51
  3
B1
350
52
  3
B2
350
53
  3
B3
350
54
  3
B4
350
55
  3
B5
350
56
  3
B6
350
57
  3
B7
350
58
  0
DICTIONARY
  5
95
102
{ACAD_REACTORS
330
C
102
}
330
C
100
AcDbDictionary
281
     1
  0
DICTIONARY
  5
59
102
{ACAD_REACTORS
330
C
102
}
330
C
100
AcDbDictionary
281
     1
  3
Standard
350
5A
  0
DICTIONARY
  5
2A
102
{ACAD_REACTORS
330
C
102
}
330
C
100
AcDbDictionary
281
     1
  3
2dWireframe
350
2F
  3
Basic
350
32
  3
Brighten
350
36
  3
ColorChange
350
3A
  3
Conceptual
350
34
  3
Dim
350
35
  3
EdgeColorOff
350
3D
  3
Facepattern
350
39
  3
Flat
350
2B
  3
FlatWithEdges
350
2C
  3
Gouraud
350
2D
  3
GouraudWithEdges
350
2E
  3
Hidden
350
31
  3
JitterOff
350
3B
  3
Linepattern
350
38
  3
OverhangOff
350
3C
  3
Realistic
350
33
  3
Shaded
350
42
  3
Shaded with edges
350
41
  3
Shades of Gray
350
3E
  3
Sketchy
350
3F
  3
Thicken
350
37
  3
Wireframe
350
30
  3
X-Ray
350
40
  0
XRECORD
  5
91
102
{ACAD_REACTORS
330
C
102
}
330
C
100
AcDbXrecord
280
     1
 90
        1
330
5A
  0
DICTIONARY
  5
8D
102
{ACAD_REACTORS
330
C
102
}
330
C
100
AcDbDictionary
281
     1
  3
CANNOSCALE
350
8E
  3
CMLEADERSTYLE
350
93
  3
CTABLESTYLE
350
92
  0
LAYOUT
  5
1E
102
{ACAD_REACTORS
330
1A
102
}
330
1A
100
AcDbPlotSettings
  1

  2
none_device
  4

  6

 40
0.0
 41
0.0
 42
0.0
 43
0.0
 44
0.0
 45
0.0
 46
0.0
 47
0.0
 48
0.0
 49
0.0
140
0.0
141
0.0
142
1.0
143
1.0
 70
   688
 72
     0
 73
     0
 74
     5
  7

 75
    16
 76
     0
 77
     2
 78
   300
147
1.0
148
0.0
149
0.0
100
AcDbLayout
  1
Layout1
 70
     1
 71
     1
 10
0.0
 20
0.0
 11
12.0
 21
9.0
 12
0.0
 22
0.0
 32
0.0
 14
1.000000000000000E+20
 24
1.000000000000000E+20
 34
1.000000000000000E+20
 15
-1.000000000000000E+20
 25
-1.000000000000000E+20
 35
-1.000000000000000E+20
146
0.0
 13
0.0
 23
0.0
 33
0.0
 16
1.0
 26
0.0
 36
0.0
 17
0.0
 27
1.0
 37
0.0
 76
     0
330
1B
  0
LAYOUT
  5
26
102
{ACAD_REACTORS
330
1A
102
}
330
1A
100
AcDbPlotSettings
  1

  2
none_device
  4

  6

 40
0.0
 41
0.0
 42
0.0
 43
0.0
 44
0.0
 45
0.0
 46
0.0
 47
0.0
 48
0.0
 49
0.0
140
0.0
141
0.0
142
1.0
143
1.0
 70
   688
 72
     0
 73
     0
 74
     5
  7

 75
    16
 76
     0
 77
     2
 78
   300
147
1.0
148
0.0
149
0.0
100
AcDbLayout
  1
Layout2
 70
     1
 71
     2
 10
0.0
 20
0.0
 11
0.0
 21
0.0
 12
0.0
 22
0.0
 32
0.0
 14
0.0
 24
0.0
 34
0.0
 15
0.0
 25
0.0
 35
0.0
146
0.0
 13
0.0
 23
0.0
 33
0.0
 16
1.0
 26
0.0
 36
0.0
 17
0.0
 27
1.0
 37
0.0
 76
     0
330
23
  0
LAYOUT
  5
22
102
{ACAD_REACTORS
330
1A
102
}
330
1A
100
AcDbPlotSettings
  1

  2
none_device
  4
Letter_(8.50_x_11.00_Inches)
  6

 40
6.35
 41
6.35
 42
6.35000508
 43
6.35000508
 44
215.9
 45
279.4
 46
0.0
 47
0.0
 48
0.0
 49
0.0
140
0.0
141
0.0
142
1.0
143
1.0
 70
  1712
 72
     0
 73
     0
 74
     0
  7

 75
     0
 76
     0
 77
     2
 78
   300
147
1.0
148
0.0
149
0.0
100
AcDbLayout
  1
Model
 70
     1
 71
     0
 10
0.0
 20
0.0
 11
12.0
 21
9.0
 12
0.0
 22
0.0
 32
0.0
 14
-472.4782
 24
-235.0628
 34
0.0
 15
-303.4406
 25
-13.444
 35
0.0
146
0.0
 13
0.0
 23
0.0
 33
0.0
 16
1.0
 26
0.0
 36
0.0
 17
0.0
 27
1.0
 37
0.0
 76
     0
330
1F
331
29
  0
MATERIAL
  5
45
102
{ACAD_REACTORS
330
43
102
}
330
43
100
AcDbMaterial
  1
ByBlock
 72
     1
 94
      127
  0
MATERIAL
  5
44
102
{ACAD_REACTORS
330
43
102
}
330
43
100
AcDbMaterial
  1
ByLayer
 72
     1
 94
      127
  0
MATERIAL
  5
46
102
{ACAD_REACTORS
330
43
102
}
330
43
100
AcDbMaterial
  1
Global
 72
     1
 94
      127
  0
MLEADERSTYLE
  5
5C
102
{ACAD_REACTORS
330
5B
102
}
330
5B
100
AcDbMLeaderStyle
179
     2
170
     2
171
     1
172
     0
 90
        2
 40
0.0
 41
0.0
173
     1
 91
-1056964608
340
14
 92
       -2
290
     1
 42
0.09
291
     1
 43
0.36
  3
Standard
341
0
 44
0.18
300

342
11
174
     1
178
     6
175
     1
176
     0
 93
-1056964608
 45
0.18
292
     0
297
     0
 46
0.18
343
0
 94
-1056964608
 47
1.0
 49
1.0
140
1.0
293
     1
141
0.0
294
     1
177
     0
142
1.0
295
     0
296
     0
143
0.125
271
     0
272
     9
273
     9
298
     0
  0
MLINESTYLE
  5
18
102
{ACAD_REACTORS
330
17
102
}
330
17
100
AcDbMlineStyle
  2
Standard
 70
     0
  3

 62
   256
 51
90.0
 52
90.0
 71
     2
 49
0.5
 62
   256
  6
BYLAYER
 49
-0.5
 62
   256
  6
BYLAYER
  0
ACDBPLACEHOLDER
  5
F
102
{ACAD_REACTORS
330
E
102
}
330
E
  0
SCALE
  5
48
102
{ACAD_REACTORS
330
47
102
}
330
47
100
AcDbScale
 70
     0
300
1:1
140
1.0
141
1.0
290
     1
  0
SCALE
  5
49
102
{ACAD_REACTORS
330
47
102
}
330
47
100
AcDbScale
 70
     0
300
1/128" = 1'-0"
140
0.0078125
141
12.0
290
     0
  0
SCALE
  5
4A
102
{ACAD_REACTORS
330
47
102
}
330
47
100
AcDbScale
 70
     0
300
1/64" = 1'-0"
140
0.015625
141
12.0
290
     0
  0
SCALE
  5
4B
102
{ACAD_REACTORS
330
47
102
}
330
47
100
AcDbScale
 70
     0
300
1/32" = 1'-0"
140
0.03125
141
12.0
290
     0
  0
SCALE
  5
4C
102
{ACAD_REACTORS
330
47
102
}
330
47
100
AcDbScale
 70
     0
300
1/16" = 1'-0"
140
0.0625
141
12.0
290
     0
  0
SCALE
  5
4D
102
{ACAD_REACTORS
330
47
102
}
330
47
100
AcDbScale
 70
     0
300
3/32" = 1'-0"
140
0.09375
141
12.0
290
     0
  0
SCALE
  5
4E
102
{ACAD_REACTORS
330
47
102
}
330
47
100
AcDbScale
 70
     0
300
1/8" = 1'-0"
140
0.125
141
12.0
290
     0
  0
SCALE
  5
4F
102
{ACAD_REACTORS
330
47
102
}
330
47
100
AcDbScale
 70
     0
300
3/16" = 1'-0"
140
0.1875
141
12.0
290
     0
  0
SCALE
  5
50
102
{ACAD_REACTORS
330
47
102
}
330
47
100
AcDbScale
 70
     0
300
1/4" = 1'-0"
140
0.25
141
12.0
290
     0
  0
SCALE
  5
51
102
{ACAD_REACTORS
330
47
102
}
330
47
100
AcDbScale
 70
     0
300
3/8" = 1'-0"
140
0.375
141
12.0
290
     0
  0
SCALE
  5
52
102
{ACAD_REACTORS
330
47
102
}
330
47
100
AcDbScale
 70
     0
300
1/2" = 1'-0"
140
0.5
141
12.0
290
     0
  0
SCALE
  5
53
102
{ACAD_REACTORS
330
47
102
}
330
47
100
AcDbScale
 70
     0
300
3/4" = 1'-0"
140
0.75
141
12.0
290
     0
  0
SCALE
  5
54
102
{ACAD_REACTORS
330
47
102
}
330
47
100
AcDbScale
 70
     0
300
1" = 1'-0"
140
1.0
141
12.0
290
     0
  0
SCALE
  5
55
102
{ACAD_REACTORS
330
47
102
}
330
47
100
AcDbScale
 70
     0
300
1-1/2" = 1'-0"
140
1.5
141
12.0
290
     0
  0
SCALE
  5
56
102
{ACAD_REACTORS
330
47
102
}
330
47
100
AcDbScale
 70
     0
300
3" = 1'-0"
140
3.0
141
12.0
290
     0
  0
SCALE
  5
57
102
{ACAD_REACTORS
330
47
102
}
330
47
100
AcDbScale
 70
     0
300
6" = 1'-0"
140
6.0
141
12.0
290
     0
  0
SCALE
  5
58
102
{ACAD_REACTORS
330
47
102
}
330
47
100
AcDbScale
 70
     0
300
1'-0" = 1'-0"
140
12.0
141
12.0
290
     0
  0
TABLESTYLE
  5
5A
102
{ACAD_REACTORS
330
59
102
}
102
{ACAD_XDICTIONARY
360
8F
102
}
330
59
100
AcDbTableStyle
  3
Standard
 70
     0
 71
     0
 40
0.06
 41
0.06
280
     0
281
     0
  7
Standard
140
0.18
170
     2
 62
     0
 63
   257
283
     0
 90
        4
 91
        0
  1

274
    -2
284
     1
 64
     0
275
    -2
285
     1
 65
     0
276
    -2
286
     1
 66
     0
277
    -2
287
     1
 67
     0
278
    -2
288
     1
 68
     0
279
    -2
289
     1
 69
     0
  7
Standard
140
0.25
170
     5
 62
     0
 63
   257
283
     0
 90
        4
 91
        0
  1

274
    -2
284
     1
 64
     0
275
    -2
285
     1
 65
     0
276
    -2
286
     1
 66
     0
277
    -2
287
     1
 67
     0
278
    -2
288
     1
 68
     0
279
    -2
289
     1
 69
     0
  7
Standard
140
0.18
170
     5
 62
     0
 63
   257
283
     0
 90
        4
 91
        0
  1

274
    -2
284
     1
 64
     0
275
    -2
285
     1
 65
     0
276
    -2
286
     1
 66
     0
277
    -2
287
     1
 67
     0
278
    -2
288
     1
 68
     0
279
    -2
289
     1
 69
     0
  0
VISUALSTYLE
  5
2F
102
{ACAD_REACTORS
330
2A
102
}
330
2A
100
AcDbVisualStyle
  2
2dWireframe
 70
     4
177
     3
291
     0
 70
    58
 90
        0
176
     1
 90
        2
176
     1
 90
        0
176
     1
 90
        0
176
     1
 40
0.6
176
     1
 40
30.0
176
     1
 62
     7
420
 16777215
176
     1
 90
        1
176
     1
 90
        4
176
     1
 62
     7
176
     1
 62
   257
176
     1
 90
        1
176
     1
 90
        1
176
     1
 40
1.0
176
     1
 90
        0
176
     1
 62
   257
176
     1
 40
1.0
176
     1
 90
        1
176
     1
 90
        6
176
     1
 90
        2
176
     1
 62
     7
176
     1
 90
        5
176
     1
 90
        0
176
     1
 90
        0
176
     1
290
     0
176
     1
 90
        1
176
     1
 40
0.0
176
     1
 90
        0
176
     1
290
     1
176
     1
290
     1
176
     1
290
     0
176
     1
290
     0
176
     1
290
     0
176
     1
290
     0
176
     1
290
     0
176
     1
290
     0
176
     1
290
     0
176
     1
 90
       50
176
     1
 40
0.0
176
     1
 40
1.0
176
     1
 90
        0
176
     1
 62
    18
420
        0
176
     1
 90
       50
176
     1
 90
        3
176
     1
 62
     5
420
      255
176
     1
290
     0
176
     1
 90
       50
176
     1
 90
       50
176
     1
 90
       50
176
     1
290
     0
176
     1
 90
       50
176
     1
 62
   256
176
     0
 40
1.0
176
     0
 90
        2
176
     1
  1
strokes_ogs.tif
176
     1
290
     0
176
     1
 40
1.0
176
     1
 40
1.0
176
     1
  0
VISUALSTYLE
  5
32
102
{ACAD_REACTORS
330
2A
102
}
330
2A
100
AcDbVisualStyle
  2
Basic
 70
     7
177
     3
291
     1
 70
    58
 90
        1
176
     1
 90
        0
176
     1
 90
        1
176
     1
 90
        0
176
     1
 40
0.6
176
     1
 40
30.0
176
     1
 62
     7
420
 16777215
176
     1
 90
        0
176
     1
 90
        4
176
     1
 62
     7
176
     1
 62
   257
176
     1
 90
        1
176
     1
 90
        1
176
     1
 40
1.0
176
     1
 90
        8
176
     1
 62
     7
176
     1
 40
1.0
176
     1
 90
        1
176
     1
 90
        6
176
     1
 90
        2
176
     1
 62
     7
176
     1
 90
        5
176
     1
 90
        0
176
     1
 90
        0
176
     1
290
     0
176
     1
 90
        1
176
     1
 40
0.0
176
     1
 90
        0
176
     1
290
     0
176
     1
290
     1
176
     1
290
     1
176
     1
290
     0
176
     1
290
     0
176
     1
290
     0
176
     1
290
     0
176
     1
290
     0
176
     1
290
     0
176
     1
 90
       50
176
     1
 40
0.0
176
     1
 40
1.0
176
     1
 90
        0
176
     1
 62
    18
420
        0
176
     1
 90
       50
176
     1
 90
        3
176
     1
 62
     5
420
      255
176
     1
290
     0
176
     1
 90
       50
176
     1
 90
       50
176
     1
 90
       50
176
     1
290
     0
176
     1
 90
       50
176
     1
 62
   256
176
     0
 40
1.0
176
     0
 90
        2
176
     1
  1
strokes_ogs.tif
176
     1
290
     0
176
     1
 40
1.0
176
     1
 40
1.0
176
     1
  0
VISUALSTYLE
  5
36
102
{ACAD_REACTORS
330
2A
102
}
330
2A
100
AcDbVisualStyle
  2
Brighten
 70
    12
177
     3
291
     1
 70
    58
 90
        2
176
     1
 90
        2
176
     1
 90
        0
176
     1
 90
        0
176
     1
 40
0.6
176
     1
 40
30.0
176
     1
 62
     7
420
 16777215
176
     1
 90
        1
176
     1
 90
        4
176
     1
 62
     7
176
     1
 62
   257
176
     1
 90
        1
176
     1
 90
        1
176
     1
 40
1.0
176
     1
 90
        8
176
     1
 62
     7
176
     1
 40
1.0
176
     1
 90
        1
176
     1
 90
        6
176
     1
 90
        2
176
     1
 62
     7
176
     1
 90
        5
176
     1
 90
        0
176
     1
 90
        0
176
     1
290
     0
176
     1
 90
        1
176
     1
 40
50.0
176
     1
 90
        0
176
     1
290
     0
176
     1
290
     1
176
     1
290
     1
176
     1
290
     0
176
     1
290
     0
176
     1
290
     0
176
     1
290
     0
176
     1
290
     0
176
     1
290
     0
176
     1
 90
       50
176
     1
 40
0.0
176
     1
 40
1.0
176
     1
 90
        0
176
     1
 62
    18
420
        0
176
     1
 90
       50
176
     1
 90
        3
176
     1
 62
     5
420
      255
176
     1
290
     0
176
     1
 90
       50
176
     1
 90
       50
176
     1
 90
       50
176
     1
290
     0
176
     1
 90
       50
176
     1
 62
   256
176
     0
 40
1.0
176
     0
 90
        2
176
     1
  1
strokes_ogs.tif
176
     1
290
     0
176
     1
 40
1.0
176
     1
 40
1.0
176
     1
  0
VISUALSTYLE
  5
3A
102
{ACAD_REACTORS
330
2A
102
}
330
2A
100
AcDbVisualStyle
  2
ColorChange
 70
    16
177
     3
291
     1
 70
    58
 90
        2
176
     1
 90
        2
176
     1
 90
        3
176
     1
 90
        0
176
     1
 40
0.6
176
     1
 40
30.0
176
     1
 62
     8
420
  8421504
176
     1
 90
        1
176
     1
 90
        4
176
     1
 62
     7
176
     1
 62
   257
176
     1
 90
        1
176
     1
 90
        1
176
     1
 40
1.0
176
     1
 90
        8
176
     1
 62
     8
420
  8421504
176
     1
 40
1.0
176
     1
 90
        1
176
     1
 90
        6
176
     1
 90
        2
176
     1
 62
     7
176
     1
 90
        5
176
     1
 90
        0
176
     1
 90
        0
176
     1
290
     0
176
     1
 90
        1
176
     1
 40
0.0
176
     1
 90
        0
176
     1
290
     0
176
     1
290
     1
176
     1
290
     1
176
     1
290
     0
176
     1
290
     0
176
     1
290
     0
176
     1
290
     0
176
     1
290
     0
176
     1
290
     0
176
     1
 90
       50
176
     1
 40
0.0
176
     1
 40
1.0
176
     1
 90
        0
176
     1
 62
    18
420
        0
176
     1
 90
       50
176
     1
 90
        3
176
     1
 62
     5
420
      255
176
     1
290
     0
176
     1
 90
       50
176
     1
 90
       50
176
     1
 90
       50
176
     1
290
     0
176
     1
 90
       50
176
     1
 62
   256
176
     0
 40
1.0
176
     0
 90
        2
176
     1
  1
strokes_ogs.tif
176
     1
290
     0
176
     1
 40
1.0
176
     1
 40
1.0
176
     1
  0
VISUALSTYLE
  5
34
102
{ACAD_REACTORS
330
2A
102
}
330
2A
100
AcDbVisualStyle
  2
Conceptual
 70
     9
177
     3
291
     0
 70
    58
 90
        3
176
     1
 90
        2
176
     1
 90
        0
176
     1
 90
        0
176
     1
 40
0.6
176
     1
 40
30.0
176
     1
 62
     7
420
 16777215
176
     1
 90
        2
176
     1
 90
        2
176
     1
 62
     7
176
     1
 62
   257
176
     1
 90
        1
176
     1
 90
        1
176
     1
 40
179.0
176
     1
 90
        8
176
     1
 62
     7
176
     1
 40
1.0
176
     1
 90
        1
176
     1
 90
        6
176
     1
 90
        2
176
     1
 62
     7
176
     1
 90
        3
176
     1
 90
        0
176
     1
 90
        0
176
     1
290
     0
176
     1
 90
        1
176
     1
 40
0.0
176
     1
 90
        0
176
     1
290
     0
176
     1
290
     1
176
     1
290
     1
176
     1
290
     0
176
     1
290
     0
176
     1
290
     0
176
     1
290
     0
176
     1
290
     0
176
     1
290
     0
176
     1
 90
       50
176
     1
 40
0.0
176
     1
 40
1.0
176
     1
 90
        0
176
     1
 62
    18
420
        0
176
     1
 90
       50
176
     1
 90
        3
176
     1
 62
     5
420
      255
176
     1
290
     0
176
     1
 90
       50
176
     1
 90
       50
176
     1
 90
       50
176
     1
290
     0
176
     1
 90
       50
176
     1
 62
   256
176
     0
 40
1.0
176
     0
 90
        2
176
     1
  1
strokes_ogs.tif
176
     1
290
     0
176
     1
 40
1.0
176
     1
 40
1.0
176
     1
  0
VISUALSTYLE
  5
35
102
{ACAD_REACTORS
330
2A
102
}
330
2A
100
AcDbVisualStyle
  2
Dim
 70
    11
177
     3
291
     1
 70
    58
 90
        2
176
     1
 90
        2
176
     1
 90
        0
176
     1
 90
        0
176
     1
 40
0.6
176
     1
 40
30.0
176
     1
 62
     7
420
 16777215
176
     1
 90
        1
176
     1
 90
        4
176
     1
 62
     7
176
     1
 62
   257
176
     1
 90
        1
176
     1
 90
        1
176
     1
 40
1.0
176
     1
 90
        8
176
     1
 62
     7
176
     1
 40
1.0
176
     1
 90
        1
176
     1
 90
        6
176
     1
 90
        2
176
     1
 62
     7
176
     1
 90
        5
176
     1
 90
        0
176
     1
 90
        0
176
     1
290
     0
176
     1
 90
        1
176
     1
 40
-50.0
176
     1
 90
        0
176
     1
290
     0
176
     1
290
     1
176
     1
290
     1
176
     1
290
     0
176
     1
290
     0
176
     1
290
     0
176
     1
290
     0
176
     1
290
     0
176
     1
290
     0
176
     1
 90
       50
176
     1
 40
0.0
176
     1
 40
1.0
176
     1
 90
        0
176
     1
 62
    18
420
        0
176
     1
 90
       50
176
     1
 90
        3
176
     1
 62
     5
420
      255
176
     1
290
     0
176
     1
 90
       50
176
     1
 90
       50
176
     1
 90
       50
176
     1
290
     0
176
     1
 90
       50
176
     1
 62
   256
176
     0
 40
1.0
176
     0
 90
        2
176
     1
  1
strokes_ogs.tif
176
     1
290
     0
176
     1
 40
1.0
176
     1
 40
1.0
176
     1
  0
VISUALSTYLE
  5
3D
102
{ACAD_REACTORS
330
2A
102
}
330
2A
100
AcDbVisualStyle
  2
EdgeColorOff
 70
    22
177
     3
291
     1
 70
    58
 90
        2
176
     0
 90
        2
176
     0
 90
        0
176
     0
 90
        0
176
     0
 40
0.6
176
     0
 40
30.0
176
     0
 62
     7
420
 16777215
176
     0
 90
        1
176
     0
 90
        4
176
     0
 62
     7
176
     0
 62
   257
176
     0
 90
        1
176
     0
 90
        1
176
     0
 40
1.0
176
     0
 90
        8
176
     2
 62
     7
176
     0
 40
1.0
176
     0
 90
        1
176
     0
 90
        6
176
     0
 90
        2
176
     0
 62
     7
176
     0
 90
        5
176
     0
 90
        0
176
     0
 90
        0
176
     0
290
     0
176
     0
 90
        1
176
     0
 40
0.0
176
     0
 90
        0
176
     0
290
     0
176
     0
290
     1
176
     0
290
     1
176
     0
290
     0
176
     0
290
     0
176
     0
290
     0
176
     0
290
     0
176
     0
290
     0
176
     0
290
     0
176
     0
 90
       50
176
     0
 40
0.0
176
     0
 40
1.0
176
     0
 90
        0
176
     0
 62
    18
420
        0
176
     0
 90
       50
176
     0
 90
        3
176
     0
 62
     5
420
      255
176
     0
290
     0
176
     0
 90
       50
176
     0
 90
       50
176
     0
 90
       50
176
     0
290
     0
176
     0
 90
       50
176
     0
 62
   256
176
     0
 40
1.0
176
     0
 90
        2
176
     0
  1
strokes_ogs.tif
176
     0
290
     0
176
     0
 40
1.0
176
     0
 40
1.0
176
     0
  0
VISUALSTYLE
  5
39
102
{ACAD_REACTORS
330
2A
102
}
330
2A
100
AcDbVisualStyle
  2
Facepattern
 70
    15
177
     3
291
     1
 70
    58
 90
        2
176
     1
 90
        2
176
     1
 90
        0
176
     1
 90
        0
176
     1
 40
0.6
176
     1
 40
30.0
176
     1
 62
     7
420
 16777215
176
     1
 90
        1
176
     1
 90
        4
176
     1
 62
     7
176
     1
 62
   257
176
     1
 90
        1
176
     1
 90
        1
176
     1
 40
1.0
176
     1
 90
        8
176
     1
 62
     7
176
     1
 40
1.0
176
     1
 90
        1
176
     1
 90
        6
176
     1
 90
        2
176
     1
 62
     7
176
     1
 90
        5
176
     1
 90
        0
176
     1
 90
        0
176
     1
290
     0
176
     1
 90
        1
176
     1
 40
0.0
176
     1
 90
        0
176
     1
290
     0
176
     1
290
     1
176
     1
290
     1
176
     1
290
     0
176
     1
290
     0
176
     1
290
     0
176
     1
290
     0
176
     1
290
     0
176
     1
290
     0
176
     1
 90
       50
176
     1
 40
0.0
176
     1
 40
1.0
176
     1
 90
        0
176
     1
 62
    18
420
        0
176
     1
 90
       50
176
     1
 90
        3
176
     1
 62
     5
420
      255
176
     1
290
     0
176
     1
 90
       50
176
     1
 90
       50
176
     1
 90
       50
176
     1
290
     0
176
     1
 90
       50
176
     1
 62
   256
176
     0
 40
1.0
176
     0
 90
        2
176
     1
  1
strokes_ogs.tif
176
     1
290
     0
176
     1
 40
1.0
176
     1
 40
1.0
176
     1
  0
VISUALSTYLE
  5
2B
102
{ACAD_REACTORS
330
2A
102
}
330
2A
100
AcDbVisualStyle
  2
Flat
 70
     0
177
     3
291
     1
 70
    58
 90
        2
176
     1
 90
        1
176
     1
 90
        1
176
     1
 90
        2
176
     1
 40
0.6
176
     1
 40
30.0
176
     1
 62
     7
420
 16777215
176
     1
 90
        0
176
     1
 90
        0
176
     1
 62
     7
176
     1
 62
   257
176
     1
 90
        1
176
     1
 90
        1
176
     1
 40
1.0
176
     1
 90
        8
176
     1
 62
     7
176
     1
 40
1.0
176
     1
 90
        1
176
     1
 90
        6
176
     1
 90
        2
176
     1
 62
     7
176
     1
 90
        5
176
     1
 90
        0
176
     1
 90
        0
176
     1
290
     0
176
     1
 90
       13
176
     1
 40
0.0
176
     1
 90
        0
176
     1
290
     0
176
     1
290
     1
176
     1
290
     1
176
     1
290
     0
176
     1
290
     0
176
     1
290
     0
176
     1
290
     0
176
     1
290
     0
176
     1
290
     0
176
     1
 90
       50
176
     1
 40
0.0
176
     1
 40
1.0
176
     1
 90
        0
176
     1
 62
    18
420
        0
176
     1
 90
       50
176
     1
 90
        3
176
     1
 62
     5
420
      255
176
     1
290
     0
176
     1
 90
       50
176
     1
 90
       50
176
     1
 90
       50
176
     1
290
     0
176
     1
 90
       50
176
     1
 62
   256
176
     0
 40
1.0
176
     0
 90
        2
176
     1
  1
strokes_ogs.tif
176
     1
290
     0
176
     1
 40
1.0
176
     1
 40
1.0
176
     1
  0
VISUALSTYLE
  5
2C
102
{ACAD_REACTORS
330
2A
102
}
330
2A
100
AcDbVisualStyle
  2
FlatWithEdges
 70
     1
177
     3
291
     1
 70
    58
 90
        2
176
     1
 90
        1
176
     1
 90
        1
176
     1
 90
        2
176
     1
 40
0.6
176
     1
 40
30.0
176
     1
 62
     7
420
 16777215
176
     1
 90
        1
176
     1
 90
        0
176
     1
 62
     7
176
     1
 62
   257
176
     1
 90
        1
176
     1
 90
        1
176
     1
 40
1.0
176
     1
 90
        0
176
     1
 62
   257
176
     1
 40
1.0
176
     1
 90
        1
176
     1
 90
        6
176
     1
 90
        2
176
     1
 62
     7
176
     1
 90
        5
176
     1
 90
        0
176
     1
 90
        0
176
     1
290
     0
176
     1
 90
       13
176
     1
 40
0.0
176
     1
 90
        0
176
     1
290
     0
176
     1
290
     1
176
     1
290
     1
176
     1
290
     0
176
     1
290
     0
176
     1
290
     0
176
     1
290
     0
176
     1
290
     0
176
     1
290
     0
176
     1
 90
       50
176
     1
 40
0.0
176
     1
 40
1.0
176
     1
 90
        0
176
     1
 62
    18
420
        0
176
     1
 90
       50
176
     1
 90
        3
176
     1
 62
     5
420
      255
176
     1
290
     0
176
     1
 90
       50
176
     1
 90
       50
176
     1
 90
       50
176
     1
290
     0
176
     1
 90
       50
176
     1
 62
   256
176
     0
 40
1.0
176
     0
 90
        2
176
     1
  1
strokes_ogs.tif
176
     1
290
     0
176
     1
 40
1.0
176
     1
 40
1.0
176
     1
  0
VISUALSTYLE
  5
2D
102
{ACAD_REACTORS
330
2A
102
}
330
2A
100
AcDbVisualStyle
  2
Gouraud
 70
     2
177
     3
291
     1
 70
    58
 90
        2
176
     1
 90
        2
176
     1
 90
        1
176
     1
 90
        2
176
     1
 40
0.6
176
     1
 40
30.0
176
     1
 62
     7
420
 16777215
176
     1
 90
        0
176
     1
 90
        0
176
     1
 62
     7
176
     1
 62
   257
176
     1
 90
        1
176
     1
 90
        1
176
     1
 40
1.0
176
     1
 90
        0
176
     1
 62
     7
176
     1
 40
1.0
176
     1
 90
        1
176
     1
 90
        6
176
     1
 90
        2
176
     1
 62
     7
176
     1
 90
        5
176
     1
 90
        0
176
     1
 90
        0
176
     1
290
     0
176
     1
 90
       13
176
     1
 40
0.0
176
     1
 90
        0
176
     1
290
     0
176
     1
290
     1
176
     1
290
     1
176
     1
290
     0
176
     1
290
     0
176
     1
290
     0
176
     1
290
     0
176
     1
290
     0
176
     1
290
     0
176
     1
 90
       50
176
     1
 40
0.0
176
     1
 40
1.0
176
     1
 90
        0
176
     1
 62
    18
420
        0
176
     1
 90
       50
176
     1
 90
        3
176
     1
 62
     5
420
      255
176
     1
290
     0
176
     1
 90
       50
176
     1
 90
       50
176
     1
 90
       50
176
     1
290
     0
176
     1
 90
       50
176
     1
 62
   256
176
     0
 40
1.0
176
     0
 90
        2
176
     1
  1
strokes_ogs.tif
176
     1
290
     0
176
     1
 40
1.0
176
     1
 40
1.0
176
     1
  0
VISUALSTYLE
  5
2E
102
{ACAD_REACTORS
330
2A
102
}
330
2A
100
AcDbVisualStyle
  2
GouraudWithEdges
 70
     3
177
     3
291
     1
 70
    58
 90
        2
176
     1
 90
        2
176
     1
 90
        1
176
     1
 90
        2
176
     1
 40
0.6
176
     1
 40
30.0
176
     1
 62
     7
420
 16777215
176
     1
 90
        1
176
     1
 90
        0
176
     1
 62
     7
176
     1
 62
   257
176
     1
 90
        1
176
     1
 90
        1
176
     1
 40
1.0
176
     1
 90
        0
176
     1
 62
   257
176
     1
 40
1.0
176
     1
 90
        1
176
     1
 90
        6
176
     1
 90
        2
176
     1
 62
     7
176
     1
 90
        5
176
     1
 90
        0
176
     1
 90
        0
176
     1
290
     0
176
     1
 90
       13
176
     1
 40
0.0
176
     1
 90
        0
176
     1
290
     0
176
     1
290
     1
176
     1
290
     1
176
     1
290
     0
176
     1
290
     0
176
     1
290
     0
176
     1
290
     0
176
     1
290
     0
176
     1
290
     0
176
     1
 90
       50
176
     1
 40
0.0
176
     1
 40
1.0
176
     1
 90
        0
176
     1
 62
    18
420
        0
176
     1
 90
       50
176
     1
 90
        3
176
     1
 62
     5
420
      255
176
     1
290
     0
176
     1
 90
       50
176
     1
 90
       50
176
     1
 90
       50
176
     1
290
     0
176
     1
 90
       50
176
     1
 62
   256
176
     0
 40
1.0
176
     0
 90
        2
176
     1
  1
strokes_ogs.tif
176
     1
290
     0
176
     1
 40
1.0
176
     1
 40
1.0
176
     1
  0
VISUALSTYLE
  5
31
102
{ACAD_REACTORS
330
2A
102
}
330
2A
100
AcDbVisualStyle
  2
Hidden
 70
     6
177
     3
291
     0
 70
    58
 90
        1
176
     1
 90
        2
176
     1
 90
        2
176
     1
 90
        0
176
     1
 40
0.6
176
     1
 40
30.0
176
     1
 62
     7
420
 16777215
176
     1
 90
        2
176
     1
 90
        2
176
     1
 62
     7
176
     1
 62
   257
176
     1
 90
        2
176
     1
 90
        1
176
     1
 40
40.0
176
     1
 90
        0
176
     1
 62
   257
176
     1
 40
1.0
176
     1
 90
        1
176
     1
 90
        6
176
     1
 90
        2
176
     1
 62
     7
176
     1
 90
        3
176
     1
 90
        0
176
     1
 90
        0
176
     1
290
     0
176
     1
 90
        1
176
     1
 40
0.0
176
     1
 90
        0
176
     1
290
     0
176
     1
290
     1
176
     1
290
     1
176
     1
290
     0
176
     1
290
     0
176
     1
290
     0
176
     1
290
     0
176
     1
290
     0
176
     1
290
     0
176
     1
 90
       50
176
     1
 40
0.0
176
     1
 40
1.0
176
     1
 90
        0
176
     1
 62
    18
420
        0
176
     1
 90
       50
176
     1
 90
        3
176
     1
 62
     5
420
      255
176
     1
290
     0
176
     1
 90
       50
176
     1
 90
       50
176
     1
 90
       50
176
     1
290
     0
176
     1
 90
       50
176
     1
 62
   256
176
     0
 40
1.0
176
     0
 90
        2
176
     1
  1
strokes_ogs.tif
176
     1
290
     0
176
     1
 40
1.0
176
     1
 40
1.0
176
     1
  0
VISUALSTYLE
  5
3B
102
{ACAD_REACTORS
330
2A
102
}
330
2A
100
AcDbVisualStyle
  2
JitterOff
 70
    20
177
     3
291
     1
 70
    58
 90
        2
176
     0
 90
        2
176
     0
 90
        0
176
     0
 90
        0
176
     0
 40
0.6
176
     0
 40
30.0
176
     0
 62
     7
420
 16777215
176
     0
 90
        1
176
     0
 90
        4
176
     0
 62
     7
176
     0
 62
   257
176
     0
 90
        1
176
     0
 90
        1
176
     0
 40
1.0
176
     0
 90
       10
176
     2
 62
     7
176
     0
 40
1.0
176
     0
 90
        1
176
     0
 90
        6
176
     0
 90
        2
176
     0
 62
     7
176
     0
 90
        5
176
     0
 90
        0
176
     0
 90
        0
176
     0
290
     0
176
     0
 90
        1
176
     0
 40
0.0
176
     0
 90
        0
176
     0
290
     0
176
     0
290
     1
176
     0
290
     1
176
     0
290
     0
176
     0
290
     0
176
     0
290
     0
176
     0
290
     0
176
     0
290
     0
176
     0
290
     0
176
     0
 90
       50
176
     0
 40
0.0
176
     0
 40
1.0
176
     0
 90
        0
176
     0
 62
    18
420
        0
176
     0
 90
       50
176
     0
 90
        3
176
     0
 62
     5
420
      255
176
     0
290
     0
176
     0
 90
       50
176
     0
 90
       50
176
     0
 90
       50
176
     0
290
     0
176
     0
 90
       50
176
     0
 62
   256
176
     0
 40
1.0
176
     0
 90
        2
176
     0
  1
strokes_ogs.tif
176
     0
290
     0
176
     0
 40
1.0
176
     0
 40
1.0
176
     0
  0
VISUALSTYLE
  5
38
102
{ACAD_REACTORS
330
2A
102
}
330
2A
100
AcDbVisualStyle
  2
Linepattern
 70
    14
177
     3
291
     1
 70
    58
 90
        2
176
     1
 90
        2
176
     1
 90
        0
176
     1
 90
        0
176
     1
 40
0.6
176
     1
 40
30.0
176
     1
 62
     7
420
 16777215
176
     1
 90
        1
176
     1
 90
        4
176
     1
 62
     7
176
     1
 62
   257
176
     1
 90
        7
176
     1
 90
        7
176
     1
 40
1.0
176
     1
 90
        8
176
     1
 62
     7
176
     1
 40
1.0
176
     1
 90
        1
176
     1
 90
        6
176
     1
 90
        2
176
     1
 62
     7
176
     1
 90
        5
176
     1
 90
        0
176
     1
 90
        0
176
     1
290
     0
176
     1
 90
        1
176
     1
 40
0.0
176
     1
 90
        0
176
     1
290
     0
176
     1
290
     1
176
     1
290
     1
176
     1
290
     0
176
     1
290
     0
176
     1
290
     0
176
     1
290
     0
176
     1
290
     0
176
     1
290
     0
176
     1
 90
       50
176
     1
 40
0.0
176
     1
 40
1.0
176
     1
 90
        0
176
     1
 62
    18
420
        0
176
     1
 90
       50
176
     1
 90
        3
176
     1
 62
     5
420
      255
176
     1
290
     0
176
     1
 90
       50
176
     1
 90
       50
176
     1
 90
       50
176
     1
290
     0
176
     1
 90
       50
176
     1
 62
   256
176
     0
 40
1.0
176
     0
 90
        2
176
     1
  1
strokes_ogs.tif
176
     1
290
     0
176
     1
 40
1.0
176
     1
 40
1.0
176
     1
  0
VISUALSTYLE
  5
3C
102
{ACAD_REACTORS
330
2A
102
}
330
2A
100
AcDbVisualStyle
  2
OverhangOff
 70
    21
177
     3
291
     1
 70
    58
 90
        2
176
     0
 90
        2
176
     0
 90
        0
176
     0
 90
        0
176
     0
 40
0.6
176
     0
 40
30.0
176
     0
 62
     7
420
 16777215
176
     0
 90
        1
176
     0
 90
        4
176
     0
 62
     7
176
     0
 62
   257
176
     0
 90
        1
176
     0
 90
        1
176
     0
 40
1.0
176
     0
 90
        9
176
     2
 62
     7
176
     0
 40
1.0
176
     0
 90
        1
176
     0
 90
        6
176
     0
 90
        2
176
     0
 62
     7
176
     0
 90
        5
176
     0
 90
        0
176
     0
 90
        0
176
     0
290
     0
176
     0
 90
        1
176
     0
 40
0.0
176
     0
 90
        0
176
     0
290
     0
176
     0
290
     1
176
     0
290
     1
176
     0
290
     0
176
     0
290
     0
176
     0
290
     0
176
     0
290
     0
176
     0
290
     0
176
     0
290
     0
176
     0
 90
       50
176
     0
 40
0.0
176
     0
 40
1.0
176
     0
 90
        0
176
     0
 62
    18
420
        0
176
     0
 90
       50
176
     0
 90
        3
176
     0
 62
     5
420
      255
176
     0
290
     0
176
     0
 90
       50
176
     0
 90
       50
176
     0
 90
       50
176
     0
290
     0
176
     0
 90
       50
176
     0
 62
   256
176
     0
 40
1.0
176
     0
 90
        2
176
     0
  1
strokes_ogs.tif
176
     0
290
     0
176
     0
 40
1.0
176
     0
 40
1.0
176
     0
  0
VISUALSTYLE
  5
33
102
{ACAD_REACTORS
330
2A
102
}
330
2A
100
AcDbVisualStyle
  2
Realistic
 70
     8
177
     3
291
     0
 70
    58
 90
        2
176
     1
 90
        3
176
     1
 90
        0
176
     1
 90
        2
176
     1
 40
0.6
176
     1
 40
30.0
176
     1
 62
     7
420
 16777215
176
     1
 90
        0
176
     1
 90
        0
176
     1
 62
     7
176
     1
 62
   257
176
     1
 90
        1
176
     1
 90
        1
176
     1
 40
1.0
176
     1
 90
        8
176
     1
 62
   257
176
     1
 40
1.0
176
     1
 90
        1
176
     1
 90
        6
176
     1
 90
        2
176
     1
 62
     7
176
     1
 90
        3
176
     1
 90
        0
176
     1
 90
        0
176
     1
290
     0
176
     1
 90
       13
176
     1
 40
0.0
176
     1
 90
        0
176
     1
290
     0
176
     1
290
     1
176
     1
290
     1
176
     1
290
     0
176
     1
290
     0
176
     1
290
     0
176
     1
290
     0
176
     1
290
     0
176
     1
290
     0
176
     1
 90
       50
176
     1
 40
0.0
176
     1
 40
1.0
176
     1
 90
        0
176
     1
 62
    18
420
        0
176
     1
 90
       50
176
     1
 90
        3
176
     1
 62
     5
420
      255
176
     1
290
     0
176
     1
 90
       50
176
     1
 90
       50
176
     1
 90
       50
176
     1
290
     0
176
     1
 90
       50
176
     1
 62
   256
176
     0
 40
1.0
176
     0
 90
        2
176
     1
  1
strokes_ogs.tif
176
     1
290
     0
176
     1
 40
1.0
176
     1
 40
1.0
176
     1
  0
VISUALSTYLE
  5
42
102
{ACAD_REACTORS
330
2A
102
}
330
2A
100
AcDbVisualStyle
  2
Shaded
 70
    27
177
     3
291
     0
 70
    58
 90
        2
176
     1
 90
        2
176
     1
 90
        1
176
     1
 90
        2
176
     1
 40
0.6
176
     1
 40
30.0
176
     1
 62
     7
420
 16777215
176
     1
 90
        0
176
     1
 90
        4
176
     1
 62
     7
176
     1
 62
   257
176
     1
 90
        1
176
     1
 90
        1
176
     1
 40
1.0
176
     1
 90
        8
176
     1
 62
   257
176
     1
 40
1.0
176
     1
 90
        1
176
     1
 90
        6
176
     1
 90
        2
176
     1
 62
     8
420
  7895160
176
     1
 90
        3
176
     1
 90
        0
176
     1
 90
        0
176
     1
290
     0
176
     1
 90
        5
176
     1
 40
0.0
176
     1
 90
        0
176
     1
290
     0
176
     1
290
     1
176
     1
290
     1
176
     1
290
     0
176
     1
290
     0
176
     1
290
     0
176
     1
290
     0
176
     1
290
     0
176
     1
290
     0
176
     1
 90
       50
176
     1
 40
0.0
176
     1
 40
1.0
176
     1
 90
        0
176
     1
 62
    18
420
        0
176
     1
 90
       50
176
     1
 90
        3
176
     1
 62
     5
420
      255
176
     1
290
     0
176
     1
 90
       50
176
     1
 90
       50
176
     1
 90
       50
176
     1
290
     0
176
     1
 90
       50
176
     1
 62
   256
176
     0
 40
1.0
176
     0
 90
        2
176
     1
  1
strokes_ogs.tif
176
     1
290
     0
176
     1
 40
1.0
176
     1
 40
1.0
176
     1
  0
VISUALSTYLE
  5
41
102
{ACAD_REACTORS
330
2A
102
}
330
2A
100
AcDbVisualStyle
  2
Shaded with edges
 70
    26
177
     3
291
     0
 70
    58
 90
        2
176
     1
 90
        2
176
     1
 90
        1
176
     1
 90
        2
176
     1
 40
0.6
176
     1
 40
30.0
176
     1
 62
     7
420
 16777215
176
     1
 90
        1
176
     1
 90
       10
176
     1
 62
     7
176
     1
 62
   257
176
     1
 90
        2
176
     1
 90
        1
176
     1
 40
1.0
176
     1
 90
        8
176
     1
 62
   257
176
     1
 40
1.0
176
     1
 90
        1
176
     1
 90
        6
176
     1
 90
        2
176
     1
 62
     7
176
     1
 90
        3
176
     1
 90
        0
176
     1
 90
        0
176
     1
290
     0
176
     1
 90
        5
176
     1
 40
0.0
176
     1
 90
        0
176
     1
290
     0
176
     1
290
     1
176
     1
290
     1
176
     1
290
     0
176
     1
290
     0
176
     1
290
     0
176
     1
290
     0
176
     1
290
     0
176
     1
290
     0
176
     1
 90
       50
176
     1
 40
0.0
176
     1
 40
1.0
176
     1
 90
        0
176
     1
 62
    18
420
        0
176
     1
 90
       50
176
     1
 90
        3
176
     1
 62
     5
420
      255
176
     1
290
     0
176
     1
 90
       50
176
     1
 90
       50
176
     1
 90
       50
176
     1
290
     0
176
     1
 90
       50
176
     1
 62
   256
176
     0
 40
1.0
176
     0
 90
        2
176
     1
  1
strokes_ogs.tif
176
     1
290
     0
176
     1
 40
1.0
176
     1
 40
1.0
176
     1
  0
VISUALSTYLE
  5
3E
102
{ACAD_REACTORS
330
2A
102
}
330
2A
100
AcDbVisualStyle
  2
Shades of Gray
 70
    23
177
     3
291
     0
 70
    58
 90
        2
176
     1
 90
        2
176
     1
 90
        3
176
     1
 90
        0
176
     1
 40
0.6
176
     1
 40
30.0
176
     1
 62
     7
420
 16777215
176
     1
 90
        2
176
     1
 90
        2
176
     1
 62
     7
176
     1
 62
     7
176
     1
 90
        1
176
     1
 90
        1
176
     1
 40
40.0
176
     1
 90
        8
176
     1
 62
     7
176
     1
 40
1.0
176
     1
 90
        1
176
     1
 90
        6
176
     1
 90
        2
176
     1
 62
     7
176
     1
 90
        3
176
     1
 90
        0
176
     1
 90
        0
176
     1
290
     0
176
     1
 90
        1
176
     1
 40
0.0
176
     1
 90
        0
176
     1
290
     0
176
     1
290
     1
176
     1
290
     1
176
     1
290
     0
176
     1
290
     0
176
     1
290
     0
176
     1
290
     0
176
     1
290
     0
176
     1
290
     0
176
     1
 90
       50
176
     1
 40
0.0
176
     1
 40
1.0
176
     1
 90
        0
176
     1
 62
    18
420
        0
176
     1
 90
       50
176
     1
 90
        3
176
     1
 62
     5
420
      255
176
     1
290
     0
176
     1
 90
       50
176
     1
 90
       50
176
     1
 90
       50
176
     1
290
     0
176
     1
 90
       50
176
     1
 62
   256
176
     0
 40
1.0
176
     0
 90
        2
176
     1
  1
strokes_ogs.tif
176
     1
290
     0
176
     1
 40
1.0
176
     1
 40
1.0
176
     1
  0
VISUALSTYLE
  5
3F
102
{ACAD_REACTORS
330
2A
102
}
330
2A
100
AcDbVisualStyle
  2
Sketchy
 70
    24
177
     3
291
     0
 70
    58
 90
        1
176
     1
 90
        2
176
     1
 90
        2
176
     1
 90
        0
176
     1
 40
0.6
176
     1
 40
30.0
176
     1
 62
     7
420
 16777215
176
     1
 90
        2
176
     1
 90
        2
176
     1
 62
     7
176
     1
 62
     7
176
     1
 90
        1
176
     1
 90
        1
176
     1
 40
40.0
176
     1
 90
       11
176
     1
 62
     7
176
     1
 40
1.0
176
     1
 90
        1
176
     1
 90
        6
176
     1
 90
        2
176
     1
 62
     7
176
     1
 90
        6
176
     1
 90
        0
176
     1
 90
        0
176
     1
290
     0
176
     1
 90
        1
176
     1
 40
0.0
176
     1
 90
        0
176
     1
290
     0
176
     1
290
     1
176
     1
290
     1
176
     1
290
     0
176
     1
290
     0
176
     1
290
     0
176
     1
290
     0
176
     1
290
     0
176
     1
290
     0
176
     1
 90
       50
176
     1
 40
0.0
176
     1
 40
1.0
176
     1
 90
        0
176
     1
 62
    18
420
        0
176
     1
 90
       50
176
     1
 90
        3
176
     1
 62
     5
420
      255
176
     1
290
     0
176
     1
 90
       50
176
     1
 90
       50
176
     1
 90
       50
176
     1
290
     0
176
     1
 90
       50
176
     1
 62
   256
176
     0
 40
1.0
176
     0
 90
        2
176
     1
  1
strokes_ogs.tif
176
     1
290
     0
176
     1
 40
1.0
176
     1
 40
1.0
176
     1
  0
VISUALSTYLE
  5
37
102
{ACAD_REACTORS
330
2A
102
}
330
2A
100
AcDbVisualStyle
  2
Thicken
 70
    13
177
     3
291
     1
 70
    58
 90
        2
176
     1
 90
        2
176
     1
 90
        0
176
     1
 90
        0
176
     1
 40
0.6
176
     1
 40
30.0
176
     1
 62
     7
420
 16777215
176
     1
 90
        1
176
     1
 90
        4
176
     1
 62
     7
176
     1
 62
   257
176
     1
 90
        1
176
     1
 90
        1
176
     1
 40
1.0
176
     1
 90
       12
176
     1
 62
     7
176
     1
 40
1.0
176
     1
 90
        1
176
     1
 90
        6
176
     1
 90
        2
176
     1
 62
     7
176
     1
 90
        5
176
     1
 90
        0
176
     1
 90
        0
176
     1
290
     0
176
     1
 90
        1
176
     1
 40
0.0
176
     1
 90
        0
176
     1
290
     0
176
     1
290
     1
176
     1
290
     1
176
     1
290
     0
176
     1
290
     0
176
     1
290
     0
176
     1
290
     0
176
     1
290
     0
176
     1
290
     0
176
     1
 90
       50
176
     1
 40
0.0
176
     1
 40
1.0
176
     1
 90
        0
176
     1
 62
    18
420
        0
176
     1
 90
       50
176
     1
 90
        3
176
     1
 62
     5
420
      255
176
     1
290
     0
176
     1
 90
       50
176
     1
 90
       50
176
     1
 90
       50
176
     1
290
     0
176
     1
 90
       50
176
     1
 62
   256
176
     0
 40
1.0
176
     0
 90
        2
176
     1
  1
strokes_ogs.tif
176
     1
290
     0
176
     1
 40
1.0
176
     1
 40
1.0
176
     1
  0
VISUALSTYLE
  5
30
102
{ACAD_REACTORS
330
2A
102
}
330
2A
100
AcDbVisualStyle
  2
Wireframe
 70
     5
177
     3
291
     0
 70
    58
 90
        0
176
     1
 90
        2
176
     1
 90
        0
176
     1
 90
        0
176
     1
 40
0.6
176
     1
 40
30.0
176
     1
 62
     7
420
 16777215
176
     1
 90
        1
176
     1
 90
        4
176
     1
 62
     7
176
     1
 62
   257
176
     1
 90
        1
176
     1
 90
        1
176
     1
 40
1.0
176
     1
 90
        0
176
     1
 62
   257
176
     1
 40
1.0
176
     1
 90
        1
176
     1
 90
        6
176
     1
 90
        2
176
     1
 62
     7
176
     1
 90
        3
176
     1
 90
        0
176
     1
 90
        0
176
     1
290
     0
176
     1
 90
        1
176
     1
 40
0.0
176
     1
 90
        0
176
     1
290
     0
176
     1
290
     1
176
     1
290
     1
176
     1
290
     0
176
     1
290
     0
176
     1
290
     0
176
     1
290
     0
176
     1
290
     0
176
     1
290
     0
176
     1
 90
       50
176
     1
 40
0.0
176
     1
 40
1.0
176
     1
 90
        0
176
     1
 62
    18
420
        0
176
     1
 90
       50
176
     1
 90
        3
176
     1
 62
     5
420
      255
176
     1
290
     0
176
     1
 90
       50
176
     1
 90
       50
176
     1
 90
       50
176
     1
290
     0
176
     1
 90
       50
176
     1
 62
   256
176
     0
 40
1.0
176
     0
 90
        2
176
     1
  1
strokes_ogs.tif
176
     1
290
     0
176
     1
 40
1.0
176
     1
 40
1.0
176
     1
  0
VISUALSTYLE
  5
40
102
{ACAD_REACTORS
330
2A
102
}
330
2A
100
AcDbVisualStyle
  2
X-Ray
 70
    25
177
     3
291
     0
 70
    58
 90
        2
176
     1
 90
        2
176
     1
 90
        1
176
     1
 90
        1
176
     1
 40
0.5
176
     1
 40
30.0
176
     1
 62
     7
420
 16777215
176
     1
 90
        1
176
     1
 90
        0
176
     1
 62
     7
176
     1
 62
   257
176
     1
 90
        1
176
     1
 90
        1
176
     1
 40
1.0
176
     1
 90
        8
176
     1
 62
     7
176
     1
 40
1.0
176
     1
 90
        1
176
     1
 90
        6
176
     1
 90
        2
176
     1
 62
     7
176
     1
 90
        3
176
     1
 90
        0
176
     1
 90
        0
176
     1
290
     0
176
     1
 90
       13
176
     1
 40
0.0
176
     1
 90
        0
176
     1
290
     0
176
     1
290
     1
176
     1
290
     1
176
     1
290
     0
176
     1
290
     0
176
     1
290
     0
176
     1
290
     0
176
     1
290
     0
176
     1
290
     0
176
     1
 90
       50
176
     1
 40
0.0
176
     1
 40
1.0
176
     1
 90
        0
176
     1
 62
    18
420
        0
176
     1
 90
       50
176
     1
 90
        3
176
     1
 62
     5
420
      255
176
     1
290
     0
176
     1
 90
       50
176
     1
 90
       50
176
     1
 90
       50
176
     1
290
     0
176
     1
 90
       50
176
     1
 62
   256
176
     0
 40
1.0
176
     0
 90
        2
176
     1
  1
strokes_ogs.tif
176
     1
290
     0
176
     1
 40
1.0
176
     1
 40
1.0
176
     1
  0
DICTIONARYVAR
  5
8E
102
{ACAD_REACTORS
330
8D
102
}
330
8D
100
DictionaryVariables
280
     0
  1
1:1
  0
DICTIONARYVAR
  5
93
102
{ACAD_REACTORS
330
8D
102
}
330
8D
100
DictionaryVariables
280
     0
  1
Standard
  0
DICTIONARYVAR
  5
92
102
{ACAD_REACTORS
330
8D
102
}
330
8D
100
DictionaryVariables
280
     0
  1
Standard
  0
DICTIONARY
  5
8F
330
5A
100
AcDbDictionary
280
     1
281
     1
  3
ACAD_ROUNDTRIP_2008_TABLESTYLE_CELLSTYLEMAP
360
90
  0
CELLSTYLEMAP
  5
90
102
{ACAD_REACTORS
330
8F
102
}
330
8F
100
AcDbCellStyleMap
 90
        3
300
CELLSTYLE
  1
TABLEFORMAT_BEGIN
 90
        5
170
     1
 91
        0
 92
    32768
 62
   257
 93
        1
300
CONTENTFORMAT
  1
CONTENTFORMAT_BEGIN
 90
        0
 91
        0
 92
        4
 93
        0
300

 40
0.0
140
1.0
 94
        5
 62
     0
340
11
144
0.25
309
CONTENTFORMAT_END
171
     1
301
MARGIN
  1
CELLMARGIN_BEGIN
 40
0.06
 40
0.06
 40
0.06
 40
0.06
 40
0.06
 40
0.06
309
CELLMARGIN_END
 94
        6
 95
        1
302
GRIDFORMAT
  1
GRIDFORMAT_BEGIN
 90
        0
 91
        1
 62
     0
 92
       -2
340
14
 93
        0
 40
0.045
309
GRIDFORMAT_END
 95
        2
302
GRIDFORMAT
  1
GRIDFORMAT_BEGIN
 90
        0
 91
        1
 62
     0
 92
       -2
340
14
 93
        0
 40
0.045
309
GRIDFORMAT_END
 95
        4
302
GRIDFORMAT
  1
GRIDFORMAT_BEGIN
 90
        0
 91
        1
 62
     0
 92
       -2
340
14
 93
        0
 40
0.045
309
GRIDFORMAT_END
 95
        8
302
GRIDFORMAT
  1
GRIDFORMAT_BEGIN
 90
        0
 91
        1
 62
     0
 92
       -2
340
14
 93
        0
 40
0.045
309
GRIDFORMAT_END
 95
       16
302
GRIDFORMAT
  1
GRIDFORMAT_BEGIN
 90
        0
 91
        1
 62
     0
 92
       -2
340
14
 93
        0
 40
0.045
309
GRIDFORMAT_END
 95
       32
302
GRIDFORMAT
  1
GRIDFORMAT_BEGIN
 90
        0
 91
        1
 62
     0
 92
       -2
340
14
 93
        0
 40
0.045
309
GRIDFORMAT_END
309
TABLEFORMAT_END
  1
CELLSTYLE_BEGIN
 90
        1
 91
        1
300
_TITLE
309
CELLSTYLE_END
300
CELLSTYLE
  1
TABLEFORMAT_BEGIN
 90
        5
170
     1
 91
        0
 92
        0
 62
   257
 93
        1
300
CONTENTFORMAT
  1
CONTENTFORMAT_BEGIN
 90
        0
 91
        0
 92
        4
 93
        0
300

 40
0.0
140
1.0
 94
        5
 62
     0
340
11
144
0.18
309
CONTENTFORMAT_END
171
     1
301
MARGIN
  1
CELLMARGIN_BEGIN
 40
0.06
 40
0.06
 40
0.06
 40
0.06
 40
0.06
 40
0.06
309
CELLMARGIN_END
 94
        6
 95
        1
302
GRIDFORMAT
  1
GRIDFORMAT_BEGIN
 90
        0
 91
        1
 62
     0
 92
       -2
340
14
 93
        0
 40
0.045
309
GRIDFORMAT_END
 95
        2
302
GRIDFORMAT
  1
GRIDFORMAT_BEGIN
 90
        0
 91
        1
 62
     0
 92
       -2
340
14
 93
        0
 40
0.045
309
GRIDFORMAT_END
 95
        4
302
GRIDFORMAT
  1
GRIDFORMAT_BEGIN
 90
        0
 91
        1
 62
     0
 92
       -2
340
14
 93
        0
 40
0.045
309
GRIDFORMAT_END
 95
        8
302
GRIDFORMAT
  1
GRIDFORMAT_BEGIN
 90
        0
 91
        1
 62
     0
 92
       -2
340
14
 93
        0
 40
0.045
309
GRIDFORMAT_END
 95
       16
302
GRIDFORMAT
  1
GRIDFORMAT_BEGIN
 90
        0
 91
        1
 62
     0
 92
       -2
340
14
 93
        0
 40
0.045
309
GRIDFORMAT_END
 95
       32
302
GRIDFORMAT
  1
GRIDFORMAT_BEGIN
 90
        0
 91
        1
 62
     0
 92
       -2
340
14
 93
        0
 40
0.045
309
GRIDFORMAT_END
309
TABLEFORMAT_END
  1
CELLSTYLE_BEGIN
 90
        2
 91
        1
300
_HEADER
309
CELLSTYLE_END
300
CELLSTYLE
  1
TABLEFORMAT_BEGIN
 90
        5
170
     1
 91
        0
 92
        0
 62
   257
 93
        1
300
CONTENTFORMAT
  1
CONTENTFORMAT_BEGIN
 90
        0
 91
        0
 92
        4
 93
        0
300

 40
0.0
140
1.0
 94
        2
 62
     0
340
11
144
0.18
309
CONTENTFORMAT_END
171
     1
301
MARGIN
  1
CELLMARGIN_BEGIN
 40
0.06
 40
0.06
 40
0.06
 40
0.06
 40
0.06
 40
0.06
309
CELLMARGIN_END
 94
        6
 95
        1
302
GRIDFORMAT
  1
GRIDFORMAT_BEGIN
 90
        0
 91
        1
 62
     0
 92
       -2
340
14
 93
        0
 40
0.045
309
GRIDFORMAT_END
 95
        2
302
GRIDFORMAT
  1
GRIDFORMAT_BEGIN
 90
        0
 91
        1
 62
     0
 92
       -2
340
14
 93
        0
 40
0.045
309
GRIDFORMAT_END
 95
        4
302
GRIDFORMAT
  1
GRIDFORMAT_BEGIN
 90
        0
 91
        1
 62
     0
 92
       -2
340
14
 93
        0
 40
0.045
309
GRIDFORMAT_END
 95
        8
302
GRIDFORMAT
  1
GRIDFORMAT_BEGIN
 90
        0
 91
        1
 62
     0
 92
       -2
340
14
 93
        0
 40
0.045
309
GRIDFORMAT_END
 95
       16
302
GRIDFORMAT
  1
GRIDFORMAT_BEGIN
 90
        0
 91
        1
 62
     0
 92
       -2
340
14
 93
        0
 40
0.045
309
GRIDFORMAT_END
 95
       32
302
GRIDFORMAT
  1
GRIDFORMAT_BEGIN
 90
        0
 91
        1
 62
     0
 92
       -2
340
14
 93
        0
 40
0.045
309
GRIDFORMAT_END
309
TABLEFORMAT_END
  1
CELLSTYLE_BEGIN
 90
        3
 91
        2
300
_DATA
309
CELLSTYLE_END
  0
ENDSEC
  0
EOF
