  0
SECTION
  2
HEADER
  9
$ACADVER
  1
AC1027
  9
$ACADMAINTVER
 70
   105
  9
$DWGCODEPAGE
  3
ANSI_1252
  9
$LASTSAVEDBY
  1
Office Desk
  9
$REQUIREDVERSIONS
160
                 0
  9
$INSBASE
 10
0.0
 20
0.0
 30
0.0
  9
$EXTMIN
 10
308.3575
 20
-185.392
 30
0.0
  9
$EXTMAX
 10
477.3951
 20
17.0624
 30
0.0
  9
$LIMMIN
 10
0.0
 20
0.0
  9
$LIMMAX
 10
12.0
 20
9.0
  9
$ORTHOMODE
 70
     0
  9
$REGENMODE
 70
     1
  9
$FILLMODE
 70
     1
  9
$QTEXTMODE
 70
     0
  9
$MIRRTEXT
 70
     1
  9
$LTSCALE
 40
1.0
  9
$ATTMODE
 70
     1
  9
$TEXTSIZE
 40
0.2
  9
$TRACEWID
 40
0.05
  9
$TEXTSTYLE
  7
Standard
  9
$CLAYER
  8
0
  9
$CELTYPE
  6
ByLayer
  9
$CECOLOR
 62
   256
  9
$CELTSCALE
 40
1.0
  9
$DISPSILH
 70
     0
  9
$DIMSCALE
 40
1.0
  9
$DIMASZ
 40
0.18
  9
$DIMEXO
 40
0.0625
  9
$DIMDLI
 40
0.38
  9
$DIMRND
 40
0.0
  9
$DIMDLE
 40
0.0
  9
$DIMEXE
 40
0.18
  9
$DIMTP
 40
0.0
  9
$DIMTM
 40
0.0
  9
$DIMTXT
 40
0.18
  9
$DIMCEN
 40
0.09
  9
$DIMTSZ
 40
0.0
  9
$DIMTOL
 70
     0
  9
$DIMLIM
 70
     0
  9
$DIMTIH
 70
     1
  9
$DIMTOH
 70
     1
  9
$DIMSE1
 70
     0
  9
$DIMSE2
 70
     0
  9
$DIMTAD
 70
     0
  9
$DIMZIN
 70
     0
  9
$DIMBLK
  1

  9
$DIMASO
 70
     1
  9
$DIMSHO
 70
     1
  9
$DIMPOST
  1

  9
$DIMAPOST
  1

  9
$DIMALT
 70
     0
  9
$DIMALTD
 70
     2
  9
$DIMALTF
 40
25.4
  9
$DIMLFAC
 40
1.0
  9
$DIMTOFL
 70
     0
  9
$DIMTVP
 40
0.0
  9
$DIMTIX
 70
     0
  9
$DIMSOXD
 70
     0
  9
$DIMSAH
 70
     0
  9
$DIMBLK1
  1

  9
$DIMBLK2
  1

  9
$DIMSTYLE
  2
Standard
  9
$DIMCLRD
 70
     0
  9
$DIMCLRE
 70
     0
  9
$DIMCLRT
 70
     0
  9
$DIMTFAC
 40
1.0
  9
$DIMGAP
 40
0.09
  9
$DIMJUST
 70
     0
  9
$DIMSD1
 70
     0
  9
$DIMSD2
 70
     0
  9
$DIMTOLJ
 70
     1
  9
$DIMTZIN
 70
     0
  9
$DIMALTZ
 70
     0
  9
$DIMALTTZ
 70
     0
  9
$DIMUPT
 70
     0
  9
$DIMDEC
 70
     4
  9
$DIMTDEC
 70
     4
  9
$DIMALTU
 70
     2
  9
$DIMALTTD
 70
     2
  9
$DIMTXSTY
  7
Standard
  9
$DIMAUNIT
 70
     0
  9
$DIMADEC
 70
     0
  9
$DIMALTRND
 40
0.0
  9
$DIMAZIN
 70
     0
  9
$DIMDSEP
 70
    46
  9
$DIMATFIT
 70
     3
  9
$DIMFRAC
 70
     0
  9
$DIMLDRBLK
  1

  9
$DIMLUNIT
 70
     2
  9
$DIMLWD
 70
    -2
  9
$DIMLWE
 70
    -2
  9
$DIMTMOVE
 70
     0
  9
$DIMFXL
 40
1.0
  9
$DIMFXLON
 70
     0
  9
$DIMJOGANG
 40
0.7853981633974483
  9
$DIMTFILL
 70
     0
  9
$DIMTFILLCLR
 70
     0
  9
$DIMARCSYM
 70
     0
  9
$DIMLTYPE
  6

  9
$DIMLTEX1
  6

  9
$DIMLTEX2
  6

  9
$DIMTXTDIRECTION
 70
     0
  9
$LUNITS
 70
     2
  9
$LUPREC
 70
     4
  9
$SKETCHINC
 40
0.1
  9
$FILLETRAD
 40
0.0
  9
$AUNITS
 70
     0
  9
$AUPREC
 70
     0
  9
$MENU
  1
.
  9
$ELEVATION
 40
0.0
  9
$PELEVATION
 40
0.0
  9
$THICKNESS
 40
0.0
  9
$LIMCHECK
 70
     0
  9
$CHAMFERA
 40
0.0
  9
$CHAMFERB
 40
0.0
  9
$CHAMFERC
 40
0.0
  9
$CHAMFERD
 40
0.0
  9
$SKPOLY
 70
     0
  9
$TDCREATE
 40
2461015.760733357
  9
$TDUCREATE
 40
2461015.53156669
  9
$TDUPDATE
 40
2461015.760733542
  9
$TDUUPDATE
 40
2461015.531566875
  9
$TDINDWG
 40
0.0000000116
  9
$TDUSRTIMER
 40
0.0000000116
  9
$USRTIMER
 70
     1
  9
$ANGBASE
 50
0.0
  9
$ANGDIR
 70
     0
  9
$PDMODE
 70
     0
  9
$PDSIZE
 40
0.0
  9
$PLINEWID
 40
0.0
  9
$SPLFRAME
 70
     0
  9
$SPLINETYPE
 70
     6
  9
$SPLINESEGS
 70
     8
  9
$HANDSEED
  5
89
  9
$SURFTAB1
 70
     6
  9
$SURFTAB2
 70
     6
  9
$SURFTYPE
 70
     6
  9
$SURFU
 70
     6
  9
$SURFV
 70
     6
  9
$UCSBASE
  2

  9
$UCSNAME
  2

  9
$UCSORG
 10
0.0
 20
0.0
 30
0.0
  9
$UCSXDIR
 10
1.0
 20
0.0
 30
0.0
  9
$UCSYDIR
 10
0.0
 20
1.0
 30
0.0
  9
$UCSORTHOREF
  2

  9
$UCSORTHOVIEW
 70
     0
  9
$UCSORGTOP
 10
0.0
 20
0.0
 30
0.0
  9
$UCSORGBOTTOM
 10
0.0
 20
0.0
 30
0.0
  9
$UCSORGLEFT
 10
0.0
 20
0.0
 30
0.0
  9
$UCSORGRIGHT
 10
0.0
 20
0.0
 30
0.0
  9
$UCSORGFRONT
 10
0.0
 20
0.0
 30
0.0
  9
$UCSORGBACK
 10
0.0
 20
0.0
 30
0.0
  9
$PUCSBASE
  2

  9
$PUCSNAME
  2

  9
$PUCSORG
 10
0.0
 20
0.0
 30
0.0
  9
$PUCSXDIR
 10
1.0
 20
0.0
 30
0.0
  9
$PUCSYDIR
 10
0.0
 20
1.0
 30
0.0
  9
$PUCSORTHOREF
  2

  9
$PUCSORTHOVIEW
 70
     0
  9
$PUCSORGTOP
 10
0.0
 20
0.0
 30
0.0
  9
$PUCSORGBOTTOM
 10
0.0
 20
0.0
 30
0.0
  9
$PUCSORGLEFT
 10
0.0
 20
0.0
 30
0.0
  9
$PUCSORGRIGHT
 10
0.0
 20
0.0
 30
0.0
  9
$PUCSORGFRONT
 10
0.0
 20
0.0
 30
0.0
  9
$PUCSORGBACK
 10
0.0
 20
0.0
 30
0.0
  9
$USERI1
 70
     0
  9
$USERI2
 70
     0
  9
$USERI3
 70
     0
  9
$USERI4
 70
     0
  9
$USERI5
 70
     0
  9
$USERR1
 40
0.0
  9
$USERR2
 40
0.0
  9
$USERR3
 40
0.0
  9
$USERR4
 40
0.0
  9
$USERR5
 40
0.0
  9
$WORLDVIEW
 70
     1
  9
$SHADEDGE
 70
     3
  9
$SHADEDIF
 70
    70
  9
$TILEMODE
 70
     1
  9
$MAXACTVP
 70
    64
  9
$PINSBASE
 10
0.0
 20
0.0
 30
0.0
  9
$PLIMCHECK
 70
     0
  9
$PEXTMIN
 10
1.000000000000000E+20
 20
1.000000000000000E+20
 30
1.000000000000000E+20
  9
$PEXTMAX
 10
-1.000000000000000E+20
 20
-1.000000000000000E+20
 30
-1.000000000000000E+20
  9
$PLIMMIN
 10
0.0
 20
0.0
  9
$PLIMMAX
 10
12.0
 20
9.0
  9
$UNITMODE
 70
     0
  9
$VISRETAIN
 70
     1
  9
$PLINEGEN
 70
     0
  9
$PSLTSCALE
 70
     1
  9
$TREEDEPTH
 70
  3020
  9
$CMLSTYLE
  2
Standard
  9
$CMLJUST
 70
     0
  9
$CMLSCALE
 40
1.0
  9
$PROXYGRAPHICS
 70
     1
  9
$MEASUREMENT
 70
     0
  9
$CELWEIGHT
370
    -1
  9
$ENDCAPS
280
     0
  9
$JOINSTYLE
280
     0
  9
$LWDISPLAY
290
     0
  9
$INSUNITS
 70
     4
  9
$HYPERLINKBASE
  1

  9
$STYLESHEET
  1

  9
$XEDIT
290
     1
  9
$CEPSNTYPE
380
     0
  9
$PSTYLEMODE
290
     1
  9
$FINGERPRINTGUID
  2
{f8d7187f-9c2e-48d1-b3b8-90138acceba9}
  9
$VERSIONGUID
  2
{FAEB1C32-E019-11D5-929B-00C0DF256EC4}
  9
$EXTNAMES
290
     1
  9
$PSVPSCALE
 40
0.0
  9
$OLESTARTUP
290
     0
  9
$SORTENTS
280
   127
  9
$INDEXCTL
280
     0
  9
$HIDETEXT
280
     1
  9
$XCLIPFRAME
280
     2
  9
$HALOGAP
280
     0
  9
$OBSCOLOR
 70
   257
  9
$OBSLTYPE
280
     0
  9
$INTERSECTIONDISPLAY
280
     0
  9
$INTERSECTIONCOLOR
 70
   257
  9
$DIMASSOC
280
     2
  9
$PROJECTNAME
  1

  9
$CAMERADISPLAY
290
     0
  9
$LENSLENGTH
 40
50.0
  9
$CAMERAHEIGHT
 40
0.0
  9
$STEPSPERSEC
 40
2.0
  9
$STEPSIZE
 40
6.0
  9
$3DDWFPREC
 40
2.0
  9
$PSOLWIDTH
 40
0.25
  9
$PSOLHEIGHT
 40
4.0
  9
$LOFTANG1
 40
1.570796326794897
  9
$LOFTANG2
 40
1.570796326794897
  9
$LOFTMAG1
 40
0.0
  9
$LOFTMAG2
 40
0.0
  9
$LOFTPARAM
 70
     7
  9
$LOFTNORMALS
280
     1
  9
$LATITUDE
 40
37.795
  9
$LONGITUDE
 40
-122.394
  9
$NORTHDIRECTION
 40
0.0
  9
$TIMEZONE
 70
 -8000
  9
$LIGHTGLYPHDISPLAY
280
     1
  9
$TILEMODELIGHTSYNCH
280
     1
  9
$CMATERIAL
347
44
  9
$SOLIDHIST
280
     0
  9
$SHOWHIST
280
     1
  9
$DWFFRAME
280
     2
  9
$DGNFRAME
280
     2
  9
$REALWORLDSCALE
290
     1
  9
$INTERFERECOLOR
 62
   256
  9
$CSHADOW
280
     0
  9
$SHADOWPLANELOCATION
 40
0.0
  0
ENDSEC
  0
SECTION
  2
CLASSES
  0
CLASS
  1
ACDBDICTIONARYWDFLT
  2
AcDbDictionaryWithDefault
  3
ObjectDBX Classes
 90
        0
 91
        3
280
     0
281
     0
  0
CLASS
  1
VISUALSTYLE
  2
AcDbVisualStyle
  3
ObjectDBX Classes
 90
     4095
 91
        3
280
     0
281
     0
  0
CLASS
  1
MATERIAL
  2
AcDbMaterial
  3
ObjectDBX Classes
 90
     1153
 91
        3
280
     0
281
     0
  0
CLASS
  1
SCALE
  2
AcDbScale
  3
ObjectDBX Classes
 90
     1153
 91
        3
280
     0
281
     0
  0
CLASS
  1
TABLESTYLE
  2
AcDbTableStyle
  3
ObjectDBX Classes
 90
     4095
 91
        3
280
     0
281
     0
  0
CLASS
  1
MLEADERSTYLE
  2
AcDbMLeaderStyle
  3
ACDB_MLEADERSTYLE_CLASS
 90
     4095
 91
        3
280
     0
281
     0
  0
CLASS
  1
SUN
  2
AcDbSun
  3
SCENEOE
 90
     1153
 91
        3
280
     0
281
     0
  0
CLASS
  1
DICTIONARYVAR
  2
AcDbDictionaryVar
  3
ObjectDBX Classes
 90
        0
 91
        3
280
     0
281
     0
  0
CLASS
  1
CELLSTYLEMAP
  2
AcDbCellStyleMap
  3
ObjectDBX Classes
 90
     1152
 91
        3
280
     0
281
     0
  0
ENDSEC
  0
SECTION
  2
TABLES
  0
TABLE
  2
VPORT
  5
8
330
0
100
AcDbSymbolTable
 70
     1
  0
VPORT
  5
29
330
8
100
AcDbSymbolTableRecord
100
AcDbViewportTableRecord
  2
*Active
 70
     0
 10
0.0
 20
0.0
 11
1.0
 21
1.0
 12
10.42990654205607
 22
4.5
 13
0.0
 23
0.0
 14
0.5
 24
0.5
 15
0.5
 25
0.5
 16
0.0
 26
0.0
 36
1.0
 17
0.0
 27
0.0
 37
0.0
 40
9.0
 41
1.972972972850329
 42
50.0
 43
0.0
 44
0.0
 50
0.0
 51
0.0
 71
     0
 72
   100
 73
     1
 74
     3
 75
     0
 76
     0
 77
     0
 78
     0
281
     0
 65
     1
110
0.0
120
0.0
130
0.0
111
1.0
121
0.0
131
0.0
112
0.0
122
1.0
132
0.0
 79
     0
146
0.0
348
2F
 60
     3
 61
     5
292
     1
282
     1
141
0.0
142
0.0
 63
   250
361
5D
  0
ENDTAB
  0
TABLE
  2
LTYPE
  5
5
330
0
100
AcDbSymbolTable
 70
     1
  0
LTYPE
  5
14
330
5
100
AcDbSymbolTableRecord
100
AcDbLinetypeTableRecord
  2
ByBlock
 70
     0
  3

 72
    65
 73
     0
 40
0.0
  0
LTYPE
  5
15
330
5
100
AcDbSymbolTableRecord
100
AcDbLinetypeTableRecord
  2
ByLayer
 70
     0
  3

 72
    65
 73
     0
 40
0.0
  0
LTYPE
  5
16
330
5
100
AcDbSymbolTableRecord
100
AcDbLinetypeTableRecord
  2
Continuous
 70
     0
  3
Solid line
 72
    65
 73
     0
 40
0.0
  0
ENDTAB
  0
TABLE
  2
LAYER
  5
2
330
0
100
AcDbSymbolTable
 70
     2
  0
LAYER
  5
10
330
2
100
AcDbSymbolTableRecord
100
AcDbLayerTableRecord
  2
0
 70
     0
 62
     7
  6
Continuous
370
    -3
390
F
347
46
348
0
  0
LAYER
  5
5F
330
2
100
AcDbSymbolTableRecord
100
AcDbLayerTableRecord
  2
Layer 1
 70
     0
 62
     7
  6
Continuous
370
    -3
390
F
347
46
348
0
  0
ENDTAB
  0
TABLE
  2
STYLE
  5
3
330
0
100
AcDbSymbolTable
 70
     1
  0
STYLE
  5
11
330
3
100
AcDbSymbolTableRecord
100
AcDbTextStyleTableRecord
  2
Standard
 70
     0
 40
0.0
 41
1.0
 50
0.0
 71
     0
 42
0.2
  3
txt
  4

  0
ENDTAB
  0
TABLE
  2
VIEW
  5
6
330
0
100
AcDbSymbolTable
 70
     0
  0
ENDTAB
  0
TABLE
  2
UCS
  5
7
330
0
100
AcDbSymbolTable
 70
     0
  0
ENDTAB
  0
TABLE
  2
APPID
  5
9
330
0
100
AcDbSymbolTable
 70
     2
  0
APPID
  5
12
330
9
100
AcDbSymbolTableRecord
100
AcDbRegAppTableRecord
  2
ACAD
 70
     0
  0
APPID
  5
5E
330
9
100
AcDbSymbolTableRecord
100
AcDbRegAppTableRecord
  2
ODA
 70
     0
  0
ENDTAB
  0
TABLE
  2
DIMSTYLE
  5
A
330
0
100
AcDbSymbolTable
 70
     1
100
AcDbDimStyleTable
  0
DIMSTYLE
105
27
330
A
100
AcDbSymbolTableRecord
100
AcDbDimStyleTableRecord
  2
Standard
 70
     0
178
     0
340
11
  0
ENDTAB
  0
TABLE
  2
BLOCK_RECORD
  5
1
330
0
100
AcDbSymbolTable
 70
     1
  0
BLOCK_RECORD
  5
1F
330
1
100
AcDbSymbolTableRecord
100
AcDbBlockTableRecord
  2
*Model_Space
340
22
 70
     0
280
     1
281
     0
  0
BLOCK_RECORD
  5
1B
330
1
100
AcDbSymbolTableRecord
100
AcDbBlockTableRecord
  2
*Paper_Space
340
1E
 70
     0
280
     1
281
     0
  0
BLOCK_RECORD
  5
23
330
1
100
AcDbSymbolTableRecord
100
AcDbBlockTableRecord
  2
*Paper_Space0
340
26
 70
     0
280
     1
281
     0
  0
ENDTAB
  0
ENDSEC
  0
SECTION
  2
BLOCKS
  0
BLOCK
  5
20
330
1F
100
AcDbEntity
  8
0
100
AcDbBlockBegin
  2
*Model_Space
 70
     0
 10
0.0
 20
0.0
 30
0.0
  3
*Model_Space
  1

  0
ENDBLK
  5
21
330
1F
100
AcDbEntity
  8
0
100
AcDbBlockEnd
  0
BLOCK
  5
1C
330
1B
100
AcDbEntity
 67
     1
  8
0
100
AcDbBlockBegin
  2
*Paper_Space
 70
     0
 10
0.0
 20
0.0
 30
0.0
  3
*Paper_Space
  1

  0
ENDBLK
  5
1D
330
1B
100
AcDbEntity
 67
     1
  8
0
100
AcDbBlockEnd
  0
BLOCK
  5
24
330
23
100
AcDbEntity
  8
0
100
AcDbBlockBegin
  2
*Paper_Space0
 70
     0
 10
0.0
 20
0.0
 30
0.0
  3
*Paper_Space0
  1

  0
ENDBLK
  5
25
330
23
100
AcDbEntity
  8
0
100
AcDbBlockEnd
  0
ENDSEC
  0
SECTION
  2
ENTITIES
  0
LWPOLYLINE
  5
60
330
1F
100
AcDbEntity
  8
Layer 1
 62
   250
370
     9
100
AcDbPolyline
 90
        5
 70
     1
 43
0.0
 10
308.3956
 20
-185.3539
 10
477.357
 20
-185.3539
 10
477.357
 20
17.0243
 10
308.3956
 20
17.0243
 10
308.3956
 20
-185.3539
  0
LWPOLYLINE
  5
61
330
1F
100
AcDbEntity
  8
Layer 1
 62
     7
370
     9
100
AcDbPolyline
 90
        7
 70
     1
 43
0.0
 10
457.2205
 20
-102.9503
 10
457.2205
 20
-101.4431
 10
442.7909
 20
-101.4616
 10
443.1694
 20
-105.079
 10
444.4478
 20
-105.0767
 10
444.4478
 20
-102.9666
 10
457.2205
 20
-102.9503
  0
LWPOLYLINE
  5
62
330
1F
100
AcDbEntity
  8
Layer 1
 62
     7
370
     9
100
AcDbPolyline
 90
        4
 70
     1
 43
0.0
 10
444.5537
 20
-91.3805
 10
452.795
 20
-91.3701
 10
452.795
 20
-96.9695
 10
444.5537
 20
-91.3805
  0
LWPOLYLINE
  5
63
330
1F
100
AcDbEntity
  8
Layer 1
 62
     7
370
     9
100
AcDbPolyline
 90
       11
 70
     1
 43
0.0
 10
454.306
 20
-89.7969
 10
454.306
 20
-87.9445
 10
452.795
 20
-87.946
 10
452.795
 20
-89.7984
 10
442.9591
 20
-89.8325
 10
442.9591
 20
-91.9426
 10
454.306
 20
-99.6373
 10
454.306
 20
-91.3679
 10
457.2205
 20
-91.3642
 10
457.2205
 20
-89.7925
 10
454.306
 20
-89.7969
  0
LWPOLYLINE
  5
64
330
1F
100
AcDbEntity
  8
Layer 1
 62
     7
370
     9
100
AcDbPolyline
 90
      162
 70
     1
 43
0.0
 10
457.179
 20
-61.303
 10
457.179
 20
-59.7951
 10
451.4115
 20
-59.8025
 10
451.0284
 20
-59.8153
 10
450.6634
 20
-59.8526
 10
450.3164
 20
-59.9145
 10
449.9876
 20
-60.0009
 10
449.6768
 20
-60.1118
 10
449.384
 20
-60.2473
 10
449.1093
 20
-60.4074
 10
448.8525
 20
-60.592
 10
448.7298
 20
-60.6949
 10
448.6134
 20
-60.8043
 10
448.5031
 20
-60.9201
 10
448.3991
 20
-61.0423
 10
448.3013
 20
-61.1709
 10
448.2098
 20
-61.3059
 10
448.1244
 20
-61.4472
 10
448.0452
 20
-61.5949
 10
447.9741
 20
-61.7515
 10
447.9123
 20
-61.9203
 10
447.86
 20
-62.1012
 10
447.8172
 20
-62.2942
 10
447.7838
 20
-62.4994
 10
447.7599
 20
-62.7168
 10
447.7456
 20
-62.9463
 10
447.7408
 20
-63.188
 10
447.749
 20
-63.4319
 10
447.7736
 20
-63.668
 10
447.8145
 20
-63.8963
 10
447.8719
 20
-64.1168
 10
447.9456
 20
-64.3296
 10
448.0357
 20
-64.5346
 10
448.1422
 20
-64.7318
 10
448.2651
 20
-64.9212
 10
448.3877
 20
-65.0855
 10
448.5194
 20
-65.2424
 10
448.6602
 20
-65.3919
 10
448.8098
 20
-65.534
 10
448.9683
 20
-65.6687
 10
449.1356
 20
-65.7959
 10
449.3115
 20
-65.9159
 10
449.4961
 20
-66.0284
 10
449.3255
 20
-66.1162
 10
449.161
 20
-66.212
 10
449.003
 20
-66.3157
 10
448.8525
 20
-66.4277
 10
448.7298
 20
-66.5306
 10
448.6134
 20
-66.6399
 10
448.5031
 20
-66.7556
 10
448.3991
 20
-66.8777
 10
448.3013
 20
-67.0063
 10
448.2098
 20
-67.1412
 10
448.1244
 20
-67.2826
 10
448.0452
 20
-67.4305
 10
447.9741
 20
-67.5874
 10
447.9123
 20
-67.7563
 10
447.86
 20
-67.9373
 10
447.8172
 20
-68.1304
 10
447.7838
 20
-68.3356
 10
447.7599
 20
-68.5529
 10
447.7456
 20
-68.7822
 10
447.7408
 20
-69.0237
 10
447.749
 20
-69.2675
 10
447.7736
 20
-69.5036
 10
447.8145
 20
-69.7319
 10
447.8719
 20
-69.9525
 10
447.9456
 20
-70.1652
 10
448.0357
 20
-70.3702
 10
448.1422
 20
-70.5674
 10
448.2651
 20
-70.7568
 10
448.3819
 20
-70.9136
 10
448.5065
 20
-71.0636
 10
448.6392
 20
-71.2068
 10
448.7797
 20
-71.3431
 10
448.9283
 20
-71.4727
 10
449.0849
 20
-71.5956
 10
449.2495
 20
-71.7117
 10
449.4221
 20
-71.8211
 10
447.9511
 20
-71.8234
 10
447.9511
 20
-73.3306
 10
457.179
 20
-73.3188
 10
457.179
 20
-71.8115
 10
452.4565
 20
-71.8174
 10
452.1814
 20
-71.7828
 10
451.917
 20
-71.7375
 10
451.6633
 20
-71.6813
 10
451.4202
 20
-71.6142
 10
451.1875
 20
-71.5364
 10
450.9652
 20
-71.4478
 10
450.7533
 20
-71.3484
 10
450.5516
 20
-71.2382
 10
450.408
 20
-71.1487
 10
450.2709
 20
-71.0517
 10
450.1405
 20
-70.9473
 10
450.0166
 20
-70.8355
 10
449.8994
 20
-70.7163
 10
449.7887
 20
-70.5896
 10
449.6847
 20
-70.4555
 10
449.5872
 20
-70.3139
 10
449.4986
 20
-70.1673
 10
449.4218
 20
-70.018
 10
449.3568
 20
-69.866
 10
449.3035
 20
-69.7113
 10
449.2621
 20
-69.5539
 10
449.2324
 20
-69.3939
 10
449.2146
 20
-69.2312
 10
449.2087
 20
-69.0659
 10
449.2118
 20
-68.9043
 10
449.2212
 20
-68.7535
 10
449.2368
 20
-68.6135
 10
449.2587
 20
-68.4842
 10
449.2868
 20
-68.3656
 10
449.3212
 20
-68.2577
 10
449.3618
 20
-68.1606
 10
449.4087
 20
-68.0741
 10
449.5649
 20
-67.8572
 10
449.748
 20
-67.6691
 10
449.958
 20
-67.5098
 10
450.1949
 20
-67.3793
 10
450.4586
 20
-67.2777
 10
450.7493
 20
-67.205
 10
451.067
 20
-67.1611
 10
451.4115
 20
-67.1461
 10
457.179
 20
-67.1387
 10
457.179
 20
-65.6314
 10
451.4115
 20
-65.6389
 10
451.0582
 20
-65.65
 10
450.5516
 20
-65.4026
 10
450.408
 20
-65.313
 10
450.2709
 20
-65.2161
 10
450.1405
 20
-65.1117
 10
450.0166
 20
-64.9998
 10
449.8994
 20
-64.8806
 10
449.7887
 20
-64.7539
 10
449.6847
 20
-64.6198
 10
449.5872
 20
-64.4782
 10
449.4986
 20
-64.3316
 10
449.4218
 20
-64.1823
 10
449.3568
 20
-64.0303
 10
449.3035
 20
-63.8755
 10
449.2621
 20
-63.7181
 10
449.2324
 20
-63.5579
 10
449.2146
 20
-63.3951
 10
449.2087
 20
-63.2295
 10
449.2118
 20
-63.068
 10
449.2212
 20
-62.9173
 10
449.2368
 20
-62.7774
 10
449.2587
 20
-62.6482
 10
449.2868
 20
-62.5298
 10
449.3212
 20
-62.422
 10
449.3618
 20
-62.3249
 10
449.4087
 20
-62.2385
 10
449.5649
 20
-62.0213
 10
449.748
 20
-61.8331
 10
449.958
 20
-61.6738
 10
450.1949
 20
-61.5434
 10
450.4586
 20
-61.4418
 10
450.7493
 20
-61.3692
 10
451.067
 20
-61.3254
 10
451.4115
 20
-61.3104
 10
457.179
 20
-61.303
  0
LWPOLYLINE
  5
65
330
1F
100
AcDbEntity
  8
Layer 1
 62
     7
370
     9
100
AcDbPolyline
 90
      162
 70
     1
 43
0.0
 10
457.179
 20
-44.8723
 10
457.179
 20
-43.3643
 10
451.4115
 20
-43.3717
 10
451.0284
 20
-43.3845
 10
450.6634
 20
-43.422
 10
450.3164
 20
-43.4839
 10
449.9876
 20
-43.5705
 10
449.6768
 20
-43.6815
 10
449.384
 20
-43.8172
 10
449.1093
 20
-43.9773
 10
448.8525
 20
-44.162
 10
448.7298
 20
-44.2647
 10
448.6134
 20
-44.3739
 10
448.5031
 20
-44.4895
 10
448.3991
 20
-44.6116
 10
448.3013
 20
-44.7402
 10
448.2098
 20
-44.8751
 10
448.1244
 20
-45.0164
 10
448.0452
 20
-45.1641
 10
447.9741
 20
-45.321
 10
447.9123
 20
-45.4899
 10
447.86
 20
-45.671
 10
447.8172
 20
-45.8641
 10
447.7838
 20
-46.0694
 10
447.7599
 20
-46.2868
 10
447.7456
 20
-46.5163
 10
447.7408
 20
-46.758
 10
447.749
 20
-47.0018
 10
447.7736
 20
-47.2378
 10
447.8145
 20
-47.466
 10
447.8719
 20
-47.6865
 10
447.9456
 20
-47.8992
 10
448.0357
 20
-48.1042
 10
448.1422
 20
-48.3015
 10
448.2651
 20
-48.4911
 10
448.3877
 20
-48.6552
 10
448.5194
 20
-48.8119
 10
448.6602
 20
-48.9613
 10
448.8098
 20
-49.1034
 10
448.9683
 20
-49.2381
 10
449.1356
 20
-49.3655
 10
449.3115
 20
-49.4856
 10
449.4961
 20
-49.5984
 10
449.3255
 20
-49.6858
 10
449.161
 20
-49.7814
 10
449.003
 20
-49.8852
 10
448.8525
 20
-49.9976
 10
448.7298
 20
-50.1003
 10
448.6134
 20
-50.2095
 10
448.5031
 20
-50.3252
 10
448.3991
 20
-50.4473
 10
448.3013
 20
-50.5759
 10
448.2098
 20
-50.7108
 10
448.1244
 20
-50.8521
 10
448.0452
 20
-50.9997
 10
447.9741
 20
-51.1566
 10
447.9123
 20
-51.3256
 10
447.86
 20
-51.5068
 10
447.8172
 20
-51.7
 10
447.7838
 20
-51.9053
 10
447.7599
 20
-52.1227
 10
447.7456
 20
-52.3521
 10
447.7408
 20
-52.5936
 10
447.749
 20
-52.8374
 10
447.7736
 20
-53.0735
 10
447.8145
 20
-53.3017
 10
447.8719
 20
-53.5222
 10
447.9456
 20
-53.7349
 10
448.0357
 20
-53.9399
 10
448.1422
 20
-54.1372
 10
448.2651
 20
-54.3268
 10
448.3819
 20
-54.4834
 10
448.5065
 20
-54.6332
 10
448.6392
 20
-54.7762
 10
448.7797
 20
-54.9125
 10
448.9283
 20
-55.0422
 10
449.0849
 20
-55.1651
 10
449.2495
 20
-55.2814
 10
449.4221
 20
-55.3911
 10
447.9511
 20
-55.3926
 10
447.9511
 20
-56.8998
 10
457.179
 20
-56.888
 10
457.179
 20
-55.3807
 10
452.4565
 20
-55.3867
 10
452.1814
 20
-55.3523
 10
451.917
 20
-55.3071
 10
451.6633
 20
-55.251
 10
451.4202
 20
-55.1841
 10
451.1875
 20
-55.1063
 10
450.9652
 20
-55.0177
 10
450.7533
 20
-54.9184
 10
450.5516
 20
-54.8082
 10
450.408
 20
-54.7184
 10
450.2709
 20
-54.6213
 10
450.1405
 20
-54.5167
 10
450.0166
 20
-54.4048
 10
449.8994
 20
-54.2855
 10
449.7887
 20
-54.1588
 10
449.6847
 20
-54.0247
 10
449.5872
 20
-53.8831
 10
449.4986
 20
-53.7367
 10
449.4218
 20
-53.5875
 10
449.3568
 20
-53.4355
 10
449.3035
 20
-53.2808
 10
449.2621
 20
-53.1233
 10
449.2324
 20
-52.9632
 10
449.2146
 20
-52.8005
 10
449.2087
 20
-52.6351
 10
449.2118
 20
-52.4736
 10
449.2212
 20
-52.3228
 10
449.2368
 20
-52.1828
 10
449.2587
 20
-52.0535
 10
449.2868
 20
-51.935
 10
449.3212
 20
-51.8273
 10
449.3618
 20
-51.7303
 10
449.4087
 20
-51.6441
 10
449.5649
 20
-51.4269
 10
449.748
 20
-51.2386
 10
449.958
 20
-51.0792
 10
450.1949
 20
-50.9486
 10
450.4586
 20
-50.847
 10
450.7493
 20
-50.7742
 10
451.067
 20
-50.7303
 10
451.4115
 20
-50.7153
 10
457.179
 20
-50.7079
 10
457.179
 20
-49.2007
 10
451.4115
 20
-49.2081
 10
451.0582
 20
-49.2192
 10
450.5516
 20
-48.9725
 10
450.408
 20
-48.8827
 10
450.2709
 20
-48.7856
 10
450.1405
 20
-48.681
 10
450.0166
 20
-48.5691
 10
449.8994
 20
-48.4498
 10
449.7887
 20
-48.3231
 10
449.6847
 20
-48.189
 10
449.5872
 20
-48.0475
 10
449.4986
 20
-47.9009
 10
449.4218
 20
-47.7515
 10
449.3568
 20
-47.5995
 10
449.3035
 20
-47.4447
 10
449.2621
 20
-47.2873
 10
449.2324
 20
-47.1271
 10
449.2146
 20
-46.9643
 10
449.2087
 20
-46.7987
 10
449.2118
 20
-46.6372
 10
449.2212
 20
-46.4865
 10
449.2368
 20
-46.3466
 10
449.2587
 20
-46.2175
 10
449.2868
 20
-46.0991
 10
449.3212
 20
-45.9915
 10
449.3618
 20
-45.8947
 10
449.4087
 20
-45.8085
 10
449.5649
 20
-45.5911
 10
449.748
 20
-45.4026
 10
449.958
 20
-45.2432
 10
450.1949
 20
-45.1127
 10
450.4586
 20
-45.0111
 10
450.7493
 20
-44.9384
 10
451.067
 20
-44.8946
 10
451.4115
 20
-44.8797
 10
457.179
 20
-44.8723
  0
LWPOLYLINE
  5
66
330
1F
100
AcDbEntity
  8
Layer 1
 62
     7
370
     9
100
AcDbPolyline
 90
        7
 70
     1
 43
0.0
 10
457.2205
 20
-83.742
 10
457.2205
 20
-82.2348
 10
442.7909
 20
-82.2533
 10
443.1694
 20
-85.87
 10
444.4478
 20
-85.8685
 10
444.4478
 20
-83.7583
 10
457.2205
 20
-83.742
  0
LWPOLYLINE
  5
67
330
1F
100
AcDbEntity
  8
Layer 1
 62
     7
370
     9
100
AcDbPolyline
 90
      634
 70
     1
 43
0.0
 10
384.7141
 20
-40.6821
 10
385.1497
 20
-40.1879
 10
385.6028
 20
-39.6496
 10
386.071
 20
-39.0694
 10
386.5517
 20
-38.4496
 10
387.0423
 20
-37.7924
 10
387.5405
 20
-37.1001
 10
388.0436
 20
-36.3748
 10
388.5492
 20
-35.6188
 10
389.2041
 20
-36.2398
 10
390.1593
 20
-37.5027
 10
391.3219
 20
-39.2264
 10
392.5989
 20
-41.2296
 10
393.8973
 20
-43.3311
 10
395.1242
 20
-45.3497
 10
396.1866
 20
-47.1041
 10
396.9915
 20
-48.4131
 10
397.405
 20
-49.1278
 10
397.8122
 20
-49.7634
 10
398.2761
 20
-50.4967
 10
398.8466
 20
-51.4341
 10
399.486
 20
-52.5069
 10
400.1568
 20
-53.6466
 10
400.8215
 20
-54.7844
 10
401.4425
 20
-55.8517
 10
401.9821
 20
-56.7798
 10
402.4029
 20
-57.5001
 10
407.2861
 20
-66.0678
 10
407.6257
 20
-66.7677
 10
408.9213
 20
-68.8594
 10
409.6512
 20
-69.8079
 10
410.4839
 20
-70.7322
 10
411.4172
 20
-71.5984
 10
412.4492
 20
-72.3725
 10
413.5778
 20
-73.0204
 10
414.801
 20
-73.5083
 10
416.1167
 20
-73.802
 10
417.5229
 20
-73.8678
 10
419.3517
 20
-73.6133
 10
419.4518
 20
-73.5768
 10
419.5521
 20
-73.5332
 10
419.651
 20
-73.4836
 10
419.747
 20
-73.4288
 10
419.8385
 20
-73.3698
 10
419.9239
 20
-73.3075
 10
420.0018
 20
-73.2428
 10
420.0705
 20
-73.1767
 10
420.2044
 20
-73.0205
 10
420.3053
 20
-72.8732
 10
420.3985
 20
-72.7181
 10
420.5092
 20
-72.5385
 10
420.6626
 20
-72.318
 10
420.8839
 20
-72.0398
 10
421.1985
 20
-71.6874
 10
421.6315
 20
-71.2442
 10
422.5597
 20
-70.0571
 10
422.6183
 20
-69.891
 10
422.6751
 20
-69.6908
 10
422.7293
 20
-69.4672
 10
422.7801
 20
-69.2306
 10
422.8265
 20
-68.9917
 10
422.8676
 20
-68.7609
 10
422.9025
 20
-68.5488
 10
422.9305
 20
-68.3659
 10
422.9644
 20
-68.0787
 10
422.9851
 20
-67.7826
 10
422.9957
 20
-67.4772
 10
422.9991
 20
-67.1623
 10
422.9959
 20
-66.4446
 10
422.9856
 20
-66.0011
 10
422.9598
 20
-65.5286
 10
422.9178
 20
-65.0433
 10
422.8588
 20
-64.5618
 10
422.7822
 20
-64.1003
 10
422.6873
 20
-63.6751
 10
422.5735
 20
-63.3028
 10
422.4401
 20
-62.9995
 10
422.3922
 20
-62.7277
 10
422.3006
 20
-62.4154
 10
422.1765
 20
-62.0756
 10
422.0314
 20
-61.7212
 10
421.8768
 20
-61.3652
 10
421.7241
 20
-61.0205
 10
421.5847
 20
-60.7001
 10
421.4701
 20
-60.4169
 10
421.2794
 20
-59.9648
 10
421.0098
 20
-59.3946
 10
420.6847
 20
-58.7463
 10
420.3274
 20
-58.06
 10
419.9611
 20
-57.3757
 10
419.6092
 20
-56.7335
 10
419.295
 20
-56.1735
 10
419.0418
 20
-55.7357
 10
418.1911
 20
-54.1579
 10
417.9649
 20
-53.7762
 10
417.7567
 20
-53.3776
 10
417.5319
 20
-52.9934
 10
417.316
 20
-52.6099
 10
417.1062
 20
-52.2268
 10
416.8995
 20
-51.8441
 10
416.6932
 20
-51.4617
 10
416.4843
 20
-51.0794
 10
416.2701
 20
-50.6971
 10
416.0476
 20
-50.3148
 10
414.3022
 20
-47.287
 10
414.0783
 20
-46.906
 10
413.8642
 20
-46.534
 10
413.6521
 20
-46.1693
 10
413.4345
 20
-45.8105
 10
412.5525
 20
-44.2629
 10
412.44
 20
-44.0683
 10
412.3396
 20
-43.9118
 10
412.239
 20
-43.7552
 10
412.1259
 20
-43.5606
 10
406.005
 20
-32.8462
 10
405.8856
 20
-32.6402
 10
405.7767
 20
-32.4687
 10
405.6677
 20
-32.2963
 10
405.5481
 20
-32.0873
 10
405.156
 20
-31.352
 10
404.5718
 20
-30.3137
 10
403.928
 20
-29.1803
 10
403.2428
 20
-27.9855
 10
402.5342
 20
-26.763
 10
401.8203
 20
-25.5465
 10
401.1194
 20
-24.3697
 10
400.4493
 20
-23.2664
 10
399.8284
 20
-22.2702
 10
399.4953
 20
-21.7376
 10
398.9326
 20
-20.8283
 10
398.2222
 20
-19.6715
 10
397.4465
 20
-18.3965
 10
396.6875
 20
-17.1325
 10
396.0273
 20
-16.0088
 10
395.5482
 20
-15.1547
 10
395.3323
 20
-14.6993
 10
394.967
 20
-13.4148
 10
394.5801
 20
-12.229
 10
394.1572
 20
-11.1196
 10
393.6842
 20
-10.0645
 10
393.1466
 20
-9.0414
 10
392.5302
 20
-8.0281
 10
391.8206
 20
-7.0023
 10
391.0037
 20
-5.9417
 10
390.7332
 20
-5.6104
 10
390.4548
 20
-5.2805
 10
390.1674
 20
-4.955
 10
389.87
 20
-4.637
 10
389.5614
 20
-4.3295
 10
389.2406
 20
-4.0355
 10
388.9063
 20
-3.7581
 10
388.5576
 20
-3.5003
 10
388.3715
 20
-3.3728
 10
388.1864
 20
-3.2493
 10
388.0012
 20
-3.1291
 10
387.815
 20
-3.0119
 10
387.6268
 20
-2.897
 10
387.4357
 20
-2.7839
 10
387.2408
 20
-2.6721
 10
387.041
 20
-2.561
 10
386.7591
 20
-2.4076
 10
386.4939
 20
-2.2659
 10
386.2438
 20
-2.1351
 10
386.0072
 20
-2.0147
 10
385.7825
 20
-1.904
 10
385.5682
 20
-1.8024
 10
385.3628
 20
-1.7092
 10
385.1645
 20
-1.6237
 10
384.7761
 20
-1.471
 10
384.3979
 20
-1.3424
 10
384.0163
 20
-1.2327
 10
383.6182
 20
-1.1363
 10
383.19
 20
-1.0477
 10
382.7186
 20
-0.9617
 10
382.1906
 20
-0.8728
 10
381.5925
 20
-0.7754
 10
380.2947
 20
-0.559
 10
378.9596
 20
-0.3274
 10
377.6033
 20
-0.0872
 10
376.2417
 20
0.1549
 10
374.8907
 20
0.3922
 10
373.5663
 20
0.6179
 10
372.2844
 20
0.8255
 10
371.0609
 20
1.0081
 10
338.3128
 20
7.0444
 10
337.779
 20
7.1455
 10
337.2721
 20
7.2621
 10
336.7717
 20
7.3828
 10
336.2576
 20
7.4963
 10
335.7096
 20
7.5913
 10
335.1073
 20
7.6563
 10
334.4304
 20
7.68
 10
333.6587
 20
7.6511
 10
333.491
 20
7.5779
 10
333.3905
 20
7.5215
 10
333.333
 20
7.4804
 10
333.2944
 20
7.4529
 10
333.2507
 20
7.4374
 10
333.1778
 20
7.4323
 10
333.0516
 20
7.4358
 10
332.8479
 20
7.4464
 10
332.5792
 20
7.4432
 10
332.3319
 20
7.4051
 10
332.108
 20
7.3346
 10
331.91
 20
7.2346
 10
331.7397
 20
7.1077
 10
331.5996
 20
6.9565
 10
331.4916
 20
6.7839
 10
331.4181
 20
6.5924
 10
331.1409
 20
6.5907
 10
330.9097
 20
6.5896
 10
330.7136
 20
6.5842
 10
330.5419
 20
6.5694
 10
330.3839
 20
6.5404
 10
330.2289
 20
6.4922
 10
330.0661
 20
6.4198
 10
329.8848
 20
6.3184
 10
329.7739
 20
6.2408
 10
329.6577
 20
6.14
 10
329.5417
 20
6.0202
 10
329.4317
 20
5.8857
 10
329.3335
 20
5.741
 10
329.2528
 20
5.5902
 10
329.1952
 20
5.4379
 10
329.1666
 20
5.2882
 10
329.0198
 20
5.2996
 10
328.8337
 20
5.32
 10
328.6169
 20
5.332
 10
328.3783
 20
5.3183
 10
328.1263
 20
5.2614
 10
327.8698
 20
5.1439
 10
327.6173
 20
4.9484
 10
327.3776
 20
4.6575
 10
327.2667
 20
4.4867
 10
327.1478
 20
4.2907
 10
327.0276
 20
4.0747
 10
326.9131
 20
3.8437
 10
326.8111
 20
3.6029
 10
326.7285
 20
3.3576
 10
326.6721
 20
3.1129
 10
326.6488
 20
2.874
 10
326.3202
 20
2.8602
 10
326.0933
 20
2.8196
 10
325.9412
 20
2.7389
 10
325.8367
 20
2.605
 10
325.7528
 20
2.4049
 10
325.6625
 20
2.1253
 10
325.5387
 20
1.7532
 10
325.3544
 20
1.2754
 10
325.2616
 20
1.0794
 10
325.1749
 20
0.9191
 10
325.1348
 20
0.8407
 10
325.0976
 20
0.7571
 10
325.0636
 20
0.6636
 10
325.0333
 20
0.5555
 10
324.7988
 20
0.6385
 10
324.5902
 20
0.6712
 10
324.4049
 20
0.6563
 10
324.2405
 20
0.5969
 10
324.0941
 20
0.496
 10
323.9634
 20
0.3563
 10
323.8456
 20
0.181
 10
323.7383
 20
-0.0271
 10
323.651
 20
-0.2316
 10
323.6049
 20
-0.3754
 10
323.592
 20
-0.4742
 10
323.6041
 20
-0.5439
 10
323.6333
 20
-0.6002
 10
323.6715
 20
-0.659
 10
323.7107
 20
-0.7359
 10
323.7427
 20
-0.8469
 10
323.7514
 20
-0.9533
 10
323.7393
 20
-1.0574
 10
323.7112
 20
-1.1599
 10
323.6723
 20
-1.2616
 10
323.5819
 20
-1.4659
 10
323.5079
 20
-1.6764
 10
323.2281
 20
-1.6875
 10
322.9975
 20
-1.7161
 10
322.8108
 20
-1.7661
 10
322.6628
 20
-1.8416
 10
322.5483
 20
-1.9465
 10
322.4621
 20
-2.0848
 10
322.3989
 20
-2.2604
 10
322.3535
 20
-2.4772
 10
322.3308
 20
-2.7364
 10
322.3454
 20
-2.9364
 10
322.3784
 20
-3.0968
 10
322.4111
 20
-3.2373
 10
322.4249
 20
-3.3776
 10
322.4011
 20
-3.5373
 10
322.3209
 20
-3.7361
 10
322.1656
 20
-3.9936
 10
322.0285
 20
-4.1513
 10
321.8865
 20
-4.2487
 10
321.7445
 20
-4.3109
 10
321.6071
 20
-4.363
 10
321.4794
 20
-4.43
 10
321.366
 20
-4.537
 10
321.2719
 20
-4.7091
 10
321.2018
 20
-4.9713
 10
321.1796
 20
-5.1869
 10
321.1868
 20
-5.3836
 10
321.2113
 20
-5.5698
 10
321.2414
 20
-5.754
 10
321.2649
 20
-5.9446
 10
321.2701
 20
-6.15
 10
321.2449
 20
-6.3788
 10
321.1774
 20
-6.6393
 10
321.0887
 20
-6.8593
 10
320.9906
 20
-7.0256
 10
320.8848
 20
-7.1525
 10
320.7731
 20
-7.2542
 10
320.6573
 20
-7.3449
 10
320.5391
 20
-7.439
 10
320.4202
 20
-7.5506
 10
320.3024
 20
-7.694
 10
320.2058
 20
-7.8849
 10
320.1735
 20
-8.0789
 10
320.1881
 20
-8.2752
 10
320.2324
 20
-8.4732
 10
320.2892
 20
-8.6721
 10
320.3411
 20
-8.8714
 10
320.3709
 20
-9.0703
 10
320.3613
 20
-9.2682
 10
320.2888
 20
-9.4849
 10
320.1398
 20
-9.8192
 10
319.9408
 20
-10.2277
 10
319.7185
 20
-10.6669
 10
319.4993
 20
-11.0933
 10
319.3098
 20
-11.4635
 10
319.1768
 20
-11.7341
 10
319.1266
 20
-11.8616
 10
319.1939
 20
-12.0224
 10
319.2821
 20
-12.1454
 10
319.3811
 20
-12.2477
 10
319.4807
 20
-12.3463
 10
319.5706
 20
-12.4582
 10
319.6406
 20
-12.6003
 10
319.6805
 20
-12.7898
 10
319.6801
 20
-13.0437
 10
319.623
 20
-13.2756
 10
319.5099
 20
-13.4714
 10
319.3642
 20
-13.6495
 10
319.2097
 20
-13.8279
 10
319.07
 20
-14.0249
 10
318.9686
 20
-14.2589
 10
318.9293
 20
-14.548
 10
318.9757
 20
-14.9104
 10
319.0477
 20
-15.0866
 10
319.1668
 20
-15.2917
 10
319.3024
 20
-15.5185
 10
319.4238
 20
-15.7596
 10
319.5002
 20
-16.0076
 10
319.5011
 20
-16.2553
 10
319.3955
 20
-16.4953
 10
319.153
 20
-16.7203
 10
319.086
 20
-16.7688
 10
319.0249
 20
-16.8205
 10
318.9697
 20
-16.8755
 10
318.9207
 20
-16.9337
 10
318.8778
 20
-16.9949
 10
318.8413
 20
-17.0592
 10
318.8113
 20
-17.1264
 10
318.7878
 20
-17.1965
 10
318.7898
 20
-17.663
 10
318.9064
 20
-17.9714
 10
319.0324
 20
-18.2099
 10
319.1221
 20
-18.3667
 10
319.177
 20
-18.4704
 10
319.1989
 20
-18.5496
 10
319.1891
 20
-18.633
 10
319.1494
 20
-18.7493
 10
319.0813
 20
-18.9269
 10
318.9863
 20
-19.1947
 10
318.7857
 20
-20.0474
 10
318.8164
 20
-20.6189
 10
319.0055
 20
-20.9847
 10
319.2797
 20
-21.2207
 10
319.5661
 20
-21.4023
 10
319.7914
 20
-21.6055
 10
319.8827
 20
-21.9057
 10
319.7668
 20
-22.3788
 10
319.5333
 20
-23.1327
 10
319.5233
 20
-23.6748
 10
319.6762
 20
-24.0583
 10
319.9315
 20
-24.3365
 10
320.2284
 20
-24.5627
 10
320.5066
 20
-24.7901
 10
320.7053
 20
-25.0721
 10
320.7639
 20
-25.4619
 10
320.7372
 20
-25.6015
 10
320.6887
 20
-25.7641
 10
320.6395
 20
-25.9481
 10
320.6105
 20
-26.1521
 10
320.6227
 20
-26.3744
 10
320.6972
 20
-26.6134
 10
320.855
 20
-26.8675
 10
321.117
 20
-27.1352
 10
321.2591
 20
-27.2419
 10
321.3131
 20
-27.2944
 10
321.348
 20
-27.4268
 10
321.4323
 20
-27.7732
 10
321.5074
 20
-28.119
 10
321.5589
 20
-28.4602
 10
321.6012
 20
-28.7901
 10
321.6489
 20
-29.1023
 10
321.7164
 20
-29.3902
 10
321.8181
 20
-29.6471
 10
321.9686
 20
-29.8665
 10
322.1822
 20
-30.0419
 10
322.4367
 20
-30.1939
 10
322.6086
 20
-30.3003
 10
322.7156
 20
-30.3836
 10
322.7751
 20
-30.4665
 10
322.8047
 20
-30.5713
 10
322.822
 20
-30.7208
 10
322.8446
 20
-30.9374
 10
322.89
 20
-31.2438
 10
322.9415
 20
-31.4331
 10
323.023
 20
-31.5916
 10
323.1325
 20
-31.7217
 10
323.2681
 20
-31.8257
 10
323.428
 20
-31.9059
 10
323.6103
 20
-31.9647
 10
323.8131
 20
-32.0044
 10
324.0345
 20
-32.0273
 10
324.1427
 20
-32.6132
 10
324.3226
 20
-32.98
 10
324.556
 20
-33.189
 10
324.8248
 20
-33.3015
 10
325.1107
 20
-33.3785
 10
325.3955
 20
-33.4815
 10
325.661
 20
-33.6716
 10
325.8889
 20
-34.01
 10
326.036
 20
-34.2381
 10
326.2031
 20
-34.3582
 10
326.3902
 20
-34.4018
 10
326.5971
 20
-34.4003
 10
326.8237
 20
-34.3851
 10
327.0699
 20
-34.3877
 10
327.3357
 20
-34.4396
 10
327.6209
 20
-34.5721
 10
327.8014
 20
-34.697
 10
327.9235
 20
-34.7998
 10
328.0163
 20
-34.882
 10
328.1093
 20
-34.9453
 10
328.2316
 20
-34.9912
 10
328.4126
 20
-35.0215
 10
328.6815
 20
-35.0376
 10
329.0677
 20
-35.0412
 10
329.2445
 20
-35.152
 10
329.3836
 20
-35.2207
 10
329.5392
 20
-35.274
 10
329.7656
 20
-35.339
 10
329.9835
 20
-35.3889
 10
330.2527
 20
-35.4321
 10
330.5551
 20
-35.4683
 10
330.8726
 20
-35.4969
 10
331.1872
 20
-35.5176
 10
331.4808
 20
-35.5299
 10
331.7354
 20
-35.5334
 10
331.9328
 20
-35.5277
 10
332.1501
 20
-35.5141
 10
332.3533
 20
-35.5034
 10
332.5452
 20
-35.4969
 10
332.7288
 20
-35.496
 10
332.907
 20
-35.502
 10
333.0827
 20
-35.5165
 10
333.259
 20
-35.5406
 10
333.4386
 20
-35.5759
 10
333.6954
 20
-35.6182
 10
333.9427
 20
-35.6309
 10
334.2013
 20
-35.6256
 10
334.492
 20
-35.6139
 10
334.8356
 20
-35.6074
 10
335.2531
 20
-35.6177
 10
335.7652
 20
-35.6564
 10
336.3928
 20
-35.7351
 10
352.6357
 20
-37.0881
 10
352.6488
 20
-38.3866
 10
352.6745
 20
-39.6697
 10
352.7087
 20
-40.9423
 10
352.7471
 20
-42.2087
 10
352.7855
 20
-43.4736
 10
352.8197
 20
-44.7416
 10
352.8455
 20
-46.0174
 10
352.8586
 20
-47.3054
 10
354.5209
 20
-148.7587
 10
354.5844
 20
-158.8258
 10
354.4974
 20
-160.671
 10
354.4045
 20
-161.8353
 10
354.373
 20
-162.4684
 10
354.4702
 20
-162.72
 10
354.7636
 20
-162.74
 10
355.3203
 20
-162.6781
 10
356.2078
 20
-162.684
 10
357.4934
 20
-162.9076
 10
357.5535
 20
-163.042
 10
357.6246
 20
-163.1731
 10
357.7072
 20
-163.2978
 10
357.8018
 20
-163.4132
 10
357.9088
 20
-163.5163
 10
358.0288
 20
-163.6042
 10
358.1621
 20
-163.674
 10
358.3092
 20
-163.7225
 10
358.2043
 20
-163.8529
 10
358.084
 20
-163.9775
 10
357.9564
 20
-164.1006
 10
357.8301
 20
-164.2267
 10
357.7133
 20
-164.3604
 10
357.6144
 20
-164.506
 10
357.5419
 20
-164.668
 10
357.5039
 20
-164.851
 10
357.513
 20
-165.0526
 10
357.5731
 20
-165.2326
 10
357.6753
 20
-165.3907
 10
357.8105
 20
-165.5269
 10
357.9694
 20
-165.6409
 10
358.1432
 20
-165.7327
 10
358.3226
 20
-165.8022
 10
358.4986
 20
-165.8491
 10
357.8507
 20
-166.2657
 10
357.5422
 20
-166.5784
 10
357.435
 20
-166.8811
 10
357.4826
 20
-167.1679
 10
357.6386
 20
-167.4326
 10
357.8565
 20
-167.6691
 10
358.0901
 20
-167.8714
 10
358.2927
 20
-168.0334
 10
358.4181
 20
-168.149
 10
358.1615
 20
-168.2336
 10
357.9344
 20
-168.3608
 10
357.7503
 20
-168.5267
 10
357.6227
 20
-168.7273
 10
357.5651
 20
-168.9586
 10
357.5912
 20
-169.2166
 10
357.7145
 20
-169.4972
 10
357.9484
 20
-169.7964
 10
358.0283
 20
-169.8737
 10
358.1062
 20
-169.9387
 10
358.1818
 20
-169.995
 10
358.2548
 20
-170.0464
 10
358.3251
 20
-170.0966
 10
358.3924
 20
-170.1492
 10
358.4565
 20
-170.2079
 10
358.5171
 20
-170.2765
 10
358.0924
 20
-170.4524
 10
357.8067
 20
-170.7016
 10
357.6559
 20
-170.9987
 10
357.6365
 20
-171.3185
 10
357.7447
 20
-171.6355
 10
357.9766
 20
-171.9244
 10
358.3284
 20
-172.16
 10
358.7965
 20
-172.3168
 10
358.672
 20
-172.4064
 10
358.4538
 20
-172.5318
 10
358.2069
 20
-172.697
 10
357.9966
 20
-172.9058
 10
357.8881
 20
-173.1623
 10
357.9465
 20
-173.4701
 10
358.237
 20
-173.8334
 10
358.8248
 20
-174.2559
 10
361.3768
 20
-175.4304
 10
364.3005
 20
-176.2001
 10
367.4752
 20
-176.6065
 10
370.78
 20
-176.6912
 10
374.0944
 20
-176.4959
 10
377.2975
 20
-176.062
 10
380.2686
 20
-175.4312
 10
382.8869
 20
-174.6451
 10
383.1291
 20
-174.5486
 10
383.4094
 20
-174.4393
 10
383.7067
 20
-174.3146
 10
383.9998
 20
-174.1716
 10
384.2676
 20
-174.0077
 10
384.4889
 20
-173.82
 10
384.6425
 20
-173.6058
 10
384.7073
 20
-173.3624
 10
384.7035
 20
-173.2409
 10
384.6806
 20
-173.1386
 10
384.6423
 20
-173.0514
 10
384.5922
 20
-172.975
 10
384.4715
 20
-172.8376
 10
384.3476
 20
-172.6923
 10
384.6244
 20
-172.3583
 10
384.8217
 20
-172.0508
 10
384.9428
 20
-171.7618
 10
384.9909
 20
-171.483
 10
384.9692
 20
-171.2062
 10
384.8811
 20
-170.9232
 10
384.7296
 20
-170.6259
 10
384.5181
 20
-170.3061
 10
384.6528
 20
-170.0499
 10
384.7658
 20
-169.7978
 10
384.8502
 20
-169.5478
 10
384.899
 20
-169.2981
 10
384.9053
 20
-169.0465
 10
384.8622
 20
-168.7912
 10
384.7627
 20
-168.5302
 10
384.5998
 20
-168.2615
 10
384.8159
 20
-167.8168
 10
384.9298
 20
-167.4611
 10
384.9639
 20
-167.1737
 10
384.9402
 20
-166.9337
 10
384.8809
 20
-166.7206
 10
384.8082
 20
-166.5135
 10
384.7443
 20
-166.2917
 10
384.7114
 20
-166.0346
 10
384.7394
 20
-165.8931
 10
384.8097
 20
-165.6964
 10
384.8901
 20
-165.456
 10
384.9482
 20
-165.1836
 10
384.9516
 20
-164.8909
 10
384.8682
 20
-164.5896
 10
384.6656
 20
-164.2913
 10
384.3114
 20
-164.0077
 10
384.5024
 20
-163.7329
 10
384.6569
 20
-163.4952
 10
384.7721
 20
-163.2812
 10
384.8454
 20
-163.0774
 10
384.874
 20
-162.8705
 10
384.8552
 20
-162.6471
 10
384.7862
 20
-162.3936
 10
384.6645
 20
-162.0967
 10
384.9234
 20
-162.1125
 10
385.2477
 20
-162.1251
 10
385.607
 20
-162.125
 10
385.971
 20
-162.1028
 10
386.3094
 20
-162.0489
 10
386.5917
 20
-161.954
 10
386.7877
 20
-161.8083
 10
386.867
 20
-161.6026
 10
384.7141
 20
-40.6821
  0
LWPOLYLINE
  5
68
330
1F
100
AcDbEntity
  8
Layer 1
 62
     7
370
    18
100
AcDbPolyline
 90
      363
 70
     1
 43
0.0
 10
368.2202
 20
-33.7289
 10
365.3401
 20
-34.7244
 10
365.2258
 20
-34.7959
 10
365.1323
 20
-34.8553
 10
365.0584
 20
-34.9159
 10
365.0029
 20
-34.991
 10
364.9647
 20
-35.0938
 10
364.9425
 20
-35.2375
 10
364.9353
 20
-35.4354
 10
364.9418
 20
-35.7007
 10
364.9283
 20
-36.4386
 10
364.9521
 20
-38.0785
 10
365.002
 20
-40.3293
 10
365.067
 20
-42.9001
 10
365.1361
 20
-45.4998
 10
365.1981
 20
-47.8375
 10
365.242
 20
-49.6222
 10
365.2567
 20
-50.5629
 10
365.251
 20
-50.9878
 10
365.2448
 20
-51.4429
 10
365.2443
 20
-51.9142
 10
365.2556
 20
-52.388
 10
365.2845
 20
-52.8505
 10
365.3373
 20
-53.2879
 10
365.4199
 20
-53.6864
 10
365.5385
 20
-54.0322
 10
365.7033
 20
-54.7788
 10
365.7878
 20
-55.9685
 10
365.8124
 20
-57.4709
 10
365.7979
 20
-59.1559
 10
365.7648
 20
-60.893
 10
365.7337
 20
-62.5521
 10
365.7252
 20
-64.0027
 10
365.76
 20
-65.1147
 10
365.8118
 20
-66.0133
 10
365.845
 20
-66.9377
 10
365.863
 20
-67.8804
 10
365.8692
 20
-68.834
 10
365.8668
 20
-69.7911
 10
365.8594
 20
-70.7443
 10
365.8502
 20
-71.6861
 10
365.8426
 20
-72.6093
 10
365.8382
 20
-73.5527
 10
365.8368
 20
-74.4994
 10
365.8383
 20
-75.4484
 10
365.8427
 20
-76.3985
 10
365.8501
 20
-77.3485
 10
365.8604
 20
-78.2973
 10
365.8737
 20
-79.2438
 10
365.8899
 20
-80.1869
 10
365.9184
 20
-82.0704
 10
365.9365
 20
-83.9595
 10
365.9494
 20
-85.8515
 10
365.9623
 20
-87.7436
 10
365.9804
 20
-89.6333
 10
366.009
 20
-91.5178
 10
366.0532
 20
-93.3945
 10
366.1183
 20
-95.2606
 10
366.1827
 20
-97.0468
 10
366.2326
 20
-98.885
 10
366.2717
 20
-100.7599
 10
366.3037
 20
-102.6564
 10
366.3321
 20
-104.5591
 10
366.3608
 20
-106.4528
 10
366.3932
 20
-108.3223
 10
366.4332
 20
-110.1523
 10
366.4527
 20
-111.1003
 10
366.4649
 20
-112.0478
 10
366.4721
 20
-112.9951
 10
366.4762
 20
-113.9421
 10
366.4794
 20
-114.889
 10
366.4836
 20
-115.8359
 10
366.4909
 20
-116.7828
 10
366.5035
 20
-117.7298
 10
366.5223
 20
-118.6785
 10
366.545
 20
-119.611
 10
366.5701
 20
-120.5323
 10
366.5959
 20
-121.447
 10
366.6208
 20
-122.3599
 10
366.6432
 20
-123.2758
 10
366.6614
 20
-124.1994
 10
366.6738
 20
-125.1355
 10
366.6834
 20
-126.0757
 10
366.6942
 20
-127.0166
 10
366.7067
 20
-127.9574
 10
366.721
 20
-128.8972
 10
366.7374
 20
-129.8349
 10
366.7564
 20
-130.7698
 10
366.7782
 20
-131.7009
 10
366.8032
 20
-132.6273
 10
366.8442
 20
-134.4606
 10
366.8663
 20
-136.3401
 10
366.8745
 20
-138.2515
 10
366.8739
 20
-140.1804
 10
366.8696
 20
-142.1123
 10
366.8667
 20
-144.033
 10
366.8704
 20
-145.9278
 10
366.8856
 20
-147.7826
 10
366.8977
 20
-148.7064
 10
366.9213
 20
-150.2267
 10
366.9581
 20
-152.144
 10
367.0098
 20
-154.2589
 10
367.0781
 20
-156.3716
 10
367.1647
 20
-158.2827
 10
367.2712
 20
-159.7926
 10
367.3995
 20
-160.7018
 10
367.4804
 20
-160.9512
 10
367.5747
 20
-161.1464
 10
367.6776
 20
-161.3014
 10
367.7842
 20
-161.43
 10
367.8897
 20
-161.5463
 10
367.9892
 20
-161.664
 10
368.0778
 20
-161.7972
 10
368.1508
 20
-161.9597
 10
367.8981
 20
-162.063
 10
367.5108
 20
-162.134
 10
367.0296
 20
-162.1784
 10
366.4951
 20
-162.2024
 10
365.9478
 20
-162.2118
 10
365.4283
 20
-162.2126
 10
364.9774
 20
-162.2108
 10
364.6354
 20
-162.2123
 10
364.1678
 20
-162.2245
 10
363.8013
 20
-162.2416
 10
363.5071
 20
-162.2644
 10
363.2561
 20
-162.2933
 10
363.0194
 20
-162.329
 10
362.768
 20
-162.3722
 10
362.473
 20
-162.4236
 10
362.1053
 20
-162.4836
 10
361.8728
 20
-162.5103
 10
361.6788
 20
-162.5355
 10
361.5981
 20
-162.5584
 10
361.5293
 20
-162.5941
 10
361.4732
 20
-162.647
 10
361.4304
 20
-162.7214
 10
361.9209
 20
-162.7722
 10
362.9011
 20
-162.7968
 10
364.2161
 20
-162.7994
 10
365.7111
 20
-162.7844
 10
367.2311
 20
-162.756
 10
368.6214
 20
-162.7186
 10
369.7271
 20
-162.6765
 10
370.3934
 20
-162.634
 10
370.6514
 20
-162.6069
 10
370.9088
 20
-162.58
 10
371.1682
 20
-162.5541
 10
371.4321
 20
-162.5296
 10
371.7029
 20
-162.5071
 10
371.9831
 20
-162.4872
 10
372.2754
 20
-162.4704
 10
372.5821
 20
-162.4574
 10
373.3587
 20
-162.4362
 10
374.1822
 20
-162.4198
 10
375.0353
 20
-162.4011
 10
375.9007
 20
-162.3733
 10
376.7611
 20
-162.3292
 10
377.5991
 20
-162.262
 10
378.3975
 20
-162.1646
 10
379.1389
 20
-162.0301
 10
379.044
 20
-161.9487
 10
378.9449
 20
-161.8962
 10
378.8393
 20
-161.867
 10
378.7251
 20
-161.8555
 10
378.4621
 20
-161.8635
 10
378.1384
 20
-161.876
 10
378.3218
 20
-161.6381
 10
378.3521
 20
-161.6035
 10
378.3755
 20
-161.6002
 10
378.3927
 20
-161.6126
 10
378.4044
 20
-161.6252
 10
378.4138
 20
-161.5883
 10
378.4089
 20
-161.3646
 10
373.8416
 20
-161.4139
 10
373.4749
 20
-161.4342
 10
373.1899
 20
-161.4432
 10
373.0558
 20
-161.4344
 10
372.9156
 20
-161.4119
 10
372.7603
 20
-161.3722
 10
372.5811
 20
-161.3117
 10
372.4511
 20
-161.2569
 10
372.2335
 20
-160.2146
 10
372.0638
 20
-157.6186
 10
371.9359
 20
-153.9614
 10
371.8437
 20
-149.7356
 10
371.7813
 20
-145.4335
 10
371.7425
 20
-141.5479
 10
371.7215
 20
-138.5712
 10
371.712
 20
-136.9959
 10
371.7064
 20
-136.7281
 10
371.6955
 20
-136.4282
 10
371.6822
 20
-136.1084
 10
371.6693
 20
-135.781
 10
371.6596
 20
-135.4582
 10
371.6561
 20
-135.1522
 10
371.6615
 20
-134.8752
 10
371.6788
 20
-134.6395
 10
371.6436
 20
-134.5733
 10
371.6117
 20
-134.5052
 10
371.5603
 20
-134.3463
 10
371.5419
 20
-134.3093
 10
371.5465
 20
-134.3534
 10
371.5642
 20
-134.4375
 10
371.585
 20
-134.5209
 10
371.599
 20
-134.5626
 10
371.5964
 20
-134.5217
 10
371.5671
 20
-134.3572
 10
371.5113
 20
-133.1918
 10
371.501
 20
-133.0131
 10
371.491
 20
-132.8198
 10
371.482
 20
-132.6168
 10
371.4745
 20
-132.4093
 10
371.4693
 20
-132.2023
 10
371.4668
 20
-132.0008
 10
371.4676
 20
-131.81
 10
371.4725
 20
-131.6348
 10
371.4842
 20
-131.2461
 10
371.4873
 20
-130.8446
 10
371.4832
 20
-130.4345
 10
371.4733
 20
-130.0198
 10
371.4587
 20
-129.6047
 10
371.4409
 20
-129.1932
 10
371.4213
 20
-128.7896
 10
371.4011
 20
-128.3978
 10
371.3645
 20
-127.6167
 10
371.3353
 20
-126.8307
 10
371.3125
 20
-126.0415
 10
371.295
 20
-125.2506
 10
371.2817
 20
-124.4595
 10
371.2716
 20
-123.67
 10
371.2635
 20
-122.8836
 10
371.2565
 20
-122.1018
 10
371.2531
 20
-121.3015
 10
371.2546
 20
-120.4911
 10
371.2574
 20
-119.6743
 10
371.2583
 20
-118.855
 10
371.2538
 20
-118.0371
 10
371.2405
 20
-117.2245
 10
371.2152
 20
-116.4209
 10
371.1743
 20
-115.6303
 10
371.1569
 20
-115.2442
 10
371.1504
 20
-114.8458
 10
371.1517
 20
-114.4387
 10
371.1577
 20
-114.0264
 10
371.1652
 20
-113.6123
 10
371.171
 20
-113.2
 10
371.172
 20
-112.7931
 10
371.165
 20
-112.395
 10
371.1544
 20
-111.9874
 10
371.1472
 20
-111.5821
 10
371.1424
 20
-111.1785
 10
371.1389
 20
-110.7759
 10
371.1355
 20
-110.3734
 10
371.1313
 20
-109.9704
 10
371.1252
 20
-109.5661
 10
371.1161
 20
-109.1599
 10
371.1094
 20
-108.774
 10
371.1088
 20
-108.3745
 10
371.1128
 20
-107.9654
 10
371.12
 20
-107.551
 10
371.1288
 20
-107.1355
 10
371.1379
 20
-106.723
 10
371.1458
 20
-106.3177
 10
371.151
 20
-105.9239
 10
371.1545
 20
-104.7146
 10
371.1458
 20
-103.5037
 10
371.1291
 20
-102.2914
 10
371.1086
 20
-101.078
 10
371.0884
 20
-99.8636
 10
371.0729
 20
-98.6487
 10
371.066
 20
-97.4333
 10
371.0722
 20
-96.2179
 10
371.0796
 20
-95.4541
 10
371.0836
 20
-94.6598
 10
371.0825
 20
-93.8456
 10
371.0748
 20
-93.0223
 10
371.0587
 20
-92.2005
 10
371.0326
 20
-91.3909
 10
370.9948
 20
-90.6044
 10
370.9438
 20
-89.8515
 10
370.8957
 20
-89.0956
 10
370.8657
 20
-88.308
 10
370.85
 20
-87.4982
 10
370.8446
 20
-86.6758
 10
370.8455
 20
-85.8501
 10
370.8487
 20
-85.0306
 10
370.8502
 20
-84.227
 10
370.8462
 20
-83.4485
 10
370.4412
 20
-64.38
 10
370.3752
 20
-61.2301
 10
370.3768
 20
-60.8314
 10
370.3957
 20
-60.446
 10
370.4256
 20
-60.0693
 10
370.4606
 20
-59.6971
 10
370.4943
 20
-59.3248
 10
370.5208
 20
-58.948
 10
370.5337
 20
-58.5623
 10
370.5271
 20
-58.1632
 10
370.5054
 20
-57.5652
 10
370.492
 20
-56.9677
 10
370.4829
 20
-56.3709
 10
370.4745
 20
-55.7751
 10
370.4626
 20
-55.1802
 10
370.4437
 20
-54.5867
 10
370.4136
 20
-53.9945
 10
370.3687
 20
-53.404
 10
370.3417
 20
-53.2081
 10
370.3017
 20
-53.0346
 10
370.253
 20
-52.8773
 10
370.2001
 20
-52.7304
 10
370.1475
 20
-52.5878
 10
370.0995
 20
-52.4435
 10
370.0607
 20
-52.2917
 10
370.0355
 20
-52.1262
 10
370.0048
 20
-51.7158
 10
369.9907
 20
-51.3095
 10
369.9896
 20
-50.9061
 10
369.9978
 20
-50.5043
 10
370.0118
 20
-50.1028
 10
370.028
 20
-49.7004
 10
370.0427
 20
-49.2957
 10
370.0524
 20
-48.8876
 10
370.0452
 20
-48.5077
 10
370.0166
 20
-48.1389
 10
369.9727
 20
-47.7769
 10
369.9198
 20
-47.4172
 10
369.8642
 20
-47.0554
 10
369.8121
 20
-46.6873
 10
369.7698
 20
-46.3084
 10
369.7435
 20
-45.9144
 10
369.7292
 20
-45.518
 10
369.7179
 20
-45.1247
 10
369.7088
 20
-44.7332
 10
369.7011
 20
-44.3425
 10
369.694
 20
-43.9512
 10
369.6867
 20
-43.5581
 10
369.6784
 20
-43.162
 10
369.6682
 20
-42.7617
 10
369.6535
 20
-42.3684
 10
369.6331
 20
-41.978
 10
369.6094
 20
-41.5892
 10
369.5848
 20
-41.2002
 10
369.5615
 20
-40.8097
 10
369.542
 20
-40.416
 10
369.5286
 20
-40.0176
 10
369.5235
 20
-39.6129
 10
369.5253
 20
-39.208
 10
369.5301
 20
-38.8035
 10
369.5367
 20
-38.3993
 10
369.5441
 20
-37.9952
 10
369.5511
 20
-37.5909
 10
369.5568
 20
-37.1864
 10
369.5599
 20
-36.7814
 10
369.5595
 20
-36.3759
 10
369.5684
 20
-35.9672
 10
369.5911
 20
-35.5948
 10
369.6126
 20
-35.2497
 10
369.6181
 20
-34.923
 10
369.5927
 20
-34.6058
 10
369.5216
 20
-34.2893
 10
369.3898
 20
-33.9645
 10
369.1825
 20
-33.6225
 10
368.2202
 20
-33.7289
  0
LWPOLYLINE
  5
69
330
1F
100
AcDbEntity
  8
Layer 1
 62
     7
370
     9
100
AcDbPolyline
 90
       26
 70
     1
 43
0.0
 10
328.8405
 20
-35.3953
 10
338.3029
 20
-35.8943
 10
340.9274
 20
-33.7613
 10
343.1457
 20
-28.807
 10
344.7485
 20
-21.9677
 10
345.5262
 20
-14.1797
 10
345.2694
 20
-6.3793
 10
343.7686
 20
0.4973
 10
340.8143
 20
5.5136
 10
336.197
 20
7.7335
 10
335.3702
 20
7.8147
 10
334.5161
 20
7.9003
 10
333.6319
 20
7.9788
 10
332.7152
 20
8.0384
 10
331.7634
 20
8.0676
 10
330.7739
 20
8.0548
 10
329.7442
 20
7.9885
 10
328.6716
 20
7.8569
 10
325.1108
 20
6.2746
 10
322.0179
 20
2.8924
 10
319.6707
 20
-1.936
 10
318.3469
 20
-7.857
 10
318.3243
 20
-14.517
 10
319.8805
 20
-21.5624
 10
323.2933
 20
-28.6397
 10
328.8405
 20
-35.3953
  0
LWPOLYLINE
  5
6A
330
1F
100
AcDbEntity
  8
Layer 1
 62
     7
370
     9
100
AcDbPolyline
 90
        9
 70
     0
 43
0.0
 10
395.6433
 20
-15.33
 10
395.7212
 20
-15.7538
 10
395.8127
 20
-17.0092
 10
395.7048
 20
-19.0727
 10
395.1842
 20
-21.9206
 10
394.038
 20
-25.5291
 10
392.053
 20
-29.8747
 10
389.0161
 20
-34.9336
 10
384.7141
 20
-40.6821
  0
LWPOLYLINE
  5
6B
330
1F
100
AcDbEntity
  8
Layer 1
 62
     7
370
     9
100
AcDbPolyline
 90
       33
 70
     1
 43
0.0
 10
328.8405
 20
-35.3953
 10
333.5356
 20
-31.9235
 10
336.7224
 20
-26.2505
 10
338.531
 20
-19.201
 10
339.0914
 20
-11.5997
 10
338.5337
 20
-4.2715
 10
336.9879
 20
1.9589
 10
334.584
 20
6.2668
 10
331.4521
 20
7.8274
 10
330.7657
 20
7.8262
 10
330.064
 20
7.8438
 10
329.3552
 20
7.8604
 10
328.6478
 20
7.8561
 10
327.9499
 20
7.8112
 10
327.2699
 20
7.7057
 10
326.6161
 20
7.5199
 10
325.9968
 20
7.2338
 10
322.5631
 20
4.3438
 10
319.8435
 20
0.2326
 10
317.8633
 20
-4.7512
 10
316.6474
 20
-10.259
 10
316.221
 20
-15.942
 10
316.6091
 20
-21.4515
 10
317.8369
 20
-26.439
 10
319.9294
 20
-30.5557
 10
320.9177
 20
-31.7202
 10
322.0286
 20
-32.6638
 10
323.2188
 20
-33.4171
 10
324.4449
 20
-34.0105
 10
325.6635
 20
-34.4745
 10
326.8313
 20
-34.8396
 10
327.9047
 20
-35.1364
 10
328.8405
 20
-35.3953
  0
LWPOLYLINE
  5
6C
330
1F
100
AcDbEntity
  8
Layer 1
 62
     7
370
     9
100
AcDbPolyline
 90
       33
 70
     1
 43
0.0
 10
328.0302
 20
0.8205
 10
329.5208
 20
0.4781
 10
330.8785
 20
-0.3792
 10
332.0762
 20
-1.6951
 10
333.087
 20
-3.4133
 10
333.8841
 20
-5.4776
 10
334.4405
 20
-7.8315
 10
334.7293
 20
-10.4188
 10
334.7236
 20
-13.1832
 10
334.4139
 20
-15.9344
 10
333.8313
 20
-18.4844
 10
333.0091
 20
-20.7794
 10
331.9804
 20
-22.7657
 10
330.7784
 20
-24.3895
 10
329.4365
 20
-25.5971
 10
327.9876
 20
-26.3347
 10
326.4652
 20
-26.5484
 10
324.9746
 20
-26.2061
 10
323.617
 20
-25.3489
 10
322.4193
 20
-24.033
 10
321.4085
 20
-22.3149
 10
320.6114
 20
-20.2508
 10
320.055
 20
-17.897
 10
319.7662
 20
-15.3098
 10
319.7719
 20
-12.5455
 10
320.0816
 20
-9.7941
 10
320.6642
 20
-7.244
 10
321.4864
 20
-4.9489
 10
322.5151
 20
-2.9626
 10
323.717
 20
-1.3387
 10
325.059
 20
-0.1311
 10
326.5078
 20
0.6066
 10
328.0302
 20
0.8205
  0
LWPOLYLINE
  5
6D
330
1F
100
AcDbEntity
  8
Layer 1
 62
     7
370
    18
100
AcDbPolyline
 90
       33
 70
     1
 43
0.0
 10
330.3063
 20
-1.7059
 10
330.707
 20
-1.7731
 10
331.0747
 20
-1.9325
 10
331.4019
 20
-2.1738
 10
331.6812
 20
-2.4867
 10
331.9049
 20
-2.8611
 10
332.0657
 20
-3.2868
 10
332.156
 20
-3.7534
 10
332.1683
 20
-4.2508
 10
332.0992
 20
-4.745
 10
331.9561
 20
-5.2019
 10
331.7475
 20
-5.6119
 10
331.4821
 20
-5.9655
 10
331.1685
 20
-6.2532
 10
330.8153
 20
-6.4655
 10
330.4312
 20
-6.5927
 10
330.0248
 20
-6.6254
 10
329.6241
 20
-6.5582
 10
329.2564
 20
-6.3988
 10
328.9292
 20
-6.1575
 10
328.65
 20
-5.8445
 10
328.4262
 20
-5.4701
 10
328.2654
 20
-5.0445
 10
328.1751
 20
-4.5779
 10
328.1628
 20
-4.0805
 10
328.2319
 20
-3.5863
 10
328.375
 20
-3.1294
 10
328.5836
 20
-2.7194
 10
328.8491
 20
-2.3657
 10
329.1626
 20
-2.078
 10
329.5158
 20
-1.8658
 10
329.8999
 20
-1.7386
 10
330.3063
 20
-1.7059
  0
LWPOLYLINE
  5
6E
330
1F
100
AcDbEntity
  8
Layer 1
 62
     7
370
    18
100
AcDbPolyline
 90
       33
 70
     1
 43
0.0
 10
325.9157
 20
-1.617
 10
326.3164
 20
-1.684
 10
326.6841
 20
-1.8433
 10
327.0113
 20
-2.0846
 10
327.2905
 20
-2.3976
 10
327.5143
 20
-2.7721
 10
327.675
 20
-3.1978
 10
327.7654
 20
-3.6645
 10
327.7777
 20
-4.1619
 10
327.7086
 20
-4.6559
 10
327.5655
 20
-5.1126
 10
327.3569
 20
-5.5225
 10
327.0915
 20
-5.8761
 10
326.7779
 20
-6.1638
 10
326.4247
 20
-6.3762
 10
326.0406
 20
-6.5036
 10
325.6342
 20
-6.5365
 10
325.2335
 20
-6.4692
 10
324.8658
 20
-6.3099
 10
324.5386
 20
-6.0686
 10
324.2594
 20
-5.7555
 10
324.0356
 20
-5.381
 10
323.8748
 20
-4.9553
 10
323.7845
 20
-4.4885
 10
323.7722
 20
-3.9908
 10
323.8413
 20
-3.4969
 10
323.9844
 20
-3.0402
 10
324.193
 20
-2.6303
 10
324.4585
 20
-2.2768
 10
324.772
 20
-1.9891
 10
325.1252
 20
-1.7769
 10
325.5093
 20
-1.6497
 10
325.9157
 20
-1.617
  0
LWPOLYLINE
  5
6F
330
1F
100
AcDbEntity
  8
Layer 1
 62
     7
370
    18
100
AcDbPolyline
 90
       33
 70
     1
 43
0.0
 10
323.4841
 20
-6.6083
 10
323.8848
 20
-6.6753
 10
324.2525
 20
-6.8346
 10
324.5797
 20
-7.0759
 10
324.859
 20
-7.3889
 10
325.0827
 20
-7.7634
 10
325.2435
 20
-8.1891
 10
325.3338
 20
-8.6558
 10
325.3461
 20
-9.1532
 10
325.277
 20
-9.6472
 10
325.134
 20
-10.1039
 10
324.9255
 20
-10.5138
 10
324.6602
 20
-10.8674
 10
324.3466
 20
-11.1551
 10
323.9934
 20
-11.3675
 10
323.6092
 20
-11.4949
 10
323.2026
 20
-11.5278
 10
322.8019
 20
-11.4605
 10
322.4343
 20
-11.3012
 10
322.1072
 20
-11.0599
 10
321.8281
 20
-10.7468
 10
321.6045
 20
-10.3723
 10
321.4438
 20
-9.9466
 10
321.3536
 20
-9.4798
 10
321.3413
 20
-8.9821
 10
321.4102
 20
-8.4882
 10
321.5531
 20
-8.0315
 10
321.7616
 20
-7.6216
 10
322.0269
 20
-7.2681
 10
322.3405
 20
-6.9804
 10
322.6936
 20
-6.7682
 10
323.0777
 20
-6.641
 10
323.4841
 20
-6.6083
  0
LWPOLYLINE
  5
70
330
1F
100
AcDbEntity
  8
Layer 1
 62
     7
370
    18
100
AcDbPolyline
 90
       33
 70
     1
 43
0.0
 10
327.4473
 20
-9.945
 10
327.848
 20
-10.0122
 10
328.2156
 20
-10.1716
 10
328.5427
 20
-10.4129
 10
328.8219
 20
-10.7259
 10
329.0456
 20
-11.1004
 10
329.2064
 20
-11.5261
 10
329.2969
 20
-11.993
 10
329.3094
 20
-12.4906
 10
329.2403
 20
-12.9846
 10
329.0972
 20
-13.4413
 10
328.8886
 20
-13.8512
 10
328.6232
 20
-14.2047
 10
328.3096
 20
-14.4924
 10
327.9564
 20
-14.7046
 10
327.5723
 20
-14.8318
 10
327.1659
 20
-14.8645
 10
326.7652
 20
-14.7975
 10
326.3975
 20
-14.6382
 10
326.0703
 20
-14.3969
 10
325.7911
 20
-14.0839
 10
325.5673
 20
-13.7094
 10
325.4065
 20
-13.2837
 10
325.3162
 20
-12.8169
 10
325.3039
 20
-12.3195
 10
325.373
 20
-11.8256
 10
325.5161
 20
-11.3689
 10
325.7247
 20
-10.959
 10
325.9901
 20
-10.6054
 10
326.3037
 20
-10.3176
 10
326.6568
 20
-10.1053
 10
327.0409
 20
-9.9779
 10
327.4473
 20
-9.945
  0
LWPOLYLINE
  5
71
330
1F
100
AcDbEntity
  8
Layer 1
 62
     7
370
    18
100
AcDbPolyline
 90
       33
 70
     1
 43
0.0
 10
332.1046
 20
-6.5839
 10
332.5053
 20
-6.6511
 10
332.873
 20
-6.8105
 10
333.2002
 20
-7.0518
 10
333.4795
 20
-7.3647
 10
333.7032
 20
-7.7391
 10
333.864
 20
-8.1648
 10
333.9543
 20
-8.6314
 10
333.9666
 20
-9.1288
 10
333.8975
 20
-9.623
 10
333.7544
 20
-10.0799
 10
333.5458
 20
-10.4899
 10
333.2804
 20
-10.8435
 10
332.9668
 20
-11.1312
 10
332.6137
 20
-11.3434
 10
332.2296
 20
-11.4706
 10
331.8232
 20
-11.5033
 10
331.4225
 20
-11.4361
 10
331.0548
 20
-11.2767
 10
330.7275
 20
-11.0354
 10
330.4483
 20
-10.7225
 10
330.2245
 20
-10.3481
 10
330.0638
 20
-9.9225
 10
329.9734
 20
-9.4558
 10
329.9611
 20
-8.9584
 10
330.0302
 20
-8.4642
 10
330.1733
 20
-8.0073
 10
330.3819
 20
-7.5973
 10
330.6474
 20
-7.2437
 10
330.9609
 20
-6.956
 10
331.3141
 20
-6.7438
 10
331.6982
 20
-6.6166
 10
332.1046
 20
-6.5839
  0
LWPOLYLINE
  5
72
330
1F
100
AcDbEntity
  8
Layer 1
 62
     7
370
    18
100
AcDbPolyline
 90
       33
 70
     1
 43
0.0
 10
331.261
 20
-13.472
 10
331.6617
 20
-13.5392
 10
332.0293
 20
-13.6986
 10
332.3564
 20
-13.9399
 10
332.6355
 20
-14.2529
 10
332.8591
 20
-14.6273
 10
333.0198
 20
-15.0529
 10
333.11
 20
-15.5195
 10
333.1223
 20
-16.0169
 10
333.0534
 20
-16.5111
 10
332.9105
 20
-16.968
 10
332.702
 20
-17.378
 10
332.4367
 20
-17.7316
 10
332.1231
 20
-18.0193
 10
331.77
 20
-18.2316
 10
331.3859
 20
-18.3588
 10
330.9795
 20
-18.3915
 10
330.5788
 20
-18.3243
 10
330.2111
 20
-18.1649
 10
329.8839
 20
-17.9236
 10
329.6047
 20
-17.6106
 10
329.3809
 20
-17.2362
 10
329.2202
 20
-16.8106
 10
329.1298
 20
-16.344
 10
329.1175
 20
-15.8466
 10
329.1866
 20
-15.3524
 10
329.3296
 20
-14.8955
 10
329.5381
 20
-14.4855
 10
329.8035
 20
-14.1319
 10
330.117
 20
-13.8442
 10
330.4702
 20
-13.6319
 10
330.8544
 20
-13.5047
 10
331.261
 20
-13.472
  0
LWPOLYLINE
  5
73
330
1F
100
AcDbEntity
  8
Layer 1
 62
     7
370
    18
100
AcDbPolyline
 90
       33
 70
     1
 43
0.0
 10
328.5161
 20
-18.4826
 10
328.917
 20
-18.5498
 10
329.2848
 20
-18.7092
 10
329.6121
 20
-18.9505
 10
329.8913
 20
-19.2635
 10
330.1149
 20
-19.638
 10
330.2756
 20
-20.0637
 10
330.3658
 20
-20.5306
 10
330.3781
 20
-21.0282
 10
330.3091
 20
-21.5222
 10
330.166
 20
-21.9788
 10
329.9576
 20
-22.3887
 10
329.6923
 20
-22.7423
 10
329.3788
 20
-23.0299
 10
329.0258
 20
-23.2421
 10
328.6418
 20
-23.3693
 10
328.2354
 20
-23.402
 10
327.8345
 20
-23.335
 10
327.4667
 20
-23.1757
 10
327.1395
 20
-22.9345
 10
326.8603
 20
-22.6215
 10
326.6366
 20
-22.247
 10
326.4759
 20
-21.8213
 10
326.3857
 20
-21.3545
 10
326.3734
 20
-20.8571
 10
326.4425
 20
-20.3632
 10
326.5855
 20
-19.9065
 10
326.794
 20
-19.4966
 10
327.0593
 20
-19.143
 10
327.3727
 20
-18.8552
 10
327.7257
 20
-18.6429
 10
328.1097
 20
-18.5155
 10
328.5161
 20
-18.4826
  0
LWPOLYLINE
  5
74
330
1F
100
AcDbEntity
  8
Layer 1
 62
     7
370
    18
100
AcDbPolyline
 90
       33
 70
     1
 43
0.0
 10
324.3632
 20
-17.8812
 10
324.7639
 20
-17.9484
 10
325.1315
 20
-18.1078
 10
325.4586
 20
-18.3491
 10
325.7377
 20
-18.662
 10
325.9613
 20
-19.0364
 10
326.122
 20
-19.4621
 10
326.2122
 20
-19.9287
 10
326.2245
 20
-20.4261
 10
326.1554
 20
-20.9203
 10
326.0124
 20
-21.3772
 10
325.8039
 20
-21.7872
 10
325.5387
 20
-22.1408
 10
325.2252
 20
-22.4285
 10
324.8722
 20
-22.6407
 10
324.4882
 20
-22.7679
 10
324.0818
 20
-22.8006
 10
323.6811
 20
-22.7334
 10
323.3134
 20
-22.574
 10
322.9862
 20
-22.3327
 10
322.707
 20
-22.0198
 10
322.4832
 20
-21.6454
 10
322.3224
 20
-21.2198
 10
322.2321
 20
-20.7531
 10
322.2198
 20
-20.2557
 10
322.2888
 20
-19.7615
 10
322.4319
 20
-19.3046
 10
322.6404
 20
-18.8946
 10
322.9057
 20
-18.541
 10
323.2192
 20
-18.2533
 10
323.5724
 20
-18.0411
 10
323.9566
 20
-17.9139
 10
324.3632
 20
-17.8812
  0
LWPOLYLINE
  5
75
330
1F
100
AcDbEntity
  8
Layer 1
 62
     7
370
    18
100
AcDbPolyline
 90
       33
 70
     1
 43
0.0
 10
322.0094
 20
-12.424
 10
322.4103
 20
-12.4912
 10
322.7781
 20
-12.6506
 10
323.1054
 20
-12.8919
 10
323.3846
 20
-13.2049
 10
323.6082
 20
-13.5794
 10
323.7689
 20
-14.0051
 10
323.8591
 20
-14.472
 10
323.8714
 20
-14.9696
 10
323.8024
 20
-15.4636
 10
323.6593
 20
-15.9202
 10
323.4509
 20
-16.3301
 10
323.1856
 20
-16.6837
 10
322.8721
 20
-16.9713
 10
322.5191
 20
-17.1835
 10
322.1351
 20
-17.3107
 10
321.7287
 20
-17.3434
 10
321.3278
 20
-17.2764
 10
320.96
 20
-17.1171
 10
320.6328
 20
-16.8759
 10
320.3536
 20
-16.5629
 10
320.1299
 20
-16.1884
 10
319.9692
 20
-15.7627
 10
319.879
 20
-15.2959
 10
319.8667
 20
-14.7985
 10
319.9358
 20
-14.3046
 10
320.0788
 20
-13.8479
 10
320.2873
 20
-13.438
 10
320.5526
 20
-13.0844
 10
320.866
 20
-12.7966
 10
321.219
 20
-12.5843
 10
321.603
 20
-12.4569
 10
322.0094
 20
-12.424
  0
LWPOLYLINE
  5
76
330
1F
100
AcDbEntity
  8
Layer 1
 62
     7
370
     9
100
AcDbPolyline
 90
       33
 70
     0
 43
0.0
 10
352.6357
 20
-37.0881
 10
352.7495
 20
-37.1203
 10
353.0945
 20
-37.1896
 10
353.676
 20
-37.2546
 10
354.4995
 20
-37.2742
 10
355.5703
 20
-37.2072
 10
356.8938
 20
-37.0123
 10
358.4754
 20
-36.6483
 10
360.3205
 20
-36.074
 10
362.3376
 20
-35.3577
 10
364.3726
 20
-34.6193
 10
366.3371
 20
-33.895
 10
368.1427
 20
-33.2211
 10
369.701
 20
-32.6338
 10
370.9235
 20
-32.1695
 10
371.7218
 20
-31.8643
 10
372.0076
 20
-31.7545
 10
372.4173
 20
-31.6388
 10
373.5198
 20
-31.394
 10
375.1254
 20
-31.1735
 10
377.0442
 20
-31.1307
 10
379.0865
 20
-31.4191
 10
381.0624
 20
-32.1921
 10
382.7822
 20
-33.6031
 10
384.0561
 20
-35.8056
 10
384.3142
 20
-36.9441
 10
384.4966
 20
-37.9326
 10
384.6161
 20
-38.7704
 10
384.6853
 20
-39.4572
 10
384.717
 20
-39.9923
 10
384.7239
 20
-40.3752
 10
384.7187
 20
-40.6053
 10
384.7141
 20
-40.6821
  0
LWPOLYLINE
  5
77
330
1F
100
AcDbEntity
  8
Layer 1
 62
     7
370
     9
100
AcDbPolyline
 90
        2
 70
     0
 43
0.0
 10
357.4934
 20
-162.9076
 10
384.6645
 20
-162.0967
  0
LWPOLYLINE
  5
78
330
1F
100
AcDbEntity
  8
Layer 1
 62
     7
370
     9
100
AcDbPolyline
 90
        9
 70
     0
 43
0.0
 10
358.3092
 20
-163.7225
 10
358.7318
 20
-163.7756
 10
359.9902
 20
-163.9071
 10
362.0705
 20
-164.0753
 10
364.9588
 20
-164.2386
 10
368.6409
 20
-164.3551
 10
373.1031
 20
-164.3833
 10
378.3312
 20
-164.2814
 10
384.3114
 20
-164.0077
  0
LWPOLYLINE
  5
79
330
1F
100
AcDbEntity
  8
Layer 1
 62
     7
370
     9
100
AcDbPolyline
 90
        9
 70
     0
 43
0.0
 10
358.4986
 20
-165.8491
 10
359.1412
 20
-165.9168
 10
360.9358
 20
-166.0829
 10
363.6827
 20
-166.2918
 10
367.1821
 20
-166.488
 10
371.2345
 20
-166.616
 10
375.6399
 20
-166.6201
 10
380.1988
 20
-166.4448
 10
384.7114
 20
-166.0346
  0
LWPOLYLINE
  5
7A
330
1F
100
AcDbEntity
  8
Layer 1
 62
     7
370
     9
100
AcDbPolyline
 90
        9
 70
     0
 43
0.0
 10
358.4181
 20
-168.149
 10
358.9228
 20
-168.2017
 10
360.3824
 20
-168.3308
 10
362.7147
 20
-168.4925
 10
365.8379
 20
-168.6431
 10
369.67
 20
-168.7391
 10
374.129
 20
-168.7365
 10
379.1329
 20
-168.5919
 10
384.5998
 20
-168.2615
  0
LWPOLYLINE
  5
7B
330
1F
100
AcDbEntity
  8
Layer 1
 62
     7
370
     9
100
AcDbPolyline
 90
        9
 70
     0
 43
0.0
 10
358.5171
 20
-170.2765
 10
359.0673
 20
-170.3469
 10
360.6357
 20
-170.5181
 10
363.0988
 20
-170.7302
 10
366.3333
 20
-170.9233
 10
370.2159
 20
-171.0373
 10
374.6231
 20
-171.0124
 10
379.4317
 20
-170.7887
 10
384.5181
 20
-170.3061
  0
LWPOLYLINE
  5
7C
330
1F
100
AcDbEntity
  8
Layer 1
 62
     7
370
     9
100
AcDbPolyline
 90
        9
 70
     0
 43
0.0
 10
358.7965
 20
-172.3168
 10
359.1756
 20
-172.4362
 10
360.3243
 20
-172.7296
 10
362.26
 20
-173.0996
 10
364.9999
 20
-173.4489
 10
368.5613
 20
-173.6801
 10
372.9616
 20
-173.696
 10
378.2179
 20
-173.3992
 10
384.3476
 20
-172.6923
  0
LWPOLYLINE
  5
7D
330
1F
100
AcDbEntity
  8
Layer 1
 62
     7
370
     9
100
AcDbPolyline
 90
        2
 70
     0
 43
0.0
 10
338.313
 20
7.0445
 10
447.2308
 20
7.0445
  0
LWPOLYLINE
  5
7E
330
1F
100
AcDbEntity
  8
Layer 1
 62
     7
370
     9
100
AcDbPolyline
 90
        2
 70
     0
 43
0.0
 10
368.151
 20
-161.7459
 10
447.2308
 20
-161.7459
  0
LWPOLYLINE
  5
7F
330
1F
100
AcDbEntity
  8
Layer 1
 62
     7
370
     9
100
AcDbPolyline
 90
        2
 70
     0
 43
0.0
 10
429.812
 20
-161.7471
 10
429.812
 20
7.0445
  0
ENDSEC
  0
SECTION
  2
OBJECTS
  0
DICTIONARY
  5
C
330
0
100
AcDbDictionary
281
     1
  3
ACAD_DETAILVIEWSTYLE
350
87
  3
ACAD_GROUP
350
D
  3
ACAD_LAYOUT
350
1A
  3
ACAD_MATERIAL
350
43
  3
ACAD_MLEADERSTYLE
350
5B
  3
ACAD_MLINESTYLE
350
17
  3
ACAD_PLOTSETTINGS
350
19
  3
ACAD_PLOTSTYLENAME
350
E
  3
ACAD_SCALELIST
350
47
  3
ACAD_SECTIONVIEWSTYLE
350
88
  3
ACAD_TABLESTYLE
350
59
  3
ACAD_VISUALSTYLE
350
2A
  3
ACDB_RECOMPOSE_DATA
350
84
  3
AcDbVariableDictionary
350
80
  0
SUN
  5
5D
330
29
100
AcDbSun
 90
        1
290
     0
 63
     7
421
 16777215
 40
1.0
291
     1
 91
  2455826
 92
 54000000
292
     0
 70
     2
 71
   256
280
     1
  0
DICTIONARY
  5
87
102
{ACAD_REACTORS
330
C
102
}
330
C
100
AcDbDictionary
281
     1
  0
DICTIONARY
  5
D
102
{ACAD_REACTORS
330
C
102
}
330
C
100
AcDbDictionary
281
     1
  0
DICTIONARY
  5
1A
102
{ACAD_REACTORS
330
C
102
}
330
C
100
AcDbDictionary
281
     1
  3
Layout1
350
1E
  3
Layout2
350
26
  3
Model
350
22
  0
DICTIONARY
  5
43
102
{ACAD_REACTORS
330
C
102
}
330
C
100
AcDbDictionary
281
     1
  3
ByBlock
350
45
  3
ByLayer
350
44
  3
Global
350
46
  0
DICTIONARY
  5
5B
102
{ACAD_REACTORS
330
C
102
}
330
C
100
AcDbDictionary
281
     1
  3
Standard
350
5C
  0
DICTIONARY
  5
17
102
{ACAD_REACTORS
330
C
102
}
330
C
100
AcDbDictionary
281
     1
  3
Standard
350
18
  0
DICTIONARY
  5
19
102
{ACAD_REACTORS
330
C
102
}
330
C
100
AcDbDictionary
281
     1
  0
ACDBDICTIONARYWDFLT
  5
E
102
{ACAD_REACTORS
330
C
102
}
330
C
100
AcDbDictionary
281
     1
  3
Normal
350
F
100
AcDbDictionaryWithDefault
340
F
  0
DICTIONARY
  5
47
102
{ACAD_REACTORS
330
C
102
}
330
C
100
AcDbDictionary
281
     1
  3
A0
350
48
  3
A1
350
49
  3
A2
350
4A
  3
A3
350
4B
  3
A4
350
4C
  3
A5
350
4D
  3
A6
350
4E
  3
A7
350
4F
  3
A8
350
50
  3
A9
350
51
  3
B1
350
52
  3
B2
350
53
  3
B3
350
54
  3
B4
350
55
  3
B5
350
56
  3
B6
350
57
  3
B7
350
58
  0
DICTIONARY
  5
88
102
{ACAD_REACTORS
330
C
102
}
330
C
100
AcDbDictionary
281
     1
  0
DICTIONARY
  5
59
102
{ACAD_REACTORS
330
C
102
}
330
C
100
AcDbDictionary
281
     1
  3
Standard
350
5A
  0
DICTIONARY
  5
2A
102
{ACAD_REACTORS
330
C
102
}
330
C
100
AcDbDictionary
281
     1
  3
2dWireframe
350
2F
  3
Basic
350
32
  3
Brighten
350
36
  3
ColorChange
350
3A
  3
Conceptual
350
34
  3
Dim
350
35
  3
EdgeColorOff
350
3D
  3
Facepattern
350
39
  3
Flat
350
2B
  3
FlatWithEdges
350
2C
  3
Gouraud
350
2D
  3
GouraudWithEdges
350
2E
  3
Hidden
350
31
  3
JitterOff
350
3B
  3
Linepattern
350
38
  3
OverhangOff
350
3C
  3
Realistic
350
33
  3
Shaded
350
42
  3
Shaded with edges
350
41
  3
Shades of Gray
350
3E
  3
Sketchy
350
3F
  3
Thicken
350
37
  3
Wireframe
350
30
  3
X-Ray
350
40
  0
XRECORD
  5
84
102
{ACAD_REACTORS
330
C
102
}
330
C
100
AcDbXrecord
280
     1
 90
        1
330
5A
  0
DICTIONARY
  5
80
102
{ACAD_REACTORS
330
C
102
}
330
C
100
AcDbDictionary
281
     1
  3
CANNOSCALE
350
81
  3
CMLEADERSTYLE
350
86
  3
CTABLESTYLE
350
85
  0
LAYOUT
  5
1E
102
{ACAD_REACTORS
330
1A
102
}
330
1A
100
AcDbPlotSettings
  1

  2
none_device
  4

  6

 40
0.0
 41
0.0
 42
0.0
 43
0.0
 44
0.0
 45
0.0
 46
0.0
 47
0.0
 48
0.0
 49
0.0
140
0.0
141
0.0
142
1.0
143
1.0
 70
   688
 72
     0
 73
     0
 74
     5
  7

 75
    16
 76
     0
 77
     2
 78
   300
147
1.0
148
0.0
149
0.0
100
AcDbLayout
  1
Layout1
 70
     1
 71
     1
 10
0.0
 20
0.0
 11
12.0
 21
9.0
 12
0.0
 22
0.0
 32
0.0
 14
1.000000000000000E+20
 24
1.000000000000000E+20
 34
1.000000000000000E+20
 15
-1.000000000000000E+20
 25
-1.000000000000000E+20
 35
-1.000000000000000E+20
146
0.0
 13
0.0
 23
0.0
 33
0.0
 16
1.0
 26
0.0
 36
0.0
 17
0.0
 27
1.0
 37
0.0
 76
     0
330
1B
  0
LAYOUT
  5
26
102
{ACAD_REACTORS
330
1A
102
}
330
1A
100
AcDbPlotSettings
  1

  2
none_device
  4

  6

 40
0.0
 41
0.0
 42
0.0
 43
0.0
 44
0.0
 45
0.0
 46
0.0
 47
0.0
 48
0.0
 49
0.0
140
0.0
141
0.0
142
1.0
143
1.0
 70
   688
 72
     0
 73
     0
 74
     5
  7

 75
    16
 76
     0
 77
     2
 78
   300
147
1.0
148
0.0
149
0.0
100
AcDbLayout
  1
Layout2
 70
     1
 71
     2
 10
0.0
 20
0.0
 11
0.0
 21
0.0
 12
0.0
 22
0.0
 32
0.0
 14
0.0
 24
0.0
 34
0.0
 15
0.0
 25
0.0
 35
0.0
146
0.0
 13
0.0
 23
0.0
 33
0.0
 16
1.0
 26
0.0
 36
0.0
 17
0.0
 27
1.0
 37
0.0
 76
     0
330
23
  0
LAYOUT
  5
22
102
{ACAD_REACTORS
330
1A
102
}
330
1A
100
AcDbPlotSettings
  1

  2
none_device
  4
Letter_(8.50_x_11.00_Inches)
  6

 40
6.35
 41
6.35
 42
6.35000508
 43
6.35000508
 44
215.9
 45
279.4
 46
0.0
 47
0.0
 48
0.0
 49
0.0
140
0.0
141
0.0
142
1.0
143
1.0
 70
  1712
 72
     0
 73
     0
 74
     0
  7

 75
     0
 76
     0
 77
     2
 78
   300
147
1.0
148
0.0
149
0.0
100
AcDbLayout
  1
Model
 70
     1
 71
     0
 10
0.0
 20
0.0
 11
12.0
 21
9.0
 12
0.0
 22
0.0
 32
0.0
 14
308.3575
 24
-185.392
 34
0.0
 15
477.3951
 25
17.0624
 35
0.0
146
0.0
 13
0.0
 23
0.0
 33
0.0
 16
1.0
 26
0.0
 36
0.0
 17
0.0
 27
1.0
 37
0.0
 76
     0
330
1F
331
29
  0
MATERIAL
  5
45
102
{ACAD_REACTORS
330
43
102
}
330
43
100
AcDbMaterial
  1
ByBlock
 72
     1
 94
      127
  0
MATERIAL
  5
44
102
{ACAD_REACTORS
330
43
102
}
330
43
100
AcDbMaterial
  1
ByLayer
 72
     1
 94
      127
  0
MATERIAL
  5
46
102
{ACAD_REACTORS
330
43
102
}
330
43
100
AcDbMaterial
  1
Global
 72
     1
 94
      127
  0
MLEADERSTYLE
  5
5C
102
{ACAD_REACTORS
330
5B
102
}
330
5B
100
AcDbMLeaderStyle
179
     2
170
     2
171
     1
172
     0
 90
        2
 40
0.0
 41
0.0
173
     1
 91
-1056964608
340
14
 92
       -2
290
     1
 42
0.09
291
     1
 43
0.36
  3
Standard
341
0
 44
0.18
300

342
11
174
     1
178
     6
175
     1
176
     0
 93
-1056964608
 45
0.18
292
     0
297
     0
 46
0.18
343
0
 94
-1056964608
 47
1.0
 49
1.0
140
1.0
293
     1
141
0.0
294
     1
177
     0
142
1.0
295
     0
296
     0
143
0.125
271
     0
272
     9
273
     9
298
     0
  0
MLINESTYLE
  5
18
102
{ACAD_REACTORS
330
17
102
}
330
17
100
AcDbMlineStyle
  2
Standard
 70
     0
  3

 62
   256
 51
90.0
 52
90.0
 71
     2
 49
0.5
 62
   256
  6
BYLAYER
 49
-0.5
 62
   256
  6
BYLAYER
  0
ACDBPLACEHOLDER
  5
F
102
{ACAD_REACTORS
330
E
102
}
330
E
  0
SCALE
  5
48
102
{ACAD_REACTORS
330
47
102
}
330
47
100
AcDbScale
 70
     0
300
1:1
140
1.0
141
1.0
290
     1
  0
SCALE
  5
49
102
{ACAD_REACTORS
330
47
102
}
330
47
100
AcDbScale
 70
     0
300
1/128" = 1'-0"
140
0.0078125
141
12.0
290
     0
  0
SCALE
  5
4A
102
{ACAD_REACTORS
330
47
102
}
330
47
100
AcDbScale
 70
     0
300
1/64" = 1'-0"
140
0.015625
141
12.0
290
     0
  0
SCALE
  5
4B
102
{ACAD_REACTORS
330
47
102
}
330
47
100
AcDbScale
 70
     0
300
1/32" = 1'-0"
140
0.03125
141
12.0
290
     0
  0
SCALE
  5
4C
102
{ACAD_REACTORS
330
47
102
}
330
47
100
AcDbScale
 70
     0
300
1/16" = 1'-0"
140
0.0625
141
12.0
290
     0
  0
SCALE
  5
4D
102
{ACAD_REACTORS
330
47
102
}
330
47
100
AcDbScale
 70
     0
300
3/32" = 1'-0"
140
0.09375
141
12.0
290
     0
  0
SCALE
  5
4E
102
{ACAD_REACTORS
330
47
102
}
330
47
100
AcDbScale
 70
     0
300
1/8" = 1'-0"
140
0.125
141
12.0
290
     0
  0
SCALE
  5
4F
102
{ACAD_REACTORS
330
47
102
}
330
47
100
AcDbScale
 70
     0
300
3/16" = 1'-0"
140
0.1875
141
12.0
290
     0
  0
SCALE
  5
50
102
{ACAD_REACTORS
330
47
102
}
330
47
100
AcDbScale
 70
     0
300
1/4" = 1'-0"
140
0.25
141
12.0
290
     0
  0
SCALE
  5
51
102
{ACAD_REACTORS
330
47
102
}
330
47
100
AcDbScale
 70
     0
300
3/8" = 1'-0"
140
0.375
141
12.0
290
     0
  0
SCALE
  5
52
102
{ACAD_REACTORS
330
47
102
}
330
47
100
AcDbScale
 70
     0
300
1/2" = 1'-0"
140
0.5
141
12.0
290
     0
  0
SCALE
  5
53
102
{ACAD_REACTORS
330
47
102
}
330
47
100
AcDbScale
 70
     0
300
3/4" = 1'-0"
140
0.75
141
12.0
290
     0
  0
SCALE
  5
54
102
{ACAD_REACTORS
330
47
102
}
330
47
100
AcDbScale
 70
     0
300
1" = 1'-0"
140
1.0
141
12.0
290
     0
  0
SCALE
  5
55
102
{ACAD_REACTORS
330
47
102
}
330
47
100
AcDbScale
 70
     0
300
1-1/2" = 1'-0"
140
1.5
141
12.0
290
     0
  0
SCALE
  5
56
102
{ACAD_REACTORS
330
47
102
}
330
47
100
AcDbScale
 70
     0
300
3" = 1'-0"
140
3.0
141
12.0
290
     0
  0
SCALE
  5
57
102
{ACAD_REACTORS
330
47
102
}
330
47
100
AcDbScale
 70
     0
300
6" = 1'-0"
140
6.0
141
12.0
290
     0
  0
SCALE
  5
58
102
{ACAD_REACTORS
330
47
102
}
330
47
100
AcDbScale
 70
     0
300
1'-0" = 1'-0"
140
12.0
141
12.0
290
     0
  0
TABLESTYLE
  5
5A
102
{ACAD_REACTORS
330
59
102
}
102
{ACAD_XDICTIONARY
360
82
102
}
330
59
100
AcDbTableStyle
  3
Standard
 70
     0
 71
     0
 40
0.06
 41
0.06
280
     0
281
     0
  7
Standard
140
0.18
170
     2
 62
     0
 63
   257
283
     0
 90
        4
 91
        0
  1

274
    -2
284
     1
 64
     0
275
    -2
285
     1
 65
     0
276
    -2
286
     1
 66
     0
277
    -2
287
     1
 67
     0
278
    -2
288
     1
 68
     0
279
    -2
289
     1
 69
     0
  7
Standard
140
0.25
170
     5
 62
     0
 63
   257
283
     0
 90
        4
 91
        0
  1

274
    -2
284
     1
 64
     0
275
    -2
285
     1
 65
     0
276
    -2
286
     1
 66
     0
277
    -2
287
     1
 67
     0
278
    -2
288
     1
 68
     0
279
    -2
289
     1
 69
     0
  7
Standard
140
0.18
170
     5
 62
     0
 63
   257
283
     0
 90
        4
 91
        0
  1

274
    -2
284
     1
 64
     0
275
    -2
285
     1
 65
     0
276
    -2
286
     1
 66
     0
277
    -2
287
     1
 67
     0
278
    -2
288
     1
 68
     0
279
    -2
289
     1
 69
     0
  0
VISUALSTYLE
  5
2F
102
{ACAD_REACTORS
330
2A
102
}
330
2A
100
AcDbVisualStyle
  2
2dWireframe
 70
     4
177
     3
291
     0
 70
    58
 90
        0
176
     1
 90
        2
176
     1
 90
        0
176
     1
 90
        0
176
     1
 40
0.6
176
     1
 40
30.0
176
     1
 62
     7
420
 16777215
176
     1
 90
        1
176
     1
 90
        4
176
     1
 62
     7
176
     1
 62
   257
176
     1
 90
        1
176
     1
 90
        1
176
     1
 40
1.0
176
     1
 90
        0
176
     1
 62
   257
176
     1
 40
1.0
176
     1
 90
        1
176
     1
 90
        6
176
     1
 90
        2
176
     1
 62
     7
176
     1
 90
        5
176
     1
 90
        0
176
     1
 90
        0
176
     1
290
     0
176
     1
 90
        1
176
     1
 40
0.0
176
     1
 90
        0
176
     1
290
     1
176
     1
290
     1
176
     1
290
     0
176
     1
290
     0
176
     1
290
     0
176
     1
290
     0
176
     1
290
     0
176
     1
290
     0
176
     1
290
     0
176
     1
 90
       50
176
     1
 40
0.0
176
     1
 40
1.0
176
     1
 90
        0
176
     1
 62
    18
420
        0
176
     1
 90
       50
176
     1
 90
        3
176
     1
 62
     5
420
      255
176
     1
290
     0
176
     1
 90
       50
176
     1
 90
       50
176
     1
 90
       50
176
     1
290
     0
176
     1
 90
       50
176
     1
 62
   256
176
     0
 40
1.0
176
     0
 90
        2
176
     1
  1
strokes_ogs.tif
176
     1
290
     0
176
     1
 40
1.0
176
     1
 40
1.0
176
     1
  0
VISUALSTYLE
  5
32
102
{ACAD_REACTORS
330
2A
102
}
330
2A
100
AcDbVisualStyle
  2
Basic
 70
     7
177
     3
291
     1
 70
    58
 90
        1
176
     1
 90
        0
176
     1
 90
        1
176
     1
 90
        0
176
     1
 40
0.6
176
     1
 40
30.0
176
     1
 62
     7
420
 16777215
176
     1
 90
        0
176
     1
 90
        4
176
     1
 62
     7
176
     1
 62
   257
176
     1
 90
        1
176
     1
 90
        1
176
     1
 40
1.0
176
     1
 90
        8
176
     1
 62
     7
176
     1
 40
1.0
176
     1
 90
        1
176
     1
 90
        6
176
     1
 90
        2
176
     1
 62
     7
176
     1
 90
        5
176
     1
 90
        0
176
     1
 90
        0
176
     1
290
     0
176
     1
 90
        1
176
     1
 40
0.0
176
     1
 90
        0
176
     1
290
     0
176
     1
290
     1
176
     1
290
     1
176
     1
290
     0
176
     1
290
     0
176
     1
290
     0
176
     1
290
     0
176
     1
290
     0
176
     1
290
     0
176
     1
 90
       50
176
     1
 40
0.0
176
     1
 40
1.0
176
     1
 90
        0
176
     1
 62
    18
420
        0
176
     1
 90
       50
176
     1
 90
        3
176
     1
 62
     5
420
      255
176
     1
290
     0
176
     1
 90
       50
176
     1
 90
       50
176
     1
 90
       50
176
     1
290
     0
176
     1
 90
       50
176
     1
 62
   256
176
     0
 40
1.0
176
     0
 90
        2
176
     1
  1
strokes_ogs.tif
176
     1
290
     0
176
     1
 40
1.0
176
     1
 40
1.0
176
     1
  0
VISUALSTYLE
  5
36
102
{ACAD_REACTORS
330
2A
102
}
330
2A
100
AcDbVisualStyle
  2
Brighten
 70
    12
177
     3
291
     1
 70
    58
 90
        2
176
     1
 90
        2
176
     1
 90
        0
176
     1
 90
        0
176
     1
 40
0.6
176
     1
 40
30.0
176
     1
 62
     7
420
 16777215
176
     1
 90
        1
176
     1
 90
        4
176
     1
 62
     7
176
     1
 62
   257
176
     1
 90
        1
176
     1
 90
        1
176
     1
 40
1.0
176
     1
 90
        8
176
     1
 62
     7
176
     1
 40
1.0
176
     1
 90
        1
176
     1
 90
        6
176
     1
 90
        2
176
     1
 62
     7
176
     1
 90
        5
176
     1
 90
        0
176
     1
 90
        0
176
     1
290
     0
176
     1
 90
        1
176
     1
 40
50.0
176
     1
 90
        0
176
     1
290
     0
176
     1
290
     1
176
     1
290
     1
176
     1
290
     0
176
     1
290
     0
176
     1
290
     0
176
     1
290
     0
176
     1
290
     0
176
     1
290
     0
176
     1
 90
       50
176
     1
 40
0.0
176
     1
 40
1.0
176
     1
 90
        0
176
     1
 62
    18
420
        0
176
     1
 90
       50
176
     1
 90
        3
176
     1
 62
     5
420
      255
176
     1
290
     0
176
     1
 90
       50
176
     1
 90
       50
176
     1
 90
       50
176
     1
290
     0
176
     1
 90
       50
176
     1
 62
   256
176
     0
 40
1.0
176
     0
 90
        2
176
     1
  1
strokes_ogs.tif
176
     1
290
     0
176
     1
 40
1.0
176
     1
 40
1.0
176
     1
  0
VISUALSTYLE
  5
3A
102
{ACAD_REACTORS
330
2A
102
}
330
2A
100
AcDbVisualStyle
  2
ColorChange
 70
    16
177
     3
291
     1
 70
    58
 90
        2
176
     1
 90
        2
176
     1
 90
        3
176
     1
 90
        0
176
     1
 40
0.6
176
     1
 40
30.0
176
     1
 62
     8
420
  8421504
176
     1
 90
        1
176
     1
 90
        4
176
     1
 62
     7
176
     1
 62
   257
176
     1
 90
        1
176
     1
 90
        1
176
     1
 40
1.0
176
     1
 90
        8
176
     1
 62
     8
420
  8421504
176
     1
 40
1.0
176
     1
 90
        1
176
     1
 90
        6
176
     1
 90
        2
176
     1
 62
     7
176
     1
 90
        5
176
     1
 90
        0
176
     1
 90
        0
176
     1
290
     0
176
     1
 90
        1
176
     1
 40
0.0
176
     1
 90
        0
176
     1
290
     0
176
     1
290
     1
176
     1
290
     1
176
     1
290
     0
176
     1
290
     0
176
     1
290
     0
176
     1
290
     0
176
     1
290
     0
176
     1
290
     0
176
     1
 90
       50
176
     1
 40
0.0
176
     1
 40
1.0
176
     1
 90
        0
176
     1
 62
    18
420
        0
176
     1
 90
       50
176
     1
 90
        3
176
     1
 62
     5
420
      255
176
     1
290
     0
176
     1
 90
       50
176
     1
 90
       50
176
     1
 90
       50
176
     1
290
     0
176
     1
 90
       50
176
     1
 62
   256
176
     0
 40
1.0
176
     0
 90
        2
176
     1
  1
strokes_ogs.tif
176
     1
290
     0
176
     1
 40
1.0
176
     1
 40
1.0
176
     1
  0
VISUALSTYLE
  5
34
102
{ACAD_REACTORS
330
2A
102
}
330
2A
100
AcDbVisualStyle
  2
Conceptual
 70
     9
177
     3
291
     0
 70
    58
 90
        3
176
     1
 90
        2
176
     1
 90
        0
176
     1
 90
        0
176
     1
 40
0.6
176
     1
 40
30.0
176
     1
 62
     7
420
 16777215
176
     1
 90
        2
176
     1
 90
        2
176
     1
 62
     7
176
     1
 62
   257
176
     1
 90
        1
176
     1
 90
        1
176
     1
 40
179.0
176
     1
 90
        8
176
     1
 62
     7
176
     1
 40
1.0
176
     1
 90
        1
176
     1
 90
        6
176
     1
 90
        2
176
     1
 62
     7
176
     1
 90
        3
176
     1
 90
        0
176
     1
 90
        0
176
     1
290
     0
176
     1
 90
        1
176
     1
 40
0.0
176
     1
 90
        0
176
     1
290
     0
176
     1
290
     1
176
     1
290
     1
176
     1
290
     0
176
     1
290
     0
176
     1
290
     0
176
     1
290
     0
176
     1
290
     0
176
     1
290
     0
176
     1
 90
       50
176
     1
 40
0.0
176
     1
 40
1.0
176
     1
 90
        0
176
     1
 62
    18
420
        0
176
     1
 90
       50
176
     1
 90
        3
176
     1
 62
     5
420
      255
176
     1
290
     0
176
     1
 90
       50
176
     1
 90
       50
176
     1
 90
       50
176
     1
290
     0
176
     1
 90
       50
176
     1
 62
   256
176
     0
 40
1.0
176
     0
 90
        2
176
     1
  1
strokes_ogs.tif
176
     1
290
     0
176
     1
 40
1.0
176
     1
 40
1.0
176
     1
  0
VISUALSTYLE
  5
35
102
{ACAD_REACTORS
330
2A
102
}
330
2A
100
AcDbVisualStyle
  2
Dim
 70
    11
177
     3
291
     1
 70
    58
 90
        2
176
     1
 90
        2
176
     1
 90
        0
176
     1
 90
        0
176
     1
 40
0.6
176
     1
 40
30.0
176
     1
 62
     7
420
 16777215
176
     1
 90
        1
176
     1
 90
        4
176
     1
 62
     7
176
     1
 62
   257
176
     1
 90
        1
176
     1
 90
        1
176
     1
 40
1.0
176
     1
 90
        8
176
     1
 62
     7
176
     1
 40
1.0
176
     1
 90
        1
176
     1
 90
        6
176
     1
 90
        2
176
     1
 62
     7
176
     1
 90
        5
176
     1
 90
        0
176
     1
 90
        0
176
     1
290
     0
176
     1
 90
        1
176
     1
 40
-50.0
176
     1
 90
        0
176
     1
290
     0
176
     1
290
     1
176
     1
290
     1
176
     1
290
     0
176
     1
290
     0
176
     1
290
     0
176
     1
290
     0
176
     1
290
     0
176
     1
290
     0
176
     1
 90
       50
176
     1
 40
0.0
176
     1
 40
1.0
176
     1
 90
        0
176
     1
 62
    18
420
        0
176
     1
 90
       50
176
     1
 90
        3
176
     1
 62
     5
420
      255
176
     1
290
     0
176
     1
 90
       50
176
     1
 90
       50
176
     1
 90
       50
176
     1
290
     0
176
     1
 90
       50
176
     1
 62
   256
176
     0
 40
1.0
176
     0
 90
        2
176
     1
  1
strokes_ogs.tif
176
     1
290
     0
176
     1
 40
1.0
176
     1
 40
1.0
176
     1
  0
VISUALSTYLE
  5
3D
102
{ACAD_REACTORS
330
2A
102
}
330
2A
100
AcDbVisualStyle
  2
EdgeColorOff
 70
    22
177
     3
291
     1
 70
    58
 90
        2
176
     0
 90
        2
176
     0
 90
        0
176
     0
 90
        0
176
     0
 40
0.6
176
     0
 40
30.0
176
     0
 62
     7
420
 16777215
176
     0
 90
        1
176
     0
 90
        4
176
     0
 62
     7
176
     0
 62
   257
176
     0
 90
        1
176
     0
 90
        1
176
     0
 40
1.0
176
     0
 90
        8
176
     2
 62
     7
176
     0
 40
1.0
176
     0
 90
        1
176
     0
 90
        6
176
     0
 90
        2
176
     0
 62
     7
176
     0
 90
        5
176
     0
 90
        0
176
     0
 90
        0
176
     0
290
     0
176
     0
 90
        1
176
     0
 40
0.0
176
     0
 90
        0
176
     0
290
     0
176
     0
290
     1
176
     0
290
     1
176
     0
290
     0
176
     0
290
     0
176
     0
290
     0
176
     0
290
     0
176
     0
290
     0
176
     0
290
     0
176
     0
 90
       50
176
     0
 40
0.0
176
     0
 40
1.0
176
     0
 90
        0
176
     0
 62
    18
420
        0
176
     0
 90
       50
176
     0
 90
        3
176
     0
 62
     5
420
      255
176
     0
290
     0
176
     0
 90
       50
176
     0
 90
       50
176
     0
 90
       50
176
     0
290
     0
176
     0
 90
       50
176
     0
 62
   256
176
     0
 40
1.0
176
     0
 90
        2
176
     0
  1
strokes_ogs.tif
176
     0
290
     0
176
     0
 40
1.0
176
     0
 40
1.0
176
     0
  0
VISUALSTYLE
  5
39
102
{ACAD_REACTORS
330
2A
102
}
330
2A
100
AcDbVisualStyle
  2
Facepattern
 70
    15
177
     3
291
     1
 70
    58
 90
        2
176
     1
 90
        2
176
     1
 90
        0
176
     1
 90
        0
176
     1
 40
0.6
176
     1
 40
30.0
176
     1
 62
     7
420
 16777215
176
     1
 90
        1
176
     1
 90
        4
176
     1
 62
     7
176
     1
 62
   257
176
     1
 90
        1
176
     1
 90
        1
176
     1
 40
1.0
176
     1
 90
        8
176
     1
 62
     7
176
     1
 40
1.0
176
     1
 90
        1
176
     1
 90
        6
176
     1
 90
        2
176
     1
 62
     7
176
     1
 90
        5
176
     1
 90
        0
176
     1
 90
        0
176
     1
290
     0
176
     1
 90
        1
176
     1
 40
0.0
176
     1
 90
        0
176
     1
290
     0
176
     1
290
     1
176
     1
290
     1
176
     1
290
     0
176
     1
290
     0
176
     1
290
     0
176
     1
290
     0
176
     1
290
     0
176
     1
290
     0
176
     1
 90
       50
176
     1
 40
0.0
176
     1
 40
1.0
176
     1
 90
        0
176
     1
 62
    18
420
        0
176
     1
 90
       50
176
     1
 90
        3
176
     1
 62
     5
420
      255
176
     1
290
     0
176
     1
 90
       50
176
     1
 90
       50
176
     1
 90
       50
176
     1
290
     0
176
     1
 90
       50
176
     1
 62
   256
176
     0
 40
1.0
176
     0
 90
        2
176
     1
  1
strokes_ogs.tif
176
     1
290
     0
176
     1
 40
1.0
176
     1
 40
1.0
176
     1
  0
VISUALSTYLE
  5
2B
102
{ACAD_REACTORS
330
2A
102
}
330
2A
100
AcDbVisualStyle
  2
Flat
 70
     0
177
     3
291
     1
 70
    58
 90
        2
176
     1
 90
        1
176
     1
 90
        1
176
     1
 90
        2
176
     1
 40
0.6
176
     1
 40
30.0
176
     1
 62
     7
420
 16777215
176
     1
 90
        0
176
     1
 90
        0
176
     1
 62
     7
176
     1
 62
   257
176
     1
 90
        1
176
     1
 90
        1
176
     1
 40
1.0
176
     1
 90
        8
176
     1
 62
     7
176
     1
 40
1.0
176
     1
 90
        1
176
     1
 90
        6
176
     1
 90
        2
176
     1
 62
     7
176
     1
 90
        5
176
     1
 90
        0
176
     1
 90
        0
176
     1
290
     0
176
     1
 90
       13
176
     1
 40
0.0
176
     1
 90
        0
176
     1
290
     0
176
     1
290
     1
176
     1
290
     1
176
     1
290
     0
176
     1
290
     0
176
     1
290
     0
176
     1
290
     0
176
     1
290
     0
176
     1
290
     0
176
     1
 90
       50
176
     1
 40
0.0
176
     1
 40
1.0
176
     1
 90
        0
176
     1
 62
    18
420
        0
176
     1
 90
       50
176
     1
 90
        3
176
     1
 62
     5
420
      255
176
     1
290
     0
176
     1
 90
       50
176
     1
 90
       50
176
     1
 90
       50
176
     1
290
     0
176
     1
 90
       50
176
     1
 62
   256
176
     0
 40
1.0
176
     0
 90
        2
176
     1
  1
strokes_ogs.tif
176
     1
290
     0
176
     1
 40
1.0
176
     1
 40
1.0
176
     1
  0
VISUALSTYLE
  5
2C
102
{ACAD_REACTORS
330
2A
102
}
330
2A
100
AcDbVisualStyle
  2
FlatWithEdges
 70
     1
177
     3
291
     1
 70
    58
 90
        2
176
     1
 90
        1
176
     1
 90
        1
176
     1
 90
        2
176
     1
 40
0.6
176
     1
 40
30.0
176
     1
 62
     7
420
 16777215
176
     1
 90
        1
176
     1
 90
        0
176
     1
 62
     7
176
     1
 62
   257
176
     1
 90
        1
176
     1
 90
        1
176
     1
 40
1.0
176
     1
 90
        0
176
     1
 62
   257
176
     1
 40
1.0
176
     1
 90
        1
176
     1
 90
        6
176
     1
 90
        2
176
     1
 62
     7
176
     1
 90
        5
176
     1
 90
        0
176
     1
 90
        0
176
     1
290
     0
176
     1
 90
       13
176
     1
 40
0.0
176
     1
 90
        0
176
     1
290
     0
176
     1
290
     1
176
     1
290
     1
176
     1
290
     0
176
     1
290
     0
176
     1
290
     0
176
     1
290
     0
176
     1
290
     0
176
     1
290
     0
176
     1
 90
       50
176
     1
 40
0.0
176
     1
 40
1.0
176
     1
 90
        0
176
     1
 62
    18
420
        0
176
     1
 90
       50
176
     1
 90
        3
176
     1
 62
     5
420
      255
176
     1
290
     0
176
     1
 90
       50
176
     1
 90
       50
176
     1
 90
       50
176
     1
290
     0
176
     1
 90
       50
176
     1
 62
   256
176
     0
 40
1.0
176
     0
 90
        2
176
     1
  1
strokes_ogs.tif
176
     1
290
     0
176
     1
 40
1.0
176
     1
 40
1.0
176
     1
  0
VISUALSTYLE
  5
2D
102
{ACAD_REACTORS
330
2A
102
}
330
2A
100
AcDbVisualStyle
  2
Gouraud
 70
     2
177
     3
291
     1
 70
    58
 90
        2
176
     1
 90
        2
176
     1
 90
        1
176
     1
 90
        2
176
     1
 40
0.6
176
     1
 40
30.0
176
     1
 62
     7
420
 16777215
176
     1
 90
        0
176
     1
 90
        0
176
     1
 62
     7
176
     1
 62
   257
176
     1
 90
        1
176
     1
 90
        1
176
     1
 40
1.0
176
     1
 90
        0
176
     1
 62
     7
176
     1
 40
1.0
176
     1
 90
        1
176
     1
 90
        6
176
     1
 90
        2
176
     1
 62
     7
176
     1
 90
        5
176
     1
 90
        0
176
     1
 90
        0
176
     1
290
     0
176
     1
 90
       13
176
     1
 40
0.0
176
     1
 90
        0
176
     1
290
     0
176
     1
290
     1
176
     1
290
     1
176
     1
290
     0
176
     1
290
     0
176
     1
290
     0
176
     1
290
     0
176
     1
290
     0
176
     1
290
     0
176
     1
 90
       50
176
     1
 40
0.0
176
     1
 40
1.0
176
     1
 90
        0
176
     1
 62
    18
420
        0
176
     1
 90
       50
176
     1
 90
        3
176
     1
 62
     5
420
      255
176
     1
290
     0
176
     1
 90
       50
176
     1
 90
       50
176
     1
 90
       50
176
     1
290
     0
176
     1
 90
       50
176
     1
 62
   256
176
     0
 40
1.0
176
     0
 90
        2
176
     1
  1
strokes_ogs.tif
176
     1
290
     0
176
     1
 40
1.0
176
     1
 40
1.0
176
     1
  0
VISUALSTYLE
  5
2E
102
{ACAD_REACTORS
330
2A
102
}
330
2A
100
AcDbVisualStyle
  2
GouraudWithEdges
 70
     3
177
     3
291
     1
 70
    58
 90
        2
176
     1
 90
        2
176
     1
 90
        1
176
     1
 90
        2
176
     1
 40
0.6
176
     1
 40
30.0
176
     1
 62
     7
420
 16777215
176
     1
 90
        1
176
     1
 90
        0
176
     1
 62
     7
176
     1
 62
   257
176
     1
 90
        1
176
     1
 90
        1
176
     1
 40
1.0
176
     1
 90
        0
176
     1
 62
   257
176
     1
 40
1.0
176
     1
 90
        1
176
     1
 90
        6
176
     1
 90
        2
176
     1
 62
     7
176
     1
 90
        5
176
     1
 90
        0
176
     1
 90
        0
176
     1
290
     0
176
     1
 90
       13
176
     1
 40
0.0
176
     1
 90
        0
176
     1
290
     0
176
     1
290
     1
176
     1
290
     1
176
     1
290
     0
176
     1
290
     0
176
     1
290
     0
176
     1
290
     0
176
     1
290
     0
176
     1
290
     0
176
     1
 90
       50
176
     1
 40
0.0
176
     1
 40
1.0
176
     1
 90
        0
176
     1
 62
    18
420
        0
176
     1
 90
       50
176
     1
 90
        3
176
     1
 62
     5
420
      255
176
     1
290
     0
176
     1
 90
       50
176
     1
 90
       50
176
     1
 90
       50
176
     1
290
     0
176
     1
 90
       50
176
     1
 62
   256
176
     0
 40
1.0
176
     0
 90
        2
176
     1
  1
strokes_ogs.tif
176
     1
290
     0
176
     1
 40
1.0
176
     1
 40
1.0
176
     1
  0
VISUALSTYLE
  5
31
102
{ACAD_REACTORS
330
2A
102
}
330
2A
100
AcDbVisualStyle
  2
Hidden
 70
     6
177
     3
291
     0
 70
    58
 90
        1
176
     1
 90
        2
176
     1
 90
        2
176
     1
 90
        0
176
     1
 40
0.6
176
     1
 40
30.0
176
     1
 62
     7
420
 16777215
176
     1
 90
        2
176
     1
 90
        2
176
     1
 62
     7
176
     1
 62
   257
176
     1
 90
        2
176
     1
 90
        1
176
     1
 40
40.0
176
     1
 90
        0
176
     1
 62
   257
176
     1
 40
1.0
176
     1
 90
        1
176
     1
 90
        6
176
     1
 90
        2
176
     1
 62
     7
176
     1
 90
        3
176
     1
 90
        0
176
     1
 90
        0
176
     1
290
     0
176
     1
 90
        1
176
     1
 40
0.0
176
     1
 90
        0
176
     1
290
     0
176
     1
290
     1
176
     1
290
     1
176
     1
290
     0
176
     1
290
     0
176
     1
290
     0
176
     1
290
     0
176
     1
290
     0
176
     1
290
     0
176
     1
 90
       50
176
     1
 40
0.0
176
     1
 40
1.0
176
     1
 90
        0
176
     1
 62
    18
420
        0
176
     1
 90
       50
176
     1
 90
        3
176
     1
 62
     5
420
      255
176
     1
290
     0
176
     1
 90
       50
176
     1
 90
       50
176
     1
 90
       50
176
     1
290
     0
176
     1
 90
       50
176
     1
 62
   256
176
     0
 40
1.0
176
     0
 90
        2
176
     1
  1
strokes_ogs.tif
176
     1
290
     0
176
     1
 40
1.0
176
     1
 40
1.0
176
     1
  0
VISUALSTYLE
  5
3B
102
{ACAD_REACTORS
330
2A
102
}
330
2A
100
AcDbVisualStyle
  2
JitterOff
 70
    20
177
     3
291
     1
 70
    58
 90
        2
176
     0
 90
        2
176
     0
 90
        0
176
     0
 90
        0
176
     0
 40
0.6
176
     0
 40
30.0
176
     0
 62
     7
420
 16777215
176
     0
 90
        1
176
     0
 90
        4
176
     0
 62
     7
176
     0
 62
   257
176
     0
 90
        1
176
     0
 90
        1
176
     0
 40
1.0
176
     0
 90
       10
176
     2
 62
     7
176
     0
 40
1.0
176
     0
 90
        1
176
     0
 90
        6
176
     0
 90
        2
176
     0
 62
     7
176
     0
 90
        5
176
     0
 90
        0
176
     0
 90
        0
176
     0
290
     0
176
     0
 90
        1
176
     0
 40
0.0
176
     0
 90
        0
176
     0
290
     0
176
     0
290
     1
176
     0
290
     1
176
     0
290
     0
176
     0
290
     0
176
     0
290
     0
176
     0
290
     0
176
     0
290
     0
176
     0
290
     0
176
     0
 90
       50
176
     0
 40
0.0
176
     0
 40
1.0
176
     0
 90
        0
176
     0
 62
    18
420
        0
176
     0
 90
       50
176
     0
 90
        3
176
     0
 62
     5
420
      255
176
     0
290
     0
176
     0
 90
       50
176
     0
 90
       50
176
     0
 90
       50
176
     0
290
     0
176
     0
 90
       50
176
     0
 62
   256
176
     0
 40
1.0
176
     0
 90
        2
176
     0
  1
strokes_ogs.tif
176
     0
290
     0
176
     0
 40
1.0
176
     0
 40
1.0
176
     0
  0
VISUALSTYLE
  5
38
102
{ACAD_REACTORS
330
2A
102
}
330
2A
100
AcDbVisualStyle
  2
Linepattern
 70
    14
177
     3
291
     1
 70
    58
 90
        2
176
     1
 90
        2
176
     1
 90
        0
176
     1
 90
        0
176
     1
 40
0.6
176
     1
 40
30.0
176
     1
 62
     7
420
 16777215
176
     1
 90
        1
176
     1
 90
        4
176
     1
 62
     7
176
     1
 62
   257
176
     1
 90
        7
176
     1
 90
        7
176
     1
 40
1.0
176
     1
 90
        8
176
     1
 62
     7
176
     1
 40
1.0
176
     1
 90
        1
176
     1
 90
        6
176
     1
 90
        2
176
     1
 62
     7
176
     1
 90
        5
176
     1
 90
        0
176
     1
 90
        0
176
     1
290
     0
176
     1
 90
        1
176
     1
 40
0.0
176
     1
 90
        0
176
     1
290
     0
176
     1
290
     1
176
     1
290
     1
176
     1
290
     0
176
     1
290
     0
176
     1
290
     0
176
     1
290
     0
176
     1
290
     0
176
     1
290
     0
176
     1
 90
       50
176
     1
 40
0.0
176
     1
 40
1.0
176
     1
 90
        0
176
     1
 62
    18
420
        0
176
     1
 90
       50
176
     1
 90
        3
176
     1
 62
     5
420
      255
176
     1
290
     0
176
     1
 90
       50
176
     1
 90
       50
176
     1
 90
       50
176
     1
290
     0
176
     1
 90
       50
176
     1
 62
   256
176
     0
 40
1.0
176
     0
 90
        2
176
     1
  1
strokes_ogs.tif
176
     1
290
     0
176
     1
 40
1.0
176
     1
 40
1.0
176
     1
  0
VISUALSTYLE
  5
3C
102
{ACAD_REACTORS
330
2A
102
}
330
2A
100
AcDbVisualStyle
  2
OverhangOff
 70
    21
177
     3
291
     1
 70
    58
 90
        2
176
     0
 90
        2
176
     0
 90
        0
176
     0
 90
        0
176
     0
 40
0.6
176
     0
 40
30.0
176
     0
 62
     7
420
 16777215
176
     0
 90
        1
176
     0
 90
        4
176
     0
 62
     7
176
     0
 62
   257
176
     0
 90
        1
176
     0
 90
        1
176
     0
 40
1.0
176
     0
 90
        9
176
     2
 62
     7
176
     0
 40
1.0
176
     0
 90
        1
176
     0
 90
        6
176
     0
 90
        2
176
     0
 62
     7
176
     0
 90
        5
176
     0
 90
        0
176
     0
 90
        0
176
     0
290
     0
176
     0
 90
        1
176
     0
 40
0.0
176
     0
 90
        0
176
     0
290
     0
176
     0
290
     1
176
     0
290
     1
176
     0
290
     0
176
     0
290
     0
176
     0
290
     0
176
     0
290
     0
176
     0
290
     0
176
     0
290
     0
176
     0
 90
       50
176
     0
 40
0.0
176
     0
 40
1.0
176
     0
 90
        0
176
     0
 62
    18
420
        0
176
     0
 90
       50
176
     0
 90
        3
176
     0
 62
     5
420
      255
176
     0
290
     0
176
     0
 90
       50
176
     0
 90
       50
176
     0
 90
       50
176
     0
290
     0
176
     0
 90
       50
176
     0
 62
   256
176
     0
 40
1.0
176
     0
 90
        2
176
     0
  1
strokes_ogs.tif
176
     0
290
     0
176
     0
 40
1.0
176
     0
 40
1.0
176
     0
  0
VISUALSTYLE
  5
33
102
{ACAD_REACTORS
330
2A
102
}
330
2A
100
AcDbVisualStyle
  2
Realistic
 70
     8
177
     3
291
     0
 70
    58
 90
        2
176
     1
 90
        3
176
     1
 90
        0
176
     1
 90
        2
176
     1
 40
0.6
176
     1
 40
30.0
176
     1
 62
     7
420
 16777215
176
     1
 90
        0
176
     1
 90
        0
176
     1
 62
     7
176
     1
 62
   257
176
     1
 90
        1
176
     1
 90
        1
176
     1
 40
1.0
176
     1
 90
        8
176
     1
 62
   257
176
     1
 40
1.0
176
     1
 90
        1
176
     1
 90
        6
176
     1
 90
        2
176
     1
 62
     7
176
     1
 90
        3
176
     1
 90
        0
176
     1
 90
        0
176
     1
290
     0
176
     1
 90
       13
176
     1
 40
0.0
176
     1
 90
        0
176
     1
290
     0
176
     1
290
     1
176
     1
290
     1
176
     1
290
     0
176
     1
290
     0
176
     1
290
     0
176
     1
290
     0
176
     1
290
     0
176
     1
290
     0
176
     1
 90
       50
176
     1
 40
0.0
176
     1
 40
1.0
176
     1
 90
        0
176
     1
 62
    18
420
        0
176
     1
 90
       50
176
     1
 90
        3
176
     1
 62
     5
420
      255
176
     1
290
     0
176
     1
 90
       50
176
     1
 90
       50
176
     1
 90
       50
176
     1
290
     0
176
     1
 90
       50
176
     1
 62
   256
176
     0
 40
1.0
176
     0
 90
        2
176
     1
  1
strokes_ogs.tif
176
     1
290
     0
176
     1
 40
1.0
176
     1
 40
1.0
176
     1
  0
VISUALSTYLE
  5
42
102
{ACAD_REACTORS
330
2A
102
}
330
2A
100
AcDbVisualStyle
  2
Shaded
 70
    27
177
     3
291
     0
 70
    58
 90
        2
176
     1
 90
        2
176
     1
 90
        1
176
     1
 90
        2
176
     1
 40
0.6
176
     1
 40
30.0
176
     1
 62
     7
420
 16777215
176
     1
 90
        0
176
     1
 90
        4
176
     1
 62
     7
176
     1
 62
   257
176
     1
 90
        1
176
     1
 90
        1
176
     1
 40
1.0
176
     1
 90
        8
176
     1
 62
   257
176
     1
 40
1.0
176
     1
 90
        1
176
     1
 90
        6
176
     1
 90
        2
176
     1
 62
     8
420
  7895160
176
     1
 90
        3
176
     1
 90
        0
176
     1
 90
        0
176
     1
290
     0
176
     1
 90
        5
176
     1
 40
0.0
176
     1
 90
        0
176
     1
290
     0
176
     1
290
     1
176
     1
290
     1
176
     1
290
     0
176
     1
290
     0
176
     1
290
     0
176
     1
290
     0
176
     1
290
     0
176
     1
290
     0
176
     1
 90
       50
176
     1
 40
0.0
176
     1
 40
1.0
176
     1
 90
        0
176
     1
 62
    18
420
        0
176
     1
 90
       50
176
     1
 90
        3
176
     1
 62
     5
420
      255
176
     1
290
     0
176
     1
 90
       50
176
     1
 90
       50
176
     1
 90
       50
176
     1
290
     0
176
     1
 90
       50
176
     1
 62
   256
176
     0
 40
1.0
176
     0
 90
        2
176
     1
  1
strokes_ogs.tif
176
     1
290
     0
176
     1
 40
1.0
176
     1
 40
1.0
176
     1
  0
VISUALSTYLE
  5
41
102
{ACAD_REACTORS
330
2A
102
}
330
2A
100
AcDbVisualStyle
  2
Shaded with edges
 70
    26
177
     3
291
     0
 70
    58
 90
        2
176
     1
 90
        2
176
     1
 90
        1
176
     1
 90
        2
176
     1
 40
0.6
176
     1
 40
30.0
176
     1
 62
     7
420
 16777215
176
     1
 90
        1
176
     1
 90
       10
176
     1
 62
     7
176
     1
 62
   257
176
     1
 90
        2
176
     1
 90
        1
176
     1
 40
1.0
176
     1
 90
        8
176
     1
 62
   257
176
     1
 40
1.0
176
     1
 90
        1
176
     1
 90
        6
176
     1
 90
        2
176
     1
 62
     7
176
     1
 90
        3
176
     1
 90
        0
176
     1
 90
        0
176
     1
290
     0
176
     1
 90
        5
176
     1
 40
0.0
176
     1
 90
        0
176
     1
290
     0
176
     1
290
     1
176
     1
290
     1
176
     1
290
     0
176
     1
290
     0
176
     1
290
     0
176
     1
290
     0
176
     1
290
     0
176
     1
290
     0
176
     1
 90
       50
176
     1
 40
0.0
176
     1
 40
1.0
176
     1
 90
        0
176
     1
 62
    18
420
        0
176
     1
 90
       50
176
     1
 90
        3
176
     1
 62
     5
420
      255
176
     1
290
     0
176
     1
 90
       50
176
     1
 90
       50
176
     1
 90
       50
176
     1
290
     0
176
     1
 90
       50
176
     1
 62
   256
176
     0
 40
1.0
176
     0
 90
        2
176
     1
  1
strokes_ogs.tif
176
     1
290
     0
176
     1
 40
1.0
176
     1
 40
1.0
176
     1
  0
VISUALSTYLE
  5
3E
102
{ACAD_REACTORS
330
2A
102
}
330
2A
100
AcDbVisualStyle
  2
Shades of Gray
 70
    23
177
     3
291
     0
 70
    58
 90
        2
176
     1
 90
        2
176
     1
 90
        3
176
     1
 90
        0
176
     1
 40
0.6
176
     1
 40
30.0
176
     1
 62
     7
420
 16777215
176
     1
 90
        2
176
     1
 90
        2
176
     1
 62
     7
176
     1
 62
     7
176
     1
 90
        1
176
     1
 90
        1
176
     1
 40
40.0
176
     1
 90
        8
176
     1
 62
     7
176
     1
 40
1.0
176
     1
 90
        1
176
     1
 90
        6
176
     1
 90
        2
176
     1
 62
     7
176
     1
 90
        3
176
     1
 90
        0
176
     1
 90
        0
176
     1
290
     0
176
     1
 90
        1
176
     1
 40
0.0
176
     1
 90
        0
176
     1
290
     0
176
     1
290
     1
176
     1
290
     1
176
     1
290
     0
176
     1
290
     0
176
     1
290
     0
176
     1
290
     0
176
     1
290
     0
176
     1
290
     0
176
     1
 90
       50
176
     1
 40
0.0
176
     1
 40
1.0
176
     1
 90
        0
176
     1
 62
    18
420
        0
176
     1
 90
       50
176
     1
 90
        3
176
     1
 62
     5
420
      255
176
     1
290
     0
176
     1
 90
       50
176
     1
 90
       50
176
     1
 90
       50
176
     1
290
     0
176
     1
 90
       50
176
     1
 62
   256
176
     0
 40
1.0
176
     0
 90
        2
176
     1
  1
strokes_ogs.tif
176
     1
290
     0
176
     1
 40
1.0
176
     1
 40
1.0
176
     1
  0
VISUALSTYLE
  5
3F
102
{ACAD_REACTORS
330
2A
102
}
330
2A
100
AcDbVisualStyle
  2
Sketchy
 70
    24
177
     3
291
     0
 70
    58
 90
        1
176
     1
 90
        2
176
     1
 90
        2
176
     1
 90
        0
176
     1
 40
0.6
176
     1
 40
30.0
176
     1
 62
     7
420
 16777215
176
     1
 90
        2
176
     1
 90
        2
176
     1
 62
     7
176
     1
 62
     7
176
     1
 90
        1
176
     1
 90
        1
176
     1
 40
40.0
176
     1
 90
       11
176
     1
 62
     7
176
     1
 40
1.0
176
     1
 90
        1
176
     1
 90
        6
176
     1
 90
        2
176
     1
 62
     7
176
     1
 90
        6
176
     1
 90
        0
176
     1
 90
        0
176
     1
290
     0
176
     1
 90
        1
176
     1
 40
0.0
176
     1
 90
        0
176
     1
290
     0
176
     1
290
     1
176
     1
290
     1
176
     1
290
     0
176
     1
290
     0
176
     1
290
     0
176
     1
290
     0
176
     1
290
     0
176
     1
290
     0
176
     1
 90
       50
176
     1
 40
0.0
176
     1
 40
1.0
176
     1
 90
        0
176
     1
 62
    18
420
        0
176
     1
 90
       50
176
     1
 90
        3
176
     1
 62
     5
420
      255
176
     1
290
     0
176
     1
 90
       50
176
     1
 90
       50
176
     1
 90
       50
176
     1
290
     0
176
     1
 90
       50
176
     1
 62
   256
176
     0
 40
1.0
176
     0
 90
        2
176
     1
  1
strokes_ogs.tif
176
     1
290
     0
176
     1
 40
1.0
176
     1
 40
1.0
176
     1
  0
VISUALSTYLE
  5
37
102
{ACAD_REACTORS
330
2A
102
}
330
2A
100
AcDbVisualStyle
  2
Thicken
 70
    13
177
     3
291
     1
 70
    58
 90
        2
176
     1
 90
        2
176
     1
 90
        0
176
     1
 90
        0
176
     1
 40
0.6
176
     1
 40
30.0
176
     1
 62
     7
420
 16777215
176
     1
 90
        1
176
     1
 90
        4
176
     1
 62
     7
176
     1
 62
   257
176
     1
 90
        1
176
     1
 90
        1
176
     1
 40
1.0
176
     1
 90
       12
176
     1
 62
     7
176
     1
 40
1.0
176
     1
 90
        1
176
     1
 90
        6
176
     1
 90
        2
176
     1
 62
     7
176
     1
 90
        5
176
     1
 90
        0
176
     1
 90
        0
176
     1
290
     0
176
     1
 90
        1
176
     1
 40
0.0
176
     1
 90
        0
176
     1
290
     0
176
     1
290
     1
176
     1
290
     1
176
     1
290
     0
176
     1
290
     0
176
     1
290
     0
176
     1
290
     0
176
     1
290
     0
176
     1
290
     0
176
     1
 90
       50
176
     1
 40
0.0
176
     1
 40
1.0
176
     1
 90
        0
176
     1
 62
    18
420
        0
176
     1
 90
       50
176
     1
 90
        3
176
     1
 62
     5
420
      255
176
     1
290
     0
176
     1
 90
       50
176
     1
 90
       50
176
     1
 90
       50
176
     1
290
     0
176
     1
 90
       50
176
     1
 62
   256
176
     0
 40
1.0
176
     0
 90
        2
176
     1
  1
strokes_ogs.tif
176
     1
290
     0
176
     1
 40
1.0
176
     1
 40
1.0
176
     1
  0
VISUALSTYLE
  5
30
102
{ACAD_REACTORS
330
2A
102
}
330
2A
100
AcDbVisualStyle
  2
Wireframe
 70
     5
177
     3
291
     0
 70
    58
 90
        0
176
     1
 90
        2
176
     1
 90
        0
176
     1
 90
        0
176
     1
 40
0.6
176
     1
 40
30.0
176
     1
 62
     7
420
 16777215
176
     1
 90
        1
176
     1
 90
        4
176
     1
 62
     7
176
     1
 62
   257
176
     1
 90
        1
176
     1
 90
        1
176
     1
 40
1.0
176
     1
 90
        0
176
     1
 62
   257
176
     1
 40
1.0
176
     1
 90
        1
176
     1
 90
        6
176
     1
 90
        2
176
     1
 62
     7
176
     1
 90
        3
176
     1
 90
        0
176
     1
 90
        0
176
     1
290
     0
176
     1
 90
        1
176
     1
 40
0.0
176
     1
 90
        0
176
     1
290
     0
176
     1
290
     1
176
     1
290
     1
176
     1
290
     0
176
     1
290
     0
176
     1
290
     0
176
     1
290
     0
176
     1
290
     0
176
     1
290
     0
176
     1
 90
       50
176
     1
 40
0.0
176
     1
 40
1.0
176
     1
 90
        0
176
     1
 62
    18
420
        0
176
     1
 90
       50
176
     1
 90
        3
176
     1
 62
     5
420
      255
176
     1
290
     0
176
     1
 90
       50
176
     1
 90
       50
176
     1
 90
       50
176
     1
290
     0
176
     1
 90
       50
176
     1
 62
   256
176
     0
 40
1.0
176
     0
 90
        2
176
     1
  1
strokes_ogs.tif
176
     1
290
     0
176
     1
 40
1.0
176
     1
 40
1.0
176
     1
  0
VISUALSTYLE
  5
40
102
{ACAD_REACTORS
330
2A
102
}
330
2A
100
AcDbVisualStyle
  2
X-Ray
 70
    25
177
     3
291
     0
 70
    58
 90
        2
176
     1
 90
        2
176
     1
 90
        1
176
     1
 90
        1
176
     1
 40
0.5
176
     1
 40
30.0
176
     1
 62
     7
420
 16777215
176
     1
 90
        1
176
     1
 90
        0
176
     1
 62
     7
176
     1
 62
   257
176
     1
 90
        1
176
     1
 90
        1
176
     1
 40
1.0
176
     1
 90
        8
176
     1
 62
     7
176
     1
 40
1.0
176
     1
 90
        1
176
     1
 90
        6
176
     1
 90
        2
176
     1
 62
     7
176
     1
 90
        3
176
     1
 90
        0
176
     1
 90
        0
176
     1
290
     0
176
     1
 90
       13
176
     1
 40
0.0
176
     1
 90
        0
176
     1
290
     0
176
     1
290
     1
176
     1
290
     1
176
     1
290
     0
176
     1
290
     0
176
     1
290
     0
176
     1
290
     0
176
     1
290
     0
176
     1
290
     0
176
     1
 90
       50
176
     1
 40
0.0
176
     1
 40
1.0
176
     1
 90
        0
176
     1
 62
    18
420
        0
176
     1
 90
       50
176
     1
 90
        3
176
     1
 62
     5
420
      255
176
     1
290
     0
176
     1
 90
       50
176
     1
 90
       50
176
     1
 90
       50
176
     1
290
     0
176
     1
 90
       50
176
     1
 62
   256
176
     0
 40
1.0
176
     0
 90
        2
176
     1
  1
strokes_ogs.tif
176
     1
290
     0
176
     1
 40
1.0
176
     1
 40
1.0
176
     1
  0
DICTIONARYVAR
  5
81
102
{ACAD_REACTORS
330
80
102
}
330
80
100
DictionaryVariables
280
     0
  1
1:1
  0
DICTIONARYVAR
  5
86
102
{ACAD_REACTORS
330
80
102
}
330
80
100
DictionaryVariables
280
     0
  1
Standard
  0
DICTIONARYVAR
  5
85
102
{ACAD_REACTORS
330
80
102
}
330
80
100
DictionaryVariables
280
     0
  1
Standard
  0
DICTIONARY
  5
82
330
5A
100
AcDbDictionary
280
     1
281
     1
  3
ACAD_ROUNDTRIP_2008_TABLESTYLE_CELLSTYLEMAP
360
83
  0
CELLSTYLEMAP
  5
83
102
{ACAD_REACTORS
330
82
102
}
330
82
100
AcDbCellStyleMap
 90
        3
300
CELLSTYLE
  1
TABLEFORMAT_BEGIN
 90
        5
170
     1
 91
        0
 92
    32768
 62
   257
 93
        1
300
CONTENTFORMAT
  1
CONTENTFORMAT_BEGIN
 90
        0
 91
        0
 92
        4
 93
        0
300

 40
0.0
140
1.0
 94
        5
 62
     0
340
11
144
0.25
309
CONTENTFORMAT_END
171
     1
301
MARGIN
  1
CELLMARGIN_BEGIN
 40
0.06
 40
0.06
 40
0.06
 40
0.06
 40
0.06
 40
0.06
309
CELLMARGIN_END
 94
        6
 95
        1
302
GRIDFORMAT
  1
GRIDFORMAT_BEGIN
 90
        0
 91
        1
 62
     0
 92
       -2
340
14
 93
        0
 40
0.045
309
GRIDFORMAT_END
 95
        2
302
GRIDFORMAT
  1
GRIDFORMAT_BEGIN
 90
        0
 91
        1
 62
     0
 92
       -2
340
14
 93
        0
 40
0.045
309
GRIDFORMAT_END
 95
        4
302
GRIDFORMAT
  1
GRIDFORMAT_BEGIN
 90
        0
 91
        1
 62
     0
 92
       -2
340
14
 93
        0
 40
0.045
309
GRIDFORMAT_END
 95
        8
302
GRIDFORMAT
  1
GRIDFORMAT_BEGIN
 90
        0
 91
        1
 62
     0
 92
       -2
340
14
 93
        0
 40
0.045
309
GRIDFORMAT_END
 95
       16
302
GRIDFORMAT
  1
GRIDFORMAT_BEGIN
 90
        0
 91
        1
 62
     0
 92
       -2
340
14
 93
        0
 40
0.045
309
GRIDFORMAT_END
 95
       32
302
GRIDFORMAT
  1
GRIDFORMAT_BEGIN
 90
        0
 91
        1
 62
     0
 92
       -2
340
14
 93
        0
 40
0.045
309
GRIDFORMAT_END
309
TABLEFORMAT_END
  1
CELLSTYLE_BEGIN
 90
        1
 91
        1
300
_TITLE
309
CELLSTYLE_END
300
CELLSTYLE
  1
TABLEFORMAT_BEGIN
 90
        5
170
     1
 91
        0
 92
        0
 62
   257
 93
        1
300
CONTENTFORMAT
  1
CONTENTFORMAT_BEGIN
 90
        0
 91
        0
 92
        4
 93
        0
300

 40
0.0
140
1.0
 94
        5
 62
     0
340
11
144
0.18
309
CONTENTFORMAT_END
171
     1
301
MARGIN
  1
CELLMARGIN_BEGIN
 40
0.06
 40
0.06
 40
0.06
 40
0.06
 40
0.06
 40
0.06
309
CELLMARGIN_END
 94
        6
 95
        1
302
GRIDFORMAT
  1
GRIDFORMAT_BEGIN
 90
        0
 91
        1
 62
     0
 92
       -2
340
14
 93
        0
 40
0.045
309
GRIDFORMAT_END
 95
        2
302
GRIDFORMAT
  1
GRIDFORMAT_BEGIN
 90
        0
 91
        1
 62
     0
 92
       -2
340
14
 93
        0
 40
0.045
309
GRIDFORMAT_END
 95
        4
302
GRIDFORMAT
  1
GRIDFORMAT_BEGIN
 90
        0
 91
        1
 62
     0
 92
       -2
340
14
 93
        0
 40
0.045
309
GRIDFORMAT_END
 95
        8
302
GRIDFORMAT
  1
GRIDFORMAT_BEGIN
 90
        0
 91
        1
 62
     0
 92
       -2
340
14
 93
        0
 40
0.045
309
GRIDFORMAT_END
 95
       16
302
GRIDFORMAT
  1
GRIDFORMAT_BEGIN
 90
        0
 91
        1
 62
     0
 92
       -2
340
14
 93
        0
 40
0.045
309
GRIDFORMAT_END
 95
       32
302
GRIDFORMAT
  1
GRIDFORMAT_BEGIN
 90
        0
 91
        1
 62
     0
 92
       -2
340
14
 93
        0
 40
0.045
309
GRIDFORMAT_END
309
TABLEFORMAT_END
  1
CELLSTYLE_BEGIN
 90
        2
 91
        1
300
_HEADER
309
CELLSTYLE_END
300
CELLSTYLE
  1
TABLEFORMAT_BEGIN
 90
        5
170
     1
 91
        0
 92
        0
 62
   257
 93
        1
300
CONTENTFORMAT
  1
CONTENTFORMAT_BEGIN
 90
        0
 91
        0
 92
        4
 93
        0
300

 40
0.0
140
1.0
 94
        2
 62
     0
340
11
144
0.18
309
CONTENTFORMAT_END
171
     1
301
MARGIN
  1
CELLMARGIN_BEGIN
 40
0.06
 40
0.06
 40
0.06
 40
0.06
 40
0.06
 40
0.06
309
CELLMARGIN_END
 94
        6
 95
        1
302
GRIDFORMAT
  1
GRIDFORMAT_BEGIN
 90
        0
 91
        1
 62
     0
 92
       -2
340
14
 93
        0
 40
0.045
309
GRIDFORMAT_END
 95
        2
302
GRIDFORMAT
  1
GRIDFORMAT_BEGIN
 90
        0
 91
        1
 62
     0
 92
       -2
340
14
 93
        0
 40
0.045
309
GRIDFORMAT_END
 95
        4
302
GRIDFORMAT
  1
GRIDFORMAT_BEGIN
 90
        0
 91
        1
 62
     0
 92
       -2
340
14
 93
        0
 40
0.045
309
GRIDFORMAT_END
 95
        8
302
GRIDFORMAT
  1
GRIDFORMAT_BEGIN
 90
        0
 91
        1
 62
     0
 92
       -2
340
14
 93
        0
 40
0.045
309
GRIDFORMAT_END
 95
       16
302
GRIDFORMAT
  1
GRIDFORMAT_BEGIN
 90
        0
 91
        1
 62
     0
 92
       -2
340
14
 93
        0
 40
0.045
309
GRIDFORMAT_END
 95
       32
302
GRIDFORMAT
  1
GRIDFORMAT_BEGIN
 90
        0
 91
        1
 62
     0
 92
       -2
340
14
 93
        0
 40
0.045
309
GRIDFORMAT_END
309
TABLEFORMAT_END
  1
CELLSTYLE_BEGIN
 90
        3
 91
        2
300
_DATA
309
CELLSTYLE_END
  0
ENDSEC
  0
EOF
