  0
SECTION
  2
HEADER
  9
$ACADVER
  1
AC1027
  9
$ACADMAINTVER
 70
   105
  9
$DWGCODEPAGE
  3
ANSI_1252
  9
$LASTSAVEDBY
  1
Office Desk
  9
$REQUIREDVERSIONS
160
                 0
  9
$INSBASE
 10
0.0
 20
0.0
 30
0.0
  9
$EXTMIN
 10
-280.3249
 20
-206.926
 30
0.0
  9
$EXTMAX
 10
-135.2264
 20
-9.2552
 30
0.0
  9
$LIMMIN
 10
0.0
 20
0.0
  9
$LIMMAX
 10
12.0
 20
9.0
  9
$ORTHOMODE
 70
     0
  9
$REGENMODE
 70
     1
  9
$FILLMODE
 70
     1
  9
$QTEXTMODE
 70
     0
  9
$MIRRTEXT
 70
     1
  9
$LTSCALE
 40
1.0
  9
$ATTMODE
 70
     1
  9
$TEXTSIZE
 40
0.2
  9
$TRACEWID
 40
0.05
  9
$TEXTSTYLE
  7
Standard
  9
$CLAYER
  8
0
  9
$CELTYPE
  6
ByLayer
  9
$CECOLOR
 62
   256
  9
$CELTSCALE
 40
1.0
  9
$DISPSILH
 70
     0
  9
$DIMSCALE
 40
1.0
  9
$DIMASZ
 40
0.18
  9
$DIMEXO
 40
0.0625
  9
$DIMDLI
 40
0.38
  9
$DIMRND
 40
0.0
  9
$DIMDLE
 40
0.0
  9
$DIMEXE
 40
0.18
  9
$DIMTP
 40
0.0
  9
$DIMTM
 40
0.0
  9
$DIMTXT
 40
0.18
  9
$DIMCEN
 40
0.09
  9
$DIMTSZ
 40
0.0
  9
$DIMTOL
 70
     0
  9
$DIMLIM
 70
     0
  9
$DIMTIH
 70
     1
  9
$DIMTOH
 70
     1
  9
$DIMSE1
 70
     0
  9
$DIMSE2
 70
     0
  9
$DIMTAD
 70
     0
  9
$DIMZIN
 70
     0
  9
$DIMBLK
  1

  9
$DIMASO
 70
     1
  9
$DIMSHO
 70
     1
  9
$DIMPOST
  1

  9
$DIMAPOST
  1

  9
$DIMALT
 70
     0
  9
$DIMALTD
 70
     2
  9
$DIMALTF
 40
25.4
  9
$DIMLFAC
 40
1.0
  9
$DIMTOFL
 70
     0
  9
$DIMTVP
 40
0.0
  9
$DIMTIX
 70
     0
  9
$DIMSOXD
 70
     0
  9
$DIMSAH
 70
     0
  9
$DIMBLK1
  1

  9
$DIMBLK2
  1

  9
$DIMSTYLE
  2
Standard
  9
$DIMCLRD
 70
     0
  9
$DIMCLRE
 70
     0
  9
$DIMCLRT
 70
     0
  9
$DIMTFAC
 40
1.0
  9
$DIMGAP
 40
0.09
  9
$DIMJUST
 70
     0
  9
$DIMSD1
 70
     0
  9
$DIMSD2
 70
     0
  9
$DIMTOLJ
 70
     1
  9
$DIMTZIN
 70
     0
  9
$DIMALTZ
 70
     0
  9
$DIMALTTZ
 70
     0
  9
$DIMUPT
 70
     0
  9
$DIMDEC
 70
     4
  9
$DIMTDEC
 70
     4
  9
$DIMALTU
 70
     2
  9
$DIMALTTD
 70
     2
  9
$DIMTXSTY
  7
Standard
  9
$DIMAUNIT
 70
     0
  9
$DIMADEC
 70
     0
  9
$DIMALTRND
 40
0.0
  9
$DIMAZIN
 70
     0
  9
$DIMDSEP
 70
    46
  9
$DIMATFIT
 70
     3
  9
$DIMFRAC
 70
     0
  9
$DIMLDRBLK
  1

  9
$DIMLUNIT
 70
     2
  9
$DIMLWD
 70
    -2
  9
$DIMLWE
 70
    -2
  9
$DIMTMOVE
 70
     0
  9
$DIMFXL
 40
1.0
  9
$DIMFXLON
 70
     0
  9
$DIMJOGANG
 40
0.7853981633974483
  9
$DIMTFILL
 70
     0
  9
$DIMTFILLCLR
 70
     0
  9
$DIMARCSYM
 70
     0
  9
$DIMLTYPE
  6

  9
$DIMLTEX1
  6

  9
$DIMLTEX2
  6

  9
$DIMTXTDIRECTION
 70
     0
  9
$LUNITS
 70
     2
  9
$LUPREC
 70
     4
  9
$SKETCHINC
 40
0.1
  9
$FILLETRAD
 40
0.0
  9
$AUNITS
 70
     0
  9
$AUPREC
 70
     0
  9
$MENU
  1
.
  9
$ELEVATION
 40
0.0
  9
$PELEVATION
 40
0.0
  9
$THICKNESS
 40
0.0
  9
$LIMCHECK
 70
     0
  9
$CHAMFERA
 40
0.0
  9
$CHAMFERB
 40
0.0
  9
$CHAMFERC
 40
0.0
  9
$CHAMFERD
 40
0.0
  9
$SKPOLY
 70
     0
  9
$TDCREATE
 40
2461015.759396065
  9
$TDUCREATE
 40
2461015.530229398
  9
$TDUPDATE
 40
2461015.759396216
  9
$TDUUPDATE
 40
2461015.530229549
  9
$TDINDWG
 40
0.0000000116
  9
$TDUSRTIMER
 40
0.0000000116
  9
$USRTIMER
 70
     1
  9
$ANGBASE
 50
0.0
  9
$ANGDIR
 70
     0
  9
$PDMODE
 70
     0
  9
$PDSIZE
 40
0.0
  9
$PLINEWID
 40
0.0
  9
$SPLFRAME
 70
     0
  9
$SPLINETYPE
 70
     6
  9
$SPLINESEGS
 70
     8
  9
$HANDSEED
  5
92
  9
$SURFTAB1
 70
     6
  9
$SURFTAB2
 70
     6
  9
$SURFTYPE
 70
     6
  9
$SURFU
 70
     6
  9
$SURFV
 70
     6
  9
$UCSBASE
  2

  9
$UCSNAME
  2

  9
$UCSORG
 10
0.0
 20
0.0
 30
0.0
  9
$UCSXDIR
 10
1.0
 20
0.0
 30
0.0
  9
$UCSYDIR
 10
0.0
 20
1.0
 30
0.0
  9
$UCSORTHOREF
  2

  9
$UCSORTHOVIEW
 70
     0
  9
$UCSORGTOP
 10
0.0
 20
0.0
 30
0.0
  9
$UCSORGBOTTOM
 10
0.0
 20
0.0
 30
0.0
  9
$UCSORGLEFT
 10
0.0
 20
0.0
 30
0.0
  9
$UCSORGRIGHT
 10
0.0
 20
0.0
 30
0.0
  9
$UCSORGFRONT
 10
0.0
 20
0.0
 30
0.0
  9
$UCSORGBACK
 10
0.0
 20
0.0
 30
0.0
  9
$PUCSBASE
  2

  9
$PUCSNAME
  2

  9
$PUCSORG
 10
0.0
 20
0.0
 30
0.0
  9
$PUCSXDIR
 10
1.0
 20
0.0
 30
0.0
  9
$PUCSYDIR
 10
0.0
 20
1.0
 30
0.0
  9
$PUCSORTHOREF
  2

  9
$PUCSORTHOVIEW
 70
     0
  9
$PUCSORGTOP
 10
0.0
 20
0.0
 30
0.0
  9
$PUCSORGBOTTOM
 10
0.0
 20
0.0
 30
0.0
  9
$PUCSORGLEFT
 10
0.0
 20
0.0
 30
0.0
  9
$PUCSORGRIGHT
 10
0.0
 20
0.0
 30
0.0
  9
$PUCSORGFRONT
 10
0.0
 20
0.0
 30
0.0
  9
$PUCSORGBACK
 10
0.0
 20
0.0
 30
0.0
  9
$USERI1
 70
     0
  9
$USERI2
 70
     0
  9
$USERI3
 70
     0
  9
$USERI4
 70
     0
  9
$USERI5
 70
     0
  9
$USERR1
 40
0.0
  9
$USERR2
 40
0.0
  9
$USERR3
 40
0.0
  9
$USERR4
 40
0.0
  9
$USERR5
 40
0.0
  9
$WORLDVIEW
 70
     1
  9
$SHADEDGE
 70
     3
  9
$SHADEDIF
 70
    70
  9
$TILEMODE
 70
     1
  9
$MAXACTVP
 70
    64
  9
$PINSBASE
 10
0.0
 20
0.0
 30
0.0
  9
$PLIMCHECK
 70
     0
  9
$PEXTMIN
 10
1.000000000000000E+20
 20
1.000000000000000E+20
 30
1.000000000000000E+20
  9
$PEXTMAX
 10
-1.000000000000000E+20
 20
-1.000000000000000E+20
 30
-1.000000000000000E+20
  9
$PLIMMIN
 10
0.0
 20
0.0
  9
$PLIMMAX
 10
12.0
 20
9.0
  9
$UNITMODE
 70
     0
  9
$VISRETAIN
 70
     1
  9
$PLINEGEN
 70
     0
  9
$PSLTSCALE
 70
     1
  9
$TREEDEPTH
 70
  3020
  9
$CMLSTYLE
  2
Standard
  9
$CMLJUST
 70
     0
  9
$CMLSCALE
 40
1.0
  9
$PROXYGRAPHICS
 70
     1
  9
$MEASUREMENT
 70
     0
  9
$CELWEIGHT
370
    -1
  9
$ENDCAPS
280
     0
  9
$JOINSTYLE
280
     0
  9
$LWDISPLAY
290
     0
  9
$INSUNITS
 70
     4
  9
$HYPERLINKBASE
  1

  9
$STYLESHEET
  1

  9
$XEDIT
290
     1
  9
$CEPSNTYPE
380
     0
  9
$PSTYLEMODE
290
     1
  9
$FINGERPRINTGUID
  2
{56b8b008-d7bb-40ad-9402-0e1a99415765}
  9
$VERSIONGUID
  2
{FAEB1C32-E019-11D5-929B-00C0DF256EC4}
  9
$EXTNAMES
290
     1
  9
$PSVPSCALE
 40
0.0
  9
$OLESTARTUP
290
     0
  9
$SORTENTS
280
   127
  9
$INDEXCTL
280
     0
  9
$HIDETEXT
280
     1
  9
$XCLIPFRAME
280
     2
  9
$HALOGAP
280
     0
  9
$OBSCOLOR
 70
   257
  9
$OBSLTYPE
280
     0
  9
$INTERSECTIONDISPLAY
280
     0
  9
$INTERSECTIONCOLOR
 70
   257
  9
$DIMASSOC
280
     2
  9
$PROJECTNAME
  1

  9
$CAMERADISPLAY
290
     0
  9
$LENSLENGTH
 40
50.0
  9
$CAMERAHEIGHT
 40
0.0
  9
$STEPSPERSEC
 40
2.0
  9
$STEPSIZE
 40
6.0
  9
$3DDWFPREC
 40
2.0
  9
$PSOLWIDTH
 40
0.25
  9
$PSOLHEIGHT
 40
4.0
  9
$LOFTANG1
 40
1.570796326794897
  9
$LOFTANG2
 40
1.570796326794897
  9
$LOFTMAG1
 40
0.0
  9
$LOFTMAG2
 40
0.0
  9
$LOFTPARAM
 70
     7
  9
$LOFTNORMALS
280
     1
  9
$LATITUDE
 40
37.795
  9
$LONGITUDE
 40
-122.394
  9
$NORTHDIRECTION
 40
0.0
  9
$TIMEZONE
 70
 -8000
  9
$LIGHTGLYPHDISPLAY
280
     1
  9
$TILEMODELIGHTSYNCH
280
     1
  9
$CMATERIAL
347
44
  9
$SOLIDHIST
280
     0
  9
$SHOWHIST
280
     1
  9
$DWFFRAME
280
     2
  9
$DGNFRAME
280
     2
  9
$REALWORLDSCALE
290
     1
  9
$INTERFERECOLOR
 62
   256
  9
$CSHADOW
280
     0
  9
$SHADOWPLANELOCATION
 40
0.0
  0
ENDSEC
  0
SECTION
  2
CLASSES
  0
CLASS
  1
ACDBDICTIONARYWDFLT
  2
AcDbDictionaryWithDefault
  3
ObjectDBX Classes
 90
        0
 91
        3
280
     0
281
     0
  0
CLASS
  1
VISUALSTYLE
  2
AcDbVisualStyle
  3
ObjectDBX Classes
 90
     4095
 91
        3
280
     0
281
     0
  0
CLASS
  1
MATERIAL
  2
AcDbMaterial
  3
ObjectDBX Classes
 90
     1153
 91
        3
280
     0
281
     0
  0
CLASS
  1
SCALE
  2
AcDbScale
  3
ObjectDBX Classes
 90
     1153
 91
        3
280
     0
281
     0
  0
CLASS
  1
TABLESTYLE
  2
AcDbTableStyle
  3
ObjectDBX Classes
 90
     4095
 91
        3
280
     0
281
     0
  0
CLASS
  1
MLEADERSTYLE
  2
AcDbMLeaderStyle
  3
ACDB_MLEADERSTYLE_CLASS
 90
     4095
 91
        3
280
     0
281
     0
  0
CLASS
  1
SUN
  2
AcDbSun
  3
SCENEOE
 90
     1153
 91
        3
280
     0
281
     0
  0
CLASS
  1
DICTIONARYVAR
  2
AcDbDictionaryVar
  3
ObjectDBX Classes
 90
        0
 91
        3
280
     0
281
     0
  0
CLASS
  1
CELLSTYLEMAP
  2
AcDbCellStyleMap
  3
ObjectDBX Classes
 90
     1152
 91
        3
280
     0
281
     0
  0
ENDSEC
  0
SECTION
  2
TABLES
  0
TABLE
  2
VPORT
  5
8
330
0
100
AcDbSymbolTable
 70
     1
  0
VPORT
  5
29
330
8
100
AcDbSymbolTableRecord
100
AcDbViewportTableRecord
  2
*Active
 70
     0
 10
0.0
 20
0.0
 11
1.0
 21
1.0
 12
10.42990654205607
 22
4.5
 13
0.0
 23
0.0
 14
0.5
 24
0.5
 15
0.5
 25
0.5
 16
0.0
 26
0.0
 36
1.0
 17
0.0
 27
0.0
 37
0.0
 40
9.0
 41
1.972972972850329
 42
50.0
 43
0.0
 44
0.0
 50
0.0
 51
0.0
 71
     0
 72
   100
 73
     1
 74
     3
 75
     0
 76
     0
 77
     0
 78
     0
281
     0
 65
     1
110
0.0
120
0.0
130
0.0
111
1.0
121
0.0
131
0.0
112
0.0
122
1.0
132
0.0
 79
     0
146
0.0
348
2F
 60
     3
 61
     5
292
     1
282
     1
141
0.0
142
0.0
 63
   250
361
5D
  0
ENDTAB
  0
TABLE
  2
LTYPE
  5
5
330
0
100
AcDbSymbolTable
 70
     1
  0
LTYPE
  5
14
330
5
100
AcDbSymbolTableRecord
100
AcDbLinetypeTableRecord
  2
ByBlock
 70
     0
  3

 72
    65
 73
     0
 40
0.0
  0
LTYPE
  5
15
330
5
100
AcDbSymbolTableRecord
100
AcDbLinetypeTableRecord
  2
ByLayer
 70
     0
  3

 72
    65
 73
     0
 40
0.0
  0
LTYPE
  5
16
330
5
100
AcDbSymbolTableRecord
100
AcDbLinetypeTableRecord
  2
Continuous
 70
     0
  3
Solid line
 72
    65
 73
     0
 40
0.0
  0
ENDTAB
  0
TABLE
  2
LAYER
  5
2
330
0
100
AcDbSymbolTable
 70
     2
  0
LAYER
  5
10
330
2
100
AcDbSymbolTableRecord
100
AcDbLayerTableRecord
  2
0
 70
     0
 62
     7
  6
Continuous
370
    -3
390
F
347
46
348
0
  0
LAYER
  5
5F
330
2
100
AcDbSymbolTableRecord
100
AcDbLayerTableRecord
  2
Layer 1
 70
     0
 62
     7
  6
Continuous
370
    -3
390
F
347
46
348
0
  0
ENDTAB
  0
TABLE
  2
STYLE
  5
3
330
0
100
AcDbSymbolTable
 70
     1
  0
STYLE
  5
11
330
3
100
AcDbSymbolTableRecord
100
AcDbTextStyleTableRecord
  2
Standard
 70
     0
 40
0.0
 41
1.0
 50
0.0
 71
     0
 42
0.2
  3
txt
  4

  0
ENDTAB
  0
TABLE
  2
VIEW
  5
6
330
0
100
AcDbSymbolTable
 70
     0
  0
ENDTAB
  0
TABLE
  2
UCS
  5
7
330
0
100
AcDbSymbolTable
 70
     0
  0
ENDTAB
  0
TABLE
  2
APPID
  5
9
330
0
100
AcDbSymbolTable
 70
     2
  0
APPID
  5
12
330
9
100
AcDbSymbolTableRecord
100
AcDbRegAppTableRecord
  2
ACAD
 70
     0
  0
APPID
  5
5E
330
9
100
AcDbSymbolTableRecord
100
AcDbRegAppTableRecord
  2
ODA
 70
     0
  0
ENDTAB
  0
TABLE
  2
DIMSTYLE
  5
A
330
0
100
AcDbSymbolTable
 70
     1
100
AcDbDimStyleTable
  0
DIMSTYLE
105
27
330
A
100
AcDbSymbolTableRecord
100
AcDbDimStyleTableRecord
  2
Standard
 70
     0
178
     0
340
11
  0
ENDTAB
  0
TABLE
  2
BLOCK_RECORD
  5
1
330
0
100
AcDbSymbolTable
 70
     1
  0
BLOCK_RECORD
  5
1F
330
1
100
AcDbSymbolTableRecord
100
AcDbBlockTableRecord
  2
*Model_Space
340
22
 70
     0
280
     1
281
     0
  0
BLOCK_RECORD
  5
1B
330
1
100
AcDbSymbolTableRecord
100
AcDbBlockTableRecord
  2
*Paper_Space
340
1E
 70
     0
280
     1
281
     0
  0
BLOCK_RECORD
  5
23
330
1
100
AcDbSymbolTableRecord
100
AcDbBlockTableRecord
  2
*Paper_Space0
340
26
 70
     0
280
     1
281
     0
  0
ENDTAB
  0
ENDSEC
  0
SECTION
  2
BLOCKS
  0
BLOCK
  5
20
330
1F
100
AcDbEntity
  8
0
100
AcDbBlockBegin
  2
*Model_Space
 70
     0
 10
0.0
 20
0.0
 30
0.0
  3
*Model_Space
  1

  0
ENDBLK
  5
21
330
1F
100
AcDbEntity
  8
0
100
AcDbBlockEnd
  0
BLOCK
  5
1C
330
1B
100
AcDbEntity
 67
     1
  8
0
100
AcDbBlockBegin
  2
*Paper_Space
 70
     0
 10
0.0
 20
0.0
 30
0.0
  3
*Paper_Space
  1

  0
ENDBLK
  5
1D
330
1B
100
AcDbEntity
 67
     1
  8
0
100
AcDbBlockEnd
  0
BLOCK
  5
24
330
23
100
AcDbEntity
  8
0
100
AcDbBlockBegin
  2
*Paper_Space0
 70
     0
 10
0.0
 20
0.0
 30
0.0
  3
*Paper_Space0
  1

  0
ENDBLK
  5
25
330
23
100
AcDbEntity
  8
0
100
AcDbBlockEnd
  0
ENDSEC
  0
SECTION
  2
ENTITIES
  0
LWPOLYLINE
  5
60
330
1F
100
AcDbEntity
  8
Layer 1
 62
   250
370
     9
100
AcDbPolyline
 90
        5
 70
     1
 43
0.0
 10
-280.2868
 20
-206.8879
 10
-135.2646
 20
-206.8879
 10
-135.2646
 20
-9.2933
 10
-280.2868
 20
-9.2933
 10
-280.2868
 20
-206.8879
  0
LWPOLYLINE
  5
61
330
1F
100
AcDbEntity
  8
Layer 1
 62
     7
370
     9
100
AcDbPolyline
 90
      205
 70
     1
 43
0.0
 10
-270.6579
 20
-58.305
 10
-270.7773
 20
-58.271
 10
-271.0937
 20
-58.1477
 10
-271.5448
 20
-57.9034
 10
-272.0679
 20
-57.5064
 10
-272.6007
 20
-56.925
 10
-273.0806
 20
-56.1274
 10
-273.4451
 20
-55.0819
 10
-273.6318
 20
-53.7567
 10
-273.7138
 20
-52.3509
 10
-273.8024
 20
-51.0762
 10
-273.8922
 20
-49.92
 10
-273.9776
 20
-48.8699
 10
-274.0535
 20
-47.9131
 10
-274.1144
 20
-47.0372
 10
-274.1548
 20
-46.2296
 10
-274.1695
 20
-45.4777
 10
-274.1135
 20
-44.2946
 10
-273.9565
 20
-42.3654
 10
-273.7156
 20
-39.9356
 10
-273.4073
 20
-37.2508
 10
-273.0485
 20
-34.5563
 10
-272.6561
 20
-32.0978
 10
-272.2468
 20
-30.1206
 10
-271.8374
 20
-28.8704
 10
-271.8057
 20
-28.7388
 10
-271.7211
 20
-28.3881
 10
-271.5988
 20
-27.8844
 10
-271.4545
 20
-27.2936
 10
-271.3036
 20
-26.6819
 10
-271.1615
 20
-26.1152
 10
-271.0438
 20
-25.6597
 10
-270.9658
 20
-25.3814
 10
-270.859
 20
-24.9941
 10
-270.6403
 20
-24.2426
 10
-270.3036
 20
-23.2393
 10
-269.8426
 20
-22.0967
 10
-269.2512
 20
-20.9271
 10
-268.5233
 20
-19.843
 10
-267.6526
 20
-18.9568
 10
-266.6331
 20
-18.3809
 10
-265.4581
 20
-17.9956
 10
-264.1461
 20
-17.619
 10
-262.7283
 20
-17.2708
 10
-261.2361
 20
-16.9705
 10
-259.7005
 20
-16.7375
 10
-258.153
 20
-16.5914
 10
-256.6247
 20
-16.5516
 10
-255.147
 20
-16.6377
 10
-253.6942
 20
-16.8467
 10
-252.2396
 20
-17.1433
 10
-250.8126
 20
-17.4982
 10
-249.4427
 20
-17.882
 10
-248.1592
 20
-18.2656
 10
-246.9918
 20
-18.6196
 10
-245.9697
 20
-18.9149
 10
-245.1225
 20
-19.122
 10
-243.1921
 20
-19.571
 10
-239.3473
 20
-20.5003
 10
-234.2575
 20
-21.7434
 10
-228.592
 20
-23.1339
 10
-223.0203
 20
-24.5052
 10
-218.2117
 20
-25.6908
 10
-214.8356
 20
-26.5243
 10
-213.5615
 20
-26.8391
 10
-200.9216
 20
-29.7777
 10
-200.702
 20
-29.8301
 10
-200.1168
 20
-29.9769
 10
-199.2762
 20
-30.2021
 10
-198.2905
 20
-30.4899
 10
-197.27
 20
-30.8244
 10
-196.3248
 20
-31.1898
 10
-195.5653
 20
-31.5701
 10
-195.1018
 20
-31.9496
 10
-194.8384
 20
-32.3262
 10
-194.6054
 20
-32.715
 10
-194.4018
 20
-33.1261
 10
-194.2268
 20
-33.5691
 10
-194.0795
 20
-34.0541
 10
-193.9588
 20
-34.5908
 10
-193.864
 20
-35.1892
 10
-193.7942
 20
-35.8591
 10
-193.7405
 20
-36.866
 10
-193.7018
 20
-38.3712
 10
-193.6881
 20
-40.2285
 10
-193.7099
 20
-42.2919
 10
-193.7774
 20
-44.4151
 10
-193.9007
 20
-46.4522
 10
-194.0903
 20
-48.2568
 10
-194.3563
 20
-49.683
 10
-191.7923
 20
-59.4185
 10
-185.8956
 20
-84.9707
 10
-185.8027
 20
-85.2458
 10
-185.5751
 20
-85.9928
 10
-185.2898
 20
-87.0943
 10
-185.0238
 20
-88.4329
 10
-184.8539
 20
-89.8914
 10
-184.8571
 20
-91.3522
 10
-185.1102
 20
-92.698
 10
-185.6903
 20
-93.8115
 10
-188.7672
 20
-95.7791
 10
-188.8153
 20
-95.8267
 10
-188.9503
 20
-95.9488
 10
-189.158
 20
-96.1147
 10
-189.4242
 20
-96.2935
 10
-189.7349
 20
-96.4542
 10
-190.076
 20
-96.5662
 10
-190.4332
 20
-96.5985
 10
-190.7926
 20
-96.5202
 10
-190.8451
 20
-96.4487
 10
-191.0057
 20
-96.2599
 10
-191.2793
 20
-95.992
 10
-191.6707
 20
-95.6834
 10
-192.1846
 20
-95.3724
 10
-192.826
 20
-95.0973
 10
-193.5995
 20
-94.8964
 10
-194.5101
 20
-94.8081
 10
-195.466
 20
-94.8138
 10
-196.3649
 20
-94.8591
 10
-197.1952
 20
-94.9284
 10
-197.9456
 20
-95.0061
 10
-198.6046
 20
-95.0766
 10
-199.1609
 20
-95.1244
 10
-199.6031
 20
-95.1338
 10
-199.9197
 20
-95.0894
 10
-200.2416
 20
-95.0012
 10
-200.6873
 20
-94.8726
 10
-201.2267
 20
-94.6776
 10
-201.8297
 20
-94.3899
 10
-202.4664
 20
-93.9837
 10
-203.1068
 20
-93.4329
 10
-203.7207
 20
-92.7114
 10
-204.2781
 20
-91.7932
 10
-210.7119
 20
-67.0345
 10
-210.8251
 20
-67.0221
 10
-211.1269
 20
-66.9878
 10
-211.561
 20
-66.9362
 10
-212.0708
 20
-66.8717
 10
-212.5998
 20
-66.7988
 10
-213.0915
 20
-66.722
 10
-213.4895
 20
-66.6458
 10
-213.7373
 20
-66.5747
 10
-211.9165
 20
-104.979
 10
-210.0703
 20
-154.6512
 10
-208.5317
 20
-182.2978
 10
-208.5417
 20
-182.3341
 10
-208.5758
 20
-182.4324
 10
-208.6399
 20
-182.5768
 10
-208.74
 20
-182.7514
 10
-208.8822
 20
-182.9404
 10
-209.0725
 20
-183.128
 10
-209.3169
 20
-183.2981
 10
-209.6214
 20
-183.435
 10
-210.0304
 20
-183.611
 10
-210.564
 20
-183.8851
 10
-211.1921
 20
-184.2212
 10
-211.8841
 20
-184.5831
 10
-212.6098
 20
-184.9349
 10
-213.3388
 20
-185.2405
 10
-214.0407
 20
-185.4637
 10
-214.6852
 20
-185.5686
 10
-214.3134
 20
-198.83
 10
-215.271
 20
-200.0158
 10
-217.8949
 20
-200.9991
 10
-221.7052
 20
-201.7339
 10
-226.2217
 20
-202.1736
 10
-230.9641
 20
-202.2722
 10
-235.4525
 20
-201.9833
 10
-239.2066
 20
-201.2606
 10
-241.7464
 20
-200.0578
 10
-242.0026
 20
-185.6464
 10
-242.159
 20
-185.5938
 10
-242.5859
 20
-185.4456
 10
-243.2194
 20
-185.2166
 10
-243.996
 20
-184.9215
 10
-244.8519
 20
-184.5748
 10
-245.7234
 20
-184.1914
 10
-246.5469
 20
-183.7857
 10
-247.2586
 20
-183.3726
 10
-247.3005
 20
-183.3478
 10
-247.4112
 20
-183.2748
 10
-247.5682
 20
-183.1557
 10
-247.749
 20
-182.9926
 10
-247.9309
 20
-182.7875
 10
-248.0915
 20
-182.5426
 10
-248.2083
 20
-182.26
 10
-248.2586
 20
-181.9418
 10
-248.2473
 20
-180.5926
 10
-248.2014
 20
-177.592
 10
-248.1321
 20
-173.5044
 10
-248.0505
 20
-168.8944
 10
-247.9676
 20
-164.3262
 10
-247.8947
 20
-160.3644
 10
-247.8428
 20
-157.5735
 10
-247.823
 20
-156.5177
 10
-246.5414
 20
-62.4878
 10
-259.1035
 20
-61.0056
 10
-259.3973
 20
-61.0119
 10
-260.2141
 20
-61.003
 10
-261.4567
 20
-60.9374
 10
-263.0281
 20
-60.7736
 10
-264.8309
 20
-60.47
 10
-266.7683
 20
-59.9851
 10
-268.743
 20
-59.2773
 10
-270.6579
 20
-58.305
  0
LWPOLYLINE
  5
62
330
1F
100
AcDbEntity
  8
Layer 1
 62
     7
370
     9
100
AcDbPolyline
 90
       41
 70
     1
 43
0.0
 10
-270.6526
 20
-48.5245
 10
-270.746
 20
-48.1047
 10
-270.9596
 20
-46.9219
 10
-271.1936
 20
-45.0912
 10
-271.3484
 20
-42.7275
 10
-271.3241
 20
-39.9458
 10
-271.0209
 20
-36.8611
 10
-270.339
 20
-33.5883
 10
-269.1788
 20
-30.2425
 10
-268.0765
 20
-27.9128
 10
-266.7927
 20
-25.8724
 10
-265.3622
 20
-24.1277
 10
-263.82
 20
-22.6855
 10
-262.2008
 20
-21.5523
 10
-260.5396
 20
-20.7347
 10
-258.8713
 20
-20.2392
 10
-257.2307
 20
-20.0725
 10
-256.7656
 20
-20.0967
 10
-255.5386
 20
-20.2945
 10
-253.8019
 20
-20.8541
 10
-251.8082
 20
-21.9634
 10
-249.8096
 20
-23.8106
 10
-248.0586
 20
-26.5836
 10
-246.8076
 20
-30.4706
 10
-246.3089
 20
-35.6595
 10
-246.6706
 20
-40.6287
 10
-247.6637
 20
-45.1632
 10
-249.2083
 20
-49.1683
 10
-251.2246
 20
-52.5494
 10
-253.6327
 20
-55.2118
 10
-256.3526
 20
-57.061
 10
-259.3046
 20
-58.0022
 10
-262.4086
 20
-57.941
 10
-262.6345
 20
-57.8948
 10
-263.2566
 20
-57.6987
 10
-264.1919
 20
-57.2659
 10
-265.357
 20
-56.51
 10
-266.6688
 20
-55.3445
 10
-268.0442
 20
-53.6828
 10
-269.3998
 20
-51.4383
 10
-270.6526
 20
-48.5245
  0
LWPOLYLINE
  5
63
330
1F
100
AcDbEntity
  8
Layer 1
 62
     7
370
     9
100
AcDbPolyline
 90
       33
 70
     1
 43
0.0
 10
-258.4648
 20
-32.685
 10
-257.5707
 20
-32.8088
 10
-256.7427
 20
-33.164
 10
-255.9982
 20
-33.7259
 10
-255.3546
 20
-34.4702
 10
-254.8292
 20
-35.3722
 10
-254.4396
 20
-36.4075
 10
-254.203
 20
-37.5515
 10
-254.1369
 20
-38.7798
 10
-254.2518
 20
-40.0078
 10
-254.5339
 20
-41.1517
 10
-254.9648
 20
-42.1869
 10
-255.526
 20
-43.0888
 10
-256.1993
 20
-43.833
 10
-256.9661
 20
-44.3949
 10
-257.8082
 20
-44.7501
 10
-258.7072
 20
-44.8739
 10
-259.6013
 20
-44.7501
 10
-260.4293
 20
-44.3949
 10
-261.1738
 20
-43.833
 10
-261.8174
 20
-43.0888
 10
-262.3428
 20
-42.1869
 10
-262.7325
 20
-41.1517
 10
-262.969
 20
-40.0078
 10
-263.0351
 20
-38.7798
 10
-262.9202
 20
-37.5515
 10
-262.6382
 20
-36.4075
 10
-262.2074
 20
-35.3722
 10
-261.6462
 20
-34.4702
 10
-260.973
 20
-33.7259
 10
-260.2062
 20
-33.164
 10
-259.364
 20
-32.8088
 10
-258.4648
 20
-32.685
  0
LWPOLYLINE
  5
64
330
1F
100
AcDbEntity
  8
Layer 1
 62
     7
370
     5
100
AcDbPolyline
 90
       33
 70
     1
 43
0.0
 10
-263.358
 20
-30.1812
 10
-263.2883
 20
-30.1905
 10
-263.2233
 20
-30.2173
 10
-263.1645
 20
-30.2597
 10
-263.1133
 20
-30.3158
 10
-263.0711
 20
-30.3838
 10
-263.0392
 20
-30.4619
 10
-263.019
 20
-30.5482
 10
-263.012
 20
-30.6409
 10
-263.019
 20
-30.7336
 10
-263.0392
 20
-30.8199
 10
-263.0711
 20
-30.8979
 10
-263.1133
 20
-30.966
 10
-263.1645
 20
-31.0221
 10
-263.2233
 20
-31.0644
 10
-263.2883
 20
-31.0912
 10
-263.358
 20
-31.1005
 10
-263.4277
 20
-31.0912
 10
-263.4927
 20
-31.0644
 10
-263.5515
 20
-31.0221
 10
-263.6027
 20
-30.966
 10
-263.6449
 20
-30.8979
 10
-263.6768
 20
-30.8199
 10
-263.697
 20
-30.7336
 10
-263.704
 20
-30.6409
 10
-263.697
 20
-30.5482
 10
-263.6768
 20
-30.4619
 10
-263.6449
 20
-30.3838
 10
-263.6027
 20
-30.3158
 10
-263.5515
 20
-30.2597
 10
-263.4927
 20
-30.2173
 10
-263.4277
 20
-30.1905
 10
-263.358
 20
-30.1812
  0
LWPOLYLINE
  5
65
330
1F
100
AcDbEntity
  8
Layer 1
 62
     7
370
     5
100
AcDbPolyline
 90
       33
 70
     1
 43
0.0
 10
-257.5498
 20
-30.1494
 10
-257.4801
 20
-30.1587
 10
-257.4151
 20
-30.1855
 10
-257.3563
 20
-30.2278
 10
-257.3051
 20
-30.2839
 10
-257.2629
 20
-30.3519
 10
-257.231
 20
-30.43
 10
-257.2108
 20
-30.5163
 10
-257.2038
 20
-30.609
 10
-257.2108
 20
-30.7017
 10
-257.231
 20
-30.7881
 10
-257.2629
 20
-30.8663
 10
-257.3051
 20
-30.9345
 10
-257.3563
 20
-30.9907
 10
-257.4151
 20
-31.0332
 10
-257.4801
 20
-31.06
 10
-257.5498
 20
-31.0694
 10
-257.6195
 20
-31.06
 10
-257.6845
 20
-31.0332
 10
-257.7433
 20
-30.9907
 10
-257.7945
 20
-30.9345
 10
-257.8367
 20
-30.8663
 10
-257.8686
 20
-30.7881
 10
-257.8888
 20
-30.7017
 10
-257.8958
 20
-30.609
 10
-257.8888
 20
-30.5163
 10
-257.8686
 20
-30.43
 10
-257.8367
 20
-30.3519
 10
-257.7945
 20
-30.2839
 10
-257.7433
 20
-30.2278
 10
-257.6845
 20
-30.1855
 10
-257.6195
 20
-30.1587
 10
-257.5498
 20
-30.1494
  0
LWPOLYLINE
  5
66
330
1F
100
AcDbEntity
  8
Layer 1
 62
     7
370
     5
100
AcDbPolyline
 90
       33
 70
     1
 43
0.0
 10
-252.7811
 20
-34.1609
 10
-252.7116
 20
-34.1702
 10
-252.6467
 20
-34.197
 10
-252.588
 20
-34.2394
 10
-252.5367
 20
-34.2955
 10
-252.4944
 20
-34.3635
 10
-252.4624
 20
-34.4416
 10
-252.4422
 20
-34.5279
 10
-252.4351
 20
-34.6206
 10
-252.4422
 20
-34.7133
 10
-252.4624
 20
-34.7997
 10
-252.4944
 20
-34.8779
 10
-252.5367
 20
-34.9461
 10
-252.588
 20
-35.0023
 10
-252.6467
 20
-35.0448
 10
-252.7116
 20
-35.0716
 10
-252.7811
 20
-35.081
 10
-252.8508
 20
-35.0716
 10
-252.9158
 20
-35.0448
 10
-252.9746
 20
-35.0023
 10
-253.0258
 20
-34.9461
 10
-253.068
 20
-34.8779
 10
-253.0999
 20
-34.7997
 10
-253.1201
 20
-34.7133
 10
-253.1271
 20
-34.6206
 10
-253.1201
 20
-34.5279
 10
-253.0999
 20
-34.4416
 10
-253.068
 20
-34.3635
 10
-253.0258
 20
-34.2955
 10
-252.9746
 20
-34.2394
 10
-252.9158
 20
-34.197
 10
-252.8508
 20
-34.1702
 10
-252.7811
 20
-34.1609
  0
LWPOLYLINE
  5
67
330
1F
100
AcDbEntity
  8
Layer 1
 62
     7
370
     5
100
AcDbPolyline
 90
       33
 70
     1
 43
0.0
 10
-262.755
 20
-34.8254
 10
-262.6852
 20
-34.8347
 10
-262.6202
 20
-34.8615
 10
-262.5613
 20
-34.9039
 10
-262.51
 20
-34.96
 10
-262.4676
 20
-35.028
 10
-262.4356
 20
-35.1061
 10
-262.4154
 20
-35.1924
 10
-262.4083
 20
-35.2851
 10
-262.4154
 20
-35.3778
 10
-262.4356
 20
-35.4642
 10
-262.4676
 20
-35.5424
 10
-262.51
 20
-35.6105
 10
-262.5613
 20
-35.6667
 10
-262.6202
 20
-35.7092
 10
-262.6852
 20
-35.736
 10
-262.755
 20
-35.7454
 10
-262.8245
 20
-35.736
 10
-262.8894
 20
-35.7092
 10
-262.9481
 20
-35.6667
 10
-262.9994
 20
-35.6105
 10
-263.0417
 20
-35.5424
 10
-263.0737
 20
-35.4642
 10
-263.0939
 20
-35.3778
 10
-263.101
 20
-35.2851
 10
-263.0939
 20
-35.1924
 10
-263.0737
 20
-35.1061
 10
-263.0417
 20
-35.028
 10
-262.9994
 20
-34.96
 10
-262.9481
 20
-34.9039
 10
-262.8894
 20
-34.8615
 10
-262.8245
 20
-34.8347
 10
-262.755
 20
-34.8254
  0
LWPOLYLINE
  5
68
330
1F
100
AcDbEntity
  8
Layer 1
 62
     7
370
     5
100
AcDbPolyline
 90
       33
 70
     1
 43
0.0
 10
-265.9848
 20
-36.0263
 10
-265.9151
 20
-36.0356
 10
-265.8501
 20
-36.0624
 10
-265.7913
 20
-36.1047
 10
-265.7401
 20
-36.1609
 10
-265.6979
 20
-36.2289
 10
-265.666
 20
-36.3069
 10
-265.6458
 20
-36.3932
 10
-265.6388
 20
-36.4859
 10
-265.6458
 20
-36.5786
 10
-265.666
 20
-36.665
 10
-265.6979
 20
-36.7432
 10
-265.7401
 20
-36.8114
 10
-265.7913
 20
-36.8676
 10
-265.8501
 20
-36.9101
 10
-265.9151
 20
-36.9369
 10
-265.9848
 20
-36.9463
 10
-266.0545
 20
-36.9369
 10
-266.1195
 20
-36.9101
 10
-266.1783
 20
-36.8676
 10
-266.2295
 20
-36.8114
 10
-266.2717
 20
-36.7432
 10
-266.3036
 20
-36.665
 10
-266.3238
 20
-36.5786
 10
-266.3308
 20
-36.4859
 10
-266.3238
 20
-36.3932
 10
-266.3036
 20
-36.3069
 10
-266.2717
 20
-36.2289
 10
-266.2295
 20
-36.1609
 10
-266.1783
 20
-36.1047
 10
-266.1195
 20
-36.0624
 10
-266.0545
 20
-36.0356
 10
-265.9848
 20
-36.0263
  0
LWPOLYLINE
  5
69
330
1F
100
AcDbEntity
  8
Layer 1
 62
     7
370
     5
100
AcDbPolyline
 90
       33
 70
     1
 43
0.0
 10
-259.421
 20
-26.6235
 10
-259.3513
 20
-26.6329
 10
-259.2863
 20
-26.6597
 10
-259.2275
 20
-26.7022
 10
-259.1763
 20
-26.7584
 10
-259.1341
 20
-26.8266
 10
-259.1022
 20
-26.9048
 10
-259.082
 20
-26.9912
 10
-259.075
 20
-27.0839
 10
-259.082
 20
-27.1764
 10
-259.1022
 20
-27.2626
 10
-259.1341
 20
-27.3406
 10
-259.1763
 20
-27.4087
 10
-259.2275
 20
-27.4649
 10
-259.2863
 20
-27.5073
 10
-259.3513
 20
-27.5341
 10
-259.421
 20
-27.5435
 10
-259.4907
 20
-27.5341
 10
-259.5557
 20
-27.5073
 10
-259.6145
 20
-27.4649
 10
-259.6657
 20
-27.4087
 10
-259.7079
 20
-27.3406
 10
-259.7398
 20
-27.2626
 10
-259.76
 20
-27.1764
 10
-259.767
 20
-27.0839
 10
-259.76
 20
-26.9912
 10
-259.7398
 20
-26.9048
 10
-259.7079
 20
-26.8266
 10
-259.6657
 20
-26.7584
 10
-259.6145
 20
-26.7022
 10
-259.5557
 20
-26.6597
 10
-259.4907
 20
-26.6329
 10
-259.421
 20
-26.6235
  0
LWPOLYLINE
  5
6A
330
1F
100
AcDbEntity
  8
Layer 1
 62
     7
370
     5
100
AcDbPolyline
 90
       33
 70
     1
 43
0.0
 10
-255.0113
 20
-26.2145
 10
-254.9416
 20
-26.2239
 10
-254.8766
 20
-26.2507
 10
-254.8178
 20
-26.2932
 10
-254.7666
 20
-26.3494
 10
-254.7244
 20
-26.4176
 10
-254.6925
 20
-26.4958
 10
-254.6723
 20
-26.5822
 10
-254.6653
 20
-26.6749
 10
-254.6723
 20
-26.7676
 10
-254.6925
 20
-26.8539
 10
-254.7244
 20
-26.932
 10
-254.7666
 20
-27.0
 10
-254.8178
 20
-27.0561
 10
-254.8766
 20
-27.0984
 10
-254.9416
 20
-27.1252
 10
-255.0113
 20
-27.1345
 10
-255.081
 20
-27.1252
 10
-255.146
 20
-27.0984
 10
-255.2048
 20
-27.0561
 10
-255.256
 20
-27.0
 10
-255.2982
 20
-26.932
 10
-255.3301
 20
-26.8539
 10
-255.3503
 20
-26.7676
 10
-255.3573
 20
-26.6749
 10
-255.3503
 20
-26.5822
 10
-255.3301
 20
-26.4958
 10
-255.2982
 20
-26.4176
 10
-255.256
 20
-26.3494
 10
-255.2048
 20
-26.2932
 10
-255.146
 20
-26.2507
 10
-255.081
 20
-26.2239
 10
-255.0113
 20
-26.2145
  0
LWPOLYLINE
  5
6B
330
1F
100
AcDbEntity
  8
Layer 1
 62
     7
370
     5
100
AcDbPolyline
 90
       33
 70
     1
 43
0.0
 10
-251.4217
 20
-29.1787
 10
-251.3522
 20
-29.188
 10
-251.2873
 20
-29.2148
 10
-251.2286
 20
-29.2571
 10
-251.1773
 20
-29.3133
 10
-251.135
 20
-29.3813
 10
-251.103
 20
-29.4593
 10
-251.0828
 20
-29.5456
 10
-251.0757
 20
-29.6383
 10
-251.0828
 20
-29.731
 10
-251.103
 20
-29.8174
 10
-251.135
 20
-29.8956
 10
-251.1773
 20
-29.9638
 10
-251.2286
 20
-30.02
 10
-251.2873
 20
-30.0625
 10
-251.3522
 20
-30.0893
 10
-251.4217
 20
-30.0987
 10
-251.4915
 20
-30.0893
 10
-251.5565
 20
-30.0625
 10
-251.6154
 20
-30.02
 10
-251.6667
 20
-29.9638
 10
-251.7091
 20
-29.8956
 10
-251.7411
 20
-29.8174
 10
-251.7613
 20
-29.731
 10
-251.7684
 20
-29.6383
 10
-251.7613
 20
-29.5456
 10
-251.7411
 20
-29.4593
 10
-251.7091
 20
-29.3813
 10
-251.6667
 20
-29.3133
 10
-251.6154
 20
-29.2571
 10
-251.5565
 20
-29.2148
 10
-251.4915
 20
-29.188
 10
-251.4217
 20
-29.1787
  0
LWPOLYLINE
  5
6C
330
1F
100
AcDbEntity
  8
Layer 1
 62
     7
370
     5
100
AcDbPolyline
 90
       33
 70
     1
 43
0.0
 10
-249.5245
 20
-34.8515
 10
-249.4548
 20
-34.8608
 10
-249.3898
 20
-34.8876
 10
-249.331
 20
-34.9299
 10
-249.2798
 20
-34.9861
 10
-249.2376
 20
-35.0541
 10
-249.2057
 20
-35.1321
 10
-249.1855
 20
-35.2184
 10
-249.1785
 20
-35.3111
 10
-249.1855
 20
-35.4038
 10
-249.2057
 20
-35.4901
 10
-249.2376
 20
-35.5682
 10
-249.2798
 20
-35.6362
 10
-249.331
 20
-35.6923
 10
-249.3898
 20
-35.7347
 10
-249.4548
 20
-35.7615
 10
-249.5245
 20
-35.7708
 10
-249.5942
 20
-35.7615
 10
-249.6592
 20
-35.7347
 10
-249.718
 20
-35.6923
 10
-249.7692
 20
-35.6362
 10
-249.8114
 20
-35.5682
 10
-249.8433
 20
-35.4901
 10
-249.8635
 20
-35.4038
 10
-249.8705
 20
-35.3111
 10
-249.8635
 20
-35.2184
 10
-249.8433
 20
-35.1321
 10
-249.8114
 20
-35.0541
 10
-249.7692
 20
-34.9861
 10
-249.718
 20
-34.9299
 10
-249.6592
 20
-34.8876
 10
-249.5942
 20
-34.8608
 10
-249.5245
 20
-34.8515
  0
LWPOLYLINE
  5
6D
330
1F
100
AcDbEntity
  8
Layer 1
 62
     7
370
     5
100
AcDbPolyline
 90
       33
 70
     1
 43
0.0
 10
-249.8321
 20
-41.6484
 10
-249.7624
 20
-41.6577
 10
-249.6974
 20
-41.6845
 10
-249.6386
 20
-41.7269
 10
-249.5874
 20
-41.783
 10
-249.5452
 20
-41.851
 10
-249.5133
 20
-41.9291
 10
-249.4931
 20
-42.0154
 10
-249.4861
 20
-42.1081
 10
-249.4931
 20
-42.2008
 10
-249.5133
 20
-42.2871
 10
-249.5452
 20
-42.3651
 10
-249.5874
 20
-42.4332
 10
-249.6386
 20
-42.4893
 10
-249.6974
 20
-42.5316
 10
-249.7624
 20
-42.5584
 10
-249.8321
 20
-42.5677
 10
-249.9018
 20
-42.5584
 10
-249.9668
 20
-42.5316
 10
-250.0256
 20
-42.4893
 10
-250.0768
 20
-42.4332
 10
-250.119
 20
-42.3651
 10
-250.1509
 20
-42.2871
 10
-250.1711
 20
-42.2008
 10
-250.1781
 20
-42.1081
 10
-250.1711
 20
-42.0154
 10
-250.1509
 20
-41.9291
 10
-250.119
 20
-41.851
 10
-250.0768
 20
-41.783
 10
-250.0256
 20
-41.7269
 10
-249.9668
 20
-41.6845
 10
-249.9018
 20
-41.6577
 10
-249.8321
 20
-41.6484
  0
LWPOLYLINE
  5
6E
330
1F
100
AcDbEntity
  8
Layer 1
 62
     7
370
     5
100
AcDbPolyline
 90
       33
 70
     1
 43
0.0
 10
-253.3703
 20
-42.824
 10
-253.3006
 20
-42.8333
 10
-253.2356
 20
-42.8601
 10
-253.1768
 20
-42.9024
 10
-253.1256
 20
-42.9585
 10
-253.0834
 20
-43.0265
 10
-253.0515
 20
-43.1046
 10
-253.0313
 20
-43.1909
 10
-253.0243
 20
-43.2836
 10
-253.0313
 20
-43.3763
 10
-253.0515
 20
-43.4626
 10
-253.0834
 20
-43.5407
 10
-253.1256
 20
-43.6087
 10
-253.1768
 20
-43.6648
 10
-253.2356
 20
-43.7071
 10
-253.3006
 20
-43.7339
 10
-253.3703
 20
-43.7432
 10
-253.44
 20
-43.7339
 10
-253.505
 20
-43.7071
 10
-253.5638
 20
-43.6648
 10
-253.615
 20
-43.6087
 10
-253.6572
 20
-43.5407
 10
-253.6891
 20
-43.4626
 10
-253.7093
 20
-43.3763
 10
-253.7163
 20
-43.2836
 10
-253.7093
 20
-43.1909
 10
-253.6891
 20
-43.1046
 10
-253.6572
 20
-43.0265
 10
-253.615
 20
-42.9585
 10
-253.5638
 20
-42.9024
 10
-253.505
 20
-42.8601
 10
-253.44
 20
-42.8333
 10
-253.3703
 20
-42.824
  0
LWPOLYLINE
  5
6F
330
1F
100
AcDbEntity
  8
Layer 1
 62
     7
370
     5
100
AcDbPolyline
 90
       33
 70
     1
 43
0.0
 10
-252.4213
 20
-47.6021
 10
-252.3516
 20
-47.6114
 10
-252.2866
 20
-47.6382
 10
-252.2278
 20
-47.6805
 10
-252.1766
 20
-47.7366
 10
-252.1344
 20
-47.8046
 10
-252.1025
 20
-47.8827
 10
-252.0823
 20
-47.969
 10
-252.0753
 20
-48.0617
 10
-252.0823
 20
-48.1544
 10
-252.1025
 20
-48.2407
 10
-252.1344
 20
-48.3188
 10
-252.1766
 20
-48.3868
 10
-252.2278
 20
-48.4429
 10
-252.2866
 20
-48.4853
 10
-252.3516
 20
-48.5121
 10
-252.4213
 20
-48.5214
 10
-252.491
 20
-48.5121
 10
-252.556
 20
-48.4853
 10
-252.6148
 20
-48.4429
 10
-252.666
 20
-48.3868
 10
-252.7082
 20
-48.3188
 10
-252.7401
 20
-48.2407
 10
-252.7603
 20
-48.1544
 10
-252.7673
 20
-48.0617
 10
-252.7603
 20
-47.969
 10
-252.7401
 20
-47.8827
 10
-252.7082
 20
-47.8046
 10
-252.666
 20
-47.7366
 10
-252.6148
 20
-47.6805
 10
-252.556
 20
-47.6382
 10
-252.491
 20
-47.6114
 10
-252.4213
 20
-47.6021
  0
LWPOLYLINE
  5
70
330
1F
100
AcDbEntity
  8
Layer 1
 62
     7
370
     5
100
AcDbPolyline
 90
       33
 70
     1
 43
0.0
 10
-258.6001
 20
-47.3719
 10
-258.5304
 20
-47.3812
 10
-258.4654
 20
-47.408
 10
-258.4066
 20
-47.4503
 10
-258.3554
 20
-47.5065
 10
-258.3132
 20
-47.5745
 10
-258.2813
 20
-47.6525
 10
-258.2611
 20
-47.7388
 10
-258.2541
 20
-47.8315
 10
-258.2611
 20
-47.9242
 10
-258.2813
 20
-48.0105
 10
-258.3132
 20
-48.0886
 10
-258.3554
 20
-48.1566
 10
-258.4066
 20
-48.2127
 10
-258.4654
 20
-48.2551
 10
-258.5304
 20
-48.2819
 10
-258.6001
 20
-48.2912
 10
-258.6698
 20
-48.2819
 10
-258.7348
 20
-48.2551
 10
-258.7936
 20
-48.2127
 10
-258.8448
 20
-48.1566
 10
-258.887
 20
-48.0886
 10
-258.9189
 20
-48.0105
 10
-258.9391
 20
-47.9242
 10
-258.9461
 20
-47.8315
 10
-258.9391
 20
-47.7388
 10
-258.9189
 20
-47.6525
 10
-258.887
 20
-47.5745
 10
-258.8448
 20
-47.5065
 10
-258.7936
 20
-47.4503
 10
-258.7348
 20
-47.408
 10
-258.6698
 20
-47.3812
 10
-258.6001
 20
-47.3719
  0
LWPOLYLINE
  5
71
330
1F
100
AcDbEntity
  8
Layer 1
 62
     7
370
     5
100
AcDbPolyline
 90
       33
 70
     1
 43
0.0
 10
-263.2154
 20
-43.2329
 10
-263.1457
 20
-43.2422
 10
-263.0807
 20
-43.269
 10
-263.0219
 20
-43.3114
 10
-262.9707
 20
-43.3675
 10
-262.9285
 20
-43.4355
 10
-262.8966
 20
-43.5136
 10
-262.8764
 20
-43.5999
 10
-262.8694
 20
-43.6926
 10
-262.8764
 20
-43.7853
 10
-262.8966
 20
-43.8716
 10
-262.9285
 20
-43.9496
 10
-262.9707
 20
-44.0177
 10
-263.0219
 20
-44.0738
 10
-263.0807
 20
-44.1161
 10
-263.1457
 20
-44.1429
 10
-263.2154
 20
-44.1522
 10
-263.2851
 20
-44.1429
 10
-263.3501
 20
-44.1161
 10
-263.4089
 20
-44.0738
 10
-263.4601
 20
-44.0177
 10
-263.5023
 20
-43.9496
 10
-263.5342
 20
-43.8716
 10
-263.5544
 20
-43.7853
 10
-263.5614
 20
-43.6926
 10
-263.5544
 20
-43.5999
 10
-263.5342
 20
-43.5136
 10
-263.5023
 20
-43.4355
 10
-263.4601
 20
-43.3675
 10
-263.4089
 20
-43.3114
 10
-263.3501
 20
-43.269
 10
-263.2851
 20
-43.2422
 10
-263.2154
 20
-43.2329
  0
LWPOLYLINE
  5
72
330
1F
100
AcDbEntity
  8
Layer 1
 62
     7
370
     5
100
AcDbPolyline
 90
       33
 70
     1
 43
0.0
 10
-266.2657
 20
-42.5424
 10
-266.1962
 20
-42.5518
 10
-266.1313
 20
-42.5786
 10
-266.0726
 20
-42.6211
 10
-266.0213
 20
-42.6773
 10
-265.979
 20
-42.7454
 10
-265.947
 20
-42.8236
 10
-265.9268
 20
-42.91
 10
-265.9197
 20
-43.0027
 10
-265.9268
 20
-43.0952
 10
-265.947
 20
-43.1814
 10
-265.979
 20
-43.2595
 10
-266.0213
 20
-43.3276
 10
-266.0726
 20
-43.3838
 10
-266.1313
 20
-43.4262
 10
-266.1962
 20
-43.453
 10
-266.2657
 20
-43.4624
 10
-266.3354
 20
-43.453
 10
-266.4004
 20
-43.4262
 10
-266.4592
 20
-43.3838
 10
-266.5104
 20
-43.3276
 10
-266.5526
 20
-43.2595
 10
-266.5845
 20
-43.1814
 10
-266.6047
 20
-43.0952
 10
-266.6117
 20
-43.0027
 10
-266.6047
 20
-42.91
 10
-266.5845
 20
-42.8236
 10
-266.5526
 20
-42.7454
 10
-266.5104
 20
-42.6773
 10
-266.4592
 20
-42.6211
 10
-266.4004
 20
-42.5786
 10
-266.3354
 20
-42.5518
 10
-266.2657
 20
-42.5424
  0
LWPOLYLINE
  5
73
330
1F
100
AcDbEntity
  8
Layer 1
 62
     7
370
     5
100
AcDbPolyline
 90
       33
 70
     1
 43
0.0
 10
-264.5226
 20
-48.1131
 10
-264.4529
 20
-48.1224
 10
-264.3879
 20
-48.1492
 10
-264.3291
 20
-48.1916
 10
-264.2779
 20
-48.2477
 10
-264.2357
 20
-48.3157
 10
-264.2038
 20
-48.3938
 10
-264.1836
 20
-48.4801
 10
-264.1766
 20
-48.5728
 10
-264.1836
 20
-48.6655
 10
-264.2038
 20
-48.7519
 10
-264.2357
 20
-48.8301
 10
-264.2779
 20
-48.8982
 10
-264.3291
 20
-48.9544
 10
-264.3879
 20
-48.9969
 10
-264.4529
 20
-49.0237
 10
-264.5226
 20
-49.0331
 10
-264.5923
 20
-49.0237
 10
-264.6573
 20
-48.9969
 10
-264.7161
 20
-48.9544
 10
-264.7673
 20
-48.8982
 10
-264.8095
 20
-48.8301
 10
-264.8414
 20
-48.7519
 10
-264.8616
 20
-48.6655
 10
-264.8686
 20
-48.5728
 10
-264.8616
 20
-48.4801
 10
-264.8414
 20
-48.3938
 10
-264.8095
 20
-48.3157
 10
-264.7673
 20
-48.2477
 10
-264.7161
 20
-48.1916
 10
-264.6573
 20
-48.1492
 10
-264.5923
 20
-48.1224
 10
-264.5226
 20
-48.1131
  0
LWPOLYLINE
  5
74
330
1F
100
AcDbEntity
  8
Layer 1
 62
     7
370
     5
100
AcDbPolyline
 90
       33
 70
     1
 43
0.0
 10
-260.8824
 20
-51.2814
 10
-260.8127
 20
-51.2908
 10
-260.7477
 20
-51.3176
 10
-260.6889
 20
-51.3601
 10
-260.6377
 20
-51.4163
 10
-260.5955
 20
-51.4845
 10
-260.5636
 20
-51.5627
 10
-260.5434
 20
-51.6491
 10
-260.5364
 20
-51.7418
 10
-260.5434
 20
-51.8345
 10
-260.5636
 20
-51.9208
 10
-260.5955
 20
-51.9988
 10
-260.6377
 20
-52.0669
 10
-260.6889
 20
-52.123
 10
-260.7477
 20
-52.1653
 10
-260.8127
 20
-52.1921
 10
-260.8824
 20
-52.2014
 10
-260.9521
 20
-52.1921
 10
-261.0171
 20
-52.1653
 10
-261.0759
 20
-52.123
 10
-261.1271
 20
-52.0669
 10
-261.1693
 20
-51.9988
 10
-261.2012
 20
-51.9208
 10
-261.2214
 20
-51.8345
 10
-261.2284
 20
-51.7418
 10
-261.2214
 20
-51.6491
 10
-261.2012
 20
-51.5627
 10
-261.1693
 20
-51.4845
 10
-261.1271
 20
-51.4163
 10
-261.0759
 20
-51.3601
 10
-261.0171
 20
-51.3176
 10
-260.9521
 20
-51.2908
 10
-260.8824
 20
-51.2814
  0
LWPOLYLINE
  5
75
330
1F
100
AcDbEntity
  8
Layer 1
 62
     7
370
     5
100
AcDbPolyline
 90
       33
 70
     1
 43
0.0
 10
-256.4213
 20
-51.0259
 10
-256.3516
 20
-51.0353
 10
-256.2866
 20
-51.0621
 10
-256.2278
 20
-51.1046
 10
-256.1766
 20
-51.1608
 10
-256.1344
 20
-51.2289
 10
-256.1025
 20
-51.3071
 10
-256.0823
 20
-51.3935
 10
-256.0753
 20
-51.4862
 10
-256.0823
 20
-51.5787
 10
-256.1025
 20
-51.6649
 10
-256.1344
 20
-51.743
 10
-256.1766
 20
-51.8111
 10
-256.2278
 20
-51.8673
 10
-256.2866
 20
-51.9097
 10
-256.3516
 20
-51.9365
 10
-256.4213
 20
-51.9459
 10
-256.491
 20
-51.9365
 10
-256.556
 20
-51.9097
 10
-256.6148
 20
-51.8673
 10
-256.666
 20
-51.8111
 10
-256.7082
 20
-51.743
 10
-256.7401
 20
-51.6649
 10
-256.7603
 20
-51.5787
 10
-256.7673
 20
-51.4862
 10
-256.7603
 20
-51.3935
 10
-256.7401
 20
-51.3071
 10
-256.7082
 20
-51.2289
 10
-256.666
 20
-51.1608
 10
-256.6148
 20
-51.1046
 10
-256.556
 20
-51.0621
 10
-256.491
 20
-51.0353
 10
-256.4213
 20
-51.0259
  0
LWPOLYLINE
  5
76
330
1F
100
AcDbEntity
  8
Layer 1
 62
     7
370
     9
100
AcDbPolyline
 90
       41
 70
     0
 43
0.0
 10
-253.1222
 20
-16.9541
 10
-252.8146
 20
-17.0611
 10
-251.9945
 20
-17.3528
 10
-250.8159
 20
-17.7852
 10
-249.4327
 20
-18.3142
 10
-247.9991
 20
-18.896
 10
-246.6691
 20
-19.4865
 10
-245.5966
 20
-20.0417
 10
-244.9356
 20
-20.5176
 10
-244.5694
 20
-21.0177
 10
-244.2753
 20
-21.6538
 10
-244.0486
 20
-22.394
 10
-243.8843
 20
-23.2067
 10
-243.7777
 20
-24.0602
 10
-243.724
 20
-24.9227
 10
-243.7184
 20
-25.7624
 10
-243.756
 20
-26.5477
 10
-243.8422
 20
-27.742
 10
-243.9844
 20
-29.7011
 10
-244.1806
 20
-32.2315
 10
-244.4292
 20
-35.1398
 10
-244.7282
 20
-38.2326
 10
-245.0758
 20
-41.3163
 10
-245.4703
 20
-44.1976
 10
-245.9098
 20
-46.683
 10
-246.3738
 20
-48.9045
 10
-246.8439
 20
-51.0794
 10
-247.3211
 20
-53.1417
 10
-247.8068
 20
-55.0256
 10
-248.3021
 20
-56.6651
 10
-248.8082
 20
-57.9945
 10
-249.3264
 20
-58.9477
 10
-249.8577
 20
-59.4589
 10
-250.5842
 20
-59.7326
 10
-251.6236
 20
-60.0087
 10
-252.8807
 20
-60.2746
 10
-254.2604
 20
-60.5175
 10
-255.6677
 20
-60.7247
 10
-257.0073
 20
-60.8836
 10
-258.1843
 20
-60.9815
 10
-259.1035
 20
-61.0056
  0
LWPOLYLINE
  5
77
330
1F
100
AcDbEntity
  8
Layer 1
 62
     7
370
     9
100
AcDbPolyline
 90
        2
 70
     0
 43
0.0
 10
-208.7333
 20
-67.2261
 10
-201.6431
 20
-94.488
  0
LWPOLYLINE
  5
78
330
1F
100
AcDbEntity
  8
Layer 1
 62
     7
370
     9
100
AcDbPolyline
 90
        2
 70
     0
 43
0.0
 10
-198.7858
 20
-64.5688
 10
-190.7926
 20
-96.5202
  0
LWPOLYLINE
  5
79
330
1F
100
AcDbEntity
  8
Layer 1
 62
     7
370
    18
100
AcDbPolyline
 90
       35
 70
     1
 43
0.0
 10
-248.6512
 20
-57.8819
 10
-247.9344
 20
-57.9384
 10
-246.0589
 20
-58.1132
 10
-243.3833
 20
-58.418
 10
-240.2658
 20
-58.8645
 10
-237.0649
 20
-59.4645
 10
-234.1391
 20
-60.2298
 10
-231.8467
 20
-61.1721
 10
-230.5462
 20
-62.303
 10
-229.9575
 20
-68.5458
 10
-229.4489
 20
-83.1354
 10
-229.0197
 20
-103.2481
 10
-228.6696
 20
-126.0601
 10
-228.3979
 20
-148.7476
 10
-228.2043
 20
-168.4867
 10
-228.088
 20
-182.4536
 10
-228.0488
 20
-187.8245
 10
-230.2281
 20
-187.8331
 10
-230.2669
 20
-182.4873
 10
-230.3797
 20
-168.5897
 10
-230.5637
 20
-148.9572
 10
-230.816
 20
-126.4067
 10
-231.1339
 20
-103.7548
 10
-231.5144
 20
-83.8184
 10
-231.9547
 20
-69.4143
 10
-232.4519
 20
-63.3592
 10
-233.5746
 20
-62.5646
 10
-235.7578
 20
-61.864
 10
-238.6291
 20
-61.261
 10
-241.8164
 20
-60.7593
 10
-244.9471
 20
-60.3624
 10
-247.6491
 20
-60.0742
 10
-249.55
 20
-59.8981
 10
-250.2775
 20
-59.8378
 10
-248.6512
 20
-57.8819
  0
LWPOLYLINE
  5
7A
330
1F
100
AcDbEntity
  8
Layer 1
 62
     7
370
     9
100
AcDbPolyline
 90
        9
 70
     0
 43
0.0
 10
-242.0488
 20
-187.2036
 10
-239.506
 20
-188.4174
 10
-236.1975
 20
-189.282
 10
-232.382
 20
-189.7933
 10
-228.3181
 20
-189.9474
 10
-224.2646
 20
-189.7403
 10
-220.4803
 20
-189.1679
 10
-217.2239
 20
-188.2262
 10
-214.7541
 20
-186.9113
  0
LWPOLYLINE
  5
7B
330
1F
100
AcDbEntity
  8
Layer 1
 62
     7
370
     9
100
AcDbPolyline
 90
        9
 70
     0
 43
0.0
 10
-241.8994
 20
-185.6532
 10
-239.6168
 20
-186.5804
 10
-236.5038
 20
-187.2538
 10
-232.8157
 20
-187.6664
 10
-228.808
 20
-187.811
 10
-224.7357
 20
-187.6807
 10
-220.8543
 20
-187.2682
 10
-217.419
 20
-186.5665
 10
-214.6852
 20
-185.5686
  0
LWPOLYLINE
  5
7C
330
1F
100
AcDbEntity
  8
Layer 1
 62
     7
370
     9
100
AcDbPolyline
 90
        9
 70
     0
 43
0.0
 10
-241.9329
 20
-189.5653
 10
-239.3951
 20
-190.7757
 10
-236.0997
 20
-191.6315
 10
-232.3027
 20
-192.1305
 10
-228.2601
 20
-192.2703
 10
-224.228
 20
-192.0489
 10
-220.4622
 20
-191.4641
 10
-217.2189
 20
-190.5137
 10
-214.7541
 20
-189.1954
  0
LWPOLYLINE
  5
7D
330
1F
100
AcDbEntity
  8
Layer 1
 62
     7
370
     9
100
AcDbPolyline
 90
        9
 70
     0
 43
0.0
 10
-241.8503
 20
-191.8802
 10
-239.3054
 20
-193.0849
 10
-235.9912
 20
-193.9256
 10
-232.1674
 20
-194.4032
 10
-228.0942
 20
-194.5186
 10
-224.0313
 20
-194.2728
 10
-220.2388
 20
-193.6666
 10
-216.9765
 20
-192.7011
 10
-214.5045
 20
-191.3771
  0
LWPOLYLINE
  5
7E
330
1F
100
AcDbEntity
  8
Layer 1
 62
     7
370
     9
100
AcDbPolyline
 90
        9
 70
     0
 43
0.0
 10
-241.8523
 20
-194.0941
 10
-239.3035
 20
-195.2975
 10
-235.979
 20
-196.1348
 10
-232.1409
 20
-196.6076
 10
-228.0512
 20
-196.7176
 10
-223.9719
 20
-196.4662
 10
-220.1651
 20
-195.8553
 10
-216.8928
 20
-194.8863
 10
-214.4169
 20
-193.561
  0
LWPOLYLINE
  5
7F
330
1F
100
AcDbEntity
  8
Layer 1
 62
     7
370
     9
100
AcDbPolyline
 90
        9
 70
     0
 43
0.0
 10
-241.7861
 20
-196.3429
 10
-239.238
 20
-197.5522
 10
-235.9153
 20
-198.4048
 10
-232.0796
 20
-198.8993
 10
-227.9927
 20
-199.0341
 10
-223.9162
 20
-198.8076
 10
-220.1117
 20
-198.2183
 10
-216.8411
 20
-197.2647
 10
-214.3658
 20
-195.9452
  0
LWPOLYLINE
  5
80
330
1F
100
AcDbEntity
  8
Layer 1
 62
     7
370
     9
100
AcDbPolyline
 90
        9
 70
     0
 43
0.0
 10
-241.7285
 20
-198.5726
 10
-239.1833
 20
-199.7791
 10
-235.8681
 20
-200.6245
 10
-232.0431
 20
-201.1087
 10
-227.9683
 20
-201.2317
 10
-223.904
 20
-200.9935
 10
-220.1101
 20
-200.394
 10
-216.8469
 20
-199.4331
 10
-214.3744
 20
-198.1109
  0
LWPOLYLINE
  5
81
330
1F
100
AcDbEntity
  8
Layer 1
 62
     7
370
     9
100
AcDbPolyline
 90
        2
 70
     0
 43
0.0
 10
-181.2057
 20
-187.8338
 10
-181.2057
 20
-18.302
  0
LWPOLYLINE
  5
82
330
1F
100
AcDbEntity
  8
Layer 1
 62
     7
370
     9
100
AcDbPolyline
 90
        2
 70
     0
 43
0.0
 10
-248.676
 20
-18.3018
 10
-169.1673
 20
-18.3018
  0
LWPOLYLINE
  5
83
330
1F
100
AcDbEntity
  8
Layer 1
 62
     7
370
     9
100
AcDbPolyline
 90
        7
 70
     1
 43
0.0
 10
-149.4163
 20
-142.3828
 10
-149.4163
 20
-140.9532
 10
-163.5176
 20
-140.9532
 10
-163.1484
 20
-144.3849
 10
-161.8991
 20
-144.3849
 10
-161.8991
 20
-142.3828
 10
-149.4163
 20
-142.3828
  0
LWPOLYLINE
  5
84
330
1F
100
AcDbEntity
  8
Layer 1
 62
     7
370
     9
100
AcDbPolyline
 90
      162
 70
     1
 43
0.0
 10
-149.4568
 20
-97.2986
 10
-149.4568
 20
-95.869
 10
-155.0934
 20
-95.869
 10
-155.4678
 20
-95.8806
 10
-155.8246
 20
-95.9156
 10
-156.1636
 20
-95.9738
 10
-156.485
 20
-96.0553
 10
-156.7888
 20
-96.1601
 10
-157.0749
 20
-96.2883
 10
-157.3434
 20
-96.4398
 10
-157.5943
 20
-96.6146
 10
-157.7142
 20
-96.7121
 10
-157.828
 20
-96.8156
 10
-157.9358
 20
-96.9252
 10
-158.0374
 20
-97.0408
 10
-158.133
 20
-97.1626
 10
-158.2225
 20
-97.2903
 10
-158.3059
 20
-97.4242
 10
-158.3833
 20
-97.5642
 10
-158.4528
 20
-97.713
 10
-158.5131
 20
-97.8733
 10
-158.5643
 20
-98.045
 10
-158.6062
 20
-98.2282
 10
-158.6388
 20
-98.4228
 10
-158.6621
 20
-98.629
 10
-158.6761
 20
-98.8465
 10
-158.6808
 20
-99.0756
 10
-158.6728
 20
-99.307
 10
-158.6488
 20
-99.531
 10
-158.6087
 20
-99.7476
 10
-158.5526
 20
-99.9569
 10
-158.4804
 20
-100.1587
 10
-158.3922
 20
-100.3532
 10
-158.288
 20
-100.5404
 10
-158.1676
 20
-100.7202
 10
-158.048
 20
-100.8763
 10
-157.9195
 20
-101.0255
 10
-157.7821
 20
-101.1676
 10
-157.636
 20
-101.3027
 10
-157.4813
 20
-101.4307
 10
-157.3179
 20
-101.5518
 10
-157.1462
 20
-101.6658
 10
-156.966
 20
-101.7727
 10
-157.1323
 20
-101.8554
 10
-157.2929
 20
-101.9459
 10
-157.4472
 20
-102.0443
 10
-157.5943
 20
-102.1506
 10
-157.7142
 20
-102.2481
 10
-157.828
 20
-102.3516
 10
-157.9358
 20
-102.4612
 10
-158.0374
 20
-102.5768
 10
-158.133
 20
-102.6986
 10
-158.2225
 20
-102.8263
 10
-158.3059
 20
-102.9602
 10
-158.3833
 20
-103.1002
 10
-158.4528
 20
-103.249
 10
-158.5131
 20
-103.4093
 10
-158.5643
 20
-103.581
 10
-158.6062
 20
-103.7642
 10
-158.6388
 20
-103.9588
 10
-158.6621
 20
-104.165
 10
-158.6761
 20
-104.3825
 10
-158.6808
 20
-104.6116
 10
-158.6728
 20
-104.843
 10
-158.6488
 20
-105.067
 10
-158.6087
 20
-105.2836
 10
-158.5526
 20
-105.4928
 10
-158.4804
 20
-105.6947
 10
-158.3922
 20
-105.8892
 10
-158.288
 20
-106.0764
 10
-158.1676
 20
-106.2562
 10
-158.0538
 20
-106.405
 10
-157.9321
 20
-106.5474
 10
-157.8027
 20
-106.6833
 10
-157.6654
 20
-106.8129
 10
-157.5202
 20
-106.936
 10
-157.3673
 20
-107.0528
 10
-157.2064
 20
-107.1633
 10
-157.0377
 20
-107.2674
 10
-158.476
 20
-107.2674
 10
-158.476
 20
-108.697
 10
-149.4568
 20
-108.697
 10
-149.4568
 20
-107.2674
 10
-154.0721
 20
-107.2674
 10
-154.341
 20
-107.2341
 10
-154.5995
 20
-107.1906
 10
-154.8475
 20
-107.137
 10
-155.0852
 20
-107.0731
 10
-155.3126
 20
-106.9991
 10
-155.5298
 20
-106.9149
 10
-155.7369
 20
-106.8205
 10
-155.9338
 20
-106.7159
 10
-156.0742
 20
-106.6307
 10
-156.2081
 20
-106.5384
 10
-156.3356
 20
-106.439
 10
-156.4566
 20
-106.3327
 10
-156.5712
 20
-106.2193
 10
-156.6794
 20
-106.0989
 10
-156.7811
 20
-105.9715
 10
-156.8763
 20
-105.8371
 10
-156.9628
 20
-105.6982
 10
-157.0378
 20
-105.5566
 10
-157.1012
 20
-105.4124
 10
-157.1531
 20
-105.2656
 10
-157.1935
 20
-105.1163
 10
-157.2223
 20
-104.9644
 10
-157.2396
 20
-104.8099
 10
-157.2454
 20
-104.6529
 10
-157.2424
 20
-104.4995
 10
-157.2333
 20
-104.3565
 10
-157.2182
 20
-104.2237
 10
-157.1969
 20
-104.1012
 10
-157.1696
 20
-103.9889
 10
-157.1361
 20
-103.8868
 10
-157.0965
 20
-103.795
 10
-157.0507
 20
-103.7133
 10
-156.898
 20
-103.5072
 10
-156.719
 20
-103.3287
 10
-156.5137
 20
-103.1776
 10
-156.2822
 20
-103.0541
 10
-156.0243
 20
-102.958
 10
-155.7402
 20
-102.8894
 10
-155.4299
 20
-102.8483
 10
-155.0934
 20
-102.8346
 10
-149.4568
 20
-102.8346
 10
-149.4568
 20
-101.405
 10
-155.0934
 20
-101.405
 10
-155.4387
 20
-101.4151
 10
-155.9338
 20
-101.1799
 10
-156.0742
 20
-101.0947
 10
-156.2081
 20
-101.0025
 10
-156.3356
 20
-100.9033
 10
-156.4566
 20
-100.7971
 10
-156.5712
 20
-100.6838
 10
-156.6794
 20
-100.5635
 10
-156.7811
 20
-100.4362
 10
-156.8763
 20
-100.3018
 10
-156.9628
 20
-100.1626
 10
-157.0378
 20
-100.0209
 10
-157.1012
 20
-99.8766
 10
-157.1531
 20
-99.7297
 10
-157.1935
 20
-99.5803
 10
-157.2223
 20
-99.4284
 10
-157.2396
 20
-99.2739
 10
-157.2454
 20
-99.1169
 10
-157.2424
 20
-98.9637
 10
-157.2333
 20
-98.8208
 10
-157.2182
 20
-98.688
 10
-157.1969
 20
-98.5654
 10
-157.1696
 20
-98.4531
 10
-157.1361
 20
-98.3509
 10
-157.0965
 20
-98.259
 10
-157.0507
 20
-98.1773
 10
-156.898
 20
-97.9714
 10
-156.719
 20
-97.793
 10
-156.5137
 20
-97.642
 10
-156.2822
 20
-97.5184
 10
-156.0243
 20
-97.4222
 10
-155.7402
 20
-97.3536
 10
-155.4299
 20
-97.3123
 10
-155.0934
 20
-97.2986
 10
-149.4568
 20
-97.2986
  0
LWPOLYLINE
  5
85
330
1F
100
AcDbEntity
  8
Layer 1
 62
     7
370
     9
100
AcDbPolyline
 90
      162
 70
     1
 43
0.0
 10
-149.4568
 20
-81.712
 10
-149.4568
 20
-80.2824
 10
-155.0934
 20
-80.2824
 10
-155.4678
 20
-80.294
 10
-155.8246
 20
-80.329
 10
-156.1636
 20
-80.3872
 10
-156.485
 20
-80.4687
 10
-156.7888
 20
-80.5735
 10
-157.0749
 20
-80.7017
 10
-157.3434
 20
-80.8531
 10
-157.5943
 20
-81.0279
 10
-157.7142
 20
-81.1254
 10
-157.828
 20
-81.2289
 10
-157.9358
 20
-81.3385
 10
-158.0374
 20
-81.4542
 10
-158.133
 20
-81.5759
 10
-158.2225
 20
-81.7037
 10
-158.3059
 20
-81.8376
 10
-158.3833
 20
-81.9776
 10
-158.4528
 20
-82.1264
 10
-158.5131
 20
-82.2867
 10
-158.5643
 20
-82.4584
 10
-158.6062
 20
-82.6416
 10
-158.6388
 20
-82.8362
 10
-158.6621
 20
-83.0424
 10
-158.6761
 20
-83.2599
 10
-158.6808
 20
-83.489
 10
-158.6728
 20
-83.7204
 10
-158.6488
 20
-83.9444
 10
-158.6087
 20
-84.161
 10
-158.5526
 20
-84.3702
 10
-158.4804
 20
-84.5721
 10
-158.3922
 20
-84.7666
 10
-158.288
 20
-84.9538
 10
-158.1676
 20
-85.1336
 10
-158.048
 20
-85.2897
 10
-157.9195
 20
-85.4388
 10
-157.7821
 20
-85.5809
 10
-157.636
 20
-85.716
 10
-157.4813
 20
-85.8441
 10
-157.3179
 20
-85.9651
 10
-157.1462
 20
-86.0791
 10
-156.966
 20
-86.1861
 10
-157.1323
 20
-86.2687
 10
-157.2929
 20
-86.3593
 10
-157.4472
 20
-86.4576
 10
-157.5943
 20
-86.5639
 10
-157.7142
 20
-86.6614
 10
-157.828
 20
-86.7649
 10
-157.9358
 20
-86.8745
 10
-158.0374
 20
-86.9902
 10
-158.133
 20
-87.1119
 10
-158.2225
 20
-87.2397
 10
-158.3059
 20
-87.3736
 10
-158.3833
 20
-87.5136
 10
-158.4528
 20
-87.6624
 10
-158.5131
 20
-87.8227
 10
-158.5643
 20
-87.9944
 10
-158.6062
 20
-88.1776
 10
-158.6388
 20
-88.3722
 10
-158.6621
 20
-88.5784
 10
-158.6761
 20
-88.7959
 10
-158.6808
 20
-89.025
 10
-158.6728
 20
-89.2564
 10
-158.6488
 20
-89.4804
 10
-158.6087
 20
-89.697
 10
-158.5526
 20
-89.9062
 10
-158.4804
 20
-90.1081
 10
-158.3922
 20
-90.3026
 10
-158.288
 20
-90.4898
 10
-158.1676
 20
-90.6696
 10
-158.0538
 20
-90.8184
 10
-157.9321
 20
-90.9608
 10
-157.8027
 20
-91.0967
 10
-157.6654
 20
-91.2262
 10
-157.5202
 20
-91.3494
 10
-157.3673
 20
-91.4662
 10
-157.2064
 20
-91.5767
 10
-157.0377
 20
-91.6808
 10
-158.476
 20
-91.6808
 10
-158.476
 20
-93.1104
 10
-149.4568
 20
-93.1104
 10
-149.4568
 20
-91.6808
 10
-154.0721
 20
-91.6808
 10
-154.341
 20
-91.6475
 10
-154.5995
 20
-91.604
 10
-154.8475
 20
-91.5503
 10
-155.0852
 20
-91.4865
 10
-155.3126
 20
-91.4124
 10
-155.5298
 20
-91.3282
 10
-155.7369
 20
-91.2338
 10
-155.9338
 20
-91.1292
 10
-156.0742
 20
-91.044
 10
-156.2081
 20
-90.9517
 10
-156.3356
 20
-90.8524
 10
-156.4566
 20
-90.7461
 10
-156.5712
 20
-90.6327
 10
-156.6794
 20
-90.5123
 10
-156.7811
 20
-90.3849
 10
-156.8763
 20
-90.2505
 10
-156.9628
 20
-90.1116
 10
-157.0378
 20
-89.97
 10
-157.1012
 20
-89.8258
 10
-157.1531
 20
-89.679
 10
-157.1935
 20
-89.5297
 10
-157.2223
 20
-89.3778
 10
-157.2396
 20
-89.2233
 10
-157.2454
 20
-89.0663
 10
-157.2424
 20
-88.9129
 10
-157.2333
 20
-88.7698
 10
-157.2182
 20
-88.637
 10
-157.1969
 20
-88.5145
 10
-157.1696
 20
-88.4022
 10
-157.1361
 20
-88.3002
 10
-157.0965
 20
-88.2083
 10
-157.0507
 20
-88.1267
 10
-156.898
 20
-87.9206
 10
-156.719
 20
-87.7421
 10
-156.5137
 20
-87.591
 10
-156.2822
 20
-87.4675
 10
-156.0243
 20
-87.3714
 10
-155.7402
 20
-87.3028
 10
-155.4299
 20
-87.2617
 10
-155.0934
 20
-87.248
 10
-149.4568
 20
-87.248
 10
-149.4568
 20
-85.8184
 10
-155.0934
 20
-85.8184
 10
-155.4387
 20
-85.8285
 10
-155.9338
 20
-85.5932
 10
-156.0742
 20
-85.508
 10
-156.2081
 20
-85.4158
 10
-156.3356
 20
-85.3166
 10
-156.4566
 20
-85.2104
 10
-156.5712
 20
-85.0972
 10
-156.6794
 20
-84.9769
 10
-156.7811
 20
-84.8496
 10
-156.8763
 20
-84.7152
 10
-156.9628
 20
-84.576
 10
-157.0378
 20
-84.4343
 10
-157.1012
 20
-84.29
 10
-157.1531
 20
-84.1431
 10
-157.1935
 20
-83.9937
 10
-157.2223
 20
-83.8418
 10
-157.2396
 20
-83.6873
 10
-157.2454
 20
-83.5303
 10
-157.2424
 20
-83.3771
 10
-157.2333
 20
-83.2342
 10
-157.2182
 20
-83.1014
 10
-157.1969
 20
-82.9788
 10
-157.1696
 20
-82.8665
 10
-157.1361
 20
-82.7643
 10
-157.0965
 20
-82.6724
 10
-157.0507
 20
-82.5907
 10
-156.898
 20
-82.3848
 10
-156.719
 20
-82.2064
 10
-156.5137
 20
-82.0553
 10
-156.2822
 20
-81.9318
 10
-156.0243
 20
-81.8356
 10
-155.7402
 20
-81.7669
 10
-155.4299
 20
-81.7257
 10
-155.0934
 20
-81.712
 10
-149.4568
 20
-81.712
  0
LWPOLYLINE
  5
86
330
1F
100
AcDbEntity
  8
Layer 1
 62
     7
370
     9
100
AcDbPolyline
 90
       87
 70
     1
 43
0.0
 10
-149.4163
 20
-138.2568
 10
-149.4163
 20
-128.4718
 10
-150.8502
 20
-128.4718
 10
-150.8502
 20
-134.8048
 10
-155.6674
 20
-129.963
 10
-156.0143
 20
-129.6472
 10
-156.3785
 20
-129.3734
 10
-156.76
 20
-129.1418
 10
-157.1588
 20
-128.9522
 10
-157.5749
 20
-128.8048
 10
-158.0082
 20
-128.6995
 10
-158.4589
 20
-128.6363
 10
-158.9269
 20
-128.6152
 10
-159.4053
 20
-128.6367
 10
-159.8645
 20
-128.7014
 10
-160.3044
 20
-128.8091
 10
-160.7251
 20
-128.9599
 10
-161.1266
 20
-129.1538
 10
-161.509
 20
-129.3908
 10
-161.8721
 20
-129.6709
 10
-162.2161
 20
-129.9941
 10
-162.5355
 20
-130.3531
 10
-162.8123
 20
-130.7281
 10
-163.0466
 20
-131.119
 10
-163.2383
 20
-131.526
 10
-163.3874
 20
-131.949
 10
-163.4939
 20
-132.3879
 10
-163.5578
 20
-132.8428
 10
-163.5791
 20
-133.3137
 10
-163.5567
 20
-133.8024
 10
-163.4894
 20
-134.273
 10
-163.3773
 20
-134.7253
 10
-163.2203
 20
-135.1595
 10
-163.0186
 20
-135.5754
 10
-162.772
 20
-135.9732
 10
-162.4806
 20
-136.3529
 10
-162.1444
 20
-136.7143
 10
-161.7827
 20
-137.0362
 10
-161.402
 20
-137.3126
 10
-161.0025
 20
-137.5432
 10
-160.5841
 20
-137.7283
 10
-160.1468
 20
-137.8676
 10
-159.6906
 20
-137.9613
 10
-159.2154
 20
-138.0092
 10
-158.7214
 20
-138.0114
 10
-158.7214
 20
-136.5616
 10
-159.0418
 20
-136.5737
 10
-159.3549
 20
-136.5512
 10
-159.6606
 20
-136.4944
 10
-159.959
 20
-136.403
 10
-160.2501
 20
-136.2772
 10
-160.5337
 20
-136.117
 10
-160.81
 20
-135.9222
 10
-161.0789
 20
-135.693
 10
-161.3189
 20
-135.448
 10
-161.527
 20
-135.1901
 10
-161.7032
 20
-134.9195
 10
-161.8474
 20
-134.6361
 10
-161.9596
 20
-134.3398
 10
-162.0397
 20
-134.0308
 10
-162.0879
 20
-133.709
 10
-162.1039
 20
-133.3745
 10
-162.0894
 20
-133.0463
 10
-162.0461
 20
-132.7305
 10
-161.9739
 20
-132.4272
 10
-161.8729
 20
-132.1363
 10
-161.7431
 20
-131.8578
 10
-161.5844
 20
-131.5918
 10
-161.3971
 20
-131.3383
 10
-161.181
 20
-131.0972
 10
-160.9421
 20
-130.8745
 10
-160.6916
 20
-130.6815
 10
-160.4296
 20
-130.5182
 10
-160.1561
 20
-130.3845
 10
-159.8711
 20
-130.2805
 10
-159.5746
 20
-130.2062
 10
-159.2667
 20
-130.1617
 10
-158.9472
 20
-130.1468
 10
-158.6205
 20
-130.1612
 10
-158.3066
 20
-130.2043
 10
-158.0055
 20
-130.2762
 10
-157.7171
 20
-130.3768
 10
-157.4416
 20
-130.5061
 10
-157.1788
 20
-130.6641
 10
-156.9288
 20
-130.8508
 10
-156.6917
 20
-131.0661
 10
-149.4163
 20
-138.2568
  0
LWPOLYLINE
  5
87
330
1F
100
AcDbEntity
  8
Layer 1
 62
     7
370
     9
100
AcDbPolyline
 90
      136
 70
     1
 43
0.0
 10
-158.1886
 20
-123.3238
 10
-161.9193
 20
-122.3843
 10
-161.9193
 20
-117.3593
 10
-163.3533
 20
-117.3593
 10
-163.3533
 20
-123.4672
 10
-157.1021
 20
-125.0603
 10
-156.405
 20
-123.5077
 10
-156.5587
 20
-123.2825
 10
-156.6919
 20
-123.0462
 10
-156.8047
 20
-122.7988
 10
-156.8969
 20
-122.5402
 10
-156.9686
 20
-122.2704
 10
-157.0199
 20
-121.9895
 10
-157.0506
 20
-121.6974
 10
-157.0609
 20
-121.3941
 10
-157.0459
 20
-121.0889
 10
-157.0008
 20
-120.7939
 10
-156.9256
 20
-120.5091
 10
-156.8203
 20
-120.2345
 10
-156.6849
 20
-119.9702
 10
-156.5194
 20
-119.716
 10
-156.3238
 20
-119.4721
 10
-156.0981
 20
-119.2384
 10
-155.8462
 20
-119.0183
 10
-155.585
 20
-118.8275
 10
-155.3145
 20
-118.666
 10
-155.0347
 20
-118.5339
 10
-154.7457
 20
-118.4311
 10
-154.4474
 20
-118.3577
 10
-154.1399
 20
-118.3136
 10
-153.8231
 20
-118.2989
 10
-153.4952
 20
-118.3139
 10
-153.1805
 20
-118.3589
 10
-152.8788
 20
-118.4339
 10
-152.5904
 20
-118.5388
 10
-152.3151
 20
-118.6738
 10
-152.0529
 20
-118.8388
 10
-151.804
 20
-119.0337
 10
-151.5683
 20
-119.2587
 10
-151.4633
 20
-119.3732
 10
-151.3637
 20
-119.4918
 10
-151.2697
 20
-119.6145
 10
-151.1811
 20
-119.7414
 10
-151.098
 20
-119.8725
 10
-151.0204
 20
-120.0078
 10
-150.9482
 20
-120.1472
 10
-150.8814
 20
-120.2909
 10
-150.8215
 20
-120.4405
 10
-150.7696
 20
-120.5985
 10
-150.7256
 20
-120.7647
 10
-150.6895
 20
-120.9392
 10
-150.6613
 20
-121.122
 10
-150.6412
 20
-121.3132
 10
-150.6291
 20
-121.5127
 10
-150.6251
 20
-121.7205
 10
-150.6341
 20
-121.9323
 10
-150.6609
 20
-122.1438
 10
-150.7058
 20
-122.3549
 10
-150.7685
 20
-122.5658
 10
-150.8492
 20
-122.7762
 10
-150.9479
 20
-122.9864
 10
-151.0645
 20
-123.1961
 10
-151.1991
 20
-123.4056
 10
-151.3481
 20
-123.6075
 10
-151.508
 20
-123.7939
 10
-151.6787
 20
-123.965
 10
-151.8604
 20
-124.1208
 10
-152.0528
 20
-124.2612
 10
-152.2561
 20
-124.3863
 10
-152.4703
 20
-124.4961
 10
-152.6953
 20
-124.5906
 10
-152.2444
 20
-125.9796
 10
-151.9071
 20
-125.8431
 10
-151.5867
 20
-125.684
 10
-151.2833
 20
-125.5022
 10
-150.9968
 20
-125.2978
 10
-150.7274
 20
-125.0706
 10
-150.4748
 20
-124.8209
 10
-150.2393
 20
-124.5484
 10
-150.0207
 20
-124.2533
 10
-149.8214
 20
-123.9397
 10
-149.6486
 20
-123.6191
 10
-149.5023
 20
-123.2913
 10
-149.3826
 20
-122.9565
 10
-149.2894
 20
-122.6146
 10
-149.2228
 20
-122.2657
 10
-149.1828
 20
-121.9098
 10
-149.1695
 20
-121.5468
 10
-149.1915
 20
-121.0634
 10
-149.2574
 20
-120.5984
 10
-149.3672
 20
-120.1519
 10
-149.5209
 20
-119.7239
 10
-149.7184
 20
-119.3143
 10
-149.9598
 20
-118.9233
 10
-150.2449
 20
-118.5508
 10
-150.5737
 20
-118.1968
 10
-150.931
 20
-117.8759
 10
-151.3059
 20
-117.5978
 10
-151.6985
 20
-117.3626
 10
-152.1086
 20
-117.1701
 10
-152.5364
 20
-117.0204
 10
-152.9819
 20
-116.9135
 10
-153.445
 20
-116.8494
 10
-153.9259
 20
-116.828
 10
-154.4038
 20
-116.8491
 10
-154.8615
 20
-116.9123
 10
-155.2991
 20
-117.0176
 10
-155.7165
 20
-117.1651
 10
-156.1137
 20
-117.3548
 10
-156.4908
 20
-117.5866
 10
-156.8477
 20
-117.8605
 10
-157.1846
 20
-118.1766
 10
-157.3342
 20
-118.338
 10
-157.4759
 20
-118.5059
 10
-157.6095
 20
-118.6801
 10
-157.7351
 20
-118.8607
 10
-157.8527
 20
-119.0477
 10
-157.9623
 20
-119.2412
 10
-158.0639
 20
-119.4411
 10
-158.1575
 20
-119.6474
 10
-158.2417
 20
-119.8577
 10
-158.3147
 20
-120.0698
 10
-158.3764
 20
-120.2839
 10
-158.4269
 20
-120.4998
 10
-158.4661
 20
-120.7174
 10
-158.4941
 20
-120.9367
 10
-158.5109
 20
-121.1577
 10
-158.5165
 20
-121.3803
 10
-158.5114
 20
-121.6073
 10
-158.496
 20
-121.8387
 10
-158.4704
 20
-122.0746
 10
-158.4345
 20
-122.3151
 10
-158.3884
 20
-122.5602
 10
-158.3321
 20
-122.81
 10
-158.2655
 20
-123.0645
 10
-158.1886
 20
-123.3238
  0
LWPOLYLINE
  5
88
330
1F
100
AcDbEntity
  8
Layer 1
 62
     7
370
     9
100
AcDbPolyline
 90
        2
 70
     0
 43
0.0
 10
-230.2281
 20
-187.8332
 10
-169.1673
 20
-187.8332
  0
ENDSEC
  0
SECTION
  2
OBJECTS
  0
DICTIONARY
  5
C
330
0
100
AcDbDictionary
281
     1
  3
ACAD_DETAILVIEWSTYLE
350
90
  3
ACAD_GROUP
350
D
  3
ACAD_LAYOUT
350
1A
  3
ACAD_MATERIAL
350
43
  3
ACAD_MLEADERSTYLE
350
5B
  3
ACAD_MLINESTYLE
350
17
  3
ACAD_PLOTSETTINGS
350
19
  3
ACAD_PLOTSTYLENAME
350
E
  3
ACAD_SCALELIST
350
47
  3
ACAD_SECTIONVIEWSTYLE
350
91
  3
ACAD_TABLESTYLE
350
59
  3
ACAD_VISUALSTYLE
350
2A
  3
ACDB_RECOMPOSE_DATA
350
8D
  3
AcDbVariableDictionary
350
89
  0
SUN
  5
5D
330
29
100
AcDbSun
 90
        1
290
     0
 63
     7
421
 16777215
 40
1.0
291
     1
 91
  2455826
 92
 54000000
292
     0
 70
     2
 71
   256
280
     1
  0
DICTIONARY
  5
90
102
{ACAD_REACTORS
330
C
102
}
330
C
100
AcDbDictionary
281
     1
  0
DICTIONARY
  5
D
102
{ACAD_REACTORS
330
C
102
}
330
C
100
AcDbDictionary
281
     1
  0
DICTIONARY
  5
1A
102
{ACAD_REACTORS
330
C
102
}
330
C
100
AcDbDictionary
281
     1
  3
Layout1
350
1E
  3
Layout2
350
26
  3
Model
350
22
  0
DICTIONARY
  5
43
102
{ACAD_REACTORS
330
C
102
}
330
C
100
AcDbDictionary
281
     1
  3
ByBlock
350
45
  3
ByLayer
350
44
  3
Global
350
46
  0
DICTIONARY
  5
5B
102
{ACAD_REACTORS
330
C
102
}
330
C
100
AcDbDictionary
281
     1
  3
Standard
350
5C
  0
DICTIONARY
  5
17
102
{ACAD_REACTORS
330
C
102
}
330
C
100
AcDbDictionary
281
     1
  3
Standard
350
18
  0
DICTIONARY
  5
19
102
{ACAD_REACTORS
330
C
102
}
330
C
100
AcDbDictionary
281
     1
  0
ACDBDICTIONARYWDFLT
  5
E
102
{ACAD_REACTORS
330
C
102
}
330
C
100
AcDbDictionary
281
     1
  3
Normal
350
F
100
AcDbDictionaryWithDefault
340
F
  0
DICTIONARY
  5
47
102
{ACAD_REACTORS
330
C
102
}
330
C
100
AcDbDictionary
281
     1
  3
A0
350
48
  3
A1
350
49
  3
A2
350
4A
  3
A3
350
4B
  3
A4
350
4C
  3
A5
350
4D
  3
A6
350
4E
  3
A7
350
4F
  3
A8
350
50
  3
A9
350
51
  3
B1
350
52
  3
B2
350
53
  3
B3
350
54
  3
B4
350
55
  3
B5
350
56
  3
B6
350
57
  3
B7
350
58
  0
DICTIONARY
  5
91
102
{ACAD_REACTORS
330
C
102
}
330
C
100
AcDbDictionary
281
     1
  0
DICTIONARY
  5
59
102
{ACAD_REACTORS
330
C
102
}
330
C
100
AcDbDictionary
281
     1
  3
Standard
350
5A
  0
DICTIONARY
  5
2A
102
{ACAD_REACTORS
330
C
102
}
330
C
100
AcDbDictionary
281
     1
  3
2dWireframe
350
2F
  3
Basic
350
32
  3
Brighten
350
36
  3
ColorChange
350
3A
  3
Conceptual
350
34
  3
Dim
350
35
  3
EdgeColorOff
350
3D
  3
Facepattern
350
39
  3
Flat
350
2B
  3
FlatWithEdges
350
2C
  3
Gouraud
350
2D
  3
GouraudWithEdges
350
2E
  3
Hidden
350
31
  3
JitterOff
350
3B
  3
Linepattern
350
38
  3
OverhangOff
350
3C
  3
Realistic
350
33
  3
Shaded
350
42
  3
Shaded with edges
350
41
  3
Shades of Gray
350
3E
  3
Sketchy
350
3F
  3
Thicken
350
37
  3
Wireframe
350
30
  3
X-Ray
350
40
  0
XRECORD
  5
8D
102
{ACAD_REACTORS
330
C
102
}
330
C
100
AcDbXrecord
280
     1
 90
        1
330
5A
  0
DICTIONARY
  5
89
102
{ACAD_REACTORS
330
C
102
}
330
C
100
AcDbDictionary
281
     1
  3
CANNOSCALE
350
8A
  3
CMLEADERSTYLE
350
8F
  3
CTABLESTYLE
350
8E
  0
LAYOUT
  5
1E
102
{ACAD_REACTORS
330
1A
102
}
330
1A
100
AcDbPlotSettings
  1

  2
none_device
  4

  6

 40
0.0
 41
0.0
 42
0.0
 43
0.0
 44
0.0
 45
0.0
 46
0.0
 47
0.0
 48
0.0
 49
0.0
140
0.0
141
0.0
142
1.0
143
1.0
 70
   688
 72
     0
 73
     0
 74
     5
  7

 75
    16
 76
     0
 77
     2
 78
   300
147
1.0
148
0.0
149
0.0
100
AcDbLayout
  1
Layout1
 70
     1
 71
     1
 10
0.0
 20
0.0
 11
12.0
 21
9.0
 12
0.0
 22
0.0
 32
0.0
 14
1.000000000000000E+20
 24
1.000000000000000E+20
 34
1.000000000000000E+20
 15
-1.000000000000000E+20
 25
-1.000000000000000E+20
 35
-1.000000000000000E+20
146
0.0
 13
0.0
 23
0.0
 33
0.0
 16
1.0
 26
0.0
 36
0.0
 17
0.0
 27
1.0
 37
0.0
 76
     0
330
1B
  0
LAYOUT
  5
26
102
{ACAD_REACTORS
330
1A
102
}
330
1A
100
AcDbPlotSettings
  1

  2
none_device
  4

  6

 40
0.0
 41
0.0
 42
0.0
 43
0.0
 44
0.0
 45
0.0
 46
0.0
 47
0.0
 48
0.0
 49
0.0
140
0.0
141
0.0
142
1.0
143
1.0
 70
   688
 72
     0
 73
     0
 74
     5
  7

 75
    16
 76
     0
 77
     2
 78
   300
147
1.0
148
0.0
149
0.0
100
AcDbLayout
  1
Layout2
 70
     1
 71
     2
 10
0.0
 20
0.0
 11
0.0
 21
0.0
 12
0.0
 22
0.0
 32
0.0
 14
0.0
 24
0.0
 34
0.0
 15
0.0
 25
0.0
 35
0.0
146
0.0
 13
0.0
 23
0.0
 33
0.0
 16
1.0
 26
0.0
 36
0.0
 17
0.0
 27
1.0
 37
0.0
 76
     0
330
23
  0
LAYOUT
  5
22
102
{ACAD_REACTORS
330
1A
102
}
330
1A
100
AcDbPlotSettings
  1

  2
none_device
  4
Letter_(8.50_x_11.00_Inches)
  6

 40
6.35
 41
6.35
 42
6.35000508
 43
6.35000508
 44
215.9
 45
279.4
 46
0.0
 47
0.0
 48
0.0
 49
0.0
140
0.0
141
0.0
142
1.0
143
1.0
 70
  1712
 72
     0
 73
     0
 74
     0
  7

 75
     0
 76
     0
 77
     2
 78
   300
147
1.0
148
0.0
149
0.0
100
AcDbLayout
  1
Model
 70
     1
 71
     0
 10
0.0
 20
0.0
 11
12.0
 21
9.0
 12
0.0
 22
0.0
 32
0.0
 14
-280.3249
 24
-206.926
 34
0.0
 15
-135.2264
 25
-9.2552
 35
0.0
146
0.0
 13
0.0
 23
0.0
 33
0.0
 16
1.0
 26
0.0
 36
0.0
 17
0.0
 27
1.0
 37
0.0
 76
     0
330
1F
331
29
  0
MATERIAL
  5
45
102
{ACAD_REACTORS
330
43
102
}
330
43
100
AcDbMaterial
  1
ByBlock
 72
     1
 94
      127
  0
MATERIAL
  5
44
102
{ACAD_REACTORS
330
43
102
}
330
43
100
AcDbMaterial
  1
ByLayer
 72
     1
 94
      127
  0
MATERIAL
  5
46
102
{ACAD_REACTORS
330
43
102
}
330
43
100
AcDbMaterial
  1
Global
 72
     1
 94
      127
  0
MLEADERSTYLE
  5
5C
102
{ACAD_REACTORS
330
5B
102
}
330
5B
100
AcDbMLeaderStyle
179
     2
170
     2
171
     1
172
     0
 90
        2
 40
0.0
 41
0.0
173
     1
 91
-1056964608
340
14
 92
       -2
290
     1
 42
0.09
291
     1
 43
0.36
  3
Standard
341
0
 44
0.18
300

342
11
174
     1
178
     6
175
     1
176
     0
 93
-1056964608
 45
0.18
292
     0
297
     0
 46
0.18
343
0
 94
-1056964608
 47
1.0
 49
1.0
140
1.0
293
     1
141
0.0
294
     1
177
     0
142
1.0
295
     0
296
     0
143
0.125
271
     0
272
     9
273
     9
298
     0
  0
MLINESTYLE
  5
18
102
{ACAD_REACTORS
330
17
102
}
330
17
100
AcDbMlineStyle
  2
Standard
 70
     0
  3

 62
   256
 51
90.0
 52
90.0
 71
     2
 49
0.5
 62
   256
  6
BYLAYER
 49
-0.5
 62
   256
  6
BYLAYER
  0
ACDBPLACEHOLDER
  5
F
102
{ACAD_REACTORS
330
E
102
}
330
E
  0
SCALE
  5
48
102
{ACAD_REACTORS
330
47
102
}
330
47
100
AcDbScale
 70
     0
300
1:1
140
1.0
141
1.0
290
     1
  0
SCALE
  5
49
102
{ACAD_REACTORS
330
47
102
}
330
47
100
AcDbScale
 70
     0
300
1/128" = 1'-0"
140
0.0078125
141
12.0
290
     0
  0
SCALE
  5
4A
102
{ACAD_REACTORS
330
47
102
}
330
47
100
AcDbScale
 70
     0
300
1/64" = 1'-0"
140
0.015625
141
12.0
290
     0
  0
SCALE
  5
4B
102
{ACAD_REACTORS
330
47
102
}
330
47
100
AcDbScale
 70
     0
300
1/32" = 1'-0"
140
0.03125
141
12.0
290
     0
  0
SCALE
  5
4C
102
{ACAD_REACTORS
330
47
102
}
330
47
100
AcDbScale
 70
     0
300
1/16" = 1'-0"
140
0.0625
141
12.0
290
     0
  0
SCALE
  5
4D
102
{ACAD_REACTORS
330
47
102
}
330
47
100
AcDbScale
 70
     0
300
3/32" = 1'-0"
140
0.09375
141
12.0
290
     0
  0
SCALE
  5
4E
102
{ACAD_REACTORS
330
47
102
}
330
47
100
AcDbScale
 70
     0
300
1/8" = 1'-0"
140
0.125
141
12.0
290
     0
  0
SCALE
  5
4F
102
{ACAD_REACTORS
330
47
102
}
330
47
100
AcDbScale
 70
     0
300
3/16" = 1'-0"
140
0.1875
141
12.0
290
     0
  0
SCALE
  5
50
102
{ACAD_REACTORS
330
47
102
}
330
47
100
AcDbScale
 70
     0
300
1/4" = 1'-0"
140
0.25
141
12.0
290
     0
  0
SCALE
  5
51
102
{ACAD_REACTORS
330
47
102
}
330
47
100
AcDbScale
 70
     0
300
3/8" = 1'-0"
140
0.375
141
12.0
290
     0
  0
SCALE
  5
52
102
{ACAD_REACTORS
330
47
102
}
330
47
100
AcDbScale
 70
     0
300
1/2" = 1'-0"
140
0.5
141
12.0
290
     0
  0
SCALE
  5
53
102
{ACAD_REACTORS
330
47
102
}
330
47
100
AcDbScale
 70
     0
300
3/4" = 1'-0"
140
0.75
141
12.0
290
     0
  0
SCALE
  5
54
102
{ACAD_REACTORS
330
47
102
}
330
47
100
AcDbScale
 70
     0
300
1" = 1'-0"
140
1.0
141
12.0
290
     0
  0
SCALE
  5
55
102
{ACAD_REACTORS
330
47
102
}
330
47
100
AcDbScale
 70
     0
300
1-1/2" = 1'-0"
140
1.5
141
12.0
290
     0
  0
SCALE
  5
56
102
{ACAD_REACTORS
330
47
102
}
330
47
100
AcDbScale
 70
     0
300
3" = 1'-0"
140
3.0
141
12.0
290
     0
  0
SCALE
  5
57
102
{ACAD_REACTORS
330
47
102
}
330
47
100
AcDbScale
 70
     0
300
6" = 1'-0"
140
6.0
141
12.0
290
     0
  0
SCALE
  5
58
102
{ACAD_REACTORS
330
47
102
}
330
47
100
AcDbScale
 70
     0
300
1'-0" = 1'-0"
140
12.0
141
12.0
290
     0
  0
TABLESTYLE
  5
5A
102
{ACAD_REACTORS
330
59
102
}
102
{ACAD_XDICTIONARY
360
8B
102
}
330
59
100
AcDbTableStyle
  3
Standard
 70
     0
 71
     0
 40
0.06
 41
0.06
280
     0
281
     0
  7
Standard
140
0.18
170
     2
 62
     0
 63
   257
283
     0
 90
        4
 91
        0
  1

274
    -2
284
     1
 64
     0
275
    -2
285
     1
 65
     0
276
    -2
286
     1
 66
     0
277
    -2
287
     1
 67
     0
278
    -2
288
     1
 68
     0
279
    -2
289
     1
 69
     0
  7
Standard
140
0.25
170
     5
 62
     0
 63
   257
283
     0
 90
        4
 91
        0
  1

274
    -2
284
     1
 64
     0
275
    -2
285
     1
 65
     0
276
    -2
286
     1
 66
     0
277
    -2
287
     1
 67
     0
278
    -2
288
     1
 68
     0
279
    -2
289
     1
 69
     0
  7
Standard
140
0.18
170
     5
 62
     0
 63
   257
283
     0
 90
        4
 91
        0
  1

274
    -2
284
     1
 64
     0
275
    -2
285
     1
 65
     0
276
    -2
286
     1
 66
     0
277
    -2
287
     1
 67
     0
278
    -2
288
     1
 68
     0
279
    -2
289
     1
 69
     0
  0
VISUALSTYLE
  5
2F
102
{ACAD_REACTORS
330
2A
102
}
330
2A
100
AcDbVisualStyle
  2
2dWireframe
 70
     4
177
     3
291
     0
 70
    58
 90
        0
176
     1
 90
        2
176
     1
 90
        0
176
     1
 90
        0
176
     1
 40
0.6
176
     1
 40
30.0
176
     1
 62
     7
420
 16777215
176
     1
 90
        1
176
     1
 90
        4
176
     1
 62
     7
176
     1
 62
   257
176
     1
 90
        1
176
     1
 90
        1
176
     1
 40
1.0
176
     1
 90
        0
176
     1
 62
   257
176
     1
 40
1.0
176
     1
 90
        1
176
     1
 90
        6
176
     1
 90
        2
176
     1
 62
     7
176
     1
 90
        5
176
     1
 90
        0
176
     1
 90
        0
176
     1
290
     0
176
     1
 90
        1
176
     1
 40
0.0
176
     1
 90
        0
176
     1
290
     1
176
     1
290
     1
176
     1
290
     0
176
     1
290
     0
176
     1
290
     0
176
     1
290
     0
176
     1
290
     0
176
     1
290
     0
176
     1
290
     0
176
     1
 90
       50
176
     1
 40
0.0
176
     1
 40
1.0
176
     1
 90
        0
176
     1
 62
    18
420
        0
176
     1
 90
       50
176
     1
 90
        3
176
     1
 62
     5
420
      255
176
     1
290
     0
176
     1
 90
       50
176
     1
 90
       50
176
     1
 90
       50
176
     1
290
     0
176
     1
 90
       50
176
     1
 62
   256
176
     0
 40
1.0
176
     0
 90
        2
176
     1
  1
strokes_ogs.tif
176
     1
290
     0
176
     1
 40
1.0
176
     1
 40
1.0
176
     1
  0
VISUALSTYLE
  5
32
102
{ACAD_REACTORS
330
2A
102
}
330
2A
100
AcDbVisualStyle
  2
Basic
 70
     7
177
     3
291
     1
 70
    58
 90
        1
176
     1
 90
        0
176
     1
 90
        1
176
     1
 90
        0
176
     1
 40
0.6
176
     1
 40
30.0
176
     1
 62
     7
420
 16777215
176
     1
 90
        0
176
     1
 90
        4
176
     1
 62
     7
176
     1
 62
   257
176
     1
 90
        1
176
     1
 90
        1
176
     1
 40
1.0
176
     1
 90
        8
176
     1
 62
     7
176
     1
 40
1.0
176
     1
 90
        1
176
     1
 90
        6
176
     1
 90
        2
176
     1
 62
     7
176
     1
 90
        5
176
     1
 90
        0
176
     1
 90
        0
176
     1
290
     0
176
     1
 90
        1
176
     1
 40
0.0
176
     1
 90
        0
176
     1
290
     0
176
     1
290
     1
176
     1
290
     1
176
     1
290
     0
176
     1
290
     0
176
     1
290
     0
176
     1
290
     0
176
     1
290
     0
176
     1
290
     0
176
     1
 90
       50
176
     1
 40
0.0
176
     1
 40
1.0
176
     1
 90
        0
176
     1
 62
    18
420
        0
176
     1
 90
       50
176
     1
 90
        3
176
     1
 62
     5
420
      255
176
     1
290
     0
176
     1
 90
       50
176
     1
 90
       50
176
     1
 90
       50
176
     1
290
     0
176
     1
 90
       50
176
     1
 62
   256
176
     0
 40
1.0
176
     0
 90
        2
176
     1
  1
strokes_ogs.tif
176
     1
290
     0
176
     1
 40
1.0
176
     1
 40
1.0
176
     1
  0
VISUALSTYLE
  5
36
102
{ACAD_REACTORS
330
2A
102
}
330
2A
100
AcDbVisualStyle
  2
Brighten
 70
    12
177
     3
291
     1
 70
    58
 90
        2
176
     1
 90
        2
176
     1
 90
        0
176
     1
 90
        0
176
     1
 40
0.6
176
     1
 40
30.0
176
     1
 62
     7
420
 16777215
176
     1
 90
        1
176
     1
 90
        4
176
     1
 62
     7
176
     1
 62
   257
176
     1
 90
        1
176
     1
 90
        1
176
     1
 40
1.0
176
     1
 90
        8
176
     1
 62
     7
176
     1
 40
1.0
176
     1
 90
        1
176
     1
 90
        6
176
     1
 90
        2
176
     1
 62
     7
176
     1
 90
        5
176
     1
 90
        0
176
     1
 90
        0
176
     1
290
     0
176
     1
 90
        1
176
     1
 40
50.0
176
     1
 90
        0
176
     1
290
     0
176
     1
290
     1
176
     1
290
     1
176
     1
290
     0
176
     1
290
     0
176
     1
290
     0
176
     1
290
     0
176
     1
290
     0
176
     1
290
     0
176
     1
 90
       50
176
     1
 40
0.0
176
     1
 40
1.0
176
     1
 90
        0
176
     1
 62
    18
420
        0
176
     1
 90
       50
176
     1
 90
        3
176
     1
 62
     5
420
      255
176
     1
290
     0
176
     1
 90
       50
176
     1
 90
       50
176
     1
 90
       50
176
     1
290
     0
176
     1
 90
       50
176
     1
 62
   256
176
     0
 40
1.0
176
     0
 90
        2
176
     1
  1
strokes_ogs.tif
176
     1
290
     0
176
     1
 40
1.0
176
     1
 40
1.0
176
     1
  0
VISUALSTYLE
  5
3A
102
{ACAD_REACTORS
330
2A
102
}
330
2A
100
AcDbVisualStyle
  2
ColorChange
 70
    16
177
     3
291
     1
 70
    58
 90
        2
176
     1
 90
        2
176
     1
 90
        3
176
     1
 90
        0
176
     1
 40
0.6
176
     1
 40
30.0
176
     1
 62
     8
420
  8421504
176
     1
 90
        1
176
     1
 90
        4
176
     1
 62
     7
176
     1
 62
   257
176
     1
 90
        1
176
     1
 90
        1
176
     1
 40
1.0
176
     1
 90
        8
176
     1
 62
     8
420
  8421504
176
     1
 40
1.0
176
     1
 90
        1
176
     1
 90
        6
176
     1
 90
        2
176
     1
 62
     7
176
     1
 90
        5
176
     1
 90
        0
176
     1
 90
        0
176
     1
290
     0
176
     1
 90
        1
176
     1
 40
0.0
176
     1
 90
        0
176
     1
290
     0
176
     1
290
     1
176
     1
290
     1
176
     1
290
     0
176
     1
290
     0
176
     1
290
     0
176
     1
290
     0
176
     1
290
     0
176
     1
290
     0
176
     1
 90
       50
176
     1
 40
0.0
176
     1
 40
1.0
176
     1
 90
        0
176
     1
 62
    18
420
        0
176
     1
 90
       50
176
     1
 90
        3
176
     1
 62
     5
420
      255
176
     1
290
     0
176
     1
 90
       50
176
     1
 90
       50
176
     1
 90
       50
176
     1
290
     0
176
     1
 90
       50
176
     1
 62
   256
176
     0
 40
1.0
176
     0
 90
        2
176
     1
  1
strokes_ogs.tif
176
     1
290
     0
176
     1
 40
1.0
176
     1
 40
1.0
176
     1
  0
VISUALSTYLE
  5
34
102
{ACAD_REACTORS
330
2A
102
}
330
2A
100
AcDbVisualStyle
  2
Conceptual
 70
     9
177
     3
291
     0
 70
    58
 90
        3
176
     1
 90
        2
176
     1
 90
        0
176
     1
 90
        0
176
     1
 40
0.6
176
     1
 40
30.0
176
     1
 62
     7
420
 16777215
176
     1
 90
        2
176
     1
 90
        2
176
     1
 62
     7
176
     1
 62
   257
176
     1
 90
        1
176
     1
 90
        1
176
     1
 40
179.0
176
     1
 90
        8
176
     1
 62
     7
176
     1
 40
1.0
176
     1
 90
        1
176
     1
 90
        6
176
     1
 90
        2
176
     1
 62
     7
176
     1
 90
        3
176
     1
 90
        0
176
     1
 90
        0
176
     1
290
     0
176
     1
 90
        1
176
     1
 40
0.0
176
     1
 90
        0
176
     1
290
     0
176
     1
290
     1
176
     1
290
     1
176
     1
290
     0
176
     1
290
     0
176
     1
290
     0
176
     1
290
     0
176
     1
290
     0
176
     1
290
     0
176
     1
 90
       50
176
     1
 40
0.0
176
     1
 40
1.0
176
     1
 90
        0
176
     1
 62
    18
420
        0
176
     1
 90
       50
176
     1
 90
        3
176
     1
 62
     5
420
      255
176
     1
290
     0
176
     1
 90
       50
176
     1
 90
       50
176
     1
 90
       50
176
     1
290
     0
176
     1
 90
       50
176
     1
 62
   256
176
     0
 40
1.0
176
     0
 90
        2
176
     1
  1
strokes_ogs.tif
176
     1
290
     0
176
     1
 40
1.0
176
     1
 40
1.0
176
     1
  0
VISUALSTYLE
  5
35
102
{ACAD_REACTORS
330
2A
102
}
330
2A
100
AcDbVisualStyle
  2
Dim
 70
    11
177
     3
291
     1
 70
    58
 90
        2
176
     1
 90
        2
176
     1
 90
        0
176
     1
 90
        0
176
     1
 40
0.6
176
     1
 40
30.0
176
     1
 62
     7
420
 16777215
176
     1
 90
        1
176
     1
 90
        4
176
     1
 62
     7
176
     1
 62
   257
176
     1
 90
        1
176
     1
 90
        1
176
     1
 40
1.0
176
     1
 90
        8
176
     1
 62
     7
176
     1
 40
1.0
176
     1
 90
        1
176
     1
 90
        6
176
     1
 90
        2
176
     1
 62
     7
176
     1
 90
        5
176
     1
 90
        0
176
     1
 90
        0
176
     1
290
     0
176
     1
 90
        1
176
     1
 40
-50.0
176
     1
 90
        0
176
     1
290
     0
176
     1
290
     1
176
     1
290
     1
176
     1
290
     0
176
     1
290
     0
176
     1
290
     0
176
     1
290
     0
176
     1
290
     0
176
     1
290
     0
176
     1
 90
       50
176
     1
 40
0.0
176
     1
 40
1.0
176
     1
 90
        0
176
     1
 62
    18
420
        0
176
     1
 90
       50
176
     1
 90
        3
176
     1
 62
     5
420
      255
176
     1
290
     0
176
     1
 90
       50
176
     1
 90
       50
176
     1
 90
       50
176
     1
290
     0
176
     1
 90
       50
176
     1
 62
   256
176
     0
 40
1.0
176
     0
 90
        2
176
     1
  1
strokes_ogs.tif
176
     1
290
     0
176
     1
 40
1.0
176
     1
 40
1.0
176
     1
  0
VISUALSTYLE
  5
3D
102
{ACAD_REACTORS
330
2A
102
}
330
2A
100
AcDbVisualStyle
  2
EdgeColorOff
 70
    22
177
     3
291
     1
 70
    58
 90
        2
176
     0
 90
        2
176
     0
 90
        0
176
     0
 90
        0
176
     0
 40
0.6
176
     0
 40
30.0
176
     0
 62
     7
420
 16777215
176
     0
 90
        1
176
     0
 90
        4
176
     0
 62
     7
176
     0
 62
   257
176
     0
 90
        1
176
     0
 90
        1
176
     0
 40
1.0
176
     0
 90
        8
176
     2
 62
     7
176
     0
 40
1.0
176
     0
 90
        1
176
     0
 90
        6
176
     0
 90
        2
176
     0
 62
     7
176
     0
 90
        5
176
     0
 90
        0
176
     0
 90
        0
176
     0
290
     0
176
     0
 90
        1
176
     0
 40
0.0
176
     0
 90
        0
176
     0
290
     0
176
     0
290
     1
176
     0
290
     1
176
     0
290
     0
176
     0
290
     0
176
     0
290
     0
176
     0
290
     0
176
     0
290
     0
176
     0
290
     0
176
     0
 90
       50
176
     0
 40
0.0
176
     0
 40
1.0
176
     0
 90
        0
176
     0
 62
    18
420
        0
176
     0
 90
       50
176
     0
 90
        3
176
     0
 62
     5
420
      255
176
     0
290
     0
176
     0
 90
       50
176
     0
 90
       50
176
     0
 90
       50
176
     0
290
     0
176
     0
 90
       50
176
     0
 62
   256
176
     0
 40
1.0
176
     0
 90
        2
176
     0
  1
strokes_ogs.tif
176
     0
290
     0
176
     0
 40
1.0
176
     0
 40
1.0
176
     0
  0
VISUALSTYLE
  5
39
102
{ACAD_REACTORS
330
2A
102
}
330
2A
100
AcDbVisualStyle
  2
Facepattern
 70
    15
177
     3
291
     1
 70
    58
 90
        2
176
     1
 90
        2
176
     1
 90
        0
176
     1
 90
        0
176
     1
 40
0.6
176
     1
 40
30.0
176
     1
 62
     7
420
 16777215
176
     1
 90
        1
176
     1
 90
        4
176
     1
 62
     7
176
     1
 62
   257
176
     1
 90
        1
176
     1
 90
        1
176
     1
 40
1.0
176
     1
 90
        8
176
     1
 62
     7
176
     1
 40
1.0
176
     1
 90
        1
176
     1
 90
        6
176
     1
 90
        2
176
     1
 62
     7
176
     1
 90
        5
176
     1
 90
        0
176
     1
 90
        0
176
     1
290
     0
176
     1
 90
        1
176
     1
 40
0.0
176
     1
 90
        0
176
     1
290
     0
176
     1
290
     1
176
     1
290
     1
176
     1
290
     0
176
     1
290
     0
176
     1
290
     0
176
     1
290
     0
176
     1
290
     0
176
     1
290
     0
176
     1
 90
       50
176
     1
 40
0.0
176
     1
 40
1.0
176
     1
 90
        0
176
     1
 62
    18
420
        0
176
     1
 90
       50
176
     1
 90
        3
176
     1
 62
     5
420
      255
176
     1
290
     0
176
     1
 90
       50
176
     1
 90
       50
176
     1
 90
       50
176
     1
290
     0
176
     1
 90
       50
176
     1
 62
   256
176
     0
 40
1.0
176
     0
 90
        2
176
     1
  1
strokes_ogs.tif
176
     1
290
     0
176
     1
 40
1.0
176
     1
 40
1.0
176
     1
  0
VISUALSTYLE
  5
2B
102
{ACAD_REACTORS
330
2A
102
}
330
2A
100
AcDbVisualStyle
  2
Flat
 70
     0
177
     3
291
     1
 70
    58
 90
        2
176
     1
 90
        1
176
     1
 90
        1
176
     1
 90
        2
176
     1
 40
0.6
176
     1
 40
30.0
176
     1
 62
     7
420
 16777215
176
     1
 90
        0
176
     1
 90
        0
176
     1
 62
     7
176
     1
 62
   257
176
     1
 90
        1
176
     1
 90
        1
176
     1
 40
1.0
176
     1
 90
        8
176
     1
 62
     7
176
     1
 40
1.0
176
     1
 90
        1
176
     1
 90
        6
176
     1
 90
        2
176
     1
 62
     7
176
     1
 90
        5
176
     1
 90
        0
176
     1
 90
        0
176
     1
290
     0
176
     1
 90
       13
176
     1
 40
0.0
176
     1
 90
        0
176
     1
290
     0
176
     1
290
     1
176
     1
290
     1
176
     1
290
     0
176
     1
290
     0
176
     1
290
     0
176
     1
290
     0
176
     1
290
     0
176
     1
290
     0
176
     1
 90
       50
176
     1
 40
0.0
176
     1
 40
1.0
176
     1
 90
        0
176
     1
 62
    18
420
        0
176
     1
 90
       50
176
     1
 90
        3
176
     1
 62
     5
420
      255
176
     1
290
     0
176
     1
 90
       50
176
     1
 90
       50
176
     1
 90
       50
176
     1
290
     0
176
     1
 90
       50
176
     1
 62
   256
176
     0
 40
1.0
176
     0
 90
        2
176
     1
  1
strokes_ogs.tif
176
     1
290
     0
176
     1
 40
1.0
176
     1
 40
1.0
176
     1
  0
VISUALSTYLE
  5
2C
102
{ACAD_REACTORS
330
2A
102
}
330
2A
100
AcDbVisualStyle
  2
FlatWithEdges
 70
     1
177
     3
291
     1
 70
    58
 90
        2
176
     1
 90
        1
176
     1
 90
        1
176
     1
 90
        2
176
     1
 40
0.6
176
     1
 40
30.0
176
     1
 62
     7
420
 16777215
176
     1
 90
        1
176
     1
 90
        0
176
     1
 62
     7
176
     1
 62
   257
176
     1
 90
        1
176
     1
 90
        1
176
     1
 40
1.0
176
     1
 90
        0
176
     1
 62
   257
176
     1
 40
1.0
176
     1
 90
        1
176
     1
 90
        6
176
     1
 90
        2
176
     1
 62
     7
176
     1
 90
        5
176
     1
 90
        0
176
     1
 90
        0
176
     1
290
     0
176
     1
 90
       13
176
     1
 40
0.0
176
     1
 90
        0
176
     1
290
     0
176
     1
290
     1
176
     1
290
     1
176
     1
290
     0
176
     1
290
     0
176
     1
290
     0
176
     1
290
     0
176
     1
290
     0
176
     1
290
     0
176
     1
 90
       50
176
     1
 40
0.0
176
     1
 40
1.0
176
     1
 90
        0
176
     1
 62
    18
420
        0
176
     1
 90
       50
176
     1
 90
        3
176
     1
 62
     5
420
      255
176
     1
290
     0
176
     1
 90
       50
176
     1
 90
       50
176
     1
 90
       50
176
     1
290
     0
176
     1
 90
       50
176
     1
 62
   256
176
     0
 40
1.0
176
     0
 90
        2
176
     1
  1
strokes_ogs.tif
176
     1
290
     0
176
     1
 40
1.0
176
     1
 40
1.0
176
     1
  0
VISUALSTYLE
  5
2D
102
{ACAD_REACTORS
330
2A
102
}
330
2A
100
AcDbVisualStyle
  2
Gouraud
 70
     2
177
     3
291
     1
 70
    58
 90
        2
176
     1
 90
        2
176
     1
 90
        1
176
     1
 90
        2
176
     1
 40
0.6
176
     1
 40
30.0
176
     1
 62
     7
420
 16777215
176
     1
 90
        0
176
     1
 90
        0
176
     1
 62
     7
176
     1
 62
   257
176
     1
 90
        1
176
     1
 90
        1
176
     1
 40
1.0
176
     1
 90
        0
176
     1
 62
     7
176
     1
 40
1.0
176
     1
 90
        1
176
     1
 90
        6
176
     1
 90
        2
176
     1
 62
     7
176
     1
 90
        5
176
     1
 90
        0
176
     1
 90
        0
176
     1
290
     0
176
     1
 90
       13
176
     1
 40
0.0
176
     1
 90
        0
176
     1
290
     0
176
     1
290
     1
176
     1
290
     1
176
     1
290
     0
176
     1
290
     0
176
     1
290
     0
176
     1
290
     0
176
     1
290
     0
176
     1
290
     0
176
     1
 90
       50
176
     1
 40
0.0
176
     1
 40
1.0
176
     1
 90
        0
176
     1
 62
    18
420
        0
176
     1
 90
       50
176
     1
 90
        3
176
     1
 62
     5
420
      255
176
     1
290
     0
176
     1
 90
       50
176
     1
 90
       50
176
     1
 90
       50
176
     1
290
     0
176
     1
 90
       50
176
     1
 62
   256
176
     0
 40
1.0
176
     0
 90
        2
176
     1
  1
strokes_ogs.tif
176
     1
290
     0
176
     1
 40
1.0
176
     1
 40
1.0
176
     1
  0
VISUALSTYLE
  5
2E
102
{ACAD_REACTORS
330
2A
102
}
330
2A
100
AcDbVisualStyle
  2
GouraudWithEdges
 70
     3
177
     3
291
     1
 70
    58
 90
        2
176
     1
 90
        2
176
     1
 90
        1
176
     1
 90
        2
176
     1
 40
0.6
176
     1
 40
30.0
176
     1
 62
     7
420
 16777215
176
     1
 90
        1
176
     1
 90
        0
176
     1
 62
     7
176
     1
 62
   257
176
     1
 90
        1
176
     1
 90
        1
176
     1
 40
1.0
176
     1
 90
        0
176
     1
 62
   257
176
     1
 40
1.0
176
     1
 90
        1
176
     1
 90
        6
176
     1
 90
        2
176
     1
 62
     7
176
     1
 90
        5
176
     1
 90
        0
176
     1
 90
        0
176
     1
290
     0
176
     1
 90
       13
176
     1
 40
0.0
176
     1
 90
        0
176
     1
290
     0
176
     1
290
     1
176
     1
290
     1
176
     1
290
     0
176
     1
290
     0
176
     1
290
     0
176
     1
290
     0
176
     1
290
     0
176
     1
290
     0
176
     1
 90
       50
176
     1
 40
0.0
176
     1
 40
1.0
176
     1
 90
        0
176
     1
 62
    18
420
        0
176
     1
 90
       50
176
     1
 90
        3
176
     1
 62
     5
420
      255
176
     1
290
     0
176
     1
 90
       50
176
     1
 90
       50
176
     1
 90
       50
176
     1
290
     0
176
     1
 90
       50
176
     1
 62
   256
176
     0
 40
1.0
176
     0
 90
        2
176
     1
  1
strokes_ogs.tif
176
     1
290
     0
176
     1
 40
1.0
176
     1
 40
1.0
176
     1
  0
VISUALSTYLE
  5
31
102
{ACAD_REACTORS
330
2A
102
}
330
2A
100
AcDbVisualStyle
  2
Hidden
 70
     6
177
     3
291
     0
 70
    58
 90
        1
176
     1
 90
        2
176
     1
 90
        2
176
     1
 90
        0
176
     1
 40
0.6
176
     1
 40
30.0
176
     1
 62
     7
420
 16777215
176
     1
 90
        2
176
     1
 90
        2
176
     1
 62
     7
176
     1
 62
   257
176
     1
 90
        2
176
     1
 90
        1
176
     1
 40
40.0
176
     1
 90
        0
176
     1
 62
   257
176
     1
 40
1.0
176
     1
 90
        1
176
     1
 90
        6
176
     1
 90
        2
176
     1
 62
     7
176
     1
 90
        3
176
     1
 90
        0
176
     1
 90
        0
176
     1
290
     0
176
     1
 90
        1
176
     1
 40
0.0
176
     1
 90
        0
176
     1
290
     0
176
     1
290
     1
176
     1
290
     1
176
     1
290
     0
176
     1
290
     0
176
     1
290
     0
176
     1
290
     0
176
     1
290
     0
176
     1
290
     0
176
     1
 90
       50
176
     1
 40
0.0
176
     1
 40
1.0
176
     1
 90
        0
176
     1
 62
    18
420
        0
176
     1
 90
       50
176
     1
 90
        3
176
     1
 62
     5
420
      255
176
     1
290
     0
176
     1
 90
       50
176
     1
 90
       50
176
     1
 90
       50
176
     1
290
     0
176
     1
 90
       50
176
     1
 62
   256
176
     0
 40
1.0
176
     0
 90
        2
176
     1
  1
strokes_ogs.tif
176
     1
290
     0
176
     1
 40
1.0
176
     1
 40
1.0
176
     1
  0
VISUALSTYLE
  5
3B
102
{ACAD_REACTORS
330
2A
102
}
330
2A
100
AcDbVisualStyle
  2
JitterOff
 70
    20
177
     3
291
     1
 70
    58
 90
        2
176
     0
 90
        2
176
     0
 90
        0
176
     0
 90
        0
176
     0
 40
0.6
176
     0
 40
30.0
176
     0
 62
     7
420
 16777215
176
     0
 90
        1
176
     0
 90
        4
176
     0
 62
     7
176
     0
 62
   257
176
     0
 90
        1
176
     0
 90
        1
176
     0
 40
1.0
176
     0
 90
       10
176
     2
 62
     7
176
     0
 40
1.0
176
     0
 90
        1
176
     0
 90
        6
176
     0
 90
        2
176
     0
 62
     7
176
     0
 90
        5
176
     0
 90
        0
176
     0
 90
        0
176
     0
290
     0
176
     0
 90
        1
176
     0
 40
0.0
176
     0
 90
        0
176
     0
290
     0
176
     0
290
     1
176
     0
290
     1
176
     0
290
     0
176
     0
290
     0
176
     0
290
     0
176
     0
290
     0
176
     0
290
     0
176
     0
290
     0
176
     0
 90
       50
176
     0
 40
0.0
176
     0
 40
1.0
176
     0
 90
        0
176
     0
 62
    18
420
        0
176
     0
 90
       50
176
     0
 90
        3
176
     0
 62
     5
420
      255
176
     0
290
     0
176
     0
 90
       50
176
     0
 90
       50
176
     0
 90
       50
176
     0
290
     0
176
     0
 90
       50
176
     0
 62
   256
176
     0
 40
1.0
176
     0
 90
        2
176
     0
  1
strokes_ogs.tif
176
     0
290
     0
176
     0
 40
1.0
176
     0
 40
1.0
176
     0
  0
VISUALSTYLE
  5
38
102
{ACAD_REACTORS
330
2A
102
}
330
2A
100
AcDbVisualStyle
  2
Linepattern
 70
    14
177
     3
291
     1
 70
    58
 90
        2
176
     1
 90
        2
176
     1
 90
        0
176
     1
 90
        0
176
     1
 40
0.6
176
     1
 40
30.0
176
     1
 62
     7
420
 16777215
176
     1
 90
        1
176
     1
 90
        4
176
     1
 62
     7
176
     1
 62
   257
176
     1
 90
        7
176
     1
 90
        7
176
     1
 40
1.0
176
     1
 90
        8
176
     1
 62
     7
176
     1
 40
1.0
176
     1
 90
        1
176
     1
 90
        6
176
     1
 90
        2
176
     1
 62
     7
176
     1
 90
        5
176
     1
 90
        0
176
     1
 90
        0
176
     1
290
     0
176
     1
 90
        1
176
     1
 40
0.0
176
     1
 90
        0
176
     1
290
     0
176
     1
290
     1
176
     1
290
     1
176
     1
290
     0
176
     1
290
     0
176
     1
290
     0
176
     1
290
     0
176
     1
290
     0
176
     1
290
     0
176
     1
 90
       50
176
     1
 40
0.0
176
     1
 40
1.0
176
     1
 90
        0
176
     1
 62
    18
420
        0
176
     1
 90
       50
176
     1
 90
        3
176
     1
 62
     5
420
      255
176
     1
290
     0
176
     1
 90
       50
176
     1
 90
       50
176
     1
 90
       50
176
     1
290
     0
176
     1
 90
       50
176
     1
 62
   256
176
     0
 40
1.0
176
     0
 90
        2
176
     1
  1
strokes_ogs.tif
176
     1
290
     0
176
     1
 40
1.0
176
     1
 40
1.0
176
     1
  0
VISUALSTYLE
  5
3C
102
{ACAD_REACTORS
330
2A
102
}
330
2A
100
AcDbVisualStyle
  2
OverhangOff
 70
    21
177
     3
291
     1
 70
    58
 90
        2
176
     0
 90
        2
176
     0
 90
        0
176
     0
 90
        0
176
     0
 40
0.6
176
     0
 40
30.0
176
     0
 62
     7
420
 16777215
176
     0
 90
        1
176
     0
 90
        4
176
     0
 62
     7
176
     0
 62
   257
176
     0
 90
        1
176
     0
 90
        1
176
     0
 40
1.0
176
     0
 90
        9
176
     2
 62
     7
176
     0
 40
1.0
176
     0
 90
        1
176
     0
 90
        6
176
     0
 90
        2
176
     0
 62
     7
176
     0
 90
        5
176
     0
 90
        0
176
     0
 90
        0
176
     0
290
     0
176
     0
 90
        1
176
     0
 40
0.0
176
     0
 90
        0
176
     0
290
     0
176
     0
290
     1
176
     0
290
     1
176
     0
290
     0
176
     0
290
     0
176
     0
290
     0
176
     0
290
     0
176
     0
290
     0
176
     0
290
     0
176
     0
 90
       50
176
     0
 40
0.0
176
     0
 40
1.0
176
     0
 90
        0
176
     0
 62
    18
420
        0
176
     0
 90
       50
176
     0
 90
        3
176
     0
 62
     5
420
      255
176
     0
290
     0
176
     0
 90
       50
176
     0
 90
       50
176
     0
 90
       50
176
     0
290
     0
176
     0
 90
       50
176
     0
 62
   256
176
     0
 40
1.0
176
     0
 90
        2
176
     0
  1
strokes_ogs.tif
176
     0
290
     0
176
     0
 40
1.0
176
     0
 40
1.0
176
     0
  0
VISUALSTYLE
  5
33
102
{ACAD_REACTORS
330
2A
102
}
330
2A
100
AcDbVisualStyle
  2
Realistic
 70
     8
177
     3
291
     0
 70
    58
 90
        2
176
     1
 90
        3
176
     1
 90
        0
176
     1
 90
        2
176
     1
 40
0.6
176
     1
 40
30.0
176
     1
 62
     7
420
 16777215
176
     1
 90
        0
176
     1
 90
        0
176
     1
 62
     7
176
     1
 62
   257
176
     1
 90
        1
176
     1
 90
        1
176
     1
 40
1.0
176
     1
 90
        8
176
     1
 62
   257
176
     1
 40
1.0
176
     1
 90
        1
176
     1
 90
        6
176
     1
 90
        2
176
     1
 62
     7
176
     1
 90
        3
176
     1
 90
        0
176
     1
 90
        0
176
     1
290
     0
176
     1
 90
       13
176
     1
 40
0.0
176
     1
 90
        0
176
     1
290
     0
176
     1
290
     1
176
     1
290
     1
176
     1
290
     0
176
     1
290
     0
176
     1
290
     0
176
     1
290
     0
176
     1
290
     0
176
     1
290
     0
176
     1
 90
       50
176
     1
 40
0.0
176
     1
 40
1.0
176
     1
 90
        0
176
     1
 62
    18
420
        0
176
     1
 90
       50
176
     1
 90
        3
176
     1
 62
     5
420
      255
176
     1
290
     0
176
     1
 90
       50
176
     1
 90
       50
176
     1
 90
       50
176
     1
290
     0
176
     1
 90
       50
176
     1
 62
   256
176
     0
 40
1.0
176
     0
 90
        2
176
     1
  1
strokes_ogs.tif
176
     1
290
     0
176
     1
 40
1.0
176
     1
 40
1.0
176
     1
  0
VISUALSTYLE
  5
42
102
{ACAD_REACTORS
330
2A
102
}
330
2A
100
AcDbVisualStyle
  2
Shaded
 70
    27
177
     3
291
     0
 70
    58
 90
        2
176
     1
 90
        2
176
     1
 90
        1
176
     1
 90
        2
176
     1
 40
0.6
176
     1
 40
30.0
176
     1
 62
     7
420
 16777215
176
     1
 90
        0
176
     1
 90
        4
176
     1
 62
     7
176
     1
 62
   257
176
     1
 90
        1
176
     1
 90
        1
176
     1
 40
1.0
176
     1
 90
        8
176
     1
 62
   257
176
     1
 40
1.0
176
     1
 90
        1
176
     1
 90
        6
176
     1
 90
        2
176
     1
 62
     8
420
  7895160
176
     1
 90
        3
176
     1
 90
        0
176
     1
 90
        0
176
     1
290
     0
176
     1
 90
        5
176
     1
 40
0.0
176
     1
 90
        0
176
     1
290
     0
176
     1
290
     1
176
     1
290
     1
176
     1
290
     0
176
     1
290
     0
176
     1
290
     0
176
     1
290
     0
176
     1
290
     0
176
     1
290
     0
176
     1
 90
       50
176
     1
 40
0.0
176
     1
 40
1.0
176
     1
 90
        0
176
     1
 62
    18
420
        0
176
     1
 90
       50
176
     1
 90
        3
176
     1
 62
     5
420
      255
176
     1
290
     0
176
     1
 90
       50
176
     1
 90
       50
176
     1
 90
       50
176
     1
290
     0
176
     1
 90
       50
176
     1
 62
   256
176
     0
 40
1.0
176
     0
 90
        2
176
     1
  1
strokes_ogs.tif
176
     1
290
     0
176
     1
 40
1.0
176
     1
 40
1.0
176
     1
  0
VISUALSTYLE
  5
41
102
{ACAD_REACTORS
330
2A
102
}
330
2A
100
AcDbVisualStyle
  2
Shaded with edges
 70
    26
177
     3
291
     0
 70
    58
 90
        2
176
     1
 90
        2
176
     1
 90
        1
176
     1
 90
        2
176
     1
 40
0.6
176
     1
 40
30.0
176
     1
 62
     7
420
 16777215
176
     1
 90
        1
176
     1
 90
       10
176
     1
 62
     7
176
     1
 62
   257
176
     1
 90
        2
176
     1
 90
        1
176
     1
 40
1.0
176
     1
 90
        8
176
     1
 62
   257
176
     1
 40
1.0
176
     1
 90
        1
176
     1
 90
        6
176
     1
 90
        2
176
     1
 62
     7
176
     1
 90
        3
176
     1
 90
        0
176
     1
 90
        0
176
     1
290
     0
176
     1
 90
        5
176
     1
 40
0.0
176
     1
 90
        0
176
     1
290
     0
176
     1
290
     1
176
     1
290
     1
176
     1
290
     0
176
     1
290
     0
176
     1
290
     0
176
     1
290
     0
176
     1
290
     0
176
     1
290
     0
176
     1
 90
       50
176
     1
 40
0.0
176
     1
 40
1.0
176
     1
 90
        0
176
     1
 62
    18
420
        0
176
     1
 90
       50
176
     1
 90
        3
176
     1
 62
     5
420
      255
176
     1
290
     0
176
     1
 90
       50
176
     1
 90
       50
176
     1
 90
       50
176
     1
290
     0
176
     1
 90
       50
176
     1
 62
   256
176
     0
 40
1.0
176
     0
 90
        2
176
     1
  1
strokes_ogs.tif
176
     1
290
     0
176
     1
 40
1.0
176
     1
 40
1.0
176
     1
  0
VISUALSTYLE
  5
3E
102
{ACAD_REACTORS
330
2A
102
}
330
2A
100
AcDbVisualStyle
  2
Shades of Gray
 70
    23
177
     3
291
     0
 70
    58
 90
        2
176
     1
 90
        2
176
     1
 90
        3
176
     1
 90
        0
176
     1
 40
0.6
176
     1
 40
30.0
176
     1
 62
     7
420
 16777215
176
     1
 90
        2
176
     1
 90
        2
176
     1
 62
     7
176
     1
 62
     7
176
     1
 90
        1
176
     1
 90
        1
176
     1
 40
40.0
176
     1
 90
        8
176
     1
 62
     7
176
     1
 40
1.0
176
     1
 90
        1
176
     1
 90
        6
176
     1
 90
        2
176
     1
 62
     7
176
     1
 90
        3
176
     1
 90
        0
176
     1
 90
        0
176
     1
290
     0
176
     1
 90
        1
176
     1
 40
0.0
176
     1
 90
        0
176
     1
290
     0
176
     1
290
     1
176
     1
290
     1
176
     1
290
     0
176
     1
290
     0
176
     1
290
     0
176
     1
290
     0
176
     1
290
     0
176
     1
290
     0
176
     1
 90
       50
176
     1
 40
0.0
176
     1
 40
1.0
176
     1
 90
        0
176
     1
 62
    18
420
        0
176
     1
 90
       50
176
     1
 90
        3
176
     1
 62
     5
420
      255
176
     1
290
     0
176
     1
 90
       50
176
     1
 90
       50
176
     1
 90
       50
176
     1
290
     0
176
     1
 90
       50
176
     1
 62
   256
176
     0
 40
1.0
176
     0
 90
        2
176
     1
  1
strokes_ogs.tif
176
     1
290
     0
176
     1
 40
1.0
176
     1
 40
1.0
176
     1
  0
VISUALSTYLE
  5
3F
102
{ACAD_REACTORS
330
2A
102
}
330
2A
100
AcDbVisualStyle
  2
Sketchy
 70
    24
177
     3
291
     0
 70
    58
 90
        1
176
     1
 90
        2
176
     1
 90
        2
176
     1
 90
        0
176
     1
 40
0.6
176
     1
 40
30.0
176
     1
 62
     7
420
 16777215
176
     1
 90
        2
176
     1
 90
        2
176
     1
 62
     7
176
     1
 62
     7
176
     1
 90
        1
176
     1
 90
        1
176
     1
 40
40.0
176
     1
 90
       11
176
     1
 62
     7
176
     1
 40
1.0
176
     1
 90
        1
176
     1
 90
        6
176
     1
 90
        2
176
     1
 62
     7
176
     1
 90
        6
176
     1
 90
        0
176
     1
 90
        0
176
     1
290
     0
176
     1
 90
        1
176
     1
 40
0.0
176
     1
 90
        0
176
     1
290
     0
176
     1
290
     1
176
     1
290
     1
176
     1
290
     0
176
     1
290
     0
176
     1
290
     0
176
     1
290
     0
176
     1
290
     0
176
     1
290
     0
176
     1
 90
       50
176
     1
 40
0.0
176
     1
 40
1.0
176
     1
 90
        0
176
     1
 62
    18
420
        0
176
     1
 90
       50
176
     1
 90
        3
176
     1
 62
     5
420
      255
176
     1
290
     0
176
     1
 90
       50
176
     1
 90
       50
176
     1
 90
       50
176
     1
290
     0
176
     1
 90
       50
176
     1
 62
   256
176
     0
 40
1.0
176
     0
 90
        2
176
     1
  1
strokes_ogs.tif
176
     1
290
     0
176
     1
 40
1.0
176
     1
 40
1.0
176
     1
  0
VISUALSTYLE
  5
37
102
{ACAD_REACTORS
330
2A
102
}
330
2A
100
AcDbVisualStyle
  2
Thicken
 70
    13
177
     3
291
     1
 70
    58
 90
        2
176
     1
 90
        2
176
     1
 90
        0
176
     1
 90
        0
176
     1
 40
0.6
176
     1
 40
30.0
176
     1
 62
     7
420
 16777215
176
     1
 90
        1
176
     1
 90
        4
176
     1
 62
     7
176
     1
 62
   257
176
     1
 90
        1
176
     1
 90
        1
176
     1
 40
1.0
176
     1
 90
       12
176
     1
 62
     7
176
     1
 40
1.0
176
     1
 90
        1
176
     1
 90
        6
176
     1
 90
        2
176
     1
 62
     7
176
     1
 90
        5
176
     1
 90
        0
176
     1
 90
        0
176
     1
290
     0
176
     1
 90
        1
176
     1
 40
0.0
176
     1
 90
        0
176
     1
290
     0
176
     1
290
     1
176
     1
290
     1
176
     1
290
     0
176
     1
290
     0
176
     1
290
     0
176
     1
290
     0
176
     1
290
     0
176
     1
290
     0
176
     1
 90
       50
176
     1
 40
0.0
176
     1
 40
1.0
176
     1
 90
        0
176
     1
 62
    18
420
        0
176
     1
 90
       50
176
     1
 90
        3
176
     1
 62
     5
420
      255
176
     1
290
     0
176
     1
 90
       50
176
     1
 90
       50
176
     1
 90
       50
176
     1
290
     0
176
     1
 90
       50
176
     1
 62
   256
176
     0
 40
1.0
176
     0
 90
        2
176
     1
  1
strokes_ogs.tif
176
     1
290
     0
176
     1
 40
1.0
176
     1
 40
1.0
176
     1
  0
VISUALSTYLE
  5
30
102
{ACAD_REACTORS
330
2A
102
}
330
2A
100
AcDbVisualStyle
  2
Wireframe
 70
     5
177
     3
291
     0
 70
    58
 90
        0
176
     1
 90
        2
176
     1
 90
        0
176
     1
 90
        0
176
     1
 40
0.6
176
     1
 40
30.0
176
     1
 62
     7
420
 16777215
176
     1
 90
        1
176
     1
 90
        4
176
     1
 62
     7
176
     1
 62
   257
176
     1
 90
        1
176
     1
 90
        1
176
     1
 40
1.0
176
     1
 90
        0
176
     1
 62
   257
176
     1
 40
1.0
176
     1
 90
        1
176
     1
 90
        6
176
     1
 90
        2
176
     1
 62
     7
176
     1
 90
        3
176
     1
 90
        0
176
     1
 90
        0
176
     1
290
     0
176
     1
 90
        1
176
     1
 40
0.0
176
     1
 90
        0
176
     1
290
     0
176
     1
290
     1
176
     1
290
     1
176
     1
290
     0
176
     1
290
     0
176
     1
290
     0
176
     1
290
     0
176
     1
290
     0
176
     1
290
     0
176
     1
 90
       50
176
     1
 40
0.0
176
     1
 40
1.0
176
     1
 90
        0
176
     1
 62
    18
420
        0
176
     1
 90
       50
176
     1
 90
        3
176
     1
 62
     5
420
      255
176
     1
290
     0
176
     1
 90
       50
176
     1
 90
       50
176
     1
 90
       50
176
     1
290
     0
176
     1
 90
       50
176
     1
 62
   256
176
     0
 40
1.0
176
     0
 90
        2
176
     1
  1
strokes_ogs.tif
176
     1
290
     0
176
     1
 40
1.0
176
     1
 40
1.0
176
     1
  0
VISUALSTYLE
  5
40
102
{ACAD_REACTORS
330
2A
102
}
330
2A
100
AcDbVisualStyle
  2
X-Ray
 70
    25
177
     3
291
     0
 70
    58
 90
        2
176
     1
 90
        2
176
     1
 90
        1
176
     1
 90
        1
176
     1
 40
0.5
176
     1
 40
30.0
176
     1
 62
     7
420
 16777215
176
     1
 90
        1
176
     1
 90
        0
176
     1
 62
     7
176
     1
 62
   257
176
     1
 90
        1
176
     1
 90
        1
176
     1
 40
1.0
176
     1
 90
        8
176
     1
 62
     7
176
     1
 40
1.0
176
     1
 90
        1
176
     1
 90
        6
176
     1
 90
        2
176
     1
 62
     7
176
     1
 90
        3
176
     1
 90
        0
176
     1
 90
        0
176
     1
290
     0
176
     1
 90
       13
176
     1
 40
0.0
176
     1
 90
        0
176
     1
290
     0
176
     1
290
     1
176
     1
290
     1
176
     1
290
     0
176
     1
290
     0
176
     1
290
     0
176
     1
290
     0
176
     1
290
     0
176
     1
290
     0
176
     1
 90
       50
176
     1
 40
0.0
176
     1
 40
1.0
176
     1
 90
        0
176
     1
 62
    18
420
        0
176
     1
 90
       50
176
     1
 90
        3
176
     1
 62
     5
420
      255
176
     1
290
     0
176
     1
 90
       50
176
     1
 90
       50
176
     1
 90
       50
176
     1
290
     0
176
     1
 90
       50
176
     1
 62
   256
176
     0
 40
1.0
176
     0
 90
        2
176
     1
  1
strokes_ogs.tif
176
     1
290
     0
176
     1
 40
1.0
176
     1
 40
1.0
176
     1
  0
DICTIONARYVAR
  5
8A
102
{ACAD_REACTORS
330
89
102
}
330
89
100
DictionaryVariables
280
     0
  1
1:1
  0
DICTIONARYVAR
  5
8F
102
{ACAD_REACTORS
330
89
102
}
330
89
100
DictionaryVariables
280
     0
  1
Standard
  0
DICTIONARYVAR
  5
8E
102
{ACAD_REACTORS
330
89
102
}
330
89
100
DictionaryVariables
280
     0
  1
Standard
  0
DICTIONARY
  5
8B
330
5A
100
AcDbDictionary
280
     1
281
     1
  3
ACAD_ROUNDTRIP_2008_TABLESTYLE_CELLSTYLEMAP
360
8C
  0
CELLSTYLEMAP
  5
8C
102
{ACAD_REACTORS
330
8B
102
}
330
8B
100
AcDbCellStyleMap
 90
        3
300
CELLSTYLE
  1
TABLEFORMAT_BEGIN
 90
        5
170
     1
 91
        0
 92
    32768
 62
   257
 93
        1
300
CONTENTFORMAT
  1
CONTENTFORMAT_BEGIN
 90
        0
 91
        0
 92
        4
 93
        0
300

 40
0.0
140
1.0
 94
        5
 62
     0
340
11
144
0.25
309
CONTENTFORMAT_END
171
     1
301
MARGIN
  1
CELLMARGIN_BEGIN
 40
0.06
 40
0.06
 40
0.06
 40
0.06
 40
0.06
 40
0.06
309
CELLMARGIN_END
 94
        6
 95
        1
302
GRIDFORMAT
  1
GRIDFORMAT_BEGIN
 90
        0
 91
        1
 62
     0
 92
       -2
340
14
 93
        0
 40
0.045
309
GRIDFORMAT_END
 95
        2
302
GRIDFORMAT
  1
GRIDFORMAT_BEGIN
 90
        0
 91
        1
 62
     0
 92
       -2
340
14
 93
        0
 40
0.045
309
GRIDFORMAT_END
 95
        4
302
GRIDFORMAT
  1
GRIDFORMAT_BEGIN
 90
        0
 91
        1
 62
     0
 92
       -2
340
14
 93
        0
 40
0.045
309
GRIDFORMAT_END
 95
        8
302
GRIDFORMAT
  1
GRIDFORMAT_BEGIN
 90
        0
 91
        1
 62
     0
 92
       -2
340
14
 93
        0
 40
0.045
309
GRIDFORMAT_END
 95
       16
302
GRIDFORMAT
  1
GRIDFORMAT_BEGIN
 90
        0
 91
        1
 62
     0
 92
       -2
340
14
 93
        0
 40
0.045
309
GRIDFORMAT_END
 95
       32
302
GRIDFORMAT
  1
GRIDFORMAT_BEGIN
 90
        0
 91
        1
 62
     0
 92
       -2
340
14
 93
        0
 40
0.045
309
GRIDFORMAT_END
309
TABLEFORMAT_END
  1
CELLSTYLE_BEGIN
 90
        1
 91
        1
300
_TITLE
309
CELLSTYLE_END
300
CELLSTYLE
  1
TABLEFORMAT_BEGIN
 90
        5
170
     1
 91
        0
 92
        0
 62
   257
 93
        1
300
CONTENTFORMAT
  1
CONTENTFORMAT_BEGIN
 90
        0
 91
        0
 92
        4
 93
        0
300

 40
0.0
140
1.0
 94
        5
 62
     0
340
11
144
0.18
309
CONTENTFORMAT_END
171
     1
301
MARGIN
  1
CELLMARGIN_BEGIN
 40
0.06
 40
0.06
 40
0.06
 40
0.06
 40
0.06
 40
0.06
309
CELLMARGIN_END
 94
        6
 95
        1
302
GRIDFORMAT
  1
GRIDFORMAT_BEGIN
 90
        0
 91
        1
 62
     0
 92
       -2
340
14
 93
        0
 40
0.045
309
GRIDFORMAT_END
 95
        2
302
GRIDFORMAT
  1
GRIDFORMAT_BEGIN
 90
        0
 91
        1
 62
     0
 92
       -2
340
14
 93
        0
 40
0.045
309
GRIDFORMAT_END
 95
        4
302
GRIDFORMAT
  1
GRIDFORMAT_BEGIN
 90
        0
 91
        1
 62
     0
 92
       -2
340
14
 93
        0
 40
0.045
309
GRIDFORMAT_END
 95
        8
302
GRIDFORMAT
  1
GRIDFORMAT_BEGIN
 90
        0
 91
        1
 62
     0
 92
       -2
340
14
 93
        0
 40
0.045
309
GRIDFORMAT_END
 95
       16
302
GRIDFORMAT
  1
GRIDFORMAT_BEGIN
 90
        0
 91
        1
 62
     0
 92
       -2
340
14
 93
        0
 40
0.045
309
GRIDFORMAT_END
 95
       32
302
GRIDFORMAT
  1
GRIDFORMAT_BEGIN
 90
        0
 91
        1
 62
     0
 92
       -2
340
14
 93
        0
 40
0.045
309
GRIDFORMAT_END
309
TABLEFORMAT_END
  1
CELLSTYLE_BEGIN
 90
        2
 91
        1
300
_HEADER
309
CELLSTYLE_END
300
CELLSTYLE
  1
TABLEFORMAT_BEGIN
 90
        5
170
     1
 91
        0
 92
        0
 62
   257
 93
        1
300
CONTENTFORMAT
  1
CONTENTFORMAT_BEGIN
 90
        0
 91
        0
 92
        4
 93
        0
300

 40
0.0
140
1.0
 94
        2
 62
     0
340
11
144
0.18
309
CONTENTFORMAT_END
171
     1
301
MARGIN
  1
CELLMARGIN_BEGIN
 40
0.06
 40
0.06
 40
0.06
 40
0.06
 40
0.06
 40
0.06
309
CELLMARGIN_END
 94
        6
 95
        1
302
GRIDFORMAT
  1
GRIDFORMAT_BEGIN
 90
        0
 91
        1
 62
     0
 92
       -2
340
14
 93
        0
 40
0.045
309
GRIDFORMAT_END
 95
        2
302
GRIDFORMAT
  1
GRIDFORMAT_BEGIN
 90
        0
 91
        1
 62
     0
 92
       -2
340
14
 93
        0
 40
0.045
309
GRIDFORMAT_END
 95
        4
302
GRIDFORMAT
  1
GRIDFORMAT_BEGIN
 90
        0
 91
        1
 62
     0
 92
       -2
340
14
 93
        0
 40
0.045
309
GRIDFORMAT_END
 95
        8
302
GRIDFORMAT
  1
GRIDFORMAT_BEGIN
 90
        0
 91
        1
 62
     0
 92
       -2
340
14
 93
        0
 40
0.045
309
GRIDFORMAT_END
 95
       16
302
GRIDFORMAT
  1
GRIDFORMAT_BEGIN
 90
        0
 91
        1
 62
     0
 92
       -2
340
14
 93
        0
 40
0.045
309
GRIDFORMAT_END
 95
       32
302
GRIDFORMAT
  1
GRIDFORMAT_BEGIN
 90
        0
 91
        1
 62
     0
 92
       -2
340
14
 93
        0
 40
0.045
309
GRIDFORMAT_END
309
TABLEFORMAT_END
  1
CELLSTYLE_BEGIN
 90
        3
 91
        2
300
_DATA
309
CELLSTYLE_END
  0
ENDSEC
  0
EOF
