  0
SECTION
  2
HEADER
  9
$ACADVER
  1
AC1027
  9
$ACADMAINTVER
 70
   105
  9
$DWGCODEPAGE
  3
ANSI_1252
  9
$LASTSAVEDBY
  1
Office Desk
  9
$REQUIREDVERSIONS
160
                 0
  9
$INSBASE
 10
0.0
 20
0.0
 30
0.0
  9
$EXTMIN
 10
142.3325
 20
-160.6008
 30
0.0
  9
$EXTMAX
 10
275.456
 20
16.3883
 30
0.0
  9
$LIMMIN
 10
0.0
 20
0.0
  9
$LIMMAX
 10
12.0
 20
9.0
  9
$ORTHOMODE
 70
     0
  9
$REGENMODE
 70
     1
  9
$FILLMODE
 70
     1
  9
$QTEXTMODE
 70
     0
  9
$MIRRTEXT
 70
     1
  9
$LTSCALE
 40
1.0
  9
$ATTMODE
 70
     1
  9
$TEXTSIZE
 40
0.2
  9
$TRACEWID
 40
0.05
  9
$TEXTSTYLE
  7
Standard
  9
$CLAYER
  8
0
  9
$CELTYPE
  6
ByLayer
  9
$CECOLOR
 62
   256
  9
$CELTSCALE
 40
1.0
  9
$DISPSILH
 70
     0
  9
$DIMSCALE
 40
1.0
  9
$DIMASZ
 40
0.18
  9
$DIMEXO
 40
0.0625
  9
$DIMDLI
 40
0.38
  9
$DIMRND
 40
0.0
  9
$DIMDLE
 40
0.0
  9
$DIMEXE
 40
0.18
  9
$DIMTP
 40
0.0
  9
$DIMTM
 40
0.0
  9
$DIMTXT
 40
0.18
  9
$DIMCEN
 40
0.09
  9
$DIMTSZ
 40
0.0
  9
$DIMTOL
 70
     0
  9
$DIMLIM
 70
     0
  9
$DIMTIH
 70
     1
  9
$DIMTOH
 70
     1
  9
$DIMSE1
 70
     0
  9
$DIMSE2
 70
     0
  9
$DIMTAD
 70
     0
  9
$DIMZIN
 70
     0
  9
$DIMBLK
  1

  9
$DIMASO
 70
     1
  9
$DIMSHO
 70
     1
  9
$DIMPOST
  1

  9
$DIMAPOST
  1

  9
$DIMALT
 70
     0
  9
$DIMALTD
 70
     2
  9
$DIMALTF
 40
25.4
  9
$DIMLFAC
 40
1.0
  9
$DIMTOFL
 70
     0
  9
$DIMTVP
 40
0.0
  9
$DIMTIX
 70
     0
  9
$DIMSOXD
 70
     0
  9
$DIMSAH
 70
     0
  9
$DIMBLK1
  1

  9
$DIMBLK2
  1

  9
$DIMSTYLE
  2
Standard
  9
$DIMCLRD
 70
     0
  9
$DIMCLRE
 70
     0
  9
$DIMCLRT
 70
     0
  9
$DIMTFAC
 40
1.0
  9
$DIMGAP
 40
0.09
  9
$DIMJUST
 70
     0
  9
$DIMSD1
 70
     0
  9
$DIMSD2
 70
     0
  9
$DIMTOLJ
 70
     1
  9
$DIMTZIN
 70
     0
  9
$DIMALTZ
 70
     0
  9
$DIMALTTZ
 70
     0
  9
$DIMUPT
 70
     0
  9
$DIMDEC
 70
     4
  9
$DIMTDEC
 70
     4
  9
$DIMALTU
 70
     2
  9
$DIMALTTD
 70
     2
  9
$DIMTXSTY
  7
Standard
  9
$DIMAUNIT
 70
     0
  9
$DIMADEC
 70
     0
  9
$DIMALTRND
 40
0.0
  9
$DIMAZIN
 70
     0
  9
$DIMDSEP
 70
    46
  9
$DIMATFIT
 70
     3
  9
$DIMFRAC
 70
     0
  9
$DIMLDRBLK
  1

  9
$DIMLUNIT
 70
     2
  9
$DIMLWD
 70
    -2
  9
$DIMLWE
 70
    -2
  9
$DIMTMOVE
 70
     0
  9
$DIMFXL
 40
1.0
  9
$DIMFXLON
 70
     0
  9
$DIMJOGANG
 40
0.7853981633974483
  9
$DIMTFILL
 70
     0
  9
$DIMTFILLCLR
 70
     0
  9
$DIMARCSYM
 70
     0
  9
$DIMLTYPE
  6

  9
$DIMLTEX1
  6

  9
$DIMLTEX2
  6

  9
$DIMTXTDIRECTION
 70
     0
  9
$LUNITS
 70
     2
  9
$LUPREC
 70
     4
  9
$SKETCHINC
 40
0.1
  9
$FILLETRAD
 40
0.0
  9
$AUNITS
 70
     0
  9
$AUPREC
 70
     0
  9
$MENU
  1
.
  9
$ELEVATION
 40
0.0
  9
$PELEVATION
 40
0.0
  9
$THICKNESS
 40
0.0
  9
$LIMCHECK
 70
     0
  9
$CHAMFERA
 40
0.0
  9
$CHAMFERB
 40
0.0
  9
$CHAMFERC
 40
0.0
  9
$CHAMFERD
 40
0.0
  9
$SKPOLY
 70
     0
  9
$TDCREATE
 40
2461015.756921551
  9
$TDUCREATE
 40
2461015.527754884
  9
$TDUPDATE
 40
2461015.756921667
  9
$TDUUPDATE
 40
2461015.527755
  9
$TDINDWG
 40
0.0000000116
  9
$TDUSRTIMER
 40
0.0000000116
  9
$USRTIMER
 70
     1
  9
$ANGBASE
 50
0.0
  9
$ANGDIR
 70
     0
  9
$PDMODE
 70
     0
  9
$PDSIZE
 40
0.0
  9
$PLINEWID
 40
0.0
  9
$SPLFRAME
 70
     0
  9
$SPLINETYPE
 70
     6
  9
$SPLINESEGS
 70
     8
  9
$HANDSEED
  5
D0
  9
$SURFTAB1
 70
     6
  9
$SURFTAB2
 70
     6
  9
$SURFTYPE
 70
     6
  9
$SURFU
 70
     6
  9
$SURFV
 70
     6
  9
$UCSBASE
  2

  9
$UCSNAME
  2

  9
$UCSORG
 10
0.0
 20
0.0
 30
0.0
  9
$UCSXDIR
 10
1.0
 20
0.0
 30
0.0
  9
$UCSYDIR
 10
0.0
 20
1.0
 30
0.0
  9
$UCSORTHOREF
  2

  9
$UCSORTHOVIEW
 70
     0
  9
$UCSORGTOP
 10
0.0
 20
0.0
 30
0.0
  9
$UCSORGBOTTOM
 10
0.0
 20
0.0
 30
0.0
  9
$UCSORGLEFT
 10
0.0
 20
0.0
 30
0.0
  9
$UCSORGRIGHT
 10
0.0
 20
0.0
 30
0.0
  9
$UCSORGFRONT
 10
0.0
 20
0.0
 30
0.0
  9
$UCSORGBACK
 10
0.0
 20
0.0
 30
0.0
  9
$PUCSBASE
  2

  9
$PUCSNAME
  2

  9
$PUCSORG
 10
0.0
 20
0.0
 30
0.0
  9
$PUCSXDIR
 10
1.0
 20
0.0
 30
0.0
  9
$PUCSYDIR
 10
0.0
 20
1.0
 30
0.0
  9
$PUCSORTHOREF
  2

  9
$PUCSORTHOVIEW
 70
     0
  9
$PUCSORGTOP
 10
0.0
 20
0.0
 30
0.0
  9
$PUCSORGBOTTOM
 10
0.0
 20
0.0
 30
0.0
  9
$PUCSORGLEFT
 10
0.0
 20
0.0
 30
0.0
  9
$PUCSORGRIGHT
 10
0.0
 20
0.0
 30
0.0
  9
$PUCSORGFRONT
 10
0.0
 20
0.0
 30
0.0
  9
$PUCSORGBACK
 10
0.0
 20
0.0
 30
0.0
  9
$USERI1
 70
     0
  9
$USERI2
 70
     0
  9
$USERI3
 70
     0
  9
$USERI4
 70
     0
  9
$USERI5
 70
     0
  9
$USERR1
 40
0.0
  9
$USERR2
 40
0.0
  9
$USERR3
 40
0.0
  9
$USERR4
 40
0.0
  9
$USERR5
 40
0.0
  9
$WORLDVIEW
 70
     1
  9
$SHADEDGE
 70
     3
  9
$SHADEDIF
 70
    70
  9
$TILEMODE
 70
     1
  9
$MAXACTVP
 70
    64
  9
$PINSBASE
 10
0.0
 20
0.0
 30
0.0
  9
$PLIMCHECK
 70
     0
  9
$PEXTMIN
 10
1.000000000000000E+20
 20
1.000000000000000E+20
 30
1.000000000000000E+20
  9
$PEXTMAX
 10
-1.000000000000000E+20
 20
-1.000000000000000E+20
 30
-1.000000000000000E+20
  9
$PLIMMIN
 10
0.0
 20
0.0
  9
$PLIMMAX
 10
12.0
 20
9.0
  9
$UNITMODE
 70
     0
  9
$VISRETAIN
 70
     1
  9
$PLINEGEN
 70
     0
  9
$PSLTSCALE
 70
     1
  9
$TREEDEPTH
 70
  3020
  9
$CMLSTYLE
  2
Standard
  9
$CMLJUST
 70
     0
  9
$CMLSCALE
 40
1.0
  9
$PROXYGRAPHICS
 70
     1
  9
$MEASUREMENT
 70
     0
  9
$CELWEIGHT
370
    -1
  9
$ENDCAPS
280
     0
  9
$JOINSTYLE
280
     0
  9
$LWDISPLAY
290
     0
  9
$INSUNITS
 70
     4
  9
$HYPERLINKBASE
  1

  9
$STYLESHEET
  1

  9
$XEDIT
290
     1
  9
$CEPSNTYPE
380
     0
  9
$PSTYLEMODE
290
     1
  9
$FINGERPRINTGUID
  2
{8a555cac-202f-4838-b604-ce27491580ed}
  9
$VERSIONGUID
  2
{FAEB1C32-E019-11D5-929B-00C0DF256EC4}
  9
$EXTNAMES
290
     1
  9
$PSVPSCALE
 40
0.0
  9
$OLESTARTUP
290
     0
  9
$SORTENTS
280
   127
  9
$INDEXCTL
280
     0
  9
$HIDETEXT
280
     1
  9
$XCLIPFRAME
280
     2
  9
$HALOGAP
280
     0
  9
$OBSCOLOR
 70
   257
  9
$OBSLTYPE
280
     0
  9
$INTERSECTIONDISPLAY
280
     0
  9
$INTERSECTIONCOLOR
 70
   257
  9
$DIMASSOC
280
     2
  9
$PROJECTNAME
  1

  9
$CAMERADISPLAY
290
     0
  9
$LENSLENGTH
 40
50.0
  9
$CAMERAHEIGHT
 40
0.0
  9
$STEPSPERSEC
 40
2.0
  9
$STEPSIZE
 40
6.0
  9
$3DDWFPREC
 40
2.0
  9
$PSOLWIDTH
 40
0.25
  9
$PSOLHEIGHT
 40
4.0
  9
$LOFTANG1
 40
1.570796326794897
  9
$LOFTANG2
 40
1.570796326794897
  9
$LOFTMAG1
 40
0.0
  9
$LOFTMAG2
 40
0.0
  9
$LOFTPARAM
 70
     7
  9
$LOFTNORMALS
280
     1
  9
$LATITUDE
 40
37.795
  9
$LONGITUDE
 40
-122.394
  9
$NORTHDIRECTION
 40
0.0
  9
$TIMEZONE
 70
 -8000
  9
$LIGHTGLYPHDISPLAY
280
     1
  9
$TILEMODELIGHTSYNCH
280
     1
  9
$CMATERIAL
347
44
  9
$SOLIDHIST
280
     0
  9
$SHOWHIST
280
     1
  9
$DWFFRAME
280
     2
  9
$DGNFRAME
280
     2
  9
$REALWORLDSCALE
290
     1
  9
$INTERFERECOLOR
 62
   256
  9
$CSHADOW
280
     0
  9
$SHADOWPLANELOCATION
 40
0.0
  0
ENDSEC
  0
SECTION
  2
CLASSES
  0
CLASS
  1
ACDBDICTIONARYWDFLT
  2
AcDbDictionaryWithDefault
  3
ObjectDBX Classes
 90
        0
 91
        3
280
     0
281
     0
  0
CLASS
  1
VISUALSTYLE
  2
AcDbVisualStyle
  3
ObjectDBX Classes
 90
     4095
 91
        3
280
     0
281
     0
  0
CLASS
  1
MATERIAL
  2
AcDbMaterial
  3
ObjectDBX Classes
 90
     1153
 91
        3
280
     0
281
     0
  0
CLASS
  1
SCALE
  2
AcDbScale
  3
ObjectDBX Classes
 90
     1153
 91
        3
280
     0
281
     0
  0
CLASS
  1
TABLESTYLE
  2
AcDbTableStyle
  3
ObjectDBX Classes
 90
     4095
 91
        3
280
     0
281
     0
  0
CLASS
  1
MLEADERSTYLE
  2
AcDbMLeaderStyle
  3
ACDB_MLEADERSTYLE_CLASS
 90
     4095
 91
        3
280
     0
281
     0
  0
CLASS
  1
SUN
  2
AcDbSun
  3
SCENEOE
 90
     1153
 91
        3
280
     0
281
     0
  0
CLASS
  1
DICTIONARYVAR
  2
AcDbDictionaryVar
  3
ObjectDBX Classes
 90
        0
 91
        3
280
     0
281
     0
  0
CLASS
  1
CELLSTYLEMAP
  2
AcDbCellStyleMap
  3
ObjectDBX Classes
 90
     1152
 91
        3
280
     0
281
     0
  0
ENDSEC
  0
SECTION
  2
TABLES
  0
TABLE
  2
VPORT
  5
8
330
0
100
AcDbSymbolTable
 70
     1
  0
VPORT
  5
29
330
8
100
AcDbSymbolTableRecord
100
AcDbViewportTableRecord
  2
*Active
 70
     0
 10
0.0
 20
0.0
 11
1.0
 21
1.0
 12
10.42990654205607
 22
4.5
 13
0.0
 23
0.0
 14
0.5
 24
0.5
 15
0.5
 25
0.5
 16
0.0
 26
0.0
 36
1.0
 17
0.0
 27
0.0
 37
0.0
 40
9.0
 41
1.972972972850329
 42
50.0
 43
0.0
 44
0.0
 50
0.0
 51
0.0
 71
     0
 72
   100
 73
     1
 74
     3
 75
     0
 76
     0
 77
     0
 78
     0
281
     0
 65
     1
110
0.0
120
0.0
130
0.0
111
1.0
121
0.0
131
0.0
112
0.0
122
1.0
132
0.0
 79
     0
146
0.0
348
2F
 60
     3
 61
     5
292
     1
282
     1
141
0.0
142
0.0
 63
   250
361
5D
  0
ENDTAB
  0
TABLE
  2
LTYPE
  5
5
330
0
100
AcDbSymbolTable
 70
     1
  0
LTYPE
  5
14
330
5
100
AcDbSymbolTableRecord
100
AcDbLinetypeTableRecord
  2
ByBlock
 70
     0
  3

 72
    65
 73
     0
 40
0.0
  0
LTYPE
  5
15
330
5
100
AcDbSymbolTableRecord
100
AcDbLinetypeTableRecord
  2
ByLayer
 70
     0
  3

 72
    65
 73
     0
 40
0.0
  0
LTYPE
  5
16
330
5
100
AcDbSymbolTableRecord
100
AcDbLinetypeTableRecord
  2
Continuous
 70
     0
  3
Solid line
 72
    65
 73
     0
 40
0.0
  0
ENDTAB
  0
TABLE
  2
LAYER
  5
2
330
0
100
AcDbSymbolTable
 70
     2
  0
LAYER
  5
10
330
2
100
AcDbSymbolTableRecord
100
AcDbLayerTableRecord
  2
0
 70
     0
 62
     7
  6
Continuous
370
    -3
390
F
347
46
348
0
  0
LAYER
  5
5F
330
2
100
AcDbSymbolTableRecord
100
AcDbLayerTableRecord
  2
Layer 1
 70
     0
 62
     7
  6
Continuous
370
    -3
390
F
347
46
348
0
  0
ENDTAB
  0
TABLE
  2
STYLE
  5
3
330
0
100
AcDbSymbolTable
 70
     1
  0
STYLE
  5
11
330
3
100
AcDbSymbolTableRecord
100
AcDbTextStyleTableRecord
  2
Standard
 70
     0
 40
0.0
 41
1.0
 50
0.0
 71
     0
 42
0.2
  3
txt
  4

  0
ENDTAB
  0
TABLE
  2
VIEW
  5
6
330
0
100
AcDbSymbolTable
 70
     0
  0
ENDTAB
  0
TABLE
  2
UCS
  5
7
330
0
100
AcDbSymbolTable
 70
     0
  0
ENDTAB
  0
TABLE
  2
APPID
  5
9
330
0
100
AcDbSymbolTable
 70
     2
  0
APPID
  5
12
330
9
100
AcDbSymbolTableRecord
100
AcDbRegAppTableRecord
  2
ACAD
 70
     0
  0
APPID
  5
5E
330
9
100
AcDbSymbolTableRecord
100
AcDbRegAppTableRecord
  2
ODA
 70
     0
  0
ENDTAB
  0
TABLE
  2
DIMSTYLE
  5
A
330
0
100
AcDbSymbolTable
 70
     1
100
AcDbDimStyleTable
  0
DIMSTYLE
105
27
330
A
100
AcDbSymbolTableRecord
100
AcDbDimStyleTableRecord
  2
Standard
 70
     0
178
     0
340
11
  0
ENDTAB
  0
TABLE
  2
BLOCK_RECORD
  5
1
330
0
100
AcDbSymbolTable
 70
     1
  0
BLOCK_RECORD
  5
1F
330
1
100
AcDbSymbolTableRecord
100
AcDbBlockTableRecord
  2
*Model_Space
340
22
 70
     0
280
     1
281
     0
  0
BLOCK_RECORD
  5
1B
330
1
100
AcDbSymbolTableRecord
100
AcDbBlockTableRecord
  2
*Paper_Space
340
1E
 70
     0
280
     1
281
     0
  0
BLOCK_RECORD
  5
23
330
1
100
AcDbSymbolTableRecord
100
AcDbBlockTableRecord
  2
*Paper_Space0
340
26
 70
     0
280
     1
281
     0
  0
ENDTAB
  0
ENDSEC
  0
SECTION
  2
BLOCKS
  0
BLOCK
  5
20
330
1F
100
AcDbEntity
  8
0
100
AcDbBlockBegin
  2
*Model_Space
 70
     0
 10
0.0
 20
0.0
 30
0.0
  3
*Model_Space
  1

  0
ENDBLK
  5
21
330
1F
100
AcDbEntity
  8
0
100
AcDbBlockEnd
  0
BLOCK
  5
1C
330
1B
100
AcDbEntity
 67
     1
  8
0
100
AcDbBlockBegin
  2
*Paper_Space
 70
     0
 10
0.0
 20
0.0
 30
0.0
  3
*Paper_Space
  1

  0
ENDBLK
  5
1D
330
1B
100
AcDbEntity
 67
     1
  8
0
100
AcDbBlockEnd
  0
BLOCK
  5
24
330
23
100
AcDbEntity
  8
0
100
AcDbBlockBegin
  2
*Paper_Space0
 70
     0
 10
0.0
 20
0.0
 30
0.0
  3
*Paper_Space0
  1

  0
ENDBLK
  5
25
330
23
100
AcDbEntity
  8
0
100
AcDbBlockEnd
  0
ENDSEC
  0
SECTION
  2
ENTITIES
  0
LWPOLYLINE
  5
60
330
1F
100
AcDbEntity
  8
Layer 1
 62
   250
370
     9
100
AcDbPolyline
 90
        5
 70
     1
 43
0.0
 10
142.3706
 20
-160.5626
 10
275.4178
 20
-160.5626
 10
275.4178
 20
16.3502
 10
142.3706
 20
16.3502
 10
142.3706
 20
-160.5626
  0
LWPOLYLINE
  5
61
330
1F
100
AcDbEntity
  8
Layer 1
 62
     7
370
     9
100
AcDbPolyline
 90
        2
 70
     0
 43
0.0
 10
168.1642
 20
6.48
 10
253.2011
 20
6.48
  0
LWPOLYLINE
  5
62
330
1F
100
AcDbEntity
  8
Layer 1
 62
     7
370
     9
100
AcDbPolyline
 90
        2
 70
     0
 43
0.0
 10
192.965
 20
-144.9791
 10
253.2011
 20
-144.9791
  0
LWPOLYLINE
  5
63
330
1F
100
AcDbEntity
  8
Layer 1
 62
     7
370
     9
100
AcDbPolyline
 90
        2
 70
     0
 43
0.0
 10
239.0829
 20
-144.9801
 10
239.0829
 20
6.48
  0
LWPOLYLINE
  5
64
330
1F
100
AcDbEntity
  8
Layer 1
 62
     7
370
    18
100
AcDbPolyline
 90
      157
 70
     1
 43
0.0
 10
168.1642
 20
6.4799
 10
179.2427
 20
3.6337
 10
224.9635
 20
-16.1703
 10
225.0952
 20
-16.2754
 10
225.4402
 20
-16.5838
 10
225.9233
 20
-17.0853
 10
226.4692
 20
-17.7696
 10
227.0027
 20
-18.6263
 10
227.4487
 20
-19.6454
 10
227.7318
 20
-20.8164
 10
227.777
 20
-22.1291
 10
227.6824
 20
-23.3025
 10
227.597
 20
-24.1063
 10
227.522
 20
-24.6061
 10
227.4583
 20
-24.8676
 10
227.4069
 20
-24.9566
 10
227.3689
 20
-24.9388
 10
227.3454
 20
-24.8799
 10
227.3373
 20
-24.8457
 10
233.0361
 20
-75.2322
 10
233.0746
 20
-75.5339
 10
233.1101
 20
-76.3316
 10
233.0227
 20
-77.4641
 10
232.6926
 20
-78.7701
 10
231.9998
 20
-80.0884
 10
230.8243
 20
-81.2579
 10
229.0464
 20
-82.1172
 10
226.5461
 20
-82.5052
 10
223.996
 20
-82.0648
 10
222.0867
 20
-80.7403
 10
220.7256
 20
-78.8222
 10
219.8199
 20
-76.6012
 10
219.2769
 20
-74.3679
 10
219.0038
 20
-72.4129
 10
218.9079
 20
-71.0267
 10
218.8966
 20
-70.5001
 10
216.7865
 20
-51.4848
 10
214.1488
 20
-44.2992
 10
212.4782
 20
-46.227
 10
210.1041
 20
-142.0927
 10
210.0789
 20
-142.1842
 10
209.9846
 20
-142.4308
 10
209.7935
 20
-142.7904
 10
209.4778
 20
-143.2208
 10
209.0095
 20
-143.6799
 10
208.3609
 20
-144.1257
 10
207.5042
 20
-144.5161
 10
206.4115
 20
-144.809
 10
206.3892
 20
-145.2255
 10
206.4891
 20
-145.234
 10
206.7392
 20
-145.2728
 10
207.065
 20
-145.3619
 10
207.392
 20
-145.5213
 10
207.646
 20
-145.7711
 10
207.7523
 20
-146.1314
 10
207.6366
 20
-146.622
 10
207.2245
 20
-147.263
 10
207.5877
 20
-147.6439
 10
207.7521
 20
-148.0348
 10
207.7639
 20
-148.417
 10
207.6696
 20
-148.7718
 10
207.5156
 20
-149.0803
 10
207.3481
 20
-149.3239
 10
207.2136
 20
-149.4838
 10
207.1585
 20
-149.5413
 10
207.95
 20
-150.4175
 10
207.838
 20
-150.6516
 10
207.3345
 20
-151.2308
 10
206.1881
 20
-151.9701
 10
204.1473
 20
-152.6848
 10
200.9607
 20
-153.19
 10
196.377
 20
-153.3008
 10
190.1446
 20
-152.8326
 10
182.0123
 20
-151.6003
 10
181.9615
 20
-150.9094
 10
182.0052
 20
-150.3282
 10
182.1163
 20
-149.8511
 10
182.2679
 20
-149.4729
 10
182.4328
 20
-149.188
 10
182.5841
 20
-148.9913
 10
182.6947
 20
-148.8771
 10
182.7376
 20
-148.8403
 10
182.6969
 20
-148.7837
 10
182.5978
 20
-148.6257
 10
182.4745
 20
-148.384
 10
182.3612
 20
-148.0763
 10
182.2923
 20
-147.7204
 10
182.3018
 20
-147.3338
 10
182.4242
 20
-146.9344
 10
182.6937
 20
-146.5399
 10
182.4847
 20
-146.0862
 10
182.4398
 20
-145.6673
 10
182.5171
 20
-145.2909
 10
182.6744
 20
-144.9652
 10
182.8699
 20
-144.6981
 10
183.0616
 20
-144.4974
 10
183.2074
 20
-144.3711
 10
183.2653
 20
-144.3273
 10
183.1615
 20
-144.3109
 10
182.8796
 20
-144.2533
 10
182.4644
 20
-144.1424
 10
181.9602
 20
-143.9658
 10
181.4118
 20
-143.7111
 10
180.8636
 20
-143.366
 10
180.3602
 20
-142.9183
 10
179.9461
 20
-142.3555
 10
179.6426
 20
-140.1906
 10
179.4305
 20
-135.5189
 10
179.2942
 20
-129.2021
 10
179.2179
 20
-122.1018
 10
179.1859
 20
-115.0796
 10
179.1825
 20
-108.9969
 10
179.1919
 20
-104.7155
 10
179.1986
 20
-103.0969
 10
177.9018
 20
-50.1462
 10
177.9349
 20
-49.8284
 10
178.0096
 20
-48.968
 10
178.0896
 20
-47.7039
 10
178.1381
 20
-46.1754
 10
178.1186
 20
-44.5216
 10
177.9945
 20
-42.8817
 10
177.7293
 20
-41.3948
 10
177.2863
 20
-40.2001
 10
176.7498
 20
-39.2991
 10
176.2381
 20
-38.5865
 10
175.7655
 20
-38.0413
 10
175.3464
 20
-37.6425
 10
174.9954
 20
-37.3689
 10
174.7268
 20
-37.1995
 10
174.5551
 20
-37.1133
 10
174.4946
 20
-37.0893
 10
168.2519
 20
-35.9063
 10
157.5252
 20
-32.2915
 10
157.1535
 20
-32.0486
 10
156.1907
 20
-31.2933
 10
154.8649
 20
-29.9854
 10
153.4045
 20
-28.0851
 10
152.0376
 20
-25.5521
 10
150.9926
 20
-22.3466
 10
150.4975
 20
-18.4284
 10
150.7808
 20
-13.7576
 10
151.7905
 20
-9.0981
 10
153.2107
 20
-5.2096
 10
154.8733
 20
-2.0461
 10
156.6104
 20
0.4386
 10
158.2538
 20
2.2908
 10
159.6358
 20
3.5567
 10
160.5881
 20
4.2823
 10
160.9429
 20
4.5139
 10
161.1021
 20
4.6125
 10
161.5533
 20
4.8697
 10
162.2567
 20
5.2271
 10
163.1725
 20
5.6265
 10
164.2609
 20
6.0097
 10
165.4822
 20
6.3185
 10
166.7965
 20
6.4946
 10
168.1642
 20
6.4799
  0
LWPOLYLINE
  5
65
330
1F
100
AcDbEntity
  8
Layer 1
 62
     7
370
    18
100
AcDbPolyline
 90
       17
 70
     0
 43
0.0
 10
181.0489
 20
2.8513
 10
183.3023
 20
-0.3413
 10
184.747
 20
-4.0276
 10
185.4611
 20
-8.0538
 10
185.523
 20
-12.2666
 10
185.0106
 20
-16.5124
 10
184.0023
 20
-20.6378
 10
182.5763
 20
-24.4892
 10
180.8107
 20
-27.9131
 10
179.9041
 20
-29.2881
 10
178.8713
 20
-30.5989
 10
177.7013
 20
-31.8278
 10
176.3834
 20
-32.9572
 10
174.9067
 20
-33.9695
 10
173.2606
 20
-34.8469
 10
171.4342
 20
-35.572
 10
169.4166
 20
-36.127
  0
LWPOLYLINE
  5
66
330
1F
100
AcDbEntity
  8
Layer 1
 62
     7
370
    18
100
AcDbPolyline
 90
       25
 70
     0
 43
0.0
 10
160.2416
 20
4.0333
 10
160.5773
 20
4.1997
 10
161.4975
 20
4.5695
 10
162.8719
 20
4.9491
 10
164.5703
 20
5.1445
 10
166.4625
 20
4.9621
 10
168.4181
 20
4.208
 10
170.3069
 20
2.6884
 10
171.9986
 20
0.2095
 10
173.1965
 20
-2.9862
 10
173.7833
 20
-6.3955
 10
173.8982
 20
-9.8213
 10
173.6803
 20
-13.0663
 10
173.2687
 20
-15.9334
 10
172.8025
 20
-18.2255
 10
172.4208
 20
-19.7453
 10
172.2626
 20
-20.2957
 10
172.0238
 20
-20.8503
 10
171.3124
 20
-22.3043
 10
170.1356
 20
-24.3429
 10
168.5006
 20
-26.6516
 10
166.4148
 20
-28.9155
 10
163.8855
 20
-30.8199
 10
160.9198
 20
-32.0501
 10
157.5252
 20
-32.2915
  0
LWPOLYLINE
  5
67
330
1F
100
AcDbEntity
  8
Layer 1
 62
     7
370
    18
100
AcDbPolyline
 90
       19
 70
     0
 43
0.0
 10
227.3373
 20
-24.8457
 10
224.0501
 20
-39.7492
 10
223.9831
 20
-39.8887
 10
223.7946
 20
-40.2572
 10
223.503
 20
-40.7798
 10
223.1269
 20
-41.3814
 10
222.6849
 20
-41.9871
 10
222.1955
 20
-42.5219
 10
221.6772
 20
-42.9109
 10
221.1486
 20
-43.0791
 10
220.484
 20
-43.1268
 10
219.6071
 20
-43.1981
 10
218.6107
 20
-43.2838
 10
217.5875
 20
-43.3747
 10
216.6303
 20
-43.4615
 10
215.8317
 20
-43.535
 10
215.2846
 20
-43.5858
 10
215.0816
 20
-43.6048
 10
213.595
 20
-44.938
  0
LWPOLYLINE
  5
68
330
1F
100
AcDbEntity
  8
Layer 1
 62
     7
370
    18
100
AcDbPolyline
 90
       10
 70
     0
 43
0.0
 10
226.8636
 20
-52.1048
 10
229.7651
 20
-78.1305
 10
229.7213
 20
-78.3521
 10
229.5683
 20
-78.9272
 10
229.2742
 20
-79.7213
 10
228.8068
 20
-80.5999
 10
228.134
 20
-81.4282
 10
227.2238
 20
-82.0719
 10
226.044
 20
-82.3964
 10
224.5626
 20
-82.267
  0
LWPOLYLINE
  5
69
330
1F
100
AcDbEntity
  8
Layer 1
 62
     7
370
    18
100
AcDbPolyline
 90
        2
 70
     0
 43
0.0
 10
222.6998
 20
-41.9684
 10
226.8636
 20
-52.1048
  0
LWPOLYLINE
  5
6A
330
1F
100
AcDbEntity
  8
Layer 1
 62
     7
370
    18
100
AcDbPolyline
 90
       77
 70
     1
 43
0.0
 10
194.4198
 20
-34.0529
 10
194.1134
 20
-34.3135
 10
193.3043
 20
-35.0121
 10
192.1571
 20
-36.0238
 10
190.8369
 20
-37.2241
 10
189.5084
 20
-38.488
 10
188.3365
 20
-39.6908
 10
187.4861
 20
-40.7077
 10
187.122
 20
-41.4139
 10
187.1338
 20
-41.8772
 10
187.2744
 20
-42.2538
 10
187.5037
 20
-42.5514
 10
187.7814
 20
-42.7775
 10
188.0673
 20
-42.94
 10
188.3213
 20
-43.0466
 10
188.5031
 20
-43.1049
 10
188.5727
 20
-43.1226
 10
190.507
 20
-42.7283
 10
190.5393
 20
-42.7493
 10
190.6251
 20
-42.8721
 10
190.7481
 20
-43.1858
 10
190.8917
 20
-43.7798
 10
191.0393
 20
-44.7436
 10
191.1747
 20
-46.1664
 10
191.2811
 20
-48.1375
 10
191.3423
 20
-50.7464
 10
191.3827
 20
-56.4597
 10
191.4344
 20
-66.6155
 10
191.4923
 20
-79.6096
 10
191.5512
 20
-93.838
 10
191.6059
 20
-107.6968
 10
191.6514
 20
-119.5818
 10
191.6825
 20
-127.8891
 10
191.694
 20
-131.0147
 10
191.722
 20
-131.6012
 10
191.7778
 20
-133.152
 10
191.8193
 20
-135.3538
 10
191.804
 20
-137.8935
 10
191.6898
 20
-140.4578
 10
191.4345
 20
-142.7335
 10
190.9957
 20
-144.4076
 10
190.3313
 20
-145.1667
 10
189.8161
 20
-145.3196
 10
189.7707
 20
-145.3954
 10
190.0715
 20
-145.4117
 10
190.5949
 20
-145.3859
 10
191.2173
 20
-145.3354
 10
191.8149
 20
-145.2778
 10
192.2641
 20
-145.2304
 10
192.4413
 20
-145.2107
 10
192.4755
 20
-145.3391
 10
192.5663
 20
-145.5475
 10
192.6963
 20
-145.5711
 10
192.8479
 20
-145.145
 10
193.0036
 20
-144.004
 10
193.146
 20
-141.8835
 10
193.2575
 20
-138.5183
 10
193.3205
 20
-133.6435
 10
193.3344
 20
-125.6435
 10
193.3164
 20
-114.0392
 10
193.2757
 20
-100.2702
 10
193.2217
 20
-85.7762
 10
193.1634
 20
-71.9969
 10
193.1104
 20
-60.372
 10
193.0717
 20
-52.3413
 10
193.0568
 20
-49.3445
 10
193.0864
 20
-49.0081
 10
193.1454
 20
-48.1238
 10
193.189
 20
-46.8791
 10
193.1722
 20
-45.4614
 10
193.0504
 20
-44.058
 10
192.7786
 20
-42.8565
 10
192.3121
 20
-42.0441
 10
191.606
 20
-41.8084
 10
189.3639
 20
-42.1152
 10
195.6066
 20
-34.5351
 10
194.4198
 20
-34.0529
  0
LWPOLYLINE
  5
6B
330
1F
100
AcDbEntity
  8
Layer 1
 62
     7
370
    18
100
AcDbPolyline
 90
        9
 70
     0
 43
0.0
 10
182.8697
 20
-144.251
 10
183.3002
 20
-144.3124
 10
184.556
 20
-144.4666
 10
186.5833
 20
-144.6682
 10
189.3284
 20
-144.8723
 10
192.7375
 20
-145.0336
 10
196.7569
 20
-145.1069
 10
201.3328
 20
-145.0471
 10
206.4115
 20
-144.809
  0
LWPOLYLINE
  5
6C
330
1F
100
AcDbEntity
  8
Layer 1
 62
     7
370
    18
100
AcDbPolyline
 90
        9
 70
     0
 43
0.0
 10
182.6937
 20
-146.5399
 10
182.9909
 20
-146.7432
 10
183.9318
 20
-147.2434
 10
185.59
 20
-147.8759
 10
188.0395
 20
-148.4762
 10
191.3538
 20
-148.8796
 10
195.607
 20
-148.9216
 10
200.8726
 20
-148.4376
 10
207.2245
 20
-147.263
  0
LWPOLYLINE
  5
6D
330
1F
100
AcDbEntity
  8
Layer 1
 62
     7
370
    18
100
AcDbPolyline
 90
        9
 70
     0
 43
0.0
 10
182.7376
 20
-148.8403
 10
183.2293
 20
-149.0463
 10
184.6416
 20
-149.5527
 10
186.88
 20
-150.1925
 10
189.8501
 20
-150.7984
 10
193.4574
 20
-151.2034
 10
197.6076
 20
-151.2403
 10
202.2061
 20
-150.742
 10
207.1585
 20
-149.5413
  0
LWPOLYLINE
  5
6E
330
1F
100
AcDbEntity
  8
Layer 1
 62
     7
370
     9
100
AcDbPolyline
 90
       33
 70
     1
 43
0.0
 10
165.693
 20
-1.0059
 10
165.7502
 20
-1.0343
 10
165.7991
 20
-1.0722
 10
165.8389
 20
-1.1182
 10
165.869
 20
-1.1705
 10
165.8885
 20
-1.2275
 10
165.8968
 20
-1.2876
 10
165.8931
 20
-1.3492
 10
165.8767
 20
-1.4107
 10
165.8483
 20
-1.4677
 10
165.8102
 20
-1.5164
 10
165.7642
 20
-1.5561
 10
165.7118
 20
-1.5862
 10
165.6546
 20
-1.6057
 10
165.5944
 20
-1.6141
 10
165.5327
 20
-1.6105
 10
165.4712
 20
-1.5943
 10
165.414
 20
-1.5659
 10
165.3652
 20
-1.528
 10
165.3253
 20
-1.482
 10
165.2953
 20
-1.4297
 10
165.2758
 20
-1.3727
 10
165.2675
 20
-1.3126
 10
165.2712
 20
-1.251
 10
165.2876
 20
-1.1895
 10
165.316
 20
-1.1325
 10
165.354
 20
-1.0838
 10
165.4001
 20
-1.0441
 10
165.4525
 20
-1.014
 10
165.5096
 20
-0.9945
 10
165.5698
 20
-0.9861
 10
165.6315
 20
-0.9897
 10
165.693
 20
-1.0059
  0
LWPOLYLINE
  5
6F
330
1F
100
AcDbEntity
  8
Layer 1
 62
     7
370
     9
100
AcDbPolyline
 90
       33
 70
     1
 43
0.0
 10
167.5462
 20
-2.9697
 10
167.6032
 20
-2.9978
 10
167.6519
 20
-3.0356
 10
167.6916
 20
-3.0814
 10
167.7216
 20
-3.1337
 10
167.7411
 20
-3.1906
 10
167.7494
 20
-3.2507
 10
167.7457
 20
-3.3123
 10
167.7292
 20
-3.3738
 10
167.7008
 20
-3.4308
 10
167.6629
 20
-3.4795
 10
167.6169
 20
-3.5192
 10
167.5646
 20
-3.5493
 10
167.5075
 20
-3.5688
 10
167.4473
 20
-3.5772
 10
167.3855
 20
-3.5736
 10
167.3238
 20
-3.5574
 10
167.2668
 20
-3.5293
 10
167.2181
 20
-3.4915
 10
167.1784
 20
-3.4457
 10
167.1484
 20
-3.3935
 10
167.1289
 20
-3.3365
 10
167.1207
 20
-3.2764
 10
167.1244
 20
-3.2148
 10
167.1408
 20
-3.1533
 10
167.169
 20
-3.0961
 10
167.2069
 20
-3.0472
 10
167.2528
 20
-3.0074
 10
167.3052
 20
-2.9773
 10
167.3624
 20
-2.9578
 10
167.4227
 20
-2.9495
 10
167.4845
 20
-2.9532
 10
167.5462
 20
-2.9697
  0
LWPOLYLINE
  5
70
330
1F
100
AcDbEntity
  8
Layer 1
 62
     7
370
     9
100
AcDbPolyline
 90
       33
 70
     1
 43
0.0
 10
169.1175
 20
-5.4242
 10
169.1745
 20
-5.4526
 10
169.2232
 20
-5.4906
 10
169.2629
 20
-5.5365
 10
169.2929
 20
-5.5888
 10
169.3124
 20
-5.6458
 10
169.3207
 20
-5.7059
 10
169.317
 20
-5.7675
 10
169.3005
 20
-5.829
 10
169.2721
 20
-5.886
 10
169.2342
 20
-5.9347
 10
169.1882
 20
-5.9745
 10
169.1359
 20
-6.0045
 10
169.0788
 20
-6.024
 10
169.0185
 20
-6.0324
 10
168.9568
 20
-6.0289
 10
168.8951
 20
-6.0127
 10
168.8381
 20
-5.9843
 10
168.7894
 20
-5.9463
 10
168.7497
 20
-5.9004
 10
168.7197
 20
-5.8481
 10
168.7002
 20
-5.7911
 10
168.692
 20
-5.731
 10
168.6957
 20
-5.6694
 10
168.7121
 20
-5.6079
 10
168.7403
 20
-5.5509
 10
168.7782
 20
-5.5022
 10
168.8241
 20
-5.4624
 10
168.8765
 20
-5.4324
 10
168.9337
 20
-5.4128
 10
168.994
 20
-5.4044
 10
169.0558
 20
-5.408
 10
169.1175
 20
-5.4242
  0
LWPOLYLINE
  5
71
330
1F
100
AcDbEntity
  8
Layer 1
 62
     7
370
     9
100
AcDbPolyline
 90
       33
 70
     1
 43
0.0
 10
169.8566
 20
-7.1565
 10
169.9136
 20
-7.1847
 10
169.9623
 20
-7.2225
 10
170.0021
 20
-7.2683
 10
170.0321
 20
-7.3206
 10
170.0516
 20
-7.3777
 10
170.06
 20
-7.4379
 10
170.0565
 20
-7.4996
 10
170.0403
 20
-7.5613
 10
170.0119
 20
-7.6183
 10
169.9738
 20
-7.667
 10
169.9277
 20
-7.7067
 10
169.8753
 20
-7.7367
 10
169.8181
 20
-7.7562
 10
169.7577
 20
-7.7644
 10
169.6959
 20
-7.7607
 10
169.6342
 20
-7.7443
 10
169.5772
 20
-7.7161
 10
169.5285
 20
-7.6783
 10
169.4888
 20
-7.6325
 10
169.4588
 20
-7.5803
 10
169.4393
 20
-7.5234
 10
169.4311
 20
-7.4633
 10
169.4348
 20
-7.4017
 10
169.4512
 20
-7.3402
 10
169.4796
 20
-7.2832
 10
169.5175
 20
-7.2345
 10
169.5635
 20
-7.1947
 10
169.6158
 20
-7.1647
 10
169.6729
 20
-7.1451
 10
169.7332
 20
-7.1367
 10
169.7949
 20
-7.1403
 10
169.8566
 20
-7.1565
  0
LWPOLYLINE
  5
72
330
1F
100
AcDbEntity
  8
Layer 1
 62
     7
370
     9
100
AcDbPolyline
 90
       33
 70
     1
 43
0.0
 10
170.6733
 20
-9.701
 10
170.7303
 20
-9.7294
 10
170.779
 20
-9.7673
 10
170.8187
 20
-9.8133
 10
170.8487
 20
-9.8656
 10
170.8682
 20
-9.9226
 10
170.8764
 20
-9.9827
 10
170.8727
 20
-10.0443
 10
170.8563
 20
-10.1058
 10
170.8279
 20
-10.1628
 10
170.79
 20
-10.2115
 10
170.744
 20
-10.2512
 10
170.6917
 20
-10.2813
 10
170.6346
 20
-10.3008
 10
170.5743
 20
-10.3092
 10
170.5126
 20
-10.3056
 10
170.4509
 20
-10.2894
 10
170.3939
 20
-10.261
 10
170.3452
 20
-10.2231
 10
170.3055
 20
-10.1771
 10
170.2755
 20
-10.1248
 10
170.256
 20
-10.0678
 10
170.2477
 20
-10.0077
 10
170.2514
 20
-9.9461
 10
170.2679
 20
-9.8846
 10
170.2961
 20
-9.8276
 10
170.334
 20
-9.7789
 10
170.3799
 20
-9.7392
 10
170.4323
 20
-9.7091
 10
170.4895
 20
-9.6896
 10
170.5498
 20
-9.6812
 10
170.6116
 20
-9.6848
 10
170.6733
 20
-9.701
  0
LWPOLYLINE
  5
73
330
1F
100
AcDbEntity
  8
Layer 1
 62
     7
370
     9
100
AcDbPolyline
 90
       33
 70
     1
 43
0.0
 10
171.3219
 20
-12.1827
 10
171.3789
 20
-12.2111
 10
171.4276
 20
-12.249
 10
171.4673
 20
-12.295
 10
171.4973
 20
-12.3473
 10
171.5168
 20
-12.4043
 10
171.525
 20
-12.4644
 10
171.5213
 20
-12.526
 10
171.5049
 20
-12.5875
 10
171.4765
 20
-12.6445
 10
171.4385
 20
-12.6932
 10
171.3925
 20
-12.7329
 10
171.3402
 20
-12.763
 10
171.2831
 20
-12.7825
 10
171.2229
 20
-12.7909
 10
171.1611
 20
-12.7873
 10
171.0994
 20
-12.7711
 10
171.0424
 20
-12.7427
 10
170.9937
 20
-12.7048
 10
170.954
 20
-12.6588
 10
170.9239
 20
-12.6065
 10
170.9044
 20
-12.5495
 10
170.896
 20
-12.4894
 10
170.8996
 20
-12.4278
 10
170.9158
 20
-12.3663
 10
170.9442
 20
-12.3093
 10
170.9822
 20
-12.2606
 10
171.0283
 20
-12.2209
 10
171.0808
 20
-12.1908
 10
171.138
 20
-12.1713
 10
171.1983
 20
-12.1629
 10
171.2602
 20
-12.1665
 10
171.3219
 20
-12.1827
  0
LWPOLYLINE
  5
74
330
1F
100
AcDbEntity
  8
Layer 1
 62
     7
370
     9
100
AcDbPolyline
 90
       33
 70
     1
 43
0.0
 10
171.3309
 20
-14.5739
 10
171.3881
 20
-14.6021
 10
171.437
 20
-14.6399
 10
171.4768
 20
-14.6857
 10
171.5069
 20
-14.7379
 10
171.5264
 20
-14.7948
 10
171.5347
 20
-14.8549
 10
171.531
 20
-14.9165
 10
171.5146
 20
-14.978
 10
171.4862
 20
-15.0352
 10
171.4481
 20
-15.0841
 10
171.4021
 20
-15.1239
 10
171.3497
 20
-15.154
 10
171.2925
 20
-15.1735
 10
171.2323
 20
-15.1818
 10
171.1706
 20
-15.1781
 10
171.1091
 20
-15.1617
 10
171.0519
 20
-15.1335
 10
171.0031
 20
-15.0957
 10
170.9632
 20
-15.0499
 10
170.9332
 20
-14.9977
 10
170.9137
 20
-14.9407
 10
170.9054
 20
-14.8806
 10
170.9091
 20
-14.819
 10
170.9255
 20
-14.7575
 10
170.9539
 20
-14.7005
 10
170.9919
 20
-14.6518
 10
171.038
 20
-14.6121
 10
171.0904
 20
-14.582
 10
171.1475
 20
-14.5625
 10
171.2077
 20
-14.5541
 10
171.2694
 20
-14.5577
 10
171.3309
 20
-14.5739
  0
LWPOLYLINE
  5
75
330
1F
100
AcDbEntity
  8
Layer 1
 62
     7
370
     9
100
AcDbPolyline
 90
       33
 70
     1
 43
0.0
 10
170.9526
 20
-17.2296
 10
171.0096
 20
-17.258
 10
171.0583
 20
-17.2959
 10
171.0981
 20
-17.3419
 10
171.1281
 20
-17.3942
 10
171.1477
 20
-17.4512
 10
171.1561
 20
-17.5113
 10
171.1525
 20
-17.5729
 10
171.1363
 20
-17.6344
 10
171.1079
 20
-17.6914
 10
171.0699
 20
-17.7401
 10
171.0238
 20
-17.7798
 10
170.9714
 20
-17.8099
 10
170.9141
 20
-17.8294
 10
170.8538
 20
-17.8378
 10
170.7919
 20
-17.8342
 10
170.7302
 20
-17.818
 10
170.6732
 20
-17.7896
 10
170.6245
 20
-17.7517
 10
170.5848
 20
-17.7057
 10
170.5548
 20
-17.6534
 10
170.5353
 20
-17.5964
 10
170.5271
 20
-17.5363
 10
170.5308
 20
-17.4747
 10
170.5472
 20
-17.4132
 10
170.5756
 20
-17.3562
 10
170.6135
 20
-17.3075
 10
170.6595
 20
-17.2678
 10
170.7118
 20
-17.2377
 10
170.7689
 20
-17.2182
 10
170.8292
 20
-17.2098
 10
170.8909
 20
-17.2134
 10
170.9526
 20
-17.2296
  0
LWPOLYLINE
  5
76
330
1F
100
AcDbEntity
  8
Layer 1
 62
     7
370
     9
100
AcDbPolyline
 90
       33
 70
     1
 43
0.0
 10
169.995
 20
-19.8924
 10
170.0522
 20
-19.9205
 10
170.1011
 20
-19.9583
 10
170.1409
 20
-20.0041
 10
170.171
 20
-20.0564
 10
170.1905
 20
-20.1133
 10
170.1988
 20
-20.1734
 10
170.195
 20
-20.235
 10
170.1786
 20
-20.2965
 10
170.1502
 20
-20.3537
 10
170.1122
 20
-20.4026
 10
170.0661
 20
-20.4424
 10
170.0137
 20
-20.4725
 10
169.9566
 20
-20.492
 10
169.8964
 20
-20.5003
 10
169.8347
 20
-20.4965
 10
169.7732
 20
-20.4801
 10
169.716
 20
-20.452
 10
169.6671
 20
-20.4142
 10
169.6273
 20
-20.3684
 10
169.5973
 20
-20.3162
 10
169.5777
 20
-20.2592
 10
169.5694
 20
-20.1991
 10
169.5732
 20
-20.1375
 10
169.5896
 20
-20.076
 10
169.618
 20
-20.019
 10
169.656
 20
-19.9703
 10
169.7021
 20
-19.9306
 10
169.7545
 20
-19.9005
 10
169.8116
 20
-19.881
 10
169.8718
 20
-19.8726
 10
169.9335
 20
-19.8762
 10
169.995
 20
-19.8924
  0
LWPOLYLINE
  5
77
330
1F
100
AcDbEntity
  8
Layer 1
 62
     7
370
     9
100
AcDbPolyline
 90
       33
 70
     1
 43
0.0
 10
168.9843
 20
-21.677
 10
169.0415
 20
-21.7052
 10
169.0904
 20
-21.743
 10
169.1302
 20
-21.7888
 10
169.1603
 20
-21.841
 10
169.1798
 20
-21.898
 10
169.1881
 20
-21.9581
 10
169.1844
 20
-22.0197
 10
169.168
 20
-22.0812
 10
169.1396
 20
-22.1382
 10
169.1015
 20
-22.1869
 10
169.0555
 20
-22.2266
 10
169.0031
 20
-22.2567
 10
168.9459
 20
-22.2762
 10
168.8857
 20
-22.2846
 10
168.824
 20
-22.281
 10
168.7625
 20
-22.2648
 10
168.7053
 20
-22.2366
 10
168.6565
 20
-22.1988
 10
168.6166
 20
-22.153
 10
168.5866
 20
-22.1007
 10
168.5671
 20
-22.0437
 10
168.5588
 20
-21.9835
 10
168.5625
 20
-21.9217
 10
168.5789
 20
-21.86
 10
168.6073
 20
-21.803
 10
168.6453
 20
-21.7543
 10
168.6914
 20
-21.7146
 10
168.7438
 20
-21.6846
 10
168.8009
 20
-21.6651
 10
168.8611
 20
-21.6569
 10
168.9228
 20
-21.6606
 10
168.9843
 20
-21.677
  0
LWPOLYLINE
  5
78
330
1F
100
AcDbEntity
  8
Layer 1
 62
     7
370
     9
100
AcDbPolyline
 90
       33
 70
     1
 43
0.0
 10
167.2986
 20
-23.4688
 10
167.3556
 20
-23.4972
 10
167.4043
 20
-23.5351
 10
167.444
 20
-23.5811
 10
167.474
 20
-23.6334
 10
167.4935
 20
-23.6904
 10
167.5017
 20
-23.7505
 10
167.498
 20
-23.8121
 10
167.4816
 20
-23.8736
 10
167.4534
 20
-23.9306
 10
167.4155
 20
-23.9793
 10
167.3696
 20
-24.019
 10
167.3172
 20
-24.0491
 10
167.26
 20
-24.0686
 10
167.1997
 20
-24.077
 10
167.1379
 20
-24.0734
 10
167.0762
 20
-24.0572
 10
167.0192
 20
-24.0288
 10
166.9705
 20
-23.9909
 10
166.9308
 20
-23.945
 10
166.9008
 20
-23.8927
 10
166.8813
 20
-23.8357
 10
166.873
 20
-23.7756
 10
166.8767
 20
-23.714
 10
166.8932
 20
-23.6525
 10
166.9216
 20
-23.5955
 10
166.9595
 20
-23.5468
 10
167.0055
 20
-23.507
 10
167.0578
 20
-23.477
 10
167.1149
 20
-23.4574
 10
167.1751
 20
-23.449
 10
167.2369
 20
-23.4526
 10
167.2986
 20
-23.4688
  0
LWPOLYLINE
  5
79
330
1F
100
AcDbEntity
  8
Layer 1
 62
     7
370
     9
100
AcDbPolyline
 90
       33
 70
     1
 43
0.0
 10
165.3995
 20
-24.808
 10
165.4565
 20
-24.8364
 10
165.5052
 20
-24.8743
 10
165.5449
 20
-24.9203
 10
165.5749
 20
-24.9726
 10
165.5944
 20
-25.0296
 10
165.6026
 20
-25.0897
 10
165.5989
 20
-25.1513
 10
165.5825
 20
-25.2128
 10
165.5543
 20
-25.2698
 10
165.5164
 20
-25.3185
 10
165.4705
 20
-25.3582
 10
165.4181
 20
-25.3883
 10
165.3609
 20
-25.4078
 10
165.3006
 20
-25.4162
 10
165.2387
 20
-25.4126
 10
165.177
 20
-25.3964
 10
165.12
 20
-25.368
 10
165.0713
 20
-25.3301
 10
165.0316
 20
-25.2841
 10
165.0016
 20
-25.2318
 10
164.9821
 20
-25.1748
 10
164.9739
 20
-25.1147
 10
164.9776
 20
-25.0531
 10
164.994
 20
-24.9916
 10
165.0224
 20
-24.9346
 10
165.0604
 20
-24.8859
 10
165.1064
 20
-24.8462
 10
165.1587
 20
-24.8161
 10
165.2158
 20
-24.7966
 10
165.276
 20
-24.7882
 10
165.3378
 20
-24.7918
 10
165.3995
 20
-24.808
  0
LWPOLYLINE
  5
7A
330
1F
100
AcDbEntity
  8
Layer 1
 62
     7
370
     9
100
AcDbPolyline
 90
       33
 70
     1
 43
0.0
 10
162.9055
 20
-25.1778
 10
162.9625
 20
-25.2062
 10
163.0112
 20
-25.2442
 10
163.0509
 20
-25.2901
 10
163.0809
 20
-25.3424
 10
163.1003
 20
-25.3994
 10
163.1086
 20
-25.4595
 10
163.1049
 20
-25.5211
 10
163.0884
 20
-25.5826
 10
163.06
 20
-25.6396
 10
163.0221
 20
-25.6883
 10
162.9761
 20
-25.7281
 10
162.9238
 20
-25.7581
 10
162.8667
 20
-25.7776
 10
162.8065
 20
-25.786
 10
162.7447
 20
-25.7825
 10
162.683
 20
-25.7663
 10
162.626
 20
-25.7379
 10
162.5773
 20
-25.6999
 10
162.5376
 20
-25.654
 10
162.5075
 20
-25.6017
 10
162.488
 20
-25.5447
 10
162.4796
 20
-25.4846
 10
162.4832
 20
-25.423
 10
162.4994
 20
-25.3615
 10
162.5278
 20
-25.3045
 10
162.5658
 20
-25.2558
 10
162.6119
 20
-25.216
 10
162.6644
 20
-25.186
 10
162.7216
 20
-25.1665
 10
162.7819
 20
-25.1581
 10
162.8438
 20
-25.1616
 10
162.9055
 20
-25.1778
  0
LWPOLYLINE
  5
7B
330
1F
100
AcDbEntity
  8
Layer 1
 62
     7
370
     9
100
AcDbPolyline
 90
       33
 70
     1
 43
0.0
 10
160.4451
 20
-25.0757
 10
160.5023
 20
-25.1041
 10
160.5511
 20
-25.142
 10
160.591
 20
-25.188
 10
160.621
 20
-25.2403
 10
160.6405
 20
-25.2973
 10
160.6488
 20
-25.3574
 10
160.6451
 20
-25.419
 10
160.6287
 20
-25.4805
 10
160.6003
 20
-25.5375
 10
160.5623
 20
-25.5862
 10
160.5162
 20
-25.6259
 10
160.4638
 20
-25.656
 10
160.4067
 20
-25.6755
 10
160.3465
 20
-25.6839
 10
160.2848
 20
-25.6803
 10
160.2233
 20
-25.6641
 10
160.1661
 20
-25.6357
 10
160.1172
 20
-25.5978
 10
160.0774
 20
-25.5518
 10
160.0473
 20
-25.4995
 10
160.0278
 20
-25.4425
 10
160.0195
 20
-25.3824
 10
160.0232
 20
-25.3208
 10
160.0396
 20
-25.2593
 10
160.068
 20
-25.2023
 10
160.1061
 20
-25.1536
 10
160.1521
 20
-25.1139
 10
160.2046
 20
-25.0838
 10
160.2617
 20
-25.0643
 10
160.3219
 20
-25.0559
 10
160.3836
 20
-25.0595
 10
160.4451
 20
-25.0757
  0
LWPOLYLINE
  5
7C
330
1F
100
AcDbEntity
  8
Layer 1
 62
     7
370
     9
100
AcDbPolyline
 90
       33
 70
     1
 43
0.0
 10
158.4147
 20
-24.0902
 10
158.4719
 20
-24.1184
 10
158.5207
 20
-24.1562
 10
158.5606
 20
-24.202
 10
158.5906
 20
-24.2543
 10
158.6101
 20
-24.3114
 10
158.6184
 20
-24.3716
 10
158.6147
 20
-24.4333
 10
158.5983
 20
-24.495
 10
158.5699
 20
-24.552
 10
158.5319
 20
-24.6007
 10
158.4858
 20
-24.6404
 10
158.4334
 20
-24.6704
 10
158.3763
 20
-24.6899
 10
158.3161
 20
-24.6981
 10
158.2544
 20
-24.6944
 10
158.1929
 20
-24.678
 10
158.1357
 20
-24.6498
 10
158.0868
 20
-24.612
 10
158.047
 20
-24.5662
 10
158.0169
 20
-24.514
 10
157.9974
 20
-24.4571
 10
157.9891
 20
-24.397
 10
157.9928
 20
-24.3354
 10
158.0092
 20
-24.2739
 10
158.0376
 20
-24.2169
 10
158.0757
 20
-24.1682
 10
158.1217
 20
-24.1284
 10
158.1742
 20
-24.0984
 10
158.2313
 20
-24.0788
 10
158.2915
 20
-24.0704
 10
158.3532
 20
-24.074
 10
158.4147
 20
-24.0902
  0
LWPOLYLINE
  5
7D
330
1F
100
AcDbEntity
  8
Layer 1
 62
     7
370
     9
100
AcDbPolyline
 90
       33
 70
     1
 43
0.0
 10
156.6759
 20
-22.2066
 10
156.7331
 20
-22.2348
 10
156.782
 20
-22.2726
 10
156.8218
 20
-22.3184
 10
156.8519
 20
-22.3707
 10
156.8714
 20
-22.4278
 10
156.8797
 20
-22.488
 10
156.876
 20
-22.5497
 10
156.8596
 20
-22.6114
 10
156.8312
 20
-22.6684
 10
156.7931
 20
-22.7171
 10
156.7471
 20
-22.7568
 10
156.6947
 20
-22.7868
 10
156.6375
 20
-22.8063
 10
156.5773
 20
-22.8145
 10
156.5156
 20
-22.8108
 10
156.4541
 20
-22.7944
 10
156.3969
 20
-22.7662
 10
156.3481
 20
-22.7284
 10
156.3082
 20
-22.6826
 10
156.2782
 20
-22.6304
 10
156.2587
 20
-22.5735
 10
156.2504
 20
-22.5134
 10
156.2541
 20
-22.4518
 10
156.2705
 20
-22.3903
 10
156.2989
 20
-22.3333
 10
156.3369
 20
-22.2846
 10
156.383
 20
-22.2448
 10
156.4354
 20
-22.2148
 10
156.4925
 20
-22.1952
 10
156.5527
 20
-22.1868
 10
156.6144
 20
-22.1904
 10
156.6759
 20
-22.2066
  0
LWPOLYLINE
  5
7E
330
1F
100
AcDbEntity
  8
Layer 1
 62
     7
370
     9
100
AcDbPolyline
 90
       33
 70
     1
 43
0.0
 10
155.4803
 20
-19.5199
 10
155.5375
 20
-19.5481
 10
155.5864
 20
-19.5859
 10
155.6262
 20
-19.6317
 10
155.6563
 20
-19.6839
 10
155.6758
 20
-19.7408
 10
155.6841
 20
-19.8009
 10
155.6804
 20
-19.8625
 10
155.664
 20
-19.924
 10
155.6356
 20
-19.9812
 10
155.5975
 20
-20.0301
 10
155.5515
 20
-20.0699
 10
155.4991
 20
-20.1
 10
155.4419
 20
-20.1195
 10
155.3817
 20
-20.1278
 10
155.32
 20
-20.1241
 10
155.2585
 20
-20.1077
 10
155.2013
 20
-20.0795
 10
155.1525
 20
-20.0417
 10
155.1126
 20
-19.9959
 10
155.0826
 20
-19.9437
 10
155.0631
 20
-19.8867
 10
155.0548
 20
-19.8266
 10
155.0585
 20
-19.765
 10
155.0749
 20
-19.7035
 10
155.1033
 20
-19.6465
 10
155.1413
 20
-19.5977
 10
155.1874
 20
-19.5579
 10
155.2398
 20
-19.5278
 10
155.2969
 20
-19.5082
 10
155.3571
 20
-19.4999
 10
155.4188
 20
-19.5035
 10
155.4803
 20
-19.5199
  0
LWPOLYLINE
  5
7F
330
1F
100
AcDbEntity
  8
Layer 1
 62
     7
370
     9
100
AcDbPolyline
 90
       33
 70
     1
 43
0.0
 10
154.9236
 20
-16.9237
 10
154.9808
 20
-16.9519
 10
155.0296
 20
-16.9897
 10
155.0695
 20
-17.0355
 10
155.0995
 20
-17.0877
 10
155.119
 20
-17.1447
 10
155.1273
 20
-17.2048
 10
155.1236
 20
-17.2664
 10
155.1072
 20
-17.3279
 10
155.0788
 20
-17.3849
 10
155.0408
 20
-17.4336
 10
154.9947
 20
-17.4733
 10
154.9423
 20
-17.5034
 10
154.8852
 20
-17.5229
 10
154.825
 20
-17.5313
 10
154.7633
 20
-17.5277
 10
154.7018
 20
-17.5115
 10
154.6446
 20
-17.4833
 10
154.5957
 20
-17.4455
 10
154.5559
 20
-17.3997
 10
154.5258
 20
-17.3474
 10
154.5063
 20
-17.2904
 10
154.498
 20
-17.2302
 10
154.5017
 20
-17.1684
 10
154.5181
 20
-17.1067
 10
154.5465
 20
-17.0497
 10
154.5846
 20
-17.001
 10
154.6306
 20
-16.9613
 10
154.6831
 20
-16.9313
 10
154.7402
 20
-16.9118
 10
154.8004
 20
-16.9036
 10
154.8621
 20
-16.9073
 10
154.9236
 20
-16.9237
  0
LWPOLYLINE
  5
80
330
1F
100
AcDbEntity
  8
Layer 1
 62
     7
370
     9
100
AcDbPolyline
 90
       33
 70
     1
 43
0.0
 10
154.6636
 20
-14.1775
 10
154.7206
 20
-14.2057
 10
154.7693
 20
-14.2435
 10
154.8091
 20
-14.2893
 10
154.8391
 20
-14.3415
 10
154.8587
 20
-14.3985
 10
154.8671
 20
-14.4586
 10
154.8635
 20
-14.5202
 10
154.8473
 20
-14.5817
 10
154.8189
 20
-14.6387
 10
154.7808
 20
-14.6874
 10
154.7347
 20
-14.7271
 10
154.6823
 20
-14.7572
 10
154.6251
 20
-14.7767
 10
154.5647
 20
-14.7851
 10
154.5029
 20
-14.7815
 10
154.4412
 20
-14.7653
 10
154.3842
 20
-14.7371
 10
154.3355
 20
-14.6993
 10
154.2958
 20
-14.6535
 10
154.2658
 20
-14.6012
 10
154.2463
 20
-14.5442
 10
154.2381
 20
-14.484
 10
154.2418
 20
-14.4222
 10
154.2582
 20
-14.3605
 10
154.2866
 20
-14.3035
 10
154.3245
 20
-14.2548
 10
154.3705
 20
-14.2151
 10
154.4228
 20
-14.1851
 10
154.4799
 20
-14.1656
 10
154.5402
 20
-14.1574
 10
154.6019
 20
-14.1611
 10
154.6636
 20
-14.1775
  0
LWPOLYLINE
  5
81
330
1F
100
AcDbEntity
  8
Layer 1
 62
     7
370
     9
100
AcDbPolyline
 90
       33
 70
     1
 43
0.0
 10
155.1214
 20
-11.4391
 10
155.1784
 20
-11.4673
 10
155.2271
 20
-11.5051
 10
155.2668
 20
-11.5509
 10
155.2968
 20
-11.6032
 10
155.3163
 20
-11.6602
 10
155.3246
 20
-11.7204
 10
155.3209
 20
-11.7822
 10
155.3044
 20
-11.8439
 10
155.2762
 20
-11.9009
 10
155.2383
 20
-11.9496
 10
155.1924
 20
-11.9893
 10
155.14
 20
-12.0193
 10
155.0828
 20
-12.0388
 10
155.0225
 20
-12.047
 10
154.9607
 20
-12.0433
 10
154.899
 20
-12.0269
 10
154.842
 20
-11.9987
 10
154.7933
 20
-11.9609
 10
154.7536
 20
-11.9151
 10
154.7236
 20
-11.8629
 10
154.7041
 20
-11.8059
 10
154.6959
 20
-11.7458
 10
154.6996
 20
-11.6842
 10
154.716
 20
-11.6227
 10
154.7444
 20
-11.5657
 10
154.7823
 20
-11.517
 10
154.8283
 20
-11.4773
 10
154.8806
 20
-11.4472
 10
154.9377
 20
-11.4277
 10
154.998
 20
-11.4193
 10
155.0597
 20
-11.4229
 10
155.1214
 20
-11.4391
  0
LWPOLYLINE
  5
82
330
1F
100
AcDbEntity
  8
Layer 1
 62
     7
370
     9
100
AcDbPolyline
 90
       33
 70
     1
 43
0.0
 10
155.6407
 20
-8.5377
 10
155.6977
 20
-8.5659
 10
155.7464
 20
-8.6037
 10
155.7861
 20
-8.6495
 10
155.8161
 20
-8.7018
 10
155.8356
 20
-8.7588
 10
155.8438
 20
-8.819
 10
155.8401
 20
-8.8808
 10
155.8237
 20
-8.9425
 10
155.7955
 20
-8.9995
 10
155.7576
 20
-9.0482
 10
155.7117
 20
-9.0879
 10
155.6593
 20
-9.1179
 10
155.6021
 20
-9.1374
 10
155.5418
 20
-9.1456
 10
155.4799
 20
-9.1419
 10
155.4182
 20
-9.1255
 10
155.3612
 20
-9.0973
 10
155.3125
 20
-9.0595
 10
155.2728
 20
-9.0137
 10
155.2428
 20
-8.9615
 10
155.2233
 20
-8.9045
 10
155.2151
 20
-8.8444
 10
155.2188
 20
-8.7828
 10
155.2352
 20
-8.7213
 10
155.2636
 20
-8.6643
 10
155.3016
 20
-8.6156
 10
155.3476
 20
-8.5759
 10
155.3999
 20
-8.5458
 10
155.457
 20
-8.5263
 10
155.5172
 20
-8.5179
 10
155.579
 20
-8.5215
 10
155.6407
 20
-8.5377
  0
LWPOLYLINE
  5
83
330
1F
100
AcDbEntity
  8
Layer 1
 62
     7
370
     9
100
AcDbPolyline
 90
       33
 70
     1
 43
0.0
 10
156.3914
 20
-6.8048
 10
156.4484
 20
-6.8332
 10
156.4971
 20
-6.8711
 10
156.5368
 20
-6.917
 10
156.5668
 20
-6.9693
 10
156.5863
 20
-7.0263
 10
156.5945
 20
-7.0864
 10
156.5908
 20
-7.148
 10
156.5744
 20
-7.2095
 10
156.546
 20
-7.2665
 10
156.5081
 20
-7.3152
 10
156.4621
 20
-7.355
 10
156.4098
 20
-7.385
 10
156.3527
 20
-7.4046
 10
156.2924
 20
-7.413
 10
156.2307
 20
-7.4094
 10
156.169
 20
-7.3932
 10
156.112
 20
-7.3648
 10
156.0633
 20
-7.3269
 10
156.0236
 20
-7.2809
 10
155.9936
 20
-7.2286
 10
155.9741
 20
-7.1716
 10
155.9658
 20
-7.1115
 10
155.9695
 20
-7.0499
 10
155.986
 20
-6.9884
 10
156.0142
 20
-6.9314
 10
156.0521
 20
-6.8827
 10
156.098
 20
-6.843
 10
156.1504
 20
-6.8129
 10
156.2076
 20
-6.7934
 10
156.2679
 20
-6.785
 10
156.3297
 20
-6.7886
 10
156.3914
 20
-6.8048
  0
LWPOLYLINE
  5
84
330
1F
100
AcDbEntity
  8
Layer 1
 62
     7
370
     9
100
AcDbPolyline
 90
       33
 70
     1
 43
0.0
 10
157.2786
 20
-5.1914
 10
157.3356
 20
-5.2196
 10
157.3843
 20
-5.2574
 10
157.424
 20
-5.3032
 10
157.4541
 20
-5.3554
 10
157.4736
 20
-5.4124
 10
157.482
 20
-5.4725
 10
157.4784
 20
-5.5341
 10
157.4622
 20
-5.5956
 10
157.4338
 20
-5.6528
 10
157.3958
 20
-5.7017
 10
157.3497
 20
-5.7415
 10
157.2973
 20
-5.7716
 10
157.24
 20
-5.7911
 10
157.1797
 20
-5.7994
 10
157.1178
 20
-5.7956
 10
157.0561
 20
-5.7792
 10
156.9991
 20
-5.751
 10
156.9504
 20
-5.7132
 10
156.9107
 20
-5.6674
 10
156.8807
 20
-5.6152
 10
156.8612
 20
-5.5583
 10
156.853
 20
-5.4982
 10
156.8567
 20
-5.4366
 10
156.8731
 20
-5.3751
 10
156.9015
 20
-5.3181
 10
156.9395
 20
-5.2694
 10
156.9855
 20
-5.2296
 10
157.0378
 20
-5.1996
 10
157.0949
 20
-5.1801
 10
157.1551
 20
-5.1717
 10
157.2169
 20
-5.1752
 10
157.2786
 20
-5.1914
  0
LWPOLYLINE
  5
85
330
1F
100
AcDbEntity
  8
Layer 1
 62
     7
370
     9
100
AcDbPolyline
 90
       33
 70
     1
 43
0.0
 10
158.2517
 20
-3.6602
 10
158.3089
 20
-3.6886
 10
158.3578
 20
-3.7266
 10
158.3976
 20
-3.7725
 10
158.4277
 20
-3.8248
 10
158.4472
 20
-3.8818
 10
158.4555
 20
-3.9419
 10
158.4518
 20
-4.0035
 10
158.4354
 20
-4.065
 10
158.407
 20
-4.122
 10
158.3689
 20
-4.1707
 10
158.3229
 20
-4.2105
 10
158.2705
 20
-4.2405
 10
158.2133
 20
-4.2601
 10
158.1531
 20
-4.2685
 10
158.0914
 20
-4.2649
 10
158.0299
 20
-4.2487
 10
157.9727
 20
-4.2203
 10
157.9239
 20
-4.1823
 10
157.884
 20
-4.1364
 10
157.854
 20
-4.0841
 10
157.8345
 20
-4.0271
 10
157.8262
 20
-3.967
 10
157.8299
 20
-3.9054
 10
157.8463
 20
-3.8439
 10
157.8747
 20
-3.7869
 10
157.9127
 20
-3.7382
 10
157.9588
 20
-3.6984
 10
158.0112
 20
-3.6684
 10
158.0683
 20
-3.6489
 10
158.1285
 20
-3.6405
 10
158.1902
 20
-3.644
 10
158.2517
 20
-3.6602
  0
LWPOLYLINE
  5
86
330
1F
100
AcDbEntity
  8
Layer 1
 62
     7
370
     9
100
AcDbPolyline
 90
       33
 70
     1
 43
0.0
 10
159.4111
 20
-2.1181
 10
159.4681
 20
-2.1465
 10
159.5168
 20
-2.1844
 10
159.5565
 20
-2.2303
 10
159.5865
 20
-2.2826
 10
159.606
 20
-2.3396
 10
159.6142
 20
-2.3997
 10
159.6105
 20
-2.4613
 10
159.5941
 20
-2.5228
 10
159.5657
 20
-2.5798
 10
159.5278
 20
-2.6285
 10
159.4818
 20
-2.6683
 10
159.4295
 20
-2.6983
 10
159.3724
 20
-2.7179
 10
159.3121
 20
-2.7263
 10
159.2504
 20
-2.7227
 10
159.1887
 20
-2.7065
 10
159.1317
 20
-2.6781
 10
159.083
 20
-2.6402
 10
159.0433
 20
-2.5942
 10
159.0133
 20
-2.5419
 10
158.9938
 20
-2.4849
 10
158.9856
 20
-2.4248
 10
158.9893
 20
-2.3632
 10
159.0057
 20
-2.3017
 10
159.0341
 20
-2.2447
 10
159.072
 20
-2.196
 10
159.118
 20
-2.1563
 10
159.1703
 20
-2.1262
 10
159.2274
 20
-2.1067
 10
159.2877
 20
-2.0983
 10
159.3494
 20
-2.1019
 10
159.4111
 20
-2.1181
  0
LWPOLYLINE
  5
87
330
1F
100
AcDbEntity
  8
Layer 1
 62
     7
370
     9
100
AcDbPolyline
 90
       33
 70
     1
 43
0.0
 10
160.8673
 20
-1.0608
 10
160.9245
 20
-1.089
 10
160.9734
 20
-1.1268
 10
161.0132
 20
-1.1726
 10
161.0433
 20
-1.2248
 10
161.0628
 20
-1.2818
 10
161.0711
 20
-1.3419
 10
161.0674
 20
-1.4035
 10
161.0509
 20
-1.465
 10
161.0225
 20
-1.522
 10
160.9845
 20
-1.5707
 10
160.9384
 20
-1.6104
 10
160.886
 20
-1.6405
 10
160.8289
 20
-1.66
 10
160.7687
 20
-1.6684
 10
160.707
 20
-1.6648
 10
160.6455
 20
-1.6486
 10
160.5883
 20
-1.6204
 10
160.5394
 20
-1.5826
 10
160.4996
 20
-1.5368
 10
160.4696
 20
-1.4846
 10
160.45
 20
-1.4277
 10
160.4417
 20
-1.3676
 10
160.4455
 20
-1.306
 10
160.4619
 20
-1.2445
 10
160.4903
 20
-1.1873
 10
160.5283
 20
-1.1384
 10
160.5744
 20
-1.0986
 10
160.6268
 20
-1.0685
 10
160.6839
 20
-1.049
 10
160.7441
 20
-1.0407
 10
160.8058
 20
-1.0444
 10
160.8673
 20
-1.0608
  0
LWPOLYLINE
  5
88
330
1F
100
AcDbEntity
  8
Layer 1
 62
     7
370
     9
100
AcDbPolyline
 90
       33
 70
     1
 43
0.0
 10
162.5026
 20
-0.2939
 10
162.5596
 20
-0.3221
 10
162.6083
 20
-0.3599
 10
162.648
 20
-0.4057
 10
162.678
 20
-0.458
 10
162.6975
 20
-0.5151
 10
162.7057
 20
-0.5753
 10
162.702
 20
-0.637
 10
162.6856
 20
-0.6987
 10
162.6574
 20
-0.7557
 10
162.6195
 20
-0.8044
 10
162.5736
 20
-0.8441
 10
162.5212
 20
-0.8741
 10
162.464
 20
-0.8936
 10
162.4037
 20
-0.9018
 10
162.3419
 20
-0.8981
 10
162.2802
 20
-0.8817
 10
162.2232
 20
-0.8535
 10
162.1745
 20
-0.8157
 10
162.1348
 20
-0.7699
 10
162.1048
 20
-0.7177
 10
162.0853
 20
-0.6608
 10
162.077
 20
-0.6007
 10
162.0807
 20
-0.5391
 10
162.0972
 20
-0.4776
 10
162.1256
 20
-0.4206
 10
162.1635
 20
-0.3719
 10
162.2095
 20
-0.3321
 10
162.2618
 20
-0.3021
 10
162.3189
 20
-0.2826
 10
162.3792
 20
-0.2742
 10
162.4409
 20
-0.2777
 10
162.5026
 20
-0.2939
  0
LWPOLYLINE
  5
89
330
1F
100
AcDbEntity
  8
Layer 1
 62
     7
370
     9
100
AcDbPolyline
 90
       33
 70
     1
 43
0.0
 10
164.361
 20
-0.2079
 10
164.418
 20
-0.2361
 10
164.4667
 20
-0.2739
 10
164.5064
 20
-0.3197
 10
164.5365
 20
-0.3719
 10
164.556
 20
-0.4289
 10
164.5644
 20
-0.489
 10
164.5608
 20
-0.5506
 10
164.5446
 20
-0.6121
 10
164.5162
 20
-0.6691
 10
164.4782
 20
-0.7178
 10
164.4321
 20
-0.7575
 10
164.3797
 20
-0.7876
 10
164.3225
 20
-0.8071
 10
164.2621
 20
-0.8155
 10
164.2003
 20
-0.8119
 10
164.1386
 20
-0.7957
 10
164.0816
 20
-0.7675
 10
164.0329
 20
-0.7297
 10
163.9932
 20
-0.6839
 10
163.9632
 20
-0.6317
 10
163.9437
 20
-0.5748
 10
163.9354
 20
-0.5147
 10
163.9391
 20
-0.4531
 10
163.9556
 20
-0.3916
 10
163.984
 20
-0.3344
 10
164.0219
 20
-0.2855
 10
164.0679
 20
-0.2457
 10
164.1202
 20
-0.2156
 10
164.1773
 20
-0.1961
 10
164.2375
 20
-0.1878
 10
164.2993
 20
-0.1915
 10
164.361
 20
-0.2079
  0
LWPOLYLINE
  5
8A
330
1F
100
AcDbEntity
  8
Layer 1
 62
     7
370
     9
100
AcDbPolyline
 90
       33
 70
     1
 43
0.0
 10
165.1796
 20
-3.5083
 10
165.225
 20
-3.5308
 10
165.2638
 20
-3.5609
 10
165.2954
 20
-3.5974
 10
165.3193
 20
-3.639
 10
165.3349
 20
-3.6844
 10
165.3416
 20
-3.7323
 10
165.3387
 20
-3.7813
 10
165.3258
 20
-3.8303
 10
165.3031
 20
-3.8757
 10
165.2728
 20
-3.9145
 10
165.2361
 20
-3.9461
 10
165.1944
 20
-3.97
 10
165.1489
 20
-3.9856
 10
165.1009
 20
-3.9922
 10
165.0516
 20
-3.9894
 10
165.0024
 20
-3.9764
 10
164.957
 20
-3.9538
 10
164.9182
 20
-3.9236
 10
164.8866
 20
-3.8871
 10
164.8628
 20
-3.8455
 10
164.8473
 20
-3.8002
 10
164.8408
 20
-3.7524
 10
164.8438
 20
-3.7034
 10
164.857
 20
-3.6544
 10
164.8795
 20
-3.609
 10
164.9097
 20
-3.5702
 10
164.9463
 20
-3.5386
 10
164.988
 20
-3.5147
 10
165.0335
 20
-3.4991
 10
165.0815
 20
-3.4925
 10
165.1306
 20
-3.4953
 10
165.1796
 20
-3.5083
  0
LWPOLYLINE
  5
8B
330
1F
100
AcDbEntity
  8
Layer 1
 62
     7
370
     9
100
AcDbPolyline
 90
       33
 70
     1
 43
0.0
 10
166.6539
 20
-5.0712
 10
166.6995
 20
-5.0937
 10
166.7385
 20
-5.1238
 10
166.7702
 20
-5.1603
 10
166.7942
 20
-5.2018
 10
166.8097
 20
-5.2471
 10
166.8162
 20
-5.2949
 10
166.8132
 20
-5.3438
 10
166.8
 20
-5.3925
 10
166.7775
 20
-5.4379
 10
166.7474
 20
-5.4768
 10
166.7108
 20
-5.5086
 10
166.669
 20
-5.5325
 10
166.6235
 20
-5.5481
 10
166.5755
 20
-5.5548
 10
166.5264
 20
-5.5518
 10
166.4774
 20
-5.5387
 10
166.432
 20
-5.5162
 10
166.3932
 20
-5.4861
 10
166.3616
 20
-5.4496
 10
166.3377
 20
-5.4081
 10
166.3221
 20
-5.3628
 10
166.3154
 20
-5.315
 10
166.3183
 20
-5.2661
 10
166.3312
 20
-5.2173
 10
166.3539
 20
-5.1719
 10
166.3842
 20
-5.1331
 10
166.4208
 20
-5.1015
 10
166.4625
 20
-5.0776
 10
166.5079
 20
-5.062
 10
166.5558
 20
-5.0554
 10
166.6049
 20
-5.0582
 10
166.6539
 20
-5.0712
  0
LWPOLYLINE
  5
8C
330
1F
100
AcDbEntity
  8
Layer 1
 62
     7
370
     9
100
AcDbPolyline
 90
       33
 70
     1
 43
0.0
 10
167.9051
 20
-7.0246
 10
167.9505
 20
-7.0473
 10
167.9893
 20
-7.0775
 10
168.0209
 20
-7.114
 10
168.0448
 20
-7.1556
 10
168.0603
 20
-7.2009
 10
168.0668
 20
-7.2487
 10
168.0638
 20
-7.2977
 10
168.0506
 20
-7.3466
 10
168.0281
 20
-7.392
 10
167.9979
 20
-7.4309
 10
167.9613
 20
-7.4625
 10
167.9196
 20
-7.4864
 10
167.8741
 20
-7.502
 10
167.8261
 20
-7.5086
 10
167.7769
 20
-7.5058
 10
167.7279
 20
-7.4928
 10
167.6825
 20
-7.4703
 10
167.6437
 20
-7.4402
 10
167.6121
 20
-7.4037
 10
167.5882
 20
-7.3621
 10
167.5726
 20
-7.3167
 10
167.566
 20
-7.2688
 10
167.5688
 20
-7.2197
 10
167.5818
 20
-7.1707
 10
167.6045
 20
-7.1253
 10
167.6348
 20
-7.0865
 10
167.6715
 20
-7.0549
 10
167.7132
 20
-7.031
 10
167.7587
 20
-7.0154
 10
167.8067
 20
-7.0088
 10
167.8559
 20
-7.0116
 10
167.9051
 20
-7.0246
  0
LWPOLYLINE
  5
8D
330
1F
100
AcDbEntity
  8
Layer 1
 62
     7
370
     9
100
AcDbPolyline
 90
       33
 70
     1
 43
0.0
 10
168.4929
 20
-8.4039
 10
168.5385
 20
-8.4264
 10
168.5775
 20
-8.4565
 10
168.6092
 20
-8.4929
 10
168.6332
 20
-8.5345
 10
168.6487
 20
-8.5798
 10
168.6552
 20
-8.6275
 10
168.6522
 20
-8.6764
 10
168.639
 20
-8.7252
 10
168.6165
 20
-8.7706
 10
168.5863
 20
-8.8094
 10
168.5497
 20
-8.8411
 10
168.508
 20
-8.865
 10
168.4625
 20
-8.8805
 10
168.4145
 20
-8.8872
 10
168.3654
 20
-8.8843
 10
168.3164
 20
-8.8714
 10
168.271
 20
-8.8489
 10
168.2321
 20
-8.8188
 10
168.2005
 20
-8.7823
 10
168.1766
 20
-8.7407
 10
168.161
 20
-8.6953
 10
168.1544
 20
-8.6474
 10
168.1572
 20
-8.5983
 10
168.1702
 20
-8.5493
 10
168.1929
 20
-8.5041
 10
168.2232
 20
-8.4654
 10
168.2598
 20
-8.4338
 10
168.3015
 20
-8.4099
 10
168.3469
 20
-8.3944
 10
168.3948
 20
-8.3878
 10
168.4439
 20
-8.3907
 10
168.4929
 20
-8.4039
  0
LWPOLYLINE
  5
8E
330
1F
100
AcDbEntity
  8
Layer 1
 62
     7
370
     9
100
AcDbPolyline
 90
       33
 70
     1
 43
0.0
 10
169.1434
 20
-10.4291
 10
169.1888
 20
-10.4516
 10
169.2276
 20
-10.4817
 10
169.2592
 20
-10.5182
 10
169.2831
 20
-10.5598
 10
169.2985
 20
-10.6052
 10
169.3051
 20
-10.6531
 10
169.302
 20
-10.7021
 10
169.2889
 20
-10.7511
 10
169.2664
 20
-10.7965
 10
169.2362
 20
-10.8353
 10
169.1996
 20
-10.8669
 10
169.1579
 20
-10.8908
 10
169.1124
 20
-10.9064
 10
169.0644
 20
-10.913
 10
169.0152
 20
-10.9102
 10
168.9662
 20
-10.8972
 10
168.9208
 20
-10.8746
 10
168.882
 20
-10.8444
 10
168.8504
 20
-10.8078
 10
168.8265
 20
-10.7663
 10
168.8109
 20
-10.721
 10
168.8043
 20
-10.6732
 10
168.8071
 20
-10.6241
 10
168.8201
 20
-10.5752
 10
168.8428
 20
-10.5298
 10
168.873
 20
-10.491
 10
168.9097
 20
-10.4594
 10
168.9514
 20
-10.4355
 10
168.9969
 20
-10.4199
 10
169.0449
 20
-10.4133
 10
169.0942
 20
-10.4161
 10
169.1434
 20
-10.4291
  0
LWPOLYLINE
  5
8F
330
1F
100
AcDbEntity
  8
Layer 1
 62
     7
370
     9
100
AcDbPolyline
 90
       33
 70
     1
 43
0.0
 10
169.6594
 20
-12.4038
 10
169.7048
 20
-12.4265
 10
169.7436
 20
-12.4567
 10
169.7752
 20
-12.4932
 10
169.7991
 20
-12.5348
 10
169.8147
 20
-12.5801
 10
169.8213
 20
-12.6279
 10
169.8185
 20
-12.6769
 10
169.8055
 20
-12.7259
 10
169.7828
 20
-12.7713
 10
169.7526
 20
-12.8101
 10
169.7159
 20
-12.8417
 10
169.6742
 20
-12.8656
 10
169.6287
 20
-12.8812
 10
169.5807
 20
-12.8878
 10
169.5314
 20
-12.885
 10
169.4822
 20
-12.872
 10
169.4368
 20
-12.8495
 10
169.398
 20
-12.8194
 10
169.3664
 20
-12.7829
 10
169.3426
 20
-12.7413
 10
169.3271
 20
-12.6959
 10
169.3205
 20
-12.648
 10
169.3236
 20
-12.599
 10
169.3367
 20
-12.55
 10
169.3592
 20
-12.5046
 10
169.3894
 20
-12.4658
 10
169.426
 20
-12.4342
 10
169.4678
 20
-12.4103
 10
169.5133
 20
-12.3947
 10
169.5613
 20
-12.388
 10
169.6104
 20
-12.3909
 10
169.6594
 20
-12.4038
  0
LWPOLYLINE
  5
90
330
1F
100
AcDbEntity
  8
Layer 1
 62
     7
370
     9
100
AcDbPolyline
 90
       33
 70
     1
 43
0.0
 10
169.6672
 20
-14.3075
 10
169.7126
 20
-14.3299
 10
169.7514
 20
-14.36
 10
169.783
 20
-14.3964
 10
169.8069
 20
-14.4379
 10
169.8223
 20
-14.4831
 10
169.8289
 20
-14.5309
 10
169.8258
 20
-14.5799
 10
169.8127
 20
-14.6289
 10
169.7902
 20
-14.6743
 10
169.76
 20
-14.7131
 10
169.7234
 20
-14.7447
 10
169.6817
 20
-14.7686
 10
169.6361
 20
-14.7842
 10
169.5882
 20
-14.7908
 10
169.539
 20
-14.788
 10
169.49
 20
-14.775
 10
169.4446
 20
-14.7525
 10
169.4058
 20
-14.7224
 10
169.3742
 20
-14.6859
 10
169.3503
 20
-14.6443
 10
169.3347
 20
-14.5989
 10
169.3281
 20
-14.551
 10
169.3309
 20
-14.502
 10
169.3439
 20
-14.453
 10
169.3666
 20
-14.4078
 10
169.3968
 20
-14.3691
 10
169.4335
 20
-14.3375
 10
169.4752
 20
-14.3136
 10
169.5207
 20
-14.298
 10
169.5687
 20
-14.2914
 10
169.618
 20
-14.2944
 10
169.6672
 20
-14.3075
  0
LWPOLYLINE
  5
91
330
1F
100
AcDbEntity
  8
Layer 1
 62
     7
370
     9
100
AcDbPolyline
 90
       33
 70
     1
 43
0.0
 10
169.3658
 20
-16.4213
 10
169.4112
 20
-16.4438
 10
169.45
 20
-16.4739
 10
169.4817
 20
-16.5104
 10
169.5055
 20
-16.552
 10
169.521
 20
-16.5974
 10
169.5275
 20
-16.6453
 10
169.5245
 20
-16.6943
 10
169.5113
 20
-16.7433
 10
169.4888
 20
-16.7887
 10
169.4586
 20
-16.8275
 10
169.422
 20
-16.8592
 10
169.3803
 20
-16.8831
 10
169.3348
 20
-16.8986
 10
169.2868
 20
-16.9053
 10
169.2377
 20
-16.9024
 10
169.1887
 20
-16.8895
 10
169.1433
 20
-16.8668
 10
169.1044
 20
-16.8366
 10
169.0728
 20
-16.8001
 10
169.0489
 20
-16.7585
 10
169.0333
 20
-16.7132
 10
169.0267
 20
-16.6654
 10
169.0295
 20
-16.6164
 10
169.0425
 20
-16.5674
 10
169.0652
 20
-16.522
 10
169.0955
 20
-16.4832
 10
169.1322
 20
-16.4516
 10
169.1739
 20
-16.4277
 10
169.2194
 20
-16.4121
 10
169.2674
 20
-16.4055
 10
169.3166
 20
-16.4083
 10
169.3658
 20
-16.4213
  0
LWPOLYLINE
  5
92
330
1F
100
AcDbEntity
  8
Layer 1
 62
     7
370
     9
100
AcDbPolyline
 90
       33
 70
     1
 43
0.0
 10
168.6035
 20
-18.5403
 10
168.6489
 20
-18.5628
 10
168.6877
 20
-18.5929
 10
168.7193
 20
-18.6294
 10
168.7432
 20
-18.671
 10
168.7588
 20
-18.7164
 10
168.7654
 20
-18.7643
 10
168.7626
 20
-18.8133
 10
168.7496
 20
-18.8623
 10
168.7269
 20
-18.9077
 10
168.6967
 20
-18.9465
 10
168.66
 20
-18.9781
 10
168.6184
 20
-19.002
 10
168.5729
 20
-19.0176
 10
168.525
 20
-19.0242
 10
168.4759
 20
-19.0214
 10
168.4269
 20
-19.0084
 10
168.3813
 20
-18.9859
 10
168.3424
 20
-18.9558
 10
168.3106
 20
-18.9193
 10
168.2867
 20
-18.8777
 10
168.2712
 20
-18.8323
 10
168.2646
 20
-18.7844
 10
168.2677
 20
-18.7354
 10
168.2808
 20
-18.6864
 10
168.3033
 20
-18.641
 10
168.3335
 20
-18.6022
 10
168.3701
 20
-18.5706
 10
168.4118
 20
-18.5467
 10
168.4573
 20
-18.5311
 10
168.5053
 20
-18.5245
 10
168.5545
 20
-18.5273
 10
168.6035
 20
-18.5403
  0
LWPOLYLINE
  5
93
330
1F
100
AcDbEntity
  8
Layer 1
 62
     7
370
     9
100
AcDbPolyline
 90
       33
 70
     1
 43
0.0
 10
167.7991
 20
-19.9609
 10
167.8445
 20
-19.9834
 10
167.8833
 20
-20.0135
 10
167.9149
 20
-20.05
 10
167.9388
 20
-20.0916
 10
167.9544
 20
-20.137
 10
167.961
 20
-20.1849
 10
167.9582
 20
-20.2339
 10
167.9452
 20
-20.2829
 10
167.9225
 20
-20.3281
 10
167.8923
 20
-20.3668
 10
167.8556
 20
-20.3985
 10
167.814
 20
-20.4224
 10
167.7685
 20
-20.4379
 10
167.7206
 20
-20.4445
 10
167.6715
 20
-20.4416
 10
167.6225
 20
-20.4284
 10
167.5771
 20
-20.4059
 10
167.5382
 20
-20.3758
 10
167.5065
 20
-20.3393
 10
167.4826
 20
-20.2978
 10
167.467
 20
-20.2525
 10
167.4603
 20
-20.2047
 10
167.4633
 20
-20.1558
 10
167.4764
 20
-20.107
 10
167.4989
 20
-20.0616
 10
167.5291
 20
-20.0228
 10
167.5657
 20
-19.9912
 10
167.6075
 20
-19.9673
 10
167.653
 20
-19.9517
 10
167.701
 20
-19.9451
 10
167.7501
 20
-19.9479
 10
167.7991
 20
-19.9609
  0
LWPOLYLINE
  5
94
330
1F
100
AcDbEntity
  8
Layer 1
 62
     7
370
     9
100
AcDbPolyline
 90
       33
 70
     1
 43
0.0
 10
166.4573
 20
-21.3873
 10
166.5027
 20
-21.4098
 10
166.5415
 20
-21.4399
 10
166.5732
 20
-21.4764
 10
166.597
 20
-21.518
 10
166.6125
 20
-21.5634
 10
166.619
 20
-21.6113
 10
166.616
 20
-21.6604
 10
166.6028
 20
-21.7094
 10
166.5803
 20
-21.7548
 10
166.5501
 20
-21.7936
 10
166.5135
 20
-21.8252
 10
166.4718
 20
-21.8491
 10
166.4263
 20
-21.8647
 10
166.3783
 20
-21.8713
 10
166.3292
 20
-21.8685
 10
166.2802
 20
-21.8555
 10
166.2348
 20
-21.8329
 10
166.196
 20
-21.8027
 10
166.1643
 20
-21.7661
 10
166.1405
 20
-21.7246
 10
166.125
 20
-21.6793
 10
166.1185
 20
-21.6315
 10
166.1215
 20
-21.5824
 10
166.1347
 20
-21.5335
 10
166.1572
 20
-21.4881
 10
166.1873
 20
-21.4493
 10
166.2238
 20
-21.4177
 10
166.2655
 20
-21.3938
 10
166.3109
 20
-21.3782
 10
166.3589
 20
-21.3715
 10
166.4081
 20
-21.3744
 10
166.4573
 20
-21.3873
  0
LWPOLYLINE
  5
95
330
1F
100
AcDbEntity
  8
Layer 1
 62
     7
370
     9
100
AcDbPolyline
 90
       33
 70
     1
 43
0.0
 10
164.9455
 20
-22.453
 10
164.9909
 20
-22.4755
 10
165.0298
 20
-22.5056
 10
165.0614
 20
-22.5421
 10
165.0853
 20
-22.5837
 10
165.1009
 20
-22.6291
 10
165.1075
 20
-22.677
 10
165.1047
 20
-22.726
 10
165.0917
 20
-22.775
 10
165.069
 20
-22.8204
 10
165.0387
 20
-22.8592
 10
165.0021
 20
-22.8908
 10
164.9604
 20
-22.9147
 10
164.915
 20
-22.9303
 10
164.8671
 20
-22.9369
 10
164.818
 20
-22.9341
 10
164.769
 20
-22.9211
 10
164.7234
 20
-22.8986
 10
164.6844
 20
-22.8685
 10
164.6527
 20
-22.832
 10
164.6288
 20
-22.7904
 10
164.6132
 20
-22.745
 10
164.6067
 20
-22.6971
 10
164.6097
 20
-22.6481
 10
164.6229
 20
-22.5991
 10
164.6454
 20
-22.5537
 10
164.6756
 20
-22.5149
 10
164.7122
 20
-22.4833
 10
164.7539
 20
-22.4594
 10
164.7994
 20
-22.4438
 10
164.8474
 20
-22.4372
 10
164.8965
 20
-22.44
 10
164.9455
 20
-22.453
  0
LWPOLYLINE
  5
96
330
1F
100
AcDbEntity
  8
Layer 1
 62
     7
370
     9
100
AcDbPolyline
 90
       33
 70
     1
 43
0.0
 10
162.9604
 20
-22.7472
 10
163.0058
 20
-22.7698
 10
163.0446
 20
-22.8
 10
163.0762
 20
-22.8366
 10
163.1001
 20
-22.8781
 10
163.1157
 20
-22.9234
 10
163.1224
 20
-22.9712
 10
163.1195
 20
-23.0203
 10
163.1066
 20
-23.0692
 10
163.0839
 20
-23.1146
 10
163.0536
 20
-23.1534
 10
163.0169
 20
-23.185
 10
162.9752
 20
-23.2089
 10
162.9297
 20
-23.2245
 10
162.8817
 20
-23.2311
 10
162.8324
 20
-23.2283
 10
162.7832
 20
-23.2153
 10
162.7378
 20
-23.1928
 10
162.699
 20
-23.1627
 10
162.6674
 20
-23.1262
 10
162.6436
 20
-23.0846
 10
162.6281
 20
-23.0393
 10
162.6216
 20
-22.9914
 10
162.6246
 20
-22.9423
 10
162.6378
 20
-22.8933
 10
162.6603
 20
-22.8479
 10
162.6904
 20
-22.8091
 10
162.727
 20
-22.7775
 10
162.7688
 20
-22.7536
 10
162.8143
 20
-22.738
 10
162.8623
 20
-22.7314
 10
162.9114
 20
-22.7342
 10
162.9604
 20
-22.7472
  0
LWPOLYLINE
  5
97
330
1F
100
AcDbEntity
  8
Layer 1
 62
     7
370
     9
100
AcDbPolyline
 90
       33
 70
     1
 43
0.0
 10
161.0024
 20
-22.6664
 10
161.0478
 20
-22.6889
 10
161.0867
 20
-22.719
 10
161.1183
 20
-22.7555
 10
161.1422
 20
-22.797
 10
161.1578
 20
-22.8423
 10
161.1644
 20
-22.8901
 10
161.1616
 20
-22.939
 10
161.1486
 20
-22.9877
 10
161.1259
 20
-23.0331
 10
161.0956
 20
-23.072
 10
161.059
 20
-23.1036
 10
161.0173
 20
-23.1275
 10
160.9719
 20
-23.1431
 10
160.924
 20
-23.1497
 10
160.8749
 20
-23.1469
 10
160.8259
 20
-23.1339
 10
160.7803
 20
-23.1114
 10
160.7414
 20
-23.0813
 10
160.7096
 20
-23.0448
 10
160.6857
 20
-23.0033
 10
160.6702
 20
-22.958
 10
160.6636
 20
-22.9102
 10
160.6666
 20
-22.8613
 10
160.6798
 20
-22.8125
 10
160.7023
 20
-22.7671
 10
160.7325
 20
-22.7282
 10
160.7691
 20
-22.6965
 10
160.8108
 20
-22.6725
 10
160.8563
 20
-22.6569
 10
160.9043
 20
-22.6503
 10
160.9534
 20
-22.6532
 10
161.0024
 20
-22.6664
  0
LWPOLYLINE
  5
98
330
1F
100
AcDbEntity
  8
Layer 1
 62
     7
370
     9
100
AcDbPolyline
 90
       33
 70
     1
 43
0.0
 10
159.3865
 20
-21.8814
 10
159.4319
 20
-21.904
 10
159.4707
 20
-21.9342
 10
159.5024
 20
-21.9708
 10
159.5262
 20
-22.0123
 10
159.5417
 20
-22.0576
 10
159.5482
 20
-22.1054
 10
159.5452
 20
-22.1545
 10
159.532
 20
-22.2034
 10
159.5095
 20
-22.2488
 10
159.4793
 20
-22.2876
 10
159.4427
 20
-22.3192
 10
159.401
 20
-22.3431
 10
159.3555
 20
-22.3587
 10
159.3075
 20
-22.3653
 10
159.2584
 20
-22.3625
 10
159.2094
 20
-22.3495
 10
159.164
 20
-22.327
 10
159.1252
 20
-22.2969
 10
159.0935
 20
-22.2604
 10
159.0697
 20
-22.2188
 10
159.0542
 20
-22.1734
 10
159.0477
 20
-22.1255
 10
159.0507
 20
-22.0765
 10
159.0639
 20
-22.0275
 10
159.0864
 20
-21.9821
 10
159.1165
 20
-21.9433
 10
159.153
 20
-21.9117
 10
159.1947
 20
-21.8878
 10
159.2401
 20
-21.8722
 10
159.2881
 20
-21.8656
 10
159.3373
 20
-21.8684
 10
159.3865
 20
-21.8814
  0
LWPOLYLINE
  5
99
330
1F
100
AcDbEntity
  8
Layer 1
 62
     7
370
     9
100
AcDbPolyline
 90
       33
 70
     1
 43
0.0
 10
158.0021
 20
-20.3825
 10
158.0477
 20
-20.405
 10
158.0867
 20
-20.4351
 10
158.1184
 20
-20.4716
 10
158.1424
 20
-20.5132
 10
158.1579
 20
-20.5586
 10
158.1645
 20
-20.6065
 10
158.1614
 20
-20.6555
 10
158.1483
 20
-20.7045
 10
158.1258
 20
-20.7499
 10
158.0956
 20
-20.7887
 10
158.059
 20
-20.8203
 10
158.0173
 20
-20.8442
 10
157.9717
 20
-20.8598
 10
157.9238
 20
-20.8665
 10
157.8746
 20
-20.8636
 10
157.8256
 20
-20.8507
 10
157.7802
 20
-20.8282
 10
157.7414
 20
-20.7981
 10
157.7098
 20
-20.7616
 10
157.6859
 20
-20.72
 10
157.6703
 20
-20.6746
 10
157.6637
 20
-20.6267
 10
157.6665
 20
-20.5776
 10
157.6795
 20
-20.5286
 10
157.7022
 20
-20.4832
 10
157.7324
 20
-20.4444
 10
157.7691
 20
-20.4128
 10
157.8107
 20
-20.3889
 10
157.8562
 20
-20.3733
 10
157.9041
 20
-20.3667
 10
157.9531
 20
-20.3695
 10
158.0021
 20
-20.3825
  0
LWPOLYLINE
  5
9A
330
1F
100
AcDbEntity
  8
Layer 1
 62
     7
370
     9
100
AcDbPolyline
 90
       33
 70
     1
 43
0.0
 10
157.051
 20
-18.2441
 10
157.0964
 20
-18.2666
 10
157.1352
 20
-18.2967
 10
157.1668
 20
-18.3332
 10
157.1907
 20
-18.3747
 10
157.2063
 20
-18.42
 10
157.2129
 20
-18.4678
 10
157.2101
 20
-18.5167
 10
157.1971
 20
-18.5655
 10
157.1744
 20
-18.6109
 10
157.1441
 20
-18.6497
 10
157.1074
 20
-18.6813
 10
157.0657
 20
-18.7052
 10
157.0202
 20
-18.7208
 10
156.9722
 20
-18.7274
 10
156.923
 20
-18.7246
 10
156.8738
 20
-18.7116
 10
156.8284
 20
-18.6891
 10
156.7896
 20
-18.659
 10
156.758
 20
-18.6225
 10
156.7341
 20
-18.581
 10
156.7186
 20
-18.5357
 10
156.7121
 20
-18.4879
 10
156.7151
 20
-18.439
 10
156.7283
 20
-18.3903
 10
156.7508
 20
-18.3449
 10
156.781
 20
-18.306
 10
156.8176
 20
-18.2742
 10
156.8593
 20
-18.2503
 10
156.9048
 20
-18.2347
 10
156.9528
 20
-18.228
 10
157.002
 20
-18.231
 10
157.051
 20
-18.2441
  0
LWPOLYLINE
  5
9B
330
1F
100
AcDbEntity
  8
Layer 1
 62
     7
370
     9
100
AcDbPolyline
 90
       33
 70
     1
 43
0.0
 10
156.6074
 20
-16.1775
 10
156.6528
 20
-16.2
 10
156.6917
 20
-16.2301
 10
156.7234
 20
-16.2666
 10
156.7474
 20
-16.3082
 10
156.7629
 20
-16.3536
 10
156.7696
 20
-16.4015
 10
156.7666
 20
-16.4505
 10
156.7535
 20
-16.4995
 10
156.731
 20
-16.5447
 10
156.7008
 20
-16.5834
 10
156.6642
 20
-16.6151
 10
156.6225
 20
-16.639
 10
156.577
 20
-16.6545
 10
156.529
 20
-16.6611
 10
156.4798
 20
-16.6582
 10
156.4308
 20
-16.645
 10
156.3854
 20
-16.6226
 10
156.3466
 20
-16.5925
 10
156.315
 20
-16.5561
 10
156.2911
 20
-16.5147
 10
156.2755
 20
-16.4694
 10
156.2689
 20
-16.4216
 10
156.2717
 20
-16.3726
 10
156.2847
 20
-16.3237
 10
156.3074
 20
-16.2783
 10
156.3376
 20
-16.2394
 10
156.3743
 20
-16.2078
 10
156.4159
 20
-16.1839
 10
156.4614
 20
-16.1683
 10
156.5093
 20
-16.1617
 10
156.5584
 20
-16.1645
 10
156.6074
 20
-16.1775
  0
LWPOLYLINE
  5
9C
330
1F
100
AcDbEntity
  8
Layer 1
 62
     7
370
     9
100
AcDbPolyline
 90
       33
 70
     1
 43
0.0
 10
156.4005
 20
-13.9913
 10
156.4459
 20
-14.0138
 10
156.4847
 20
-14.0439
 10
156.5163
 20
-14.0804
 10
156.5402
 20
-14.122
 10
156.5558
 20
-14.1674
 10
156.5624
 20
-14.2153
 10
156.5596
 20
-14.2643
 10
156.5466
 20
-14.3133
 10
156.5239
 20
-14.3587
 10
156.4936
 20
-14.3975
 10
156.457
 20
-14.4292
 10
156.4153
 20
-14.4531
 10
156.3699
 20
-14.4686
 10
156.322
 20
-14.4753
 10
156.2729
 20
-14.4724
 10
156.2239
 20
-14.4595
 10
156.1785
 20
-14.437
 10
156.1397
 20
-14.4069
 10
156.1081
 20
-14.3704
 10
156.0842
 20
-14.3288
 10
156.0686
 20
-14.2834
 10
156.062
 20
-14.2355
 10
156.0648
 20
-14.1864
 10
156.0778
 20
-14.1374
 10
156.1005
 20
-14.092
 10
156.1307
 20
-14.0532
 10
156.1674
 20
-14.0216
 10
156.209
 20
-13.9977
 10
156.2545
 20
-13.9821
 10
156.3024
 20
-13.9755
 10
156.3515
 20
-13.9783
 10
156.4005
 20
-13.9913
  0
LWPOLYLINE
  5
9D
330
1F
100
AcDbEntity
  8
Layer 1
 62
     7
370
     9
100
AcDbPolyline
 90
       33
 70
     1
 43
0.0
 10
156.7651
 20
-11.8122
 10
156.8105
 20
-11.8347
 10
156.8493
 20
-11.8648
 10
156.881
 20
-11.9013
 10
156.9048
 20
-11.9429
 10
156.9203
 20
-11.9883
 10
156.9268
 20
-12.0362
 10
156.9238
 20
-12.0852
 10
156.9106
 20
-12.1342
 10
156.8881
 20
-12.1796
 10
156.858
 20
-12.2184
 10
156.8215
 20
-12.25
 10
156.7798
 20
-12.2739
 10
156.7344
 20
-12.2895
 10
156.6864
 20
-12.2961
 10
156.6372
 20
-12.2933
 10
156.588
 20
-12.2803
 10
156.5426
 20
-12.2578
 10
156.5038
 20
-12.2277
 10
156.4721
 20
-12.1912
 10
156.4483
 20
-12.1496
 10
156.4328
 20
-12.1043
 10
156.4263
 20
-12.0564
 10
156.4293
 20
-12.0073
 10
156.4425
 20
-11.9583
 10
156.465
 20
-11.9129
 10
156.4952
 20
-11.8741
 10
156.5318
 20
-11.8425
 10
156.5735
 20
-11.8186
 10
156.619
 20
-11.803
 10
156.667
 20
-11.7964
 10
156.7161
 20
-11.7992
 10
156.7651
 20
-11.8122
  0
LWPOLYLINE
  5
9E
330
1F
100
AcDbEntity
  8
Layer 1
 62
     7
370
     9
100
AcDbPolyline
 90
       33
 70
     1
 43
0.0
 10
157.1783
 20
-9.5031
 10
157.2237
 20
-9.5256
 10
157.2626
 20
-9.5557
 10
157.2942
 20
-9.5922
 10
157.3181
 20
-9.6337
 10
157.3337
 20
-9.679
 10
157.3403
 20
-9.7268
 10
157.3375
 20
-9.7757
 10
157.3245
 20
-9.8245
 10
157.3018
 20
-9.8699
 10
157.2715
 20
-9.9088
 10
157.2348
 20
-9.9405
 10
157.1931
 20
-9.9645
 10
157.1476
 20
-9.9801
 10
157.0996
 20
-9.9867
 10
157.0504
 20
-9.9838
 10
157.0012
 20
-9.9706
 10
156.9558
 20
-9.9481
 10
156.917
 20
-9.918
 10
156.8853
 20
-9.8815
 10
156.8615
 20
-9.84
 10
156.846
 20
-9.7947
 10
156.8395
 20
-9.7469
 10
156.8425
 20
-9.698
 10
156.8557
 20
-9.6492
 10
156.8782
 20
-9.6038
 10
156.9084
 20
-9.5649
 10
156.945
 20
-9.5332
 10
156.9867
 20
-9.5093
 10
157.0322
 20
-9.4937
 10
157.0802
 20
-9.487
 10
157.1293
 20
-9.49
 10
157.1783
 20
-9.5031
  0
LWPOLYLINE
  5
9F
330
1F
100
AcDbEntity
  8
Layer 1
 62
     7
370
     9
100
AcDbPolyline
 90
       33
 70
     1
 43
0.0
 10
157.7758
 20
-8.1239
 10
157.8212
 20
-8.1464
 10
157.86
 20
-8.1765
 10
157.8916
 20
-8.213
 10
157.9155
 20
-8.2546
 10
157.9311
 20
-8.3
 10
157.9377
 20
-8.3479
 10
157.9349
 20
-8.3969
 10
157.9219
 20
-8.4459
 10
157.8992
 20
-8.4913
 10
157.869
 20
-8.5301
 10
157.8323
 20
-8.5617
 10
157.7906
 20
-8.5856
 10
157.7451
 20
-8.6012
 10
157.6971
 20
-8.6078
 10
157.6478
 20
-8.605
 10
157.5986
 20
-8.592
 10
157.5532
 20
-8.5695
 10
157.5144
 20
-8.5394
 10
157.4828
 20
-8.5029
 10
157.459
 20
-8.4613
 10
157.4435
 20
-8.4159
 10
157.4369
 20
-8.368
 10
157.44
 20
-8.319
 10
157.4531
 20
-8.27
 10
157.4756
 20
-8.2246
 10
157.5058
 20
-8.1858
 10
157.5424
 20
-8.1542
 10
157.5842
 20
-8.1303
 10
157.6297
 20
-8.1147
 10
157.6777
 20
-8.1081
 10
157.7268
 20
-8.1109
 10
157.7758
 20
-8.1239
  0
LWPOLYLINE
  5
A0
330
1F
100
AcDbEntity
  8
Layer 1
 62
     7
370
     9
100
AcDbPolyline
 90
       33
 70
     1
 43
0.0
 10
158.4819
 20
-6.8397
 10
158.5273
 20
-6.8622
 10
158.5661
 20
-6.8923
 10
158.5978
 20
-6.9288
 10
158.6217
 20
-6.9703
 10
158.6372
 20
-7.0156
 10
158.6439
 20
-7.0634
 10
158.641
 20
-7.1123
 10
158.6281
 20
-7.161
 10
158.6054
 20
-7.2064
 10
158.5751
 20
-7.2453
 10
158.5385
 20
-7.2769
 10
158.4968
 20
-7.3008
 10
158.4514
 20
-7.3164
 10
158.4035
 20
-7.323
 10
158.3544
 20
-7.3202
 10
158.3054
 20
-7.3072
 10
158.2598
 20
-7.2847
 10
158.2208
 20
-7.2546
 10
158.1891
 20
-7.2181
 10
158.1652
 20
-7.1765
 10
158.1496
 20
-7.1311
 10
158.1431
 20
-7.0832
 10
158.1461
 20
-7.0342
 10
158.1593
 20
-6.9852
 10
158.1818
 20
-6.94
 10
158.212
 20
-6.9013
 10
158.2486
 20
-6.8696
 10
158.2903
 20
-6.8457
 10
158.3358
 20
-6.8302
 10
158.3838
 20
-6.8236
 10
158.4329
 20
-6.8265
 10
158.4819
 20
-6.8397
  0
LWPOLYLINE
  5
A1
330
1F
100
AcDbEntity
  8
Layer 1
 62
     7
370
     9
100
AcDbPolyline
 90
       33
 70
     1
 43
0.0
 10
159.2566
 20
-5.6208
 10
159.302
 20
-5.6433
 10
159.3408
 20
-5.6734
 10
159.3724
 20
-5.7099
 10
159.3963
 20
-5.7515
 10
159.4119
 20
-5.7969
 10
159.4185
 20
-5.8448
 10
159.4157
 20
-5.8938
 10
159.4027
 20
-5.9428
 10
159.38
 20
-5.9882
 10
159.3498
 20
-6.027
 10
159.3131
 20
-6.0586
 10
159.2715
 20
-6.0825
 10
159.226
 20
-6.0981
 10
159.1781
 20
-6.1048
 10
159.129
 20
-6.1019
 10
159.08
 20
-6.089
 10
159.0346
 20
-6.0665
 10
158.9958
 20
-6.0364
 10
158.9642
 20
-5.9999
 10
158.9403
 20
-5.9583
 10
158.9247
 20
-5.9129
 10
158.9181
 20
-5.865
 10
158.9209
 20
-5.8159
 10
158.9339
 20
-5.7669
 10
158.9566
 20
-5.7215
 10
158.9869
 20
-5.6827
 10
159.0235
 20
-5.6511
 10
159.0652
 20
-5.6272
 10
159.1106
 20
-5.6116
 10
159.1585
 20
-5.605
 10
159.2076
 20
-5.6078
 10
159.2566
 20
-5.6208
  0
LWPOLYLINE
  5
A2
330
1F
100
AcDbEntity
  8
Layer 1
 62
     7
370
     9
100
AcDbPolyline
 90
       33
 70
     1
 43
0.0
 10
160.1793
 20
-4.3935
 10
160.2247
 20
-4.416
 10
160.2635
 20
-4.4461
 10
160.2951
 20
-4.4826
 10
160.319
 20
-4.5242
 10
160.3346
 20
-4.5696
 10
160.3412
 20
-4.6175
 10
160.3384
 20
-4.6665
 10
160.3254
 20
-4.7155
 10
160.3027
 20
-4.7609
 10
160.2725
 20
-4.7998
 10
160.2358
 20
-4.8314
 10
160.1941
 20
-4.8553
 10
160.1486
 20
-4.8709
 10
160.1006
 20
-4.8775
 10
160.0513
 20
-4.8747
 10
160.0021
 20
-4.8617
 10
159.9567
 20
-4.8392
 10
159.9179
 20
-4.8091
 10
159.8863
 20
-4.7726
 10
159.8625
 20
-4.731
 10
159.847
 20
-4.6856
 10
159.8404
 20
-4.6377
 10
159.8435
 20
-4.5886
 10
159.8566
 20
-4.5396
 10
159.8791
 20
-4.4942
 10
159.9093
 20
-4.4554
 10
159.9459
 20
-4.4238
 10
159.9877
 20
-4.3999
 10
160.0332
 20
-4.3843
 10
160.0812
 20
-4.3777
 10
160.1303
 20
-4.3805
 10
160.1793
 20
-4.3935
  0
LWPOLYLINE
  5
A3
330
1F
100
AcDbEntity
  8
Layer 1
 62
     7
370
     9
100
AcDbPolyline
 90
       33
 70
     1
 43
0.0
 10
161.3387
 20
-3.5516
 10
161.3841
 20
-3.5741
 10
161.4229
 20
-3.6042
 10
161.4545
 20
-3.6407
 10
161.4784
 20
-3.6823
 10
161.494
 20
-3.7277
 10
161.5006
 20
-3.7756
 10
161.4978
 20
-3.8246
 10
161.4848
 20
-3.8736
 10
161.4621
 20
-3.919
 10
161.4319
 20
-3.9579
 10
161.3952
 20
-3.9895
 10
161.3535
 20
-4.0134
 10
161.308
 20
-4.029
 10
161.26
 20
-4.0356
 10
161.2107
 20
-4.0328
 10
161.1615
 20
-4.0198
 10
161.1161
 20
-3.9973
 10
161.0773
 20
-3.9672
 10
161.0457
 20
-3.9307
 10
161.0219
 20
-3.8891
 10
161.0064
 20
-3.8437
 10
160.9998
 20
-3.7958
 10
161.0029
 20
-3.7467
 10
161.016
 20
-3.6977
 10
161.0385
 20
-3.6523
 10
161.0687
 20
-3.6135
 10
161.1053
 20
-3.5819
 10
161.1471
 20
-3.558
 10
161.1926
 20
-3.5424
 10
161.2406
 20
-3.5358
 10
161.2897
 20
-3.5386
 10
161.3387
 20
-3.5516
  0
LWPOLYLINE
  5
A4
330
1F
100
AcDbEntity
  8
Layer 1
 62
     7
370
     9
100
AcDbPolyline
 90
       33
 70
     1
 43
0.0
 10
162.6397
 20
-2.9412
 10
162.6851
 20
-2.9637
 10
162.724
 20
-2.9938
 10
162.7557
 20
-3.0303
 10
162.7797
 20
-3.0719
 10
162.7953
 20
-3.1173
 10
162.8019
 20
-3.1652
 10
162.799
 20
-3.2142
 10
162.7858
 20
-3.2632
 10
162.7631
 20
-3.3086
 10
162.7329
 20
-3.3474
 10
162.6962
 20
-3.3791
 10
162.6546
 20
-3.403
 10
162.6091
 20
-3.4185
 10
162.5613
 20
-3.4252
 10
162.5122
 20
-3.4223
 10
162.4632
 20
-3.4094
 10
162.4178
 20
-3.3869
 10
162.3789
 20
-3.3568
 10
162.3473
 20
-3.3203
 10
162.3234
 20
-3.2787
 10
162.3078
 20
-3.2333
 10
162.3012
 20
-3.1854
 10
162.304
 20
-3.1363
 10
162.317
 20
-3.0873
 10
162.3397
 20
-3.0419
 10
162.37
 20
-3.0031
 10
162.4066
 20
-2.9715
 10
162.4483
 20
-2.9476
 10
162.4937
 20
-2.932
 10
162.5416
 20
-2.9254
 10
162.5907
 20
-2.9282
 10
162.6397
 20
-2.9412
  0
LWPOLYLINE
  5
A5
330
1F
100
AcDbEntity
  8
Layer 1
 62
     7
370
     9
100
AcDbPolyline
 90
       33
 70
     1
 43
0.0
 10
164.1192
 20
-2.8727
 10
164.1646
 20
-2.8952
 10
164.2034
 20
-2.9253
 10
164.235
 20
-2.9618
 10
164.2589
 20
-3.0034
 10
164.2745
 20
-3.0488
 10
164.2811
 20
-3.0967
 10
164.2783
 20
-3.1457
 10
164.2653
 20
-3.1947
 10
164.2426
 20
-3.2401
 10
164.2124
 20
-3.2789
 10
164.1757
 20
-3.3105
 10
164.134
 20
-3.3344
 10
164.0885
 20
-3.35
 10
164.0405
 20
-3.3566
 10
163.9912
 20
-3.3538
 10
163.942
 20
-3.3408
 10
163.8966
 20
-3.3183
 10
163.8578
 20
-3.2882
 10
163.8262
 20
-3.2517
 10
163.8024
 20
-3.2101
 10
163.7869
 20
-3.1647
 10
163.7803
 20
-3.1168
 10
163.7834
 20
-3.0678
 10
163.7965
 20
-3.0188
 10
163.819
 20
-2.9734
 10
163.8492
 20
-2.9346
 10
163.8858
 20
-2.903
 10
163.9275
 20
-2.8791
 10
163.973
 20
-2.8635
 10
164.021
 20
-2.8569
 10
164.0702
 20
-2.8597
 10
164.1192
 20
-2.8727
  0
LWPOLYLINE
  5
A6
330
1F
100
AcDbEntity
  8
Layer 1
 62
     7
370
     9
100
AcDbPolyline
 90
       33
 70
     1
 43
0.0
 10
164.5414
 20
-6.6153
 10
164.5725
 20
-6.6306
 10
164.5991
 20
-6.6511
 10
164.6207
 20
-6.676
 10
164.637
 20
-6.7043
 10
164.6476
 20
-6.7352
 10
164.6521
 20
-6.7678
 10
164.65
 20
-6.8012
 10
164.641
 20
-6.8345
 10
164.6257
 20
-6.8656
 10
164.6051
 20
-6.8921
 10
164.5801
 20
-6.9137
 10
164.5517
 20
-6.9299
 10
164.5206
 20
-6.9404
 10
164.4879
 20
-6.9449
 10
164.4545
 20
-6.9429
 10
164.4211
 20
-6.9341
 10
164.39
 20
-6.9188
 10
164.3634
 20
-6.8983
 10
164.3418
 20
-6.8734
 10
164.3255
 20
-6.8451
 10
164.3149
 20
-6.8142
 10
164.3105
 20
-6.7816
 10
164.3126
 20
-6.7482
 10
164.3216
 20
-6.7149
 10
164.3369
 20
-6.684
 10
164.3575
 20
-6.6576
 10
164.3824
 20
-6.636
 10
164.4109
 20
-6.6197
 10
164.4419
 20
-6.6091
 10
164.4746
 20
-6.6046
 10
164.5081
 20
-6.6065
 10
164.5414
 20
-6.6153
  0
LWPOLYLINE
  5
A7
330
1F
100
AcDbEntity
  8
Layer 1
 62
     7
370
     9
100
AcDbPolyline
 90
       33
 70
     1
 43
0.0
 10
165.5469
 20
-7.6803
 10
165.5778
 20
-7.6956
 10
165.6042
 20
-7.7161
 10
165.6257
 20
-7.741
 10
165.642
 20
-7.7694
 10
165.6527
 20
-7.8003
 10
165.6572
 20
-7.833
 10
165.6553
 20
-7.8666
 10
165.6465
 20
-7.9001
 10
165.631
 20
-7.931
 10
165.6103
 20
-7.9574
 10
165.5853
 20
-7.979
 10
165.5569
 20
-7.9953
 10
165.5258
 20
-8.0059
 10
165.4931
 20
-8.0104
 10
165.4595
 20
-8.0085
 10
165.426
 20
-7.9997
 10
165.3951
 20
-7.9842
 10
165.3687
 20
-7.9635
 10
165.3471
 20
-7.9386
 10
165.3308
 20
-7.9102
 10
165.3202
 20
-7.8792
 10
165.3157
 20
-7.8466
 10
165.3176
 20
-7.8132
 10
165.3264
 20
-7.7799
 10
165.3419
 20
-7.749
 10
165.3626
 20
-7.7226
 10
165.3876
 20
-7.701
 10
165.416
 20
-7.6847
 10
165.4471
 20
-7.6741
 10
165.4798
 20
-7.6696
 10
165.5134
 20
-7.6715
 10
165.5469
 20
-7.6803
  0
LWPOLYLINE
  5
A8
330
1F
100
AcDbEntity
  8
Layer 1
 62
     7
370
     9
100
AcDbPolyline
 90
       33
 70
     1
 43
0.0
 10
166.3991
 20
-9.0123
 10
166.43
 20
-9.0276
 10
166.4564
 20
-9.0481
 10
166.478
 20
-9.073
 10
166.4943
 20
-9.1013
 10
166.5049
 20
-9.1322
 10
166.5094
 20
-9.1648
 10
166.5075
 20
-9.1982
 10
166.4987
 20
-9.2315
 10
166.4832
 20
-9.2626
 10
166.4625
 20
-9.2892
 10
166.4376
 20
-9.3108
 10
166.4092
 20
-9.3271
 10
166.3782
 20
-9.3377
 10
166.3456
 20
-9.3422
 10
166.3122
 20
-9.3401
 10
166.2789
 20
-9.3311
 10
166.2478
 20
-9.3158
 10
166.2212
 20
-9.2953
 10
166.1996
 20
-9.2704
 10
166.1833
 20
-9.2421
 10
166.1727
 20
-9.2112
 10
166.1682
 20
-9.1786
 10
166.1703
 20
-9.1452
 10
166.1793
 20
-9.1119
 10
166.1946
 20
-9.081
 10
166.2152
 20
-9.0546
 10
166.2402
 20
-9.0331
 10
166.2686
 20
-9.0168
 10
166.2996
 20
-9.0061
 10
166.3323
 20
-9.0016
 10
166.3658
 20
-9.0035
 10
166.3991
 20
-9.0123
  0
LWPOLYLINE
  5
A9
330
1F
100
AcDbEntity
  8
Layer 1
 62
     7
370
     9
100
AcDbPolyline
 90
       33
 70
     1
 43
0.0
 10
166.8
 20
-9.9519
 10
166.8311
 20
-9.9672
 10
166.8577
 20
-9.9877
 10
166.8793
 20
-10.0125
 10
166.8957
 20
-10.0409
 10
166.9063
 20
-10.0719
 10
166.9107
 20
-10.1046
 10
166.9086
 20
-10.1382
 10
166.8996
 20
-10.1717
 10
166.8843
 20
-10.2026
 10
166.8637
 20
-10.229
 10
166.8387
 20
-10.2506
 10
166.8103
 20
-10.2669
 10
166.7793
 20
-10.2775
 10
166.7466
 20
-10.282
 10
166.7131
 20
-10.2801
 10
166.6798
 20
-10.2713
 10
166.6487
 20
-10.2558
 10
166.6222
 20
-10.2352
 10
166.6006
 20
-10.2103
 10
166.5844
 20
-10.182
 10
166.5739
 20
-10.1511
 10
166.5694
 20
-10.1184
 10
166.5714
 20
-10.0849
 10
166.5802
 20
-10.0514
 10
166.5957
 20
-10.0205
 10
166.6164
 20
-9.9941
 10
166.6413
 20
-9.9726
 10
166.6697
 20
-9.9563
 10
166.7007
 20
-9.9457
 10
166.7333
 20
-9.9412
 10
166.7667
 20
-9.9431
 10
166.8
 20
-9.9519
  0
LWPOLYLINE
  5
AA
330
1F
100
AcDbEntity
  8
Layer 1
 62
     7
370
     9
100
AcDbPolyline
 90
       33
 70
     1
 43
0.0
 10
167.243
 20
-11.3324
 10
167.2741
 20
-11.3477
 10
167.3007
 20
-11.3682
 10
167.3223
 20
-11.3931
 10
167.3386
 20
-11.4215
 10
167.3492
 20
-11.4525
 10
167.3537
 20
-11.4852
 10
167.3516
 20
-11.5187
 10
167.3426
 20
-11.5522
 10
167.3273
 20
-11.5831
 10
167.3067
 20
-11.6095
 10
167.2817
 20
-11.6311
 10
167.2533
 20
-11.6474
 10
167.2222
 20
-11.658
 10
167.1895
 20
-11.6625
 10
167.1561
 20
-11.6606
 10
167.1227
 20
-11.6518
 10
167.0918
 20
-11.6363
 10
167.0654
 20
-11.6157
 10
167.0439
 20
-11.5908
 10
167.0276
 20
-11.5625
 10
167.017
 20
-11.5316
 10
167.0124
 20
-11.499
 10
167.0143
 20
-11.4655
 10
167.0231
 20
-11.432
 10
167.0386
 20
-11.4011
 10
167.0593
 20
-11.3747
 10
167.0843
 20
-11.3531
 10
167.1127
 20
-11.3368
 10
167.1436
 20
-11.3262
 10
167.1763
 20
-11.3217
 10
167.2097
 20
-11.3236
 10
167.243
 20
-11.3324
  0
LWPOLYLINE
  5
AB
330
1F
100
AcDbEntity
  8
Layer 1
 62
     7
370
     9
100
AcDbPolyline
 90
       33
 70
     1
 43
0.0
 10
167.5947
 20
-12.6787
 10
167.6258
 20
-12.6942
 10
167.6524
 20
-12.7149
 10
167.674
 20
-12.7398
 10
167.6903
 20
-12.7682
 10
167.7009
 20
-12.7992
 10
167.7054
 20
-12.8318
 10
167.7033
 20
-12.8652
 10
167.6943
 20
-12.8985
 10
167.679
 20
-12.9294
 10
167.6585
 20
-12.9558
 10
167.6336
 20
-12.9774
 10
167.6053
 20
-12.9937
 10
167.5743
 20
-13.0043
 10
167.5416
 20
-13.0088
 10
167.508
 20
-13.0069
 10
167.4745
 20
-12.9981
 10
167.4436
 20
-12.9828
 10
167.4172
 20
-12.9623
 10
167.3956
 20
-12.9374
 10
167.3793
 20
-12.909
 10
167.3687
 20
-12.878
 10
167.3642
 20
-12.8453
 10
167.3661
 20
-12.8117
 10
167.3749
 20
-12.7782
 10
167.3904
 20
-12.7473
 10
167.4111
 20
-12.7209
 10
167.436
 20
-12.6994
 10
167.4644
 20
-12.6831
 10
167.4954
 20
-12.6725
 10
167.528
 20
-12.668
 10
167.5614
 20
-12.6699
 10
167.5947
 20
-12.6787
  0
LWPOLYLINE
  5
AC
330
1F
100
AcDbEntity
  8
Layer 1
 62
     7
370
     9
100
AcDbPolyline
 90
       33
 70
     1
 43
0.0
 10
167.5999
 20
-13.9758
 10
167.631
 20
-13.9913
 10
167.6576
 20
-14.012
 10
167.6792
 20
-14.0369
 10
167.6955
 20
-14.0653
 10
167.7061
 20
-14.0963
 10
167.7106
 20
-14.1289
 10
167.7085
 20
-14.1623
 10
167.6995
 20
-14.1956
 10
167.6842
 20
-14.2265
 10
167.6637
 20
-14.2529
 10
167.6388
 20
-14.2745
 10
167.6104
 20
-14.2908
 10
167.5794
 20
-14.3014
 10
167.5467
 20
-14.3059
 10
167.5131
 20
-14.304
 10
167.4796
 20
-14.2952
 10
167.4487
 20
-14.2799
 10
167.4223
 20
-14.2594
 10
167.4008
 20
-14.2345
 10
167.3845
 20
-14.2061
 10
167.3739
 20
-14.1751
 10
167.3694
 20
-14.1424
 10
167.3713
 20
-14.1089
 10
167.3801
 20
-14.0754
 10
167.3956
 20
-14.0445
 10
167.4163
 20
-14.0181
 10
167.4412
 20
-13.9965
 10
167.4696
 20
-13.9802
 10
167.5006
 20
-13.9696
 10
167.5332
 20
-13.9651
 10
167.5666
 20
-13.967
 10
167.5999
 20
-13.9758
  0
LWPOLYLINE
  5
AD
330
1F
100
AcDbEntity
  8
Layer 1
 62
     7
370
     9
100
AcDbPolyline
 90
       33
 70
     1
 43
0.0
 10
167.3949
 20
-15.4171
 10
167.4258
 20
-15.4324
 10
167.4522
 20
-15.4529
 10
167.4738
 20
-15.4778
 10
167.4901
 20
-15.5061
 10
167.5007
 20
-15.537
 10
167.5052
 20
-15.5696
 10
167.5033
 20
-15.603
 10
167.4945
 20
-15.6363
 10
167.479
 20
-15.6674
 10
167.4583
 20
-15.6939
 10
167.4333
 20
-15.7155
 10
167.4049
 20
-15.7317
 10
167.3738
 20
-15.7422
 10
167.3411
 20
-15.7467
 10
167.3075
 20
-15.7447
 10
167.274
 20
-15.7359
 10
167.2431
 20
-15.7206
 10
167.2167
 20
-15.7001
 10
167.1952
 20
-15.6752
 10
167.179
 20
-15.6469
 10
167.1685
 20
-15.616
 10
167.164
 20
-15.5834
 10
167.1661
 20
-15.55
 10
167.1751
 20
-15.5167
 10
167.1904
 20
-15.4858
 10
167.2109
 20
-15.4594
 10
167.2358
 20
-15.4378
 10
167.2642
 20
-15.4215
 10
167.2952
 20
-15.4109
 10
167.3279
 20
-15.4064
 10
167.3614
 20
-15.4083
 10
167.3949
 20
-15.4171
  0
LWPOLYLINE
  5
AE
330
1F
100
AcDbEntity
  8
Layer 1
 62
     7
370
     9
100
AcDbPolyline
 90
       33
 70
     1
 43
0.0
 10
166.8751
 20
-16.8617
 10
166.9062
 20
-16.877
 10
166.9327
 20
-16.8975
 10
166.9544
 20
-16.9223
 10
166.9707
 20
-16.9506
 10
166.9813
 20
-16.9815
 10
166.9857
 20
-17.0142
 10
166.9836
 20
-17.0476
 10
166.9746
 20
-17.0809
 10
166.9593
 20
-17.1118
 10
166.9388
 20
-17.1382
 10
166.914
 20
-17.1597
 10
166.8856
 20
-17.176
 10
166.8546
 20
-17.1866
 10
166.8219
 20
-17.1911
 10
166.7883
 20
-17.1892
 10
166.7548
 20
-17.1804
 10
166.7239
 20
-17.1651
 10
166.6975
 20
-17.1446
 10
166.6759
 20
-17.1198
 10
166.6596
 20
-17.0915
 10
166.649
 20
-17.0606
 10
166.6445
 20
-17.0279
 10
166.6464
 20
-16.9945
 10
166.6552
 20
-16.9612
 10
166.6707
 20
-16.9301
 10
166.6914
 20
-16.9036
 10
166.7163
 20
-16.8821
 10
166.7448
 20
-16.8659
 10
166.7757
 20
-16.8553
 10
166.8083
 20
-16.8509
 10
166.8418
 20
-16.8529
 10
166.8751
 20
-16.8617
  0
LWPOLYLINE
  5
AF
330
1F
100
AcDbEntity
  8
Layer 1
 62
     7
370
     9
100
AcDbPolyline
 90
       33
 70
     1
 43
0.0
 10
166.3274
 20
-17.8296
 10
166.3583
 20
-17.8449
 10
166.3847
 20
-17.8654
 10
166.4062
 20
-17.8903
 10
166.4225
 20
-17.9186
 10
166.4331
 20
-17.9495
 10
166.4376
 20
-17.9821
 10
166.4357
 20
-18.0155
 10
166.4269
 20
-18.0488
 10
166.4114
 20
-18.0799
 10
166.3907
 20
-18.1065
 10
166.3657
 20
-18.1281
 10
166.3373
 20
-18.1444
 10
166.3063
 20
-18.155
 10
166.2735
 20
-18.1595
 10
166.24
 20
-18.1574
 10
166.2065
 20
-18.1484
 10
166.1756
 20
-18.1331
 10
166.1492
 20
-18.1126
 10
166.1276
 20
-18.0877
 10
166.1113
 20
-18.0594
 10
166.1007
 20
-18.0285
 10
166.0962
 20
-17.9959
 10
166.0981
 20
-17.9625
 10
166.1069
 20
-17.9292
 10
166.1224
 20
-17.8983
 10
166.1431
 20
-17.8719
 10
166.1681
 20
-17.8504
 10
166.1965
 20
-17.8341
 10
166.2276
 20
-17.8235
 10
166.2603
 20
-17.8189
 10
166.2939
 20
-17.8208
 10
166.3274
 20
-17.8296
  0
LWPOLYLINE
  5
B0
330
1F
100
AcDbEntity
  8
Layer 1
 62
     7
370
     9
100
AcDbPolyline
 90
       33
 70
     1
 43
0.0
 10
165.4124
 20
-18.8022
 10
165.4433
 20
-18.8175
 10
165.4697
 20
-18.838
 10
165.4912
 20
-18.8628
 10
165.5075
 20
-18.8911
 10
165.5182
 20
-18.922
 10
165.5227
 20
-18.9547
 10
165.5208
 20
-18.9881
 10
165.512
 20
-19.0214
 10
165.4965
 20
-19.0523
 10
165.4758
 20
-19.0787
 10
165.4509
 20
-19.1002
 10
165.4225
 20
-19.1165
 10
165.3915
 20
-19.1271
 10
165.3589
 20
-19.1316
 10
165.3254
 20
-19.1297
 10
165.2921
 20
-19.1209
 10
165.261
 20
-19.1056
 10
165.2344
 20
-19.0851
 10
165.2128
 20
-19.0603
 10
165.1965
 20
-19.032
 10
165.1859
 20
-19.0011
 10
165.1814
 20
-18.9684
 10
165.1835
 20
-18.935
 10
165.1925
 20
-18.9017
 10
165.2078
 20
-18.8706
 10
165.2284
 20
-18.8441
 10
165.2534
 20
-18.8224
 10
165.2819
 20
-18.8061
 10
165.3129
 20
-18.7955
 10
165.3456
 20
-18.7911
 10
165.3791
 20
-18.7932
 10
165.4124
 20
-18.8022
  0
LWPOLYLINE
  5
B1
330
1F
100
AcDbEntity
  8
Layer 1
 62
     7
370
     9
100
AcDbPolyline
 90
       33
 70
     1
 43
0.0
 10
164.3823
 20
-19.5283
 10
164.4132
 20
-19.5436
 10
164.4396
 20
-19.5641
 10
164.4612
 20
-19.589
 10
164.4774
 20
-19.6174
 10
164.4879
 20
-19.6484
 10
164.4924
 20
-19.6811
 10
164.4903
 20
-19.7147
 10
164.4813
 20
-19.7482
 10
164.466
 20
-19.7791
 10
164.4455
 20
-19.8055
 10
164.4206
 20
-19.827
 10
164.3922
 20
-19.8433
 10
164.3612
 20
-19.8539
 10
164.3285
 20
-19.8584
 10
164.2949
 20
-19.8565
 10
164.2614
 20
-19.8477
 10
164.2305
 20
-19.8322
 10
164.2041
 20
-19.8116
 10
164.1826
 20
-19.7867
 10
164.1663
 20
-19.7584
 10
164.1557
 20
-19.7275
 10
164.1511
 20
-19.6949
 10
164.153
 20
-19.6614
 10
164.1618
 20
-19.6279
 10
164.1773
 20
-19.597
 10
164.198
 20
-19.5706
 10
164.223
 20
-19.5491
 10
164.2515
 20
-19.5328
 10
164.2825
 20
-19.5221
 10
164.3152
 20
-19.5176
 10
164.3488
 20
-19.5195
 10
164.3823
 20
-19.5283
  0
LWPOLYLINE
  5
B2
330
1F
100
AcDbEntity
  8
Layer 1
 62
     7
370
     9
100
AcDbPolyline
 90
       33
 70
     1
 43
0.0
 10
163.029
 20
-19.7294
 10
163.0599
 20
-19.7447
 10
163.0863
 20
-19.7652
 10
163.1078
 20
-19.7901
 10
163.1241
 20
-19.8184
 10
163.1347
 20
-19.8493
 10
163.1392
 20
-19.8819
 10
163.1373
 20
-19.9153
 10
163.1285
 20
-19.9486
 10
163.113
 20
-19.9795
 10
163.0923
 20
-20.0059
 10
163.0674
 20
-20.0275
 10
163.039
 20
-20.0438
 10
163.008
 20
-20.0544
 10
162.9754
 20
-20.0589
 10
162.942
 20
-20.057
 10
162.9087
 20
-20.0482
 10
162.8776
 20
-20.0329
 10
162.851
 20
-20.0124
 10
162.8294
 20
-19.9875
 10
162.8131
 20
-19.9592
 10
162.8025
 20
-19.9283
 10
162.798
 20
-19.8957
 10
162.8001
 20
-19.8623
 10
162.8091
 20
-19.829
 10
162.8244
 20
-19.7979
 10
162.8449
 20
-19.7713
 10
162.8698
 20
-19.7497
 10
162.8982
 20
-19.7334
 10
162.9292
 20
-19.7228
 10
162.9619
 20
-19.7183
 10
162.9955
 20
-19.7204
 10
163.029
 20
-19.7294
  0
LWPOLYLINE
  5
B3
330
1F
100
AcDbEntity
  8
Layer 1
 62
     7
370
     9
100
AcDbPolyline
 90
       33
 70
     1
 43
0.0
 10
161.6943
 20
-19.6738
 10
161.7252
 20
-19.6891
 10
161.7516
 20
-19.7096
 10
161.7732
 20
-19.7345
 10
161.7895
 20
-19.7628
 10
161.8001
 20
-19.7937
 10
161.8046
 20
-19.8263
 10
161.8027
 20
-19.8597
 10
161.7939
 20
-19.893
 10
161.7784
 20
-19.9239
 10
161.7577
 20
-19.9503
 10
161.7328
 20
-19.9718
 10
161.7044
 20
-19.9881
 10
161.6734
 20
-19.9988
 10
161.6408
 20
-20.0033
 10
161.6074
 20
-20.0014
 10
161.5741
 20
-19.9926
 10
161.543
 20
-19.9773
 10
161.5164
 20
-19.9568
 10
161.4948
 20
-19.9319
 10
161.4785
 20
-19.9036
 10
161.4679
 20
-19.8727
 10
161.4634
 20
-19.8401
 10
161.4655
 20
-19.8067
 10
161.4745
 20
-19.7734
 10
161.4898
 20
-19.7425
 10
161.5104
 20
-19.7161
 10
161.5354
 20
-19.6945
 10
161.5638
 20
-19.6782
 10
161.5948
 20
-19.6676
 10
161.6275
 20
-19.6631
 10
161.661
 20
-19.665
 10
161.6943
 20
-19.6738
  0
LWPOLYLINE
  5
B4
330
1F
100
AcDbEntity
  8
Layer 1
 62
     7
370
     9
100
AcDbPolyline
 90
       33
 70
     1
 43
0.0
 10
160.5925
 20
-19.139
 10
160.6236
 20
-19.1543
 10
160.6502
 20
-19.1748
 10
160.6718
 20
-19.1997
 10
160.6881
 20
-19.228
 10
160.6987
 20
-19.2589
 10
160.7032
 20
-19.2916
 10
160.7011
 20
-19.325
 10
160.6921
 20
-19.3583
 10
160.6768
 20
-19.3893
 10
160.6563
 20
-19.4158
 10
160.6314
 20
-19.4374
 10
160.603
 20
-19.4536
 10
160.572
 20
-19.4642
 10
160.5393
 20
-19.4686
 10
160.5057
 20
-19.4666
 10
160.4722
 20
-19.4578
 10
160.4413
 20
-19.4425
 10
160.4149
 20
-19.422
 10
160.3934
 20
-19.3972
 10
160.3771
 20
-19.3689
 10
160.3665
 20
-19.338
 10
160.3619
 20
-19.3053
 10
160.3638
 20
-19.2719
 10
160.3726
 20
-19.2386
 10
160.3881
 20
-19.2077
 10
160.4088
 20
-19.1813
 10
160.4338
 20
-19.1598
 10
160.4622
 20
-19.1435
 10
160.4932
 20
-19.1329
 10
160.5258
 20
-19.1283
 10
160.5592
 20
-19.1302
 10
160.5925
 20
-19.139
  0
LWPOLYLINE
  5
B5
330
1F
100
AcDbEntity
  8
Layer 1
 62
     7
370
     9
100
AcDbPolyline
 90
       33
 70
     1
 43
0.0
 10
159.6497
 20
-18.1174
 10
159.6806
 20
-18.1327
 10
159.707
 20
-18.1532
 10
159.7286
 20
-18.1781
 10
159.7448
 20
-18.2064
 10
159.7553
 20
-18.2373
 10
159.7598
 20
-18.2699
 10
159.7577
 20
-18.3033
 10
159.7487
 20
-18.3366
 10
159.7334
 20
-18.3675
 10
159.7129
 20
-18.3939
 10
159.688
 20
-18.4154
 10
159.6596
 20
-18.4317
 10
159.6286
 20
-18.4423
 10
159.5959
 20
-18.4469
 10
159.5623
 20
-18.445
 10
159.5288
 20
-18.4362
 10
159.4979
 20
-18.4209
 10
159.4715
 20
-18.4004
 10
159.45
 20
-18.3755
 10
159.4337
 20
-18.3472
 10
159.423
 20
-18.3163
 10
159.4185
 20
-18.2837
 10
159.4204
 20
-18.2503
 10
159.4292
 20
-18.217
 10
159.4447
 20
-18.1859
 10
159.4654
 20
-18.1593
 10
159.4904
 20
-18.1377
 10
159.5188
 20
-18.1214
 10
159.5499
 20
-18.1108
 10
159.5826
 20
-18.1063
 10
159.6162
 20
-18.1084
 10
159.6497
 20
-18.1174
  0
LWPOLYLINE
  5
B6
330
1F
100
AcDbEntity
  8
Layer 1
 62
     7
370
     9
100
AcDbPolyline
 90
       33
 70
     1
 43
0.0
 10
159.0012
 20
-16.6593
 10
159.0321
 20
-16.6746
 10
159.0585
 20
-16.6951
 10
159.08
 20
-16.7199
 10
159.0962
 20
-16.7483
 10
159.1067
 20
-16.7793
 10
159.1112
 20
-16.812
 10
159.1091
 20
-16.8456
 10
159.1001
 20
-16.8791
 10
159.0848
 20
-16.91
 10
159.0643
 20
-16.9364
 10
159.0394
 20
-16.9579
 10
159.011
 20
-16.9742
 10
158.98
 20
-16.9849
 10
158.9473
 20
-16.9894
 10
158.9137
 20
-16.9875
 10
158.8802
 20
-16.9787
 10
158.8493
 20
-16.9632
 10
158.8229
 20
-16.9425
 10
158.8014
 20
-16.9176
 10
158.7851
 20
-16.8892
 10
158.7745
 20
-16.8582
 10
158.77
 20
-16.8256
 10
158.7719
 20
-16.7921
 10
158.7807
 20
-16.7588
 10
158.7962
 20
-16.7279
 10
158.8169
 20
-16.7015
 10
158.8419
 20
-16.68
 10
158.8703
 20
-16.6637
 10
158.9014
 20
-16.6531
 10
158.9341
 20
-16.6486
 10
158.9677
 20
-16.6505
 10
159.0012
 20
-16.6593
  0
LWPOLYLINE
  5
B7
330
1F
100
AcDbEntity
  8
Layer 1
 62
     7
370
     9
100
AcDbPolyline
 90
       33
 70
     1
 43
0.0
 10
158.6985
 20
-15.2509
 10
158.7296
 20
-15.2662
 10
158.7562
 20
-15.2867
 10
158.7778
 20
-15.3116
 10
158.7941
 20
-15.3399
 10
158.8047
 20
-15.3708
 10
158.8092
 20
-15.4034
 10
158.8071
 20
-15.4368
 10
158.7981
 20
-15.4701
 10
158.7828
 20
-15.501
 10
158.7622
 20
-15.5274
 10
158.7372
 20
-15.549
 10
158.7088
 20
-15.5653
 10
158.6778
 20
-15.5759
 10
158.6451
 20
-15.5804
 10
158.6116
 20
-15.5785
 10
158.5783
 20
-15.5697
 10
158.5472
 20
-15.5544
 10
158.5207
 20
-15.5339
 10
158.4991
 20
-15.509
 10
158.4829
 20
-15.4807
 10
158.4724
 20
-15.4498
 10
158.4679
 20
-15.4172
 10
158.4699
 20
-15.3838
 10
158.4787
 20
-15.3505
 10
158.4942
 20
-15.3196
 10
158.5149
 20
-15.2932
 10
158.5398
 20
-15.2717
 10
158.5682
 20
-15.2554
 10
158.5992
 20
-15.2447
 10
158.6318
 20
-15.2402
 10
158.6652
 20
-15.2421
 10
158.6985
 20
-15.2509
  0
LWPOLYLINE
  5
B8
330
1F
100
AcDbEntity
  8
Layer 1
 62
     7
370
     9
100
AcDbPolyline
 90
       33
 70
     1
 43
0.0
 10
158.5576
 20
-13.7611
 10
158.5887
 20
-13.7764
 10
158.6152
 20
-13.7969
 10
158.6367
 20
-13.8218
 10
158.653
 20
-13.8501
 10
158.6635
 20
-13.881
 10
158.668
 20
-13.9136
 10
158.666
 20
-13.947
 10
158.6572
 20
-13.9803
 10
158.6417
 20
-14.0112
 10
158.621
 20
-14.0376
 10
158.596
 20
-14.0591
 10
158.5676
 20
-14.0754
 10
158.5366
 20
-14.0861
 10
158.504
 20
-14.0906
 10
158.4706
 20
-14.0887
 10
158.4373
 20
-14.0799
 10
158.4062
 20
-14.0646
 10
158.3796
 20
-14.0441
 10
158.358
 20
-14.0192
 10
158.3417
 20
-13.9909
 10
158.3311
 20
-13.96
 10
158.3266
 20
-13.9274
 10
158.3287
 20
-13.894
 10
158.3377
 20
-13.8607
 10
158.353
 20
-13.8296
 10
158.3736
 20
-13.8031
 10
158.3986
 20
-13.7815
 10
158.427
 20
-13.7653
 10
158.4581
 20
-13.7548
 10
158.4908
 20
-13.7503
 10
158.5242
 20
-13.7523
 10
158.5576
 20
-13.7611
  0
LWPOLYLINE
  5
B9
330
1F
100
AcDbEntity
  8
Layer 1
 62
     7
370
     9
100
AcDbPolyline
 90
       33
 70
     1
 43
0.0
 10
158.8059
 20
-12.2752
 10
158.837
 20
-12.2907
 10
158.8636
 20
-12.3114
 10
158.8852
 20
-12.3363
 10
158.9015
 20
-12.3647
 10
158.9121
 20
-12.3957
 10
158.9166
 20
-12.4283
 10
158.9145
 20
-12.4617
 10
158.9055
 20
-12.495
 10
158.8902
 20
-12.5259
 10
158.8696
 20
-12.5523
 10
158.8446
 20
-12.5739
 10
158.8161
 20
-12.5902
 10
158.7851
 20
-12.6008
 10
158.7524
 20
-12.6053
 10
158.7189
 20
-12.6034
 10
158.6856
 20
-12.5946
 10
158.6545
 20
-12.5793
 10
158.6279
 20
-12.5588
 10
158.6063
 20
-12.5339
 10
158.59
 20
-12.5055
 10
158.5794
 20
-12.4745
 10
158.5749
 20
-12.4418
 10
158.577
 20
-12.4083
 10
158.586
 20
-12.3748
 10
158.6013
 20
-12.3439
 10
158.6219
 20
-12.3175
 10
158.6469
 20
-12.2959
 10
158.6753
 20
-12.2796
 10
158.7064
 20
-12.269
 10
158.7391
 20
-12.2645
 10
158.7725
 20
-12.2664
 10
158.8059
 20
-12.2752
  0
LWPOLYLINE
  5
BA
330
1F
100
AcDbEntity
  8
Layer 1
 62
     7
370
     9
100
AcDbPolyline
 90
       33
 70
     1
 43
0.0
 10
159.0878
 20
-10.7013
 10
159.1187
 20
-10.7166
 10
159.1451
 20
-10.7371
 10
159.1666
 20
-10.762
 10
159.1829
 20
-10.7903
 10
159.1936
 20
-10.8212
 10
159.1981
 20
-10.8538
 10
159.1962
 20
-10.8872
 10
159.1874
 20
-10.9205
 10
159.1719
 20
-10.9516
 10
159.1512
 20
-10.9782
 10
159.1262
 20
-10.9998
 10
159.0978
 20
-11.0161
 10
159.0667
 20
-11.0267
 10
159.034
 20
-11.0312
 10
159.0004
 20
-11.0291
 10
158.9669
 20
-11.0201
 10
158.936
 20
-11.0048
 10
158.9096
 20
-10.9843
 10
158.888
 20
-10.9594
 10
158.8718
 20
-10.9311
 10
158.8613
 20
-10.9002
 10
158.8569
 20
-10.8676
 10
158.859
 20
-10.8342
 10
158.868
 20
-10.8009
 10
158.8833
 20
-10.77
 10
158.9038
 20
-10.7436
 10
158.9286
 20
-10.722
 10
158.957
 20
-10.7057
 10
158.988
 20
-10.6951
 10
159.0207
 20
-10.6906
 10
159.0543
 20
-10.6925
 10
159.0878
 20
-10.7013
  0
LWPOLYLINE
  5
BB
330
1F
100
AcDbEntity
  8
Layer 1
 62
     7
370
     9
100
AcDbPolyline
 90
       33
 70
     1
 43
0.0
 10
159.4952
 20
-9.7611
 10
159.5261
 20
-9.7766
 10
159.5525
 20
-9.7972
 10
159.574
 20
-9.8221
 10
159.5902
 20
-9.8504
 10
159.6007
 20
-9.8813
 10
159.6052
 20
-9.914
 10
159.6031
 20
-9.9475
 10
159.5941
 20
-9.981
 10
159.5788
 20
-10.0119
 10
159.5583
 20
-10.0383
 10
159.5334
 20
-10.0598
 10
159.505
 20
-10.0761
 10
159.474
 20
-10.0867
 10
159.4413
 20
-10.0912
 10
159.4078
 20
-10.0893
 10
159.3743
 20
-10.0805
 10
159.3434
 20
-10.0652
 10
159.317
 20
-10.0447
 10
159.2954
 20
-10.0199
 10
159.2791
 20
-9.9915
 10
159.2685
 20
-9.9605
 10
159.264
 20
-9.9278
 10
159.2659
 20
-9.8942
 10
159.2747
 20
-9.8607
 10
159.2902
 20
-9.8298
 10
159.3109
 20
-9.8034
 10
159.3359
 20
-9.7818
 10
159.3643
 20
-9.7655
 10
159.3954
 20
-9.7549
 10
159.4281
 20
-9.7504
 10
159.4617
 20
-9.7523
 10
159.4952
 20
-9.7611
  0
LWPOLYLINE
  5
BC
330
1F
100
AcDbEntity
  8
Layer 1
 62
     7
370
     9
100
AcDbPolyline
 90
       33
 70
     1
 43
0.0
 10
159.9763
 20
-8.8856
 10
160.0073
 20
-8.9011
 10
160.0338
 20
-8.9218
 10
160.0554
 20
-8.9467
 10
160.0716
 20
-8.9751
 10
160.0822
 20
-9.0061
 10
160.0866
 20
-9.0387
 10
160.0846
 20
-9.0721
 10
160.0758
 20
-9.1054
 10
160.0603
 20
-9.1363
 10
160.0396
 20
-9.1627
 10
160.0147
 20
-9.1843
 10
159.9863
 20
-9.2006
 10
159.9553
 20
-9.2112
 10
159.9227
 20
-9.2157
 10
159.8893
 20
-9.2138
 10
159.856
 20
-9.205
 10
159.8249
 20
-9.1897
 10
159.7983
 20
-9.1692
 10
159.7767
 20
-9.1443
 10
159.7604
 20
-9.116
 10
159.7498
 20
-9.085
 10
159.7453
 20
-9.0523
 10
159.7474
 20
-9.0187
 10
159.7564
 20
-8.9852
 10
159.7717
 20
-8.9543
 10
159.7923
 20
-8.9279
 10
159.8173
 20
-8.9063
 10
159.8457
 20
-8.89
 10
159.8768
 20
-8.8794
 10
159.9095
 20
-8.8749
 10
159.9429
 20
-8.8768
 10
159.9763
 20
-8.8856
  0
LWPOLYLINE
  5
BD
330
1F
100
AcDbEntity
  8
Layer 1
 62
     7
370
     9
100
AcDbPolyline
 90
       33
 70
     1
 43
0.0
 10
160.5046
 20
-8.0553
 10
160.5355
 20
-8.0706
 10
160.5619
 20
-8.0911
 10
160.5834
 20
-8.116
 10
160.5997
 20
-8.1443
 10
160.6103
 20
-8.1752
 10
160.6148
 20
-8.2078
 10
160.6129
 20
-8.2412
 10
160.6041
 20
-8.2745
 10
160.5886
 20
-8.3056
 10
160.5679
 20
-8.3322
 10
160.5429
 20
-8.3538
 10
160.5145
 20
-8.3701
 10
160.4834
 20
-8.3807
 10
160.4507
 20
-8.3852
 10
160.4171
 20
-8.3831
 10
160.3836
 20
-8.3741
 10
160.3527
 20
-8.3588
 10
160.3263
 20
-8.3383
 10
160.3048
 20
-8.3134
 10
160.2886
 20
-8.2851
 10
160.2781
 20
-8.2542
 10
160.2736
 20
-8.2216
 10
160.2757
 20
-8.1882
 10
160.2847
 20
-8.1549
 10
160.3
 20
-8.124
 10
160.3205
 20
-8.0976
 10
160.3454
 20
-8.0761
 10
160.3738
 20
-8.0598
 10
160.4048
 20
-8.0491
 10
160.4375
 20
-8.0446
 10
160.4711
 20
-8.0465
 10
160.5046
 20
-8.0553
  0
LWPOLYLINE
  5
BE
330
1F
100
AcDbEntity
  8
Layer 1
 62
     7
370
     9
100
AcDbPolyline
 90
       33
 70
     1
 43
0.0
 10
161.1331
 20
-7.2186
 10
161.1642
 20
-7.2339
 10
161.1908
 20
-7.2544
 10
161.2124
 20
-7.2793
 10
161.2287
 20
-7.3076
 10
161.2393
 20
-7.3385
 10
161.2437
 20
-7.3711
 10
161.2416
 20
-7.4045
 10
161.2326
 20
-7.4378
 10
161.2173
 20
-7.4689
 10
161.1967
 20
-7.4955
 10
161.1718
 20
-7.5171
 10
161.1433
 20
-7.5334
 10
161.1123
 20
-7.544
 10
161.0796
 20
-7.5485
 10
161.0461
 20
-7.5464
 10
161.0128
 20
-7.5374
 10
160.9817
 20
-7.5221
 10
160.9552
 20
-7.5016
 10
160.9336
 20
-7.4767
 10
160.9174
 20
-7.4484
 10
160.9069
 20
-7.4175
 10
160.9024
 20
-7.3849
 10
160.9044
 20
-7.3515
 10
160.9132
 20
-7.3182
 10
160.9285
 20
-7.2873
 10
160.9491
 20
-7.2609
 10
160.9741
 20
-7.2393
 10
161.0025
 20
-7.223
 10
161.0336
 20
-7.2124
 10
161.0663
 20
-7.2079
 10
161.0997
 20
-7.2098
 10
161.1331
 20
-7.2186
  0
LWPOLYLINE
  5
BF
330
1F
100
AcDbEntity
  8
Layer 1
 62
     7
370
     9
100
AcDbPolyline
 90
       33
 70
     1
 43
0.0
 10
161.9232
 20
-6.645
 10
161.9543
 20
-6.6603
 10
161.9809
 20
-6.6808
 10
162.0025
 20
-6.7057
 10
162.0188
 20
-6.734
 10
162.0294
 20
-6.7649
 10
162.0339
 20
-6.7976
 10
162.0318
 20
-6.831
 10
162.0228
 20
-6.8643
 10
162.0075
 20
-6.8952
 10
161.9869
 20
-6.9216
 10
161.9619
 20
-6.9431
 10
161.9335
 20
-6.9594
 10
161.9025
 20
-6.97
 10
161.8698
 20
-6.9745
 10
161.8363
 20
-6.9726
 10
161.803
 20
-6.9638
 10
161.7721
 20
-6.9485
 10
161.7457
 20
-6.928
 10
161.7241
 20
-6.9032
 10
161.7078
 20
-6.8749
 10
161.6972
 20
-6.844
 10
161.6927
 20
-6.8113
 10
161.6946
 20
-6.7779
 10
161.7034
 20
-6.7446
 10
161.7189
 20
-6.7135
 10
161.7396
 20
-6.687
 10
161.7645
 20
-6.6655
 10
161.7929
 20
-6.6492
 10
161.8239
 20
-6.6387
 10
161.8565
 20
-6.6342
 10
161.8899
 20
-6.6362
 10
161.9232
 20
-6.645
  0
LWPOLYLINE
  5
C0
330
1F
100
AcDbEntity
  8
Layer 1
 62
     7
370
     9
100
AcDbPolyline
 90
       33
 70
     1
 43
0.0
 10
162.8104
 20
-6.2286
 10
162.8415
 20
-6.2441
 10
162.868
 20
-6.2648
 10
162.8896
 20
-6.2897
 10
162.9058
 20
-6.3182
 10
162.9163
 20
-6.3491
 10
162.9208
 20
-6.3817
 10
162.9188
 20
-6.4152
 10
162.91
 20
-6.4485
 10
162.8945
 20
-6.4794
 10
162.8738
 20
-6.5058
 10
162.8489
 20
-6.5273
 10
162.8205
 20
-6.5436
 10
162.7895
 20
-6.5542
 10
162.7569
 20
-6.5588
 10
162.7234
 20
-6.5569
 10
162.6901
 20
-6.5481
 10
162.659
 20
-6.5328
 10
162.6324
 20
-6.5123
 10
162.6108
 20
-6.4874
 10
162.5945
 20
-6.459
 10
162.5839
 20
-6.428
 10
162.5794
 20
-6.3953
 10
162.5815
 20
-6.3617
 10
162.5905
 20
-6.3282
 10
162.6058
 20
-6.2973
 10
162.6264
 20
-6.2709
 10
162.6514
 20
-6.2494
 10
162.6799
 20
-6.2331
 10
162.7109
 20
-6.2224
 10
162.7436
 20
-6.2179
 10
162.7771
 20
-6.2198
 10
162.8104
 20
-6.2286
  0
LWPOLYLINE
  5
C1
330
1F
100
AcDbEntity
  8
Layer 1
 62
     7
370
     9
100
AcDbPolyline
 90
       33
 70
     1
 43
0.0
 10
163.8185
 20
-6.1821
 10
163.8496
 20
-6.1974
 10
163.8762
 20
-6.2179
 10
163.8978
 20
-6.2427
 10
163.9141
 20
-6.271
 10
163.9247
 20
-6.3019
 10
163.9292
 20
-6.3346
 10
163.9271
 20
-6.368
 10
163.9181
 20
-6.4013
 10
163.9028
 20
-6.4324
 10
163.8822
 20
-6.459
 10
163.8572
 20
-6.4806
 10
163.8288
 20
-6.4969
 10
163.7977
 20
-6.5075
 10
163.765
 20
-6.5119
 10
163.7316
 20
-6.5098
 10
163.6982
 20
-6.5008
 10
163.6673
 20
-6.4855
 10
163.6409
 20
-6.465
 10
163.6194
 20
-6.4402
 10
163.6031
 20
-6.4119
 10
163.5925
 20
-6.381
 10
163.5879
 20
-6.3483
 10
163.5898
 20
-6.3149
 10
163.5986
 20
-6.2816
 10
163.6141
 20
-6.2507
 10
163.6348
 20
-6.2243
 10
163.6598
 20
-6.2028
 10
163.6882
 20
-6.1865
 10
163.7191
 20
-6.1759
 10
163.7518
 20
-6.1714
 10
163.7852
 20
-6.1733
 10
163.8185
 20
-6.1821
  0
LWPOLYLINE
  5
C2
330
1F
100
AcDbEntity
  8
Layer 1
 62
     7
370
     9
100
AcDbPolyline
 90
        7
 70
     1
 43
0.0
 10
267.484
 20
-93.9285
 10
267.484
 20
-92.6514
 10
254.8866
 20
-92.6514
 10
255.2163
 20
-95.717
 10
256.3331
 20
-95.717
 10
256.3331
 20
-93.9285
 10
267.484
 20
-93.9285
  0
LWPOLYLINE
  5
C3
330
1F
100
AcDbEntity
  8
Layer 1
 62
     7
370
     9
100
AcDbPolyline
 90
        7
 70
     1
 43
0.0
 10
267.484
 20
-88.6915
 10
267.484
 20
-87.4144
 10
254.8866
 20
-87.4144
 10
255.2163
 20
-90.48
 10
256.3331
 20
-90.48
 10
256.3331
 20
-88.6915
 10
267.484
 20
-88.6915
  0
LWPOLYLINE
  5
C4
330
1F
100
AcDbEntity
  8
Layer 1
 62
     7
370
     9
100
AcDbPolyline
 90
      162
 70
     1
 43
0.0
 10
267.4478
 20
-60.6805
 10
267.4478
 20
-59.4035
 10
262.4126
 20
-59.4035
 10
262.0781
 20
-59.4139
 10
261.7594
 20
-59.4451
 10
261.4565
 20
-59.4971
 10
261.1694
 20
-59.5699
 10
260.8981
 20
-59.6636
 10
260.6425
 20
-59.778
 10
260.4026
 20
-59.9133
 10
260.1785
 20
-60.0695
 10
260.0714
 20
-60.1566
 10
259.9696
 20
-60.2491
 10
259.8733
 20
-60.347
 10
259.7824
 20
-60.4503
 10
259.6969
 20
-60.559
 10
259.6168
 20
-60.6732
 10
259.5422
 20
-60.7928
 10
259.473
 20
-60.9178
 10
259.4109
 20
-61.0507
 10
259.3571
 20
-61.1939
 10
259.3116
 20
-61.3473
 10
259.2743
 20
-61.511
 10
259.2452
 20
-61.6849
 10
259.2245
 20
-61.869
 10
259.2121
 20
-62.0634
 10
259.2079
 20
-62.268
 10
259.2151
 20
-62.4747
 10
259.2365
 20
-62.6748
 10
259.2723
 20
-62.8683
 10
259.3224
 20
-63.0552
 10
259.3867
 20
-63.2355
 10
259.4654
 20
-63.4093
 10
259.5584
 20
-63.5765
 10
259.6657
 20
-63.7371
 10
259.7727
 20
-63.8766
 10
259.8877
 20
-64.0098
 10
260.0105
 20
-64.1367
 10
260.1411
 20
-64.2574
 10
260.2794
 20
-64.3718
 10
260.4254
 20
-64.4799
 10
260.5788
 20
-64.5818
 10
260.7398
 20
-64.6773
 10
260.5913
 20
-64.7512
 10
260.4478
 20
-64.832
 10
260.3099
 20
-64.9199
 10
260.1785
 20
-65.0148
 10
260.0714
 20
-65.1019
 10
259.9696
 20
-65.1944
 10
259.8733
 20
-65.2923
 10
259.7824
 20
-65.3956
 10
259.6969
 20
-65.5043
 10
259.6168
 20
-65.6185
 10
259.5422
 20
-65.7381
 10
259.473
 20
-65.8632
 10
259.4109
 20
-65.9961
 10
259.3571
 20
-66.1393
 10
259.3116
 20
-66.2927
 10
259.2743
 20
-66.4563
 10
259.2452
 20
-66.6302
 10
259.2245
 20
-66.8143
 10
259.2121
 20
-67.0087
 10
259.2079
 20
-67.2133
 10
259.2151
 20
-67.42
 10
259.2365
 20
-67.6201
 10
259.2723
 20
-67.8136
 10
259.3224
 20
-68.0005
 10
259.3867
 20
-68.1809
 10
259.4654
 20
-68.3546
 10
259.5584
 20
-68.5218
 10
259.6657
 20
-68.6825
 10
259.7676
 20
-68.8154
 10
259.8764
 20
-68.9426
 10
259.9921
 20
-69.064
 10
260.1148
 20
-69.1798
 10
260.2444
 20
-69.2898
 10
260.3811
 20
-69.3941
 10
260.5249
 20
-69.4928
 10
260.6758
 20
-69.5858
 10
259.3909
 20
-69.5858
 10
259.3909
 20
-70.8629
 10
267.4478
 20
-70.8629
 10
267.4478
 20
-69.5858
 10
263.3243
 20
-69.5858
 10
263.0843
 20
-69.556
 10
262.8536
 20
-69.5172
 10
262.6321
 20
-69.4692
 10
262.4199
 20
-69.4122
 10
262.2167
 20
-69.346
 10
262.0227
 20
-69.2708
 10
261.8377
 20
-69.1865
 10
261.6618
 20
-69.0931
 10
261.5364
 20
-69.0169
 10
261.4168
 20
-68.9345
 10
261.3029
 20
-68.8458
 10
261.1948
 20
-68.7508
 10
261.0923
 20
-68.6495
 10
260.9956
 20
-68.542
 10
260.9046
 20
-68.4282
 10
260.8193
 20
-68.3081
 10
260.7421
 20
-68.184
 10
260.6752
 20
-68.0575
 10
260.6186
 20
-67.9287
 10
260.5723
 20
-67.7976
 10
260.5364
 20
-67.6641
 10
260.5107
 20
-67.5284
 10
260.4953
 20
-67.3904
 10
260.4902
 20
-67.2502
 10
260.4929
 20
-67.1132
 10
260.501
 20
-66.9854
 10
260.5145
 20
-66.8668
 10
260.5335
 20
-66.7573
 10
260.5579
 20
-66.657
 10
260.5878
 20
-66.5658
 10
260.6232
 20
-66.4838
 10
260.6641
 20
-66.4109
 10
260.8003
 20
-66.2268
 10
260.96
 20
-66.0673
 10
261.1433
 20
-65.9323
 10
261.3502
 20
-65.822
 10
261.5805
 20
-65.7362
 10
261.8344
 20
-65.6749
 10
262.1118
 20
-65.6381
 10
262.4126
 20
-65.6259
 10
267.4478
 20
-65.6259
 10
267.4478
 20
-64.3488
 10
262.4126
 20
-64.3488
 10
262.1041
 20
-64.3579
 10
261.6618
 20
-64.1477
 10
261.5364
 20
-64.0716
 10
261.4168
 20
-63.9892
 10
261.3029
 20
-63.9006
 10
261.1948
 20
-63.8057
 10
261.0923
 20
-63.7046
 10
260.9956
 20
-63.5971
 10
260.9046
 20
-63.4834
 10
260.8193
 20
-63.3634
 10
260.7421
 20
-63.2391
 10
260.6752
 20
-63.1124
 10
260.6186
 20
-62.9835
 10
260.5723
 20
-62.8523
 10
260.5364
 20
-62.7188
 10
260.5107
 20
-62.5831
 10
260.4953
 20
-62.4451
 10
260.4902
 20
-62.3048
 10
260.4929
 20
-62.168
 10
260.501
 20
-62.0403
 10
260.5145
 20
-61.9217
 10
260.5335
 20
-61.8122
 10
260.5579
 20
-61.7118
 10
260.5878
 20
-61.6206
 10
260.6232
 20
-61.5385
 10
260.6641
 20
-61.4655
 10
260.8003
 20
-61.2816
 10
260.96
 20
-61.1222
 10
261.1433
 20
-60.9872
 10
261.3502
 20
-60.8768
 10
261.5805
 20
-60.791
 10
261.8344
 20
-60.7296
 10
262.1118
 20
-60.6928
 10
262.4126
 20
-60.6805
 10
267.4478
 20
-60.6805
  0
LWPOLYLINE
  5
C5
330
1F
100
AcDbEntity
  8
Layer 1
 62
     7
370
     9
100
AcDbPolyline
 90
      162
 70
     1
 43
0.0
 10
267.4478
 20
-46.7569
 10
267.4478
 20
-45.4798
 10
262.4126
 20
-45.4798
 10
262.0781
 20
-45.4902
 10
261.7594
 20
-45.5214
 10
261.4565
 20
-45.5734
 10
261.1694
 20
-45.6462
 10
260.8981
 20
-45.7399
 10
260.6425
 20
-45.8543
 10
260.4026
 20
-45.9896
 10
260.1785
 20
-46.1458
 10
260.0714
 20
-46.2329
 10
259.9696
 20
-46.3254
 10
259.8733
 20
-46.4233
 10
259.7824
 20
-46.5266
 10
259.6969
 20
-46.6353
 10
259.6168
 20
-46.7495
 10
259.5422
 20
-46.8691
 10
259.473
 20
-46.9942
 10
259.4109
 20
-47.1271
 10
259.3571
 20
-47.2702
 10
259.3116
 20
-47.4236
 10
259.2743
 20
-47.5873
 10
259.2452
 20
-47.7612
 10
259.2245
 20
-47.9453
 10
259.2121
 20
-48.1397
 10
259.2079
 20
-48.3443
 10
259.2151
 20
-48.551
 10
259.2365
 20
-48.7511
 10
259.2723
 20
-48.9446
 10
259.3224
 20
-49.1315
 10
259.3867
 20
-49.3118
 10
259.4654
 20
-49.4856
 10
259.5584
 20
-49.6528
 10
259.6657
 20
-49.8134
 10
259.7727
 20
-49.9529
 10
259.8877
 20
-50.0861
 10
260.0105
 20
-50.213
 10
260.1411
 20
-50.3337
 10
260.2794
 20
-50.4481
 10
260.4254
 20
-50.5563
 10
260.5788
 20
-50.6581
 10
260.7398
 20
-50.7536
 10
260.5913
 20
-50.8275
 10
260.4478
 20
-50.9083
 10
260.3099
 20
-50.9962
 10
260.1785
 20
-51.0912
 10
260.0714
 20
-51.1783
 10
259.9696
 20
-51.2708
 10
259.8733
 20
-51.3687
 10
259.7824
 20
-51.472
 10
259.6969
 20
-51.5807
 10
259.6168
 20
-51.6949
 10
259.5422
 20
-51.8145
 10
259.473
 20
-51.9395
 10
259.4109
 20
-52.0724
 10
259.3571
 20
-52.2156
 10
259.3116
 20
-52.369
 10
259.2743
 20
-52.5326
 10
259.2452
 20
-52.7065
 10
259.2245
 20
-52.8907
 10
259.2121
 20
-53.0851
 10
259.2079
 20
-53.2897
 10
259.2151
 20
-53.4964
 10
259.2365
 20
-53.6964
 10
259.2723
 20
-53.8899
 10
259.3224
 20
-54.0768
 10
259.3867
 20
-54.2572
 10
259.4654
 20
-54.4309
 10
259.5584
 20
-54.5981
 10
259.6657
 20
-54.7588
 10
259.7676
 20
-54.8917
 10
259.8764
 20
-55.0189
 10
259.9921
 20
-55.1403
 10
260.1148
 20
-55.2561
 10
260.2444
 20
-55.3661
 10
260.3811
 20
-55.4704
 10
260.5249
 20
-55.5691
 10
260.6758
 20
-55.6621
 10
259.3909
 20
-55.6621
 10
259.3909
 20
-56.9392
 10
267.4478
 20
-56.9392
 10
267.4478
 20
-55.6621
 10
263.3243
 20
-55.6621
 10
263.0843
 20
-55.6323
 10
262.8536
 20
-55.5935
 10
262.6321
 20
-55.5455
 10
262.4199
 20
-55.4885
 10
262.2167
 20
-55.4224
 10
262.0227
 20
-55.3471
 10
261.8377
 20
-55.2628
 10
261.6618
 20
-55.1694
 10
261.5364
 20
-55.0933
 10
261.4168
 20
-55.0108
 10
261.3029
 20
-54.9221
 10
261.1948
 20
-54.8271
 10
261.0923
 20
-54.7258
 10
260.9956
 20
-54.6183
 10
260.9046
 20
-54.5045
 10
260.8193
 20
-54.3844
 10
260.7421
 20
-54.2603
 10
260.6752
 20
-54.1338
 10
260.6186
 20
-54.005
 10
260.5723
 20
-53.8739
 10
260.5364
 20
-53.7405
 10
260.5107
 20
-53.6047
 10
260.4953
 20
-53.4668
 10
260.4902
 20
-53.3265
 10
260.4929
 20
-53.1895
 10
260.501
 20
-53.0617
 10
260.5145
 20
-52.9431
 10
260.5335
 20
-52.8337
 10
260.5579
 20
-52.7334
 10
260.5878
 20
-52.6422
 10
260.6232
 20
-52.5601
 10
260.6641
 20
-52.4872
 10
260.8003
 20
-52.3031
 10
260.96
 20
-52.1436
 10
261.1433
 20
-52.0086
 10
261.3502
 20
-51.8983
 10
261.5805
 20
-51.8125
 10
261.8344
 20
-51.7512
 10
262.1118
 20
-51.7144
 10
262.4126
 20
-51.7022
 10
267.4478
 20
-51.7022
 10
267.4478
 20
-50.4251
 10
262.4126
 20
-50.4251
 10
262.1041
 20
-50.4342
 10
261.6618
 20
-50.224
 10
261.5364
 20
-50.1479
 10
261.4168
 20
-50.0656
 10
261.3029
 20
-49.9769
 10
261.1948
 20
-49.8821
 10
261.0923
 20
-49.7809
 10
260.9956
 20
-49.6735
 10
260.9046
 20
-49.5597
 10
260.8193
 20
-49.4397
 10
260.7421
 20
-49.3154
 10
260.6752
 20
-49.1887
 10
260.6186
 20
-49.0598
 10
260.5723
 20
-48.9286
 10
260.5364
 20
-48.7951
 10
260.5107
 20
-48.6594
 10
260.4953
 20
-48.5214
 10
260.4902
 20
-48.3812
 10
260.4929
 20
-48.2444
 10
260.501
 20
-48.1166
 10
260.5145
 20
-47.998
 10
260.5335
 20
-47.8885
 10
260.5579
 20
-47.7882
 10
260.5878
 20
-47.6969
 10
260.6232
 20
-47.6148
 10
260.6641
 20
-47.5419
 10
260.8003
 20
-47.358
 10
260.96
 20
-47.1985
 10
261.1433
 20
-47.0636
 10
261.3502
 20
-46.9532
 10
261.5805
 20
-46.8673
 10
261.8344
 20
-46.806
 10
262.1118
 20
-46.7692
 10
262.4126
 20
-46.7569
 10
267.4478
 20
-46.7569
  0
LWPOLYLINE
  5
C6
330
1F
100
AcDbEntity
  8
Layer 1
 62
     7
370
     9
100
AcDbPolyline
 90
        7
 70
     1
 43
0.0
 10
267.484
 20
-83.2722
 10
255.0883
 20
-77.816
 10
255.0883
 20
-85.6078
 10
256.3699
 20
-85.6078
 10
256.3699
 20
-79.805
 10
267.484
 20
-84.6954
 10
267.484
 20
-83.2722
  0
ENDSEC
  0
SECTION
  2
OBJECTS
  0
DICTIONARY
  5
C
330
0
100
AcDbDictionary
281
     1
  3
ACAD_DETAILVIEWSTYLE
350
CE
  3
ACAD_GROUP
350
D
  3
ACAD_LAYOUT
350
1A
  3
ACAD_MATERIAL
350
43
  3
ACAD_MLEADERSTYLE
350
5B
  3
ACAD_MLINESTYLE
350
17
  3
ACAD_PLOTSETTINGS
350
19
  3
ACAD_PLOTSTYLENAME
350
E
  3
ACAD_SCALELIST
350
47
  3
ACAD_SECTIONVIEWSTYLE
350
CF
  3
ACAD_TABLESTYLE
350
59
  3
ACAD_VISUALSTYLE
350
2A
  3
ACDB_RECOMPOSE_DATA
350
CB
  3
AcDbVariableDictionary
350
C7
  0
SUN
  5
5D
330
29
100
AcDbSun
 90
        1
290
     0
 63
     7
421
 16777215
 40
1.0
291
     1
 91
  2455826
 92
 54000000
292
     0
 70
     2
 71
   256
280
     1
  0
DICTIONARY
  5
CE
102
{ACAD_REACTORS
330
C
102
}
330
C
100
AcDbDictionary
281
     1
  0
DICTIONARY
  5
D
102
{ACAD_REACTORS
330
C
102
}
330
C
100
AcDbDictionary
281
     1
  0
DICTIONARY
  5
1A
102
{ACAD_REACTORS
330
C
102
}
330
C
100
AcDbDictionary
281
     1
  3
Layout1
350
1E
  3
Layout2
350
26
  3
Model
350
22
  0
DICTIONARY
  5
43
102
{ACAD_REACTORS
330
C
102
}
330
C
100
AcDbDictionary
281
     1
  3
ByBlock
350
45
  3
ByLayer
350
44
  3
Global
350
46
  0
DICTIONARY
  5
5B
102
{ACAD_REACTORS
330
C
102
}
330
C
100
AcDbDictionary
281
     1
  3
Standard
350
5C
  0
DICTIONARY
  5
17
102
{ACAD_REACTORS
330
C
102
}
330
C
100
AcDbDictionary
281
     1
  3
Standard
350
18
  0
DICTIONARY
  5
19
102
{ACAD_REACTORS
330
C
102
}
330
C
100
AcDbDictionary
281
     1
  0
ACDBDICTIONARYWDFLT
  5
E
102
{ACAD_REACTORS
330
C
102
}
330
C
100
AcDbDictionary
281
     1
  3
Normal
350
F
100
AcDbDictionaryWithDefault
340
F
  0
DICTIONARY
  5
47
102
{ACAD_REACTORS
330
C
102
}
330
C
100
AcDbDictionary
281
     1
  3
A0
350
48
  3
A1
350
49
  3
A2
350
4A
  3
A3
350
4B
  3
A4
350
4C
  3
A5
350
4D
  3
A6
350
4E
  3
A7
350
4F
  3
A8
350
50
  3
A9
350
51
  3
B1
350
52
  3
B2
350
53
  3
B3
350
54
  3
B4
350
55
  3
B5
350
56
  3
B6
350
57
  3
B7
350
58
  0
DICTIONARY
  5
CF
102
{ACAD_REACTORS
330
C
102
}
330
C
100
AcDbDictionary
281
     1
  0
DICTIONARY
  5
59
102
{ACAD_REACTORS
330
C
102
}
330
C
100
AcDbDictionary
281
     1
  3
Standard
350
5A
  0
DICTIONARY
  5
2A
102
{ACAD_REACTORS
330
C
102
}
330
C
100
AcDbDictionary
281
     1
  3
2dWireframe
350
2F
  3
Basic
350
32
  3
Brighten
350
36
  3
ColorChange
350
3A
  3
Conceptual
350
34
  3
Dim
350
35
  3
EdgeColorOff
350
3D
  3
Facepattern
350
39
  3
Flat
350
2B
  3
FlatWithEdges
350
2C
  3
Gouraud
350
2D
  3
GouraudWithEdges
350
2E
  3
Hidden
350
31
  3
JitterOff
350
3B
  3
Linepattern
350
38
  3
OverhangOff
350
3C
  3
Realistic
350
33
  3
Shaded
350
42
  3
Shaded with edges
350
41
  3
Shades of Gray
350
3E
  3
Sketchy
350
3F
  3
Thicken
350
37
  3
Wireframe
350
30
  3
X-Ray
350
40
  0
XRECORD
  5
CB
102
{ACAD_REACTORS
330
C
102
}
330
C
100
AcDbXrecord
280
     1
 90
        1
330
5A
  0
DICTIONARY
  5
C7
102
{ACAD_REACTORS
330
C
102
}
330
C
100
AcDbDictionary
281
     1
  3
CANNOSCALE
350
C8
  3
CMLEADERSTYLE
350
CD
  3
CTABLESTYLE
350
CC
  0
LAYOUT
  5
1E
102
{ACAD_REACTORS
330
1A
102
}
330
1A
100
AcDbPlotSettings
  1

  2
none_device
  4

  6

 40
0.0
 41
0.0
 42
0.0
 43
0.0
 44
0.0
 45
0.0
 46
0.0
 47
0.0
 48
0.0
 49
0.0
140
0.0
141
0.0
142
1.0
143
1.0
 70
   688
 72
     0
 73
     0
 74
     5
  7

 75
    16
 76
     0
 77
     2
 78
   300
147
1.0
148
0.0
149
0.0
100
AcDbLayout
  1
Layout1
 70
     1
 71
     1
 10
0.0
 20
0.0
 11
12.0
 21
9.0
 12
0.0
 22
0.0
 32
0.0
 14
1.000000000000000E+20
 24
1.000000000000000E+20
 34
1.000000000000000E+20
 15
-1.000000000000000E+20
 25
-1.000000000000000E+20
 35
-1.000000000000000E+20
146
0.0
 13
0.0
 23
0.0
 33
0.0
 16
1.0
 26
0.0
 36
0.0
 17
0.0
 27
1.0
 37
0.0
 76
     0
330
1B
  0
LAYOUT
  5
26
102
{ACAD_REACTORS
330
1A
102
}
330
1A
100
AcDbPlotSettings
  1

  2
none_device
  4

  6

 40
0.0
 41
0.0
 42
0.0
 43
0.0
 44
0.0
 45
0.0
 46
0.0
 47
0.0
 48
0.0
 49
0.0
140
0.0
141
0.0
142
1.0
143
1.0
 70
   688
 72
     0
 73
     0
 74
     5
  7

 75
    16
 76
     0
 77
     2
 78
   300
147
1.0
148
0.0
149
0.0
100
AcDbLayout
  1
Layout2
 70
     1
 71
     2
 10
0.0
 20
0.0
 11
0.0
 21
0.0
 12
0.0
 22
0.0
 32
0.0
 14
0.0
 24
0.0
 34
0.0
 15
0.0
 25
0.0
 35
0.0
146
0.0
 13
0.0
 23
0.0
 33
0.0
 16
1.0
 26
0.0
 36
0.0
 17
0.0
 27
1.0
 37
0.0
 76
     0
330
23
  0
LAYOUT
  5
22
102
{ACAD_REACTORS
330
1A
102
}
330
1A
100
AcDbPlotSettings
  1

  2
none_device
  4
Letter_(8.50_x_11.00_Inches)
  6

 40
6.35
 41
6.35
 42
6.35000508
 43
6.35000508
 44
215.9
 45
279.4
 46
0.0
 47
0.0
 48
0.0
 49
0.0
140
0.0
141
0.0
142
1.0
143
1.0
 70
  1712
 72
     0
 73
     0
 74
     0
  7

 75
     0
 76
     0
 77
     2
 78
   300
147
1.0
148
0.0
149
0.0
100
AcDbLayout
  1
Model
 70
     1
 71
     0
 10
0.0
 20
0.0
 11
12.0
 21
9.0
 12
0.0
 22
0.0
 32
0.0
 14
142.3325
 24
-160.6008
 34
0.0
 15
275.456
 25
16.3883
 35
0.0
146
0.0
 13
0.0
 23
0.0
 33
0.0
 16
1.0
 26
0.0
 36
0.0
 17
0.0
 27
1.0
 37
0.0
 76
     0
330
1F
331
29
  0
MATERIAL
  5
45
102
{ACAD_REACTORS
330
43
102
}
330
43
100
AcDbMaterial
  1
ByBlock
 72
     1
 94
      127
  0
MATERIAL
  5
44
102
{ACAD_REACTORS
330
43
102
}
330
43
100
AcDbMaterial
  1
ByLayer
 72
     1
 94
      127
  0
MATERIAL
  5
46
102
{ACAD_REACTORS
330
43
102
}
330
43
100
AcDbMaterial
  1
Global
 72
     1
 94
      127
  0
MLEADERSTYLE
  5
5C
102
{ACAD_REACTORS
330
5B
102
}
330
5B
100
AcDbMLeaderStyle
179
     2
170
     2
171
     1
172
     0
 90
        2
 40
0.0
 41
0.0
173
     1
 91
-1056964608
340
14
 92
       -2
290
     1
 42
0.09
291
     1
 43
0.36
  3
Standard
341
0
 44
0.18
300

342
11
174
     1
178
     6
175
     1
176
     0
 93
-1056964608
 45
0.18
292
     0
297
     0
 46
0.18
343
0
 94
-1056964608
 47
1.0
 49
1.0
140
1.0
293
     1
141
0.0
294
     1
177
     0
142
1.0
295
     0
296
     0
143
0.125
271
     0
272
     9
273
     9
298
     0
  0
MLINESTYLE
  5
18
102
{ACAD_REACTORS
330
17
102
}
330
17
100
AcDbMlineStyle
  2
Standard
 70
     0
  3

 62
   256
 51
90.0
 52
90.0
 71
     2
 49
0.5
 62
   256
  6
BYLAYER
 49
-0.5
 62
   256
  6
BYLAYER
  0
ACDBPLACEHOLDER
  5
F
102
{ACAD_REACTORS
330
E
102
}
330
E
  0
SCALE
  5
48
102
{ACAD_REACTORS
330
47
102
}
330
47
100
AcDbScale
 70
     0
300
1:1
140
1.0
141
1.0
290
     1
  0
SCALE
  5
49
102
{ACAD_REACTORS
330
47
102
}
330
47
100
AcDbScale
 70
     0
300
1/128" = 1'-0"
140
0.0078125
141
12.0
290
     0
  0
SCALE
  5
4A
102
{ACAD_REACTORS
330
47
102
}
330
47
100
AcDbScale
 70
     0
300
1/64" = 1'-0"
140
0.015625
141
12.0
290
     0
  0
SCALE
  5
4B
102
{ACAD_REACTORS
330
47
102
}
330
47
100
AcDbScale
 70
     0
300
1/32" = 1'-0"
140
0.03125
141
12.0
290
     0
  0
SCALE
  5
4C
102
{ACAD_REACTORS
330
47
102
}
330
47
100
AcDbScale
 70
     0
300
1/16" = 1'-0"
140
0.0625
141
12.0
290
     0
  0
SCALE
  5
4D
102
{ACAD_REACTORS
330
47
102
}
330
47
100
AcDbScale
 70
     0
300
3/32" = 1'-0"
140
0.09375
141
12.0
290
     0
  0
SCALE
  5
4E
102
{ACAD_REACTORS
330
47
102
}
330
47
100
AcDbScale
 70
     0
300
1/8" = 1'-0"
140
0.125
141
12.0
290
     0
  0
SCALE
  5
4F
102
{ACAD_REACTORS
330
47
102
}
330
47
100
AcDbScale
 70
     0
300
3/16" = 1'-0"
140
0.1875
141
12.0
290
     0
  0
SCALE
  5
50
102
{ACAD_REACTORS
330
47
102
}
330
47
100
AcDbScale
 70
     0
300
1/4" = 1'-0"
140
0.25
141
12.0
290
     0
  0
SCALE
  5
51
102
{ACAD_REACTORS
330
47
102
}
330
47
100
AcDbScale
 70
     0
300
3/8" = 1'-0"
140
0.375
141
12.0
290
     0
  0
SCALE
  5
52
102
{ACAD_REACTORS
330
47
102
}
330
47
100
AcDbScale
 70
     0
300
1/2" = 1'-0"
140
0.5
141
12.0
290
     0
  0
SCALE
  5
53
102
{ACAD_REACTORS
330
47
102
}
330
47
100
AcDbScale
 70
     0
300
3/4" = 1'-0"
140
0.75
141
12.0
290
     0
  0
SCALE
  5
54
102
{ACAD_REACTORS
330
47
102
}
330
47
100
AcDbScale
 70
     0
300
1" = 1'-0"
140
1.0
141
12.0
290
     0
  0
SCALE
  5
55
102
{ACAD_REACTORS
330
47
102
}
330
47
100
AcDbScale
 70
     0
300
1-1/2" = 1'-0"
140
1.5
141
12.0
290
     0
  0
SCALE
  5
56
102
{ACAD_REACTORS
330
47
102
}
330
47
100
AcDbScale
 70
     0
300
3" = 1'-0"
140
3.0
141
12.0
290
     0
  0
SCALE
  5
57
102
{ACAD_REACTORS
330
47
102
}
330
47
100
AcDbScale
 70
     0
300
6" = 1'-0"
140
6.0
141
12.0
290
     0
  0
SCALE
  5
58
102
{ACAD_REACTORS
330
47
102
}
330
47
100
AcDbScale
 70
     0
300
1'-0" = 1'-0"
140
12.0
141
12.0
290
     0
  0
TABLESTYLE
  5
5A
102
{ACAD_REACTORS
330
59
102
}
102
{ACAD_XDICTIONARY
360
C9
102
}
330
59
100
AcDbTableStyle
  3
Standard
 70
     0
 71
     0
 40
0.06
 41
0.06
280
     0
281
     0
  7
Standard
140
0.18
170
     2
 62
     0
 63
   257
283
     0
 90
        4
 91
        0
  1

274
    -2
284
     1
 64
     0
275
    -2
285
     1
 65
     0
276
    -2
286
     1
 66
     0
277
    -2
287
     1
 67
     0
278
    -2
288
     1
 68
     0
279
    -2
289
     1
 69
     0
  7
Standard
140
0.25
170
     5
 62
     0
 63
   257
283
     0
 90
        4
 91
        0
  1

274
    -2
284
     1
 64
     0
275
    -2
285
     1
 65
     0
276
    -2
286
     1
 66
     0
277
    -2
287
     1
 67
     0
278
    -2
288
     1
 68
     0
279
    -2
289
     1
 69
     0
  7
Standard
140
0.18
170
     5
 62
     0
 63
   257
283
     0
 90
        4
 91
        0
  1

274
    -2
284
     1
 64
     0
275
    -2
285
     1
 65
     0
276
    -2
286
     1
 66
     0
277
    -2
287
     1
 67
     0
278
    -2
288
     1
 68
     0
279
    -2
289
     1
 69
     0
  0
VISUALSTYLE
  5
2F
102
{ACAD_REACTORS
330
2A
102
}
330
2A
100
AcDbVisualStyle
  2
2dWireframe
 70
     4
177
     3
291
     0
 70
    58
 90
        0
176
     1
 90
        2
176
     1
 90
        0
176
     1
 90
        0
176
     1
 40
0.6
176
     1
 40
30.0
176
     1
 62
     7
420
 16777215
176
     1
 90
        1
176
     1
 90
        4
176
     1
 62
     7
176
     1
 62
   257
176
     1
 90
        1
176
     1
 90
        1
176
     1
 40
1.0
176
     1
 90
        0
176
     1
 62
   257
176
     1
 40
1.0
176
     1
 90
        1
176
     1
 90
        6
176
     1
 90
        2
176
     1
 62
     7
176
     1
 90
        5
176
     1
 90
        0
176
     1
 90
        0
176
     1
290
     0
176
     1
 90
        1
176
     1
 40
0.0
176
     1
 90
        0
176
     1
290
     1
176
     1
290
     1
176
     1
290
     0
176
     1
290
     0
176
     1
290
     0
176
     1
290
     0
176
     1
290
     0
176
     1
290
     0
176
     1
290
     0
176
     1
 90
       50
176
     1
 40
0.0
176
     1
 40
1.0
176
     1
 90
        0
176
     1
 62
    18
420
        0
176
     1
 90
       50
176
     1
 90
        3
176
     1
 62
     5
420
      255
176
     1
290
     0
176
     1
 90
       50
176
     1
 90
       50
176
     1
 90
       50
176
     1
290
     0
176
     1
 90
       50
176
     1
 62
   256
176
     0
 40
1.0
176
     0
 90
        2
176
     1
  1
strokes_ogs.tif
176
     1
290
     0
176
     1
 40
1.0
176
     1
 40
1.0
176
     1
  0
VISUALSTYLE
  5
32
102
{ACAD_REACTORS
330
2A
102
}
330
2A
100
AcDbVisualStyle
  2
Basic
 70
     7
177
     3
291
     1
 70
    58
 90
        1
176
     1
 90
        0
176
     1
 90
        1
176
     1
 90
        0
176
     1
 40
0.6
176
     1
 40
30.0
176
     1
 62
     7
420
 16777215
176
     1
 90
        0
176
     1
 90
        4
176
     1
 62
     7
176
     1
 62
   257
176
     1
 90
        1
176
     1
 90
        1
176
     1
 40
1.0
176
     1
 90
        8
176
     1
 62
     7
176
     1
 40
1.0
176
     1
 90
        1
176
     1
 90
        6
176
     1
 90
        2
176
     1
 62
     7
176
     1
 90
        5
176
     1
 90
        0
176
     1
 90
        0
176
     1
290
     0
176
     1
 90
        1
176
     1
 40
0.0
176
     1
 90
        0
176
     1
290
     0
176
     1
290
     1
176
     1
290
     1
176
     1
290
     0
176
     1
290
     0
176
     1
290
     0
176
     1
290
     0
176
     1
290
     0
176
     1
290
     0
176
     1
 90
       50
176
     1
 40
0.0
176
     1
 40
1.0
176
     1
 90
        0
176
     1
 62
    18
420
        0
176
     1
 90
       50
176
     1
 90
        3
176
     1
 62
     5
420
      255
176
     1
290
     0
176
     1
 90
       50
176
     1
 90
       50
176
     1
 90
       50
176
     1
290
     0
176
     1
 90
       50
176
     1
 62
   256
176
     0
 40
1.0
176
     0
 90
        2
176
     1
  1
strokes_ogs.tif
176
     1
290
     0
176
     1
 40
1.0
176
     1
 40
1.0
176
     1
  0
VISUALSTYLE
  5
36
102
{ACAD_REACTORS
330
2A
102
}
330
2A
100
AcDbVisualStyle
  2
Brighten
 70
    12
177
     3
291
     1
 70
    58
 90
        2
176
     1
 90
        2
176
     1
 90
        0
176
     1
 90
        0
176
     1
 40
0.6
176
     1
 40
30.0
176
     1
 62
     7
420
 16777215
176
     1
 90
        1
176
     1
 90
        4
176
     1
 62
     7
176
     1
 62
   257
176
     1
 90
        1
176
     1
 90
        1
176
     1
 40
1.0
176
     1
 90
        8
176
     1
 62
     7
176
     1
 40
1.0
176
     1
 90
        1
176
     1
 90
        6
176
     1
 90
        2
176
     1
 62
     7
176
     1
 90
        5
176
     1
 90
        0
176
     1
 90
        0
176
     1
290
     0
176
     1
 90
        1
176
     1
 40
50.0
176
     1
 90
        0
176
     1
290
     0
176
     1
290
     1
176
     1
290
     1
176
     1
290
     0
176
     1
290
     0
176
     1
290
     0
176
     1
290
     0
176
     1
290
     0
176
     1
290
     0
176
     1
 90
       50
176
     1
 40
0.0
176
     1
 40
1.0
176
     1
 90
        0
176
     1
 62
    18
420
        0
176
     1
 90
       50
176
     1
 90
        3
176
     1
 62
     5
420
      255
176
     1
290
     0
176
     1
 90
       50
176
     1
 90
       50
176
     1
 90
       50
176
     1
290
     0
176
     1
 90
       50
176
     1
 62
   256
176
     0
 40
1.0
176
     0
 90
        2
176
     1
  1
strokes_ogs.tif
176
     1
290
     0
176
     1
 40
1.0
176
     1
 40
1.0
176
     1
  0
VISUALSTYLE
  5
3A
102
{ACAD_REACTORS
330
2A
102
}
330
2A
100
AcDbVisualStyle
  2
ColorChange
 70
    16
177
     3
291
     1
 70
    58
 90
        2
176
     1
 90
        2
176
     1
 90
        3
176
     1
 90
        0
176
     1
 40
0.6
176
     1
 40
30.0
176
     1
 62
     8
420
  8421504
176
     1
 90
        1
176
     1
 90
        4
176
     1
 62
     7
176
     1
 62
   257
176
     1
 90
        1
176
     1
 90
        1
176
     1
 40
1.0
176
     1
 90
        8
176
     1
 62
     8
420
  8421504
176
     1
 40
1.0
176
     1
 90
        1
176
     1
 90
        6
176
     1
 90
        2
176
     1
 62
     7
176
     1
 90
        5
176
     1
 90
        0
176
     1
 90
        0
176
     1
290
     0
176
     1
 90
        1
176
     1
 40
0.0
176
     1
 90
        0
176
     1
290
     0
176
     1
290
     1
176
     1
290
     1
176
     1
290
     0
176
     1
290
     0
176
     1
290
     0
176
     1
290
     0
176
     1
290
     0
176
     1
290
     0
176
     1
 90
       50
176
     1
 40
0.0
176
     1
 40
1.0
176
     1
 90
        0
176
     1
 62
    18
420
        0
176
     1
 90
       50
176
     1
 90
        3
176
     1
 62
     5
420
      255
176
     1
290
     0
176
     1
 90
       50
176
     1
 90
       50
176
     1
 90
       50
176
     1
290
     0
176
     1
 90
       50
176
     1
 62
   256
176
     0
 40
1.0
176
     0
 90
        2
176
     1
  1
strokes_ogs.tif
176
     1
290
     0
176
     1
 40
1.0
176
     1
 40
1.0
176
     1
  0
VISUALSTYLE
  5
34
102
{ACAD_REACTORS
330
2A
102
}
330
2A
100
AcDbVisualStyle
  2
Conceptual
 70
     9
177
     3
291
     0
 70
    58
 90
        3
176
     1
 90
        2
176
     1
 90
        0
176
     1
 90
        0
176
     1
 40
0.6
176
     1
 40
30.0
176
     1
 62
     7
420
 16777215
176
     1
 90
        2
176
     1
 90
        2
176
     1
 62
     7
176
     1
 62
   257
176
     1
 90
        1
176
     1
 90
        1
176
     1
 40
179.0
176
     1
 90
        8
176
     1
 62
     7
176
     1
 40
1.0
176
     1
 90
        1
176
     1
 90
        6
176
     1
 90
        2
176
     1
 62
     7
176
     1
 90
        3
176
     1
 90
        0
176
     1
 90
        0
176
     1
290
     0
176
     1
 90
        1
176
     1
 40
0.0
176
     1
 90
        0
176
     1
290
     0
176
     1
290
     1
176
     1
290
     1
176
     1
290
     0
176
     1
290
     0
176
     1
290
     0
176
     1
290
     0
176
     1
290
     0
176
     1
290
     0
176
     1
 90
       50
176
     1
 40
0.0
176
     1
 40
1.0
176
     1
 90
        0
176
     1
 62
    18
420
        0
176
     1
 90
       50
176
     1
 90
        3
176
     1
 62
     5
420
      255
176
     1
290
     0
176
     1
 90
       50
176
     1
 90
       50
176
     1
 90
       50
176
     1
290
     0
176
     1
 90
       50
176
     1
 62
   256
176
     0
 40
1.0
176
     0
 90
        2
176
     1
  1
strokes_ogs.tif
176
     1
290
     0
176
     1
 40
1.0
176
     1
 40
1.0
176
     1
  0
VISUALSTYLE
  5
35
102
{ACAD_REACTORS
330
2A
102
}
330
2A
100
AcDbVisualStyle
  2
Dim
 70
    11
177
     3
291
     1
 70
    58
 90
        2
176
     1
 90
        2
176
     1
 90
        0
176
     1
 90
        0
176
     1
 40
0.6
176
     1
 40
30.0
176
     1
 62
     7
420
 16777215
176
     1
 90
        1
176
     1
 90
        4
176
     1
 62
     7
176
     1
 62
   257
176
     1
 90
        1
176
     1
 90
        1
176
     1
 40
1.0
176
     1
 90
        8
176
     1
 62
     7
176
     1
 40
1.0
176
     1
 90
        1
176
     1
 90
        6
176
     1
 90
        2
176
     1
 62
     7
176
     1
 90
        5
176
     1
 90
        0
176
     1
 90
        0
176
     1
290
     0
176
     1
 90
        1
176
     1
 40
-50.0
176
     1
 90
        0
176
     1
290
     0
176
     1
290
     1
176
     1
290
     1
176
     1
290
     0
176
     1
290
     0
176
     1
290
     0
176
     1
290
     0
176
     1
290
     0
176
     1
290
     0
176
     1
 90
       50
176
     1
 40
0.0
176
     1
 40
1.0
176
     1
 90
        0
176
     1
 62
    18
420
        0
176
     1
 90
       50
176
     1
 90
        3
176
     1
 62
     5
420
      255
176
     1
290
     0
176
     1
 90
       50
176
     1
 90
       50
176
     1
 90
       50
176
     1
290
     0
176
     1
 90
       50
176
     1
 62
   256
176
     0
 40
1.0
176
     0
 90
        2
176
     1
  1
strokes_ogs.tif
176
     1
290
     0
176
     1
 40
1.0
176
     1
 40
1.0
176
     1
  0
VISUALSTYLE
  5
3D
102
{ACAD_REACTORS
330
2A
102
}
330
2A
100
AcDbVisualStyle
  2
EdgeColorOff
 70
    22
177
     3
291
     1
 70
    58
 90
        2
176
     0
 90
        2
176
     0
 90
        0
176
     0
 90
        0
176
     0
 40
0.6
176
     0
 40
30.0
176
     0
 62
     7
420
 16777215
176
     0
 90
        1
176
     0
 90
        4
176
     0
 62
     7
176
     0
 62
   257
176
     0
 90
        1
176
     0
 90
        1
176
     0
 40
1.0
176
     0
 90
        8
176
     2
 62
     7
176
     0
 40
1.0
176
     0
 90
        1
176
     0
 90
        6
176
     0
 90
        2
176
     0
 62
     7
176
     0
 90
        5
176
     0
 90
        0
176
     0
 90
        0
176
     0
290
     0
176
     0
 90
        1
176
     0
 40
0.0
176
     0
 90
        0
176
     0
290
     0
176
     0
290
     1
176
     0
290
     1
176
     0
290
     0
176
     0
290
     0
176
     0
290
     0
176
     0
290
     0
176
     0
290
     0
176
     0
290
     0
176
     0
 90
       50
176
     0
 40
0.0
176
     0
 40
1.0
176
     0
 90
        0
176
     0
 62
    18
420
        0
176
     0
 90
       50
176
     0
 90
        3
176
     0
 62
     5
420
      255
176
     0
290
     0
176
     0
 90
       50
176
     0
 90
       50
176
     0
 90
       50
176
     0
290
     0
176
     0
 90
       50
176
     0
 62
   256
176
     0
 40
1.0
176
     0
 90
        2
176
     0
  1
strokes_ogs.tif
176
     0
290
     0
176
     0
 40
1.0
176
     0
 40
1.0
176
     0
  0
VISUALSTYLE
  5
39
102
{ACAD_REACTORS
330
2A
102
}
330
2A
100
AcDbVisualStyle
  2
Facepattern
 70
    15
177
     3
291
     1
 70
    58
 90
        2
176
     1
 90
        2
176
     1
 90
        0
176
     1
 90
        0
176
     1
 40
0.6
176
     1
 40
30.0
176
     1
 62
     7
420
 16777215
176
     1
 90
        1
176
     1
 90
        4
176
     1
 62
     7
176
     1
 62
   257
176
     1
 90
        1
176
     1
 90
        1
176
     1
 40
1.0
176
     1
 90
        8
176
     1
 62
     7
176
     1
 40
1.0
176
     1
 90
        1
176
     1
 90
        6
176
     1
 90
        2
176
     1
 62
     7
176
     1
 90
        5
176
     1
 90
        0
176
     1
 90
        0
176
     1
290
     0
176
     1
 90
        1
176
     1
 40
0.0
176
     1
 90
        0
176
     1
290
     0
176
     1
290
     1
176
     1
290
     1
176
     1
290
     0
176
     1
290
     0
176
     1
290
     0
176
     1
290
     0
176
     1
290
     0
176
     1
290
     0
176
     1
 90
       50
176
     1
 40
0.0
176
     1
 40
1.0
176
     1
 90
        0
176
     1
 62
    18
420
        0
176
     1
 90
       50
176
     1
 90
        3
176
     1
 62
     5
420
      255
176
     1
290
     0
176
     1
 90
       50
176
     1
 90
       50
176
     1
 90
       50
176
     1
290
     0
176
     1
 90
       50
176
     1
 62
   256
176
     0
 40
1.0
176
     0
 90
        2
176
     1
  1
strokes_ogs.tif
176
     1
290
     0
176
     1
 40
1.0
176
     1
 40
1.0
176
     1
  0
VISUALSTYLE
  5
2B
102
{ACAD_REACTORS
330
2A
102
}
330
2A
100
AcDbVisualStyle
  2
Flat
 70
     0
177
     3
291
     1
 70
    58
 90
        2
176
     1
 90
        1
176
     1
 90
        1
176
     1
 90
        2
176
     1
 40
0.6
176
     1
 40
30.0
176
     1
 62
     7
420
 16777215
176
     1
 90
        0
176
     1
 90
        0
176
     1
 62
     7
176
     1
 62
   257
176
     1
 90
        1
176
     1
 90
        1
176
     1
 40
1.0
176
     1
 90
        8
176
     1
 62
     7
176
     1
 40
1.0
176
     1
 90
        1
176
     1
 90
        6
176
     1
 90
        2
176
     1
 62
     7
176
     1
 90
        5
176
     1
 90
        0
176
     1
 90
        0
176
     1
290
     0
176
     1
 90
       13
176
     1
 40
0.0
176
     1
 90
        0
176
     1
290
     0
176
     1
290
     1
176
     1
290
     1
176
     1
290
     0
176
     1
290
     0
176
     1
290
     0
176
     1
290
     0
176
     1
290
     0
176
     1
290
     0
176
     1
 90
       50
176
     1
 40
0.0
176
     1
 40
1.0
176
     1
 90
        0
176
     1
 62
    18
420
        0
176
     1
 90
       50
176
     1
 90
        3
176
     1
 62
     5
420
      255
176
     1
290
     0
176
     1
 90
       50
176
     1
 90
       50
176
     1
 90
       50
176
     1
290
     0
176
     1
 90
       50
176
     1
 62
   256
176
     0
 40
1.0
176
     0
 90
        2
176
     1
  1
strokes_ogs.tif
176
     1
290
     0
176
     1
 40
1.0
176
     1
 40
1.0
176
     1
  0
VISUALSTYLE
  5
2C
102
{ACAD_REACTORS
330
2A
102
}
330
2A
100
AcDbVisualStyle
  2
FlatWithEdges
 70
     1
177
     3
291
     1
 70
    58
 90
        2
176
     1
 90
        1
176
     1
 90
        1
176
     1
 90
        2
176
     1
 40
0.6
176
     1
 40
30.0
176
     1
 62
     7
420
 16777215
176
     1
 90
        1
176
     1
 90
        0
176
     1
 62
     7
176
     1
 62
   257
176
     1
 90
        1
176
     1
 90
        1
176
     1
 40
1.0
176
     1
 90
        0
176
     1
 62
   257
176
     1
 40
1.0
176
     1
 90
        1
176
     1
 90
        6
176
     1
 90
        2
176
     1
 62
     7
176
     1
 90
        5
176
     1
 90
        0
176
     1
 90
        0
176
     1
290
     0
176
     1
 90
       13
176
     1
 40
0.0
176
     1
 90
        0
176
     1
290
     0
176
     1
290
     1
176
     1
290
     1
176
     1
290
     0
176
     1
290
     0
176
     1
290
     0
176
     1
290
     0
176
     1
290
     0
176
     1
290
     0
176
     1
 90
       50
176
     1
 40
0.0
176
     1
 40
1.0
176
     1
 90
        0
176
     1
 62
    18
420
        0
176
     1
 90
       50
176
     1
 90
        3
176
     1
 62
     5
420
      255
176
     1
290
     0
176
     1
 90
       50
176
     1
 90
       50
176
     1
 90
       50
176
     1
290
     0
176
     1
 90
       50
176
     1
 62
   256
176
     0
 40
1.0
176
     0
 90
        2
176
     1
  1
strokes_ogs.tif
176
     1
290
     0
176
     1
 40
1.0
176
     1
 40
1.0
176
     1
  0
VISUALSTYLE
  5
2D
102
{ACAD_REACTORS
330
2A
102
}
330
2A
100
AcDbVisualStyle
  2
Gouraud
 70
     2
177
     3
291
     1
 70
    58
 90
        2
176
     1
 90
        2
176
     1
 90
        1
176
     1
 90
        2
176
     1
 40
0.6
176
     1
 40
30.0
176
     1
 62
     7
420
 16777215
176
     1
 90
        0
176
     1
 90
        0
176
     1
 62
     7
176
     1
 62
   257
176
     1
 90
        1
176
     1
 90
        1
176
     1
 40
1.0
176
     1
 90
        0
176
     1
 62
     7
176
     1
 40
1.0
176
     1
 90
        1
176
     1
 90
        6
176
     1
 90
        2
176
     1
 62
     7
176
     1
 90
        5
176
     1
 90
        0
176
     1
 90
        0
176
     1
290
     0
176
     1
 90
       13
176
     1
 40
0.0
176
     1
 90
        0
176
     1
290
     0
176
     1
290
     1
176
     1
290
     1
176
     1
290
     0
176
     1
290
     0
176
     1
290
     0
176
     1
290
     0
176
     1
290
     0
176
     1
290
     0
176
     1
 90
       50
176
     1
 40
0.0
176
     1
 40
1.0
176
     1
 90
        0
176
     1
 62
    18
420
        0
176
     1
 90
       50
176
     1
 90
        3
176
     1
 62
     5
420
      255
176
     1
290
     0
176
     1
 90
       50
176
     1
 90
       50
176
     1
 90
       50
176
     1
290
     0
176
     1
 90
       50
176
     1
 62
   256
176
     0
 40
1.0
176
     0
 90
        2
176
     1
  1
strokes_ogs.tif
176
     1
290
     0
176
     1
 40
1.0
176
     1
 40
1.0
176
     1
  0
VISUALSTYLE
  5
2E
102
{ACAD_REACTORS
330
2A
102
}
330
2A
100
AcDbVisualStyle
  2
GouraudWithEdges
 70
     3
177
     3
291
     1
 70
    58
 90
        2
176
     1
 90
        2
176
     1
 90
        1
176
     1
 90
        2
176
     1
 40
0.6
176
     1
 40
30.0
176
     1
 62
     7
420
 16777215
176
     1
 90
        1
176
     1
 90
        0
176
     1
 62
     7
176
     1
 62
   257
176
     1
 90
        1
176
     1
 90
        1
176
     1
 40
1.0
176
     1
 90
        0
176
     1
 62
   257
176
     1
 40
1.0
176
     1
 90
        1
176
     1
 90
        6
176
     1
 90
        2
176
     1
 62
     7
176
     1
 90
        5
176
     1
 90
        0
176
     1
 90
        0
176
     1
290
     0
176
     1
 90
       13
176
     1
 40
0.0
176
     1
 90
        0
176
     1
290
     0
176
     1
290
     1
176
     1
290
     1
176
     1
290
     0
176
     1
290
     0
176
     1
290
     0
176
     1
290
     0
176
     1
290
     0
176
     1
290
     0
176
     1
 90
       50
176
     1
 40
0.0
176
     1
 40
1.0
176
     1
 90
        0
176
     1
 62
    18
420
        0
176
     1
 90
       50
176
     1
 90
        3
176
     1
 62
     5
420
      255
176
     1
290
     0
176
     1
 90
       50
176
     1
 90
       50
176
     1
 90
       50
176
     1
290
     0
176
     1
 90
       50
176
     1
 62
   256
176
     0
 40
1.0
176
     0
 90
        2
176
     1
  1
strokes_ogs.tif
176
     1
290
     0
176
     1
 40
1.0
176
     1
 40
1.0
176
     1
  0
VISUALSTYLE
  5
31
102
{ACAD_REACTORS
330
2A
102
}
330
2A
100
AcDbVisualStyle
  2
Hidden
 70
     6
177
     3
291
     0
 70
    58
 90
        1
176
     1
 90
        2
176
     1
 90
        2
176
     1
 90
        0
176
     1
 40
0.6
176
     1
 40
30.0
176
     1
 62
     7
420
 16777215
176
     1
 90
        2
176
     1
 90
        2
176
     1
 62
     7
176
     1
 62
   257
176
     1
 90
        2
176
     1
 90
        1
176
     1
 40
40.0
176
     1
 90
        0
176
     1
 62
   257
176
     1
 40
1.0
176
     1
 90
        1
176
     1
 90
        6
176
     1
 90
        2
176
     1
 62
     7
176
     1
 90
        3
176
     1
 90
        0
176
     1
 90
        0
176
     1
290
     0
176
     1
 90
        1
176
     1
 40
0.0
176
     1
 90
        0
176
     1
290
     0
176
     1
290
     1
176
     1
290
     1
176
     1
290
     0
176
     1
290
     0
176
     1
290
     0
176
     1
290
     0
176
     1
290
     0
176
     1
290
     0
176
     1
 90
       50
176
     1
 40
0.0
176
     1
 40
1.0
176
     1
 90
        0
176
     1
 62
    18
420
        0
176
     1
 90
       50
176
     1
 90
        3
176
     1
 62
     5
420
      255
176
     1
290
     0
176
     1
 90
       50
176
     1
 90
       50
176
     1
 90
       50
176
     1
290
     0
176
     1
 90
       50
176
     1
 62
   256
176
     0
 40
1.0
176
     0
 90
        2
176
     1
  1
strokes_ogs.tif
176
     1
290
     0
176
     1
 40
1.0
176
     1
 40
1.0
176
     1
  0
VISUALSTYLE
  5
3B
102
{ACAD_REACTORS
330
2A
102
}
330
2A
100
AcDbVisualStyle
  2
JitterOff
 70
    20
177
     3
291
     1
 70
    58
 90
        2
176
     0
 90
        2
176
     0
 90
        0
176
     0
 90
        0
176
     0
 40
0.6
176
     0
 40
30.0
176
     0
 62
     7
420
 16777215
176
     0
 90
        1
176
     0
 90
        4
176
     0
 62
     7
176
     0
 62
   257
176
     0
 90
        1
176
     0
 90
        1
176
     0
 40
1.0
176
     0
 90
       10
176
     2
 62
     7
176
     0
 40
1.0
176
     0
 90
        1
176
     0
 90
        6
176
     0
 90
        2
176
     0
 62
     7
176
     0
 90
        5
176
     0
 90
        0
176
     0
 90
        0
176
     0
290
     0
176
     0
 90
        1
176
     0
 40
0.0
176
     0
 90
        0
176
     0
290
     0
176
     0
290
     1
176
     0
290
     1
176
     0
290
     0
176
     0
290
     0
176
     0
290
     0
176
     0
290
     0
176
     0
290
     0
176
     0
290
     0
176
     0
 90
       50
176
     0
 40
0.0
176
     0
 40
1.0
176
     0
 90
        0
176
     0
 62
    18
420
        0
176
     0
 90
       50
176
     0
 90
        3
176
     0
 62
     5
420
      255
176
     0
290
     0
176
     0
 90
       50
176
     0
 90
       50
176
     0
 90
       50
176
     0
290
     0
176
     0
 90
       50
176
     0
 62
   256
176
     0
 40
1.0
176
     0
 90
        2
176
     0
  1
strokes_ogs.tif
176
     0
290
     0
176
     0
 40
1.0
176
     0
 40
1.0
176
     0
  0
VISUALSTYLE
  5
38
102
{ACAD_REACTORS
330
2A
102
}
330
2A
100
AcDbVisualStyle
  2
Linepattern
 70
    14
177
     3
291
     1
 70
    58
 90
        2
176
     1
 90
        2
176
     1
 90
        0
176
     1
 90
        0
176
     1
 40
0.6
176
     1
 40
30.0
176
     1
 62
     7
420
 16777215
176
     1
 90
        1
176
     1
 90
        4
176
     1
 62
     7
176
     1
 62
   257
176
     1
 90
        7
176
     1
 90
        7
176
     1
 40
1.0
176
     1
 90
        8
176
     1
 62
     7
176
     1
 40
1.0
176
     1
 90
        1
176
     1
 90
        6
176
     1
 90
        2
176
     1
 62
     7
176
     1
 90
        5
176
     1
 90
        0
176
     1
 90
        0
176
     1
290
     0
176
     1
 90
        1
176
     1
 40
0.0
176
     1
 90
        0
176
     1
290
     0
176
     1
290
     1
176
     1
290
     1
176
     1
290
     0
176
     1
290
     0
176
     1
290
     0
176
     1
290
     0
176
     1
290
     0
176
     1
290
     0
176
     1
 90
       50
176
     1
 40
0.0
176
     1
 40
1.0
176
     1
 90
        0
176
     1
 62
    18
420
        0
176
     1
 90
       50
176
     1
 90
        3
176
     1
 62
     5
420
      255
176
     1
290
     0
176
     1
 90
       50
176
     1
 90
       50
176
     1
 90
       50
176
     1
290
     0
176
     1
 90
       50
176
     1
 62
   256
176
     0
 40
1.0
176
     0
 90
        2
176
     1
  1
strokes_ogs.tif
176
     1
290
     0
176
     1
 40
1.0
176
     1
 40
1.0
176
     1
  0
VISUALSTYLE
  5
3C
102
{ACAD_REACTORS
330
2A
102
}
330
2A
100
AcDbVisualStyle
  2
OverhangOff
 70
    21
177
     3
291
     1
 70
    58
 90
        2
176
     0
 90
        2
176
     0
 90
        0
176
     0
 90
        0
176
     0
 40
0.6
176
     0
 40
30.0
176
     0
 62
     7
420
 16777215
176
     0
 90
        1
176
     0
 90
        4
176
     0
 62
     7
176
     0
 62
   257
176
     0
 90
        1
176
     0
 90
        1
176
     0
 40
1.0
176
     0
 90
        9
176
     2
 62
     7
176
     0
 40
1.0
176
     0
 90
        1
176
     0
 90
        6
176
     0
 90
        2
176
     0
 62
     7
176
     0
 90
        5
176
     0
 90
        0
176
     0
 90
        0
176
     0
290
     0
176
     0
 90
        1
176
     0
 40
0.0
176
     0
 90
        0
176
     0
290
     0
176
     0
290
     1
176
     0
290
     1
176
     0
290
     0
176
     0
290
     0
176
     0
290
     0
176
     0
290
     0
176
     0
290
     0
176
     0
290
     0
176
     0
 90
       50
176
     0
 40
0.0
176
     0
 40
1.0
176
     0
 90
        0
176
     0
 62
    18
420
        0
176
     0
 90
       50
176
     0
 90
        3
176
     0
 62
     5
420
      255
176
     0
290
     0
176
     0
 90
       50
176
     0
 90
       50
176
     0
 90
       50
176
     0
290
     0
176
     0
 90
       50
176
     0
 62
   256
176
     0
 40
1.0
176
     0
 90
        2
176
     0
  1
strokes_ogs.tif
176
     0
290
     0
176
     0
 40
1.0
176
     0
 40
1.0
176
     0
  0
VISUALSTYLE
  5
33
102
{ACAD_REACTORS
330
2A
102
}
330
2A
100
AcDbVisualStyle
  2
Realistic
 70
     8
177
     3
291
     0
 70
    58
 90
        2
176
     1
 90
        3
176
     1
 90
        0
176
     1
 90
        2
176
     1
 40
0.6
176
     1
 40
30.0
176
     1
 62
     7
420
 16777215
176
     1
 90
        0
176
     1
 90
        0
176
     1
 62
     7
176
     1
 62
   257
176
     1
 90
        1
176
     1
 90
        1
176
     1
 40
1.0
176
     1
 90
        8
176
     1
 62
   257
176
     1
 40
1.0
176
     1
 90
        1
176
     1
 90
        6
176
     1
 90
        2
176
     1
 62
     7
176
     1
 90
        3
176
     1
 90
        0
176
     1
 90
        0
176
     1
290
     0
176
     1
 90
       13
176
     1
 40
0.0
176
     1
 90
        0
176
     1
290
     0
176
     1
290
     1
176
     1
290
     1
176
     1
290
     0
176
     1
290
     0
176
     1
290
     0
176
     1
290
     0
176
     1
290
     0
176
     1
290
     0
176
     1
 90
       50
176
     1
 40
0.0
176
     1
 40
1.0
176
     1
 90
        0
176
     1
 62
    18
420
        0
176
     1
 90
       50
176
     1
 90
        3
176
     1
 62
     5
420
      255
176
     1
290
     0
176
     1
 90
       50
176
     1
 90
       50
176
     1
 90
       50
176
     1
290
     0
176
     1
 90
       50
176
     1
 62
   256
176
     0
 40
1.0
176
     0
 90
        2
176
     1
  1
strokes_ogs.tif
176
     1
290
     0
176
     1
 40
1.0
176
     1
 40
1.0
176
     1
  0
VISUALSTYLE
  5
42
102
{ACAD_REACTORS
330
2A
102
}
330
2A
100
AcDbVisualStyle
  2
Shaded
 70
    27
177
     3
291
     0
 70
    58
 90
        2
176
     1
 90
        2
176
     1
 90
        1
176
     1
 90
        2
176
     1
 40
0.6
176
     1
 40
30.0
176
     1
 62
     7
420
 16777215
176
     1
 90
        0
176
     1
 90
        4
176
     1
 62
     7
176
     1
 62
   257
176
     1
 90
        1
176
     1
 90
        1
176
     1
 40
1.0
176
     1
 90
        8
176
     1
 62
   257
176
     1
 40
1.0
176
     1
 90
        1
176
     1
 90
        6
176
     1
 90
        2
176
     1
 62
     8
420
  7895160
176
     1
 90
        3
176
     1
 90
        0
176
     1
 90
        0
176
     1
290
     0
176
     1
 90
        5
176
     1
 40
0.0
176
     1
 90
        0
176
     1
290
     0
176
     1
290
     1
176
     1
290
     1
176
     1
290
     0
176
     1
290
     0
176
     1
290
     0
176
     1
290
     0
176
     1
290
     0
176
     1
290
     0
176
     1
 90
       50
176
     1
 40
0.0
176
     1
 40
1.0
176
     1
 90
        0
176
     1
 62
    18
420
        0
176
     1
 90
       50
176
     1
 90
        3
176
     1
 62
     5
420
      255
176
     1
290
     0
176
     1
 90
       50
176
     1
 90
       50
176
     1
 90
       50
176
     1
290
     0
176
     1
 90
       50
176
     1
 62
   256
176
     0
 40
1.0
176
     0
 90
        2
176
     1
  1
strokes_ogs.tif
176
     1
290
     0
176
     1
 40
1.0
176
     1
 40
1.0
176
     1
  0
VISUALSTYLE
  5
41
102
{ACAD_REACTORS
330
2A
102
}
330
2A
100
AcDbVisualStyle
  2
Shaded with edges
 70
    26
177
     3
291
     0
 70
    58
 90
        2
176
     1
 90
        2
176
     1
 90
        1
176
     1
 90
        2
176
     1
 40
0.6
176
     1
 40
30.0
176
     1
 62
     7
420
 16777215
176
     1
 90
        1
176
     1
 90
       10
176
     1
 62
     7
176
     1
 62
   257
176
     1
 90
        2
176
     1
 90
        1
176
     1
 40
1.0
176
     1
 90
        8
176
     1
 62
   257
176
     1
 40
1.0
176
     1
 90
        1
176
     1
 90
        6
176
     1
 90
        2
176
     1
 62
     7
176
     1
 90
        3
176
     1
 90
        0
176
     1
 90
        0
176
     1
290
     0
176
     1
 90
        5
176
     1
 40
0.0
176
     1
 90
        0
176
     1
290
     0
176
     1
290
     1
176
     1
290
     1
176
     1
290
     0
176
     1
290
     0
176
     1
290
     0
176
     1
290
     0
176
     1
290
     0
176
     1
290
     0
176
     1
 90
       50
176
     1
 40
0.0
176
     1
 40
1.0
176
     1
 90
        0
176
     1
 62
    18
420
        0
176
     1
 90
       50
176
     1
 90
        3
176
     1
 62
     5
420
      255
176
     1
290
     0
176
     1
 90
       50
176
     1
 90
       50
176
     1
 90
       50
176
     1
290
     0
176
     1
 90
       50
176
     1
 62
   256
176
     0
 40
1.0
176
     0
 90
        2
176
     1
  1
strokes_ogs.tif
176
     1
290
     0
176
     1
 40
1.0
176
     1
 40
1.0
176
     1
  0
VISUALSTYLE
  5
3E
102
{ACAD_REACTORS
330
2A
102
}
330
2A
100
AcDbVisualStyle
  2
Shades of Gray
 70
    23
177
     3
291
     0
 70
    58
 90
        2
176
     1
 90
        2
176
     1
 90
        3
176
     1
 90
        0
176
     1
 40
0.6
176
     1
 40
30.0
176
     1
 62
     7
420
 16777215
176
     1
 90
        2
176
     1
 90
        2
176
     1
 62
     7
176
     1
 62
     7
176
     1
 90
        1
176
     1
 90
        1
176
     1
 40
40.0
176
     1
 90
        8
176
     1
 62
     7
176
     1
 40
1.0
176
     1
 90
        1
176
     1
 90
        6
176
     1
 90
        2
176
     1
 62
     7
176
     1
 90
        3
176
     1
 90
        0
176
     1
 90
        0
176
     1
290
     0
176
     1
 90
        1
176
     1
 40
0.0
176
     1
 90
        0
176
     1
290
     0
176
     1
290
     1
176
     1
290
     1
176
     1
290
     0
176
     1
290
     0
176
     1
290
     0
176
     1
290
     0
176
     1
290
     0
176
     1
290
     0
176
     1
 90
       50
176
     1
 40
0.0
176
     1
 40
1.0
176
     1
 90
        0
176
     1
 62
    18
420
        0
176
     1
 90
       50
176
     1
 90
        3
176
     1
 62
     5
420
      255
176
     1
290
     0
176
     1
 90
       50
176
     1
 90
       50
176
     1
 90
       50
176
     1
290
     0
176
     1
 90
       50
176
     1
 62
   256
176
     0
 40
1.0
176
     0
 90
        2
176
     1
  1
strokes_ogs.tif
176
     1
290
     0
176
     1
 40
1.0
176
     1
 40
1.0
176
     1
  0
VISUALSTYLE
  5
3F
102
{ACAD_REACTORS
330
2A
102
}
330
2A
100
AcDbVisualStyle
  2
Sketchy
 70
    24
177
     3
291
     0
 70
    58
 90
        1
176
     1
 90
        2
176
     1
 90
        2
176
     1
 90
        0
176
     1
 40
0.6
176
     1
 40
30.0
176
     1
 62
     7
420
 16777215
176
     1
 90
        2
176
     1
 90
        2
176
     1
 62
     7
176
     1
 62
     7
176
     1
 90
        1
176
     1
 90
        1
176
     1
 40
40.0
176
     1
 90
       11
176
     1
 62
     7
176
     1
 40
1.0
176
     1
 90
        1
176
     1
 90
        6
176
     1
 90
        2
176
     1
 62
     7
176
     1
 90
        6
176
     1
 90
        0
176
     1
 90
        0
176
     1
290
     0
176
     1
 90
        1
176
     1
 40
0.0
176
     1
 90
        0
176
     1
290
     0
176
     1
290
     1
176
     1
290
     1
176
     1
290
     0
176
     1
290
     0
176
     1
290
     0
176
     1
290
     0
176
     1
290
     0
176
     1
290
     0
176
     1
 90
       50
176
     1
 40
0.0
176
     1
 40
1.0
176
     1
 90
        0
176
     1
 62
    18
420
        0
176
     1
 90
       50
176
     1
 90
        3
176
     1
 62
     5
420
      255
176
     1
290
     0
176
     1
 90
       50
176
     1
 90
       50
176
     1
 90
       50
176
     1
290
     0
176
     1
 90
       50
176
     1
 62
   256
176
     0
 40
1.0
176
     0
 90
        2
176
     1
  1
strokes_ogs.tif
176
     1
290
     0
176
     1
 40
1.0
176
     1
 40
1.0
176
     1
  0
VISUALSTYLE
  5
37
102
{ACAD_REACTORS
330
2A
102
}
330
2A
100
AcDbVisualStyle
  2
Thicken
 70
    13
177
     3
291
     1
 70
    58
 90
        2
176
     1
 90
        2
176
     1
 90
        0
176
     1
 90
        0
176
     1
 40
0.6
176
     1
 40
30.0
176
     1
 62
     7
420
 16777215
176
     1
 90
        1
176
     1
 90
        4
176
     1
 62
     7
176
     1
 62
   257
176
     1
 90
        1
176
     1
 90
        1
176
     1
 40
1.0
176
     1
 90
       12
176
     1
 62
     7
176
     1
 40
1.0
176
     1
 90
        1
176
     1
 90
        6
176
     1
 90
        2
176
     1
 62
     7
176
     1
 90
        5
176
     1
 90
        0
176
     1
 90
        0
176
     1
290
     0
176
     1
 90
        1
176
     1
 40
0.0
176
     1
 90
        0
176
     1
290
     0
176
     1
290
     1
176
     1
290
     1
176
     1
290
     0
176
     1
290
     0
176
     1
290
     0
176
     1
290
     0
176
     1
290
     0
176
     1
290
     0
176
     1
 90
       50
176
     1
 40
0.0
176
     1
 40
1.0
176
     1
 90
        0
176
     1
 62
    18
420
        0
176
     1
 90
       50
176
     1
 90
        3
176
     1
 62
     5
420
      255
176
     1
290
     0
176
     1
 90
       50
176
     1
 90
       50
176
     1
 90
       50
176
     1
290
     0
176
     1
 90
       50
176
     1
 62
   256
176
     0
 40
1.0
176
     0
 90
        2
176
     1
  1
strokes_ogs.tif
176
     1
290
     0
176
     1
 40
1.0
176
     1
 40
1.0
176
     1
  0
VISUALSTYLE
  5
30
102
{ACAD_REACTORS
330
2A
102
}
330
2A
100
AcDbVisualStyle
  2
Wireframe
 70
     5
177
     3
291
     0
 70
    58
 90
        0
176
     1
 90
        2
176
     1
 90
        0
176
     1
 90
        0
176
     1
 40
0.6
176
     1
 40
30.0
176
     1
 62
     7
420
 16777215
176
     1
 90
        1
176
     1
 90
        4
176
     1
 62
     7
176
     1
 62
   257
176
     1
 90
        1
176
     1
 90
        1
176
     1
 40
1.0
176
     1
 90
        0
176
     1
 62
   257
176
     1
 40
1.0
176
     1
 90
        1
176
     1
 90
        6
176
     1
 90
        2
176
     1
 62
     7
176
     1
 90
        3
176
     1
 90
        0
176
     1
 90
        0
176
     1
290
     0
176
     1
 90
        1
176
     1
 40
0.0
176
     1
 90
        0
176
     1
290
     0
176
     1
290
     1
176
     1
290
     1
176
     1
290
     0
176
     1
290
     0
176
     1
290
     0
176
     1
290
     0
176
     1
290
     0
176
     1
290
     0
176
     1
 90
       50
176
     1
 40
0.0
176
     1
 40
1.0
176
     1
 90
        0
176
     1
 62
    18
420
        0
176
     1
 90
       50
176
     1
 90
        3
176
     1
 62
     5
420
      255
176
     1
290
     0
176
     1
 90
       50
176
     1
 90
       50
176
     1
 90
       50
176
     1
290
     0
176
     1
 90
       50
176
     1
 62
   256
176
     0
 40
1.0
176
     0
 90
        2
176
     1
  1
strokes_ogs.tif
176
     1
290
     0
176
     1
 40
1.0
176
     1
 40
1.0
176
     1
  0
VISUALSTYLE
  5
40
102
{ACAD_REACTORS
330
2A
102
}
330
2A
100
AcDbVisualStyle
  2
X-Ray
 70
    25
177
     3
291
     0
 70
    58
 90
        2
176
     1
 90
        2
176
     1
 90
        1
176
     1
 90
        1
176
     1
 40
0.5
176
     1
 40
30.0
176
     1
 62
     7
420
 16777215
176
     1
 90
        1
176
     1
 90
        0
176
     1
 62
     7
176
     1
 62
   257
176
     1
 90
        1
176
     1
 90
        1
176
     1
 40
1.0
176
     1
 90
        8
176
     1
 62
     7
176
     1
 40
1.0
176
     1
 90
        1
176
     1
 90
        6
176
     1
 90
        2
176
     1
 62
     7
176
     1
 90
        3
176
     1
 90
        0
176
     1
 90
        0
176
     1
290
     0
176
     1
 90
       13
176
     1
 40
0.0
176
     1
 90
        0
176
     1
290
     0
176
     1
290
     1
176
     1
290
     1
176
     1
290
     0
176
     1
290
     0
176
     1
290
     0
176
     1
290
     0
176
     1
290
     0
176
     1
290
     0
176
     1
 90
       50
176
     1
 40
0.0
176
     1
 40
1.0
176
     1
 90
        0
176
     1
 62
    18
420
        0
176
     1
 90
       50
176
     1
 90
        3
176
     1
 62
     5
420
      255
176
     1
290
     0
176
     1
 90
       50
176
     1
 90
       50
176
     1
 90
       50
176
     1
290
     0
176
     1
 90
       50
176
     1
 62
   256
176
     0
 40
1.0
176
     0
 90
        2
176
     1
  1
strokes_ogs.tif
176
     1
290
     0
176
     1
 40
1.0
176
     1
 40
1.0
176
     1
  0
DICTIONARYVAR
  5
C8
102
{ACAD_REACTORS
330
C7
102
}
330
C7
100
DictionaryVariables
280
     0
  1
1:1
  0
DICTIONARYVAR
  5
CD
102
{ACAD_REACTORS
330
C7
102
}
330
C7
100
DictionaryVariables
280
     0
  1
Standard
  0
DICTIONARYVAR
  5
CC
102
{ACAD_REACTORS
330
C7
102
}
330
C7
100
DictionaryVariables
280
     0
  1
Standard
  0
DICTIONARY
  5
C9
330
5A
100
AcDbDictionary
280
     1
281
     1
  3
ACAD_ROUNDTRIP_2008_TABLESTYLE_CELLSTYLEMAP
360
CA
  0
CELLSTYLEMAP
  5
CA
102
{ACAD_REACTORS
330
C9
102
}
330
C9
100
AcDbCellStyleMap
 90
        3
300
CELLSTYLE
  1
TABLEFORMAT_BEGIN
 90
        5
170
     1
 91
        0
 92
    32768
 62
   257
 93
        1
300
CONTENTFORMAT
  1
CONTENTFORMAT_BEGIN
 90
        0
 91
        0
 92
        4
 93
        0
300

 40
0.0
140
1.0
 94
        5
 62
     0
340
11
144
0.25
309
CONTENTFORMAT_END
171
     1
301
MARGIN
  1
CELLMARGIN_BEGIN
 40
0.06
 40
0.06
 40
0.06
 40
0.06
 40
0.06
 40
0.06
309
CELLMARGIN_END
 94
        6
 95
        1
302
GRIDFORMAT
  1
GRIDFORMAT_BEGIN
 90
        0
 91
        1
 62
     0
 92
       -2
340
14
 93
        0
 40
0.045
309
GRIDFORMAT_END
 95
        2
302
GRIDFORMAT
  1
GRIDFORMAT_BEGIN
 90
        0
 91
        1
 62
     0
 92
       -2
340
14
 93
        0
 40
0.045
309
GRIDFORMAT_END
 95
        4
302
GRIDFORMAT
  1
GRIDFORMAT_BEGIN
 90
        0
 91
        1
 62
     0
 92
       -2
340
14
 93
        0
 40
0.045
309
GRIDFORMAT_END
 95
        8
302
GRIDFORMAT
  1
GRIDFORMAT_BEGIN
 90
        0
 91
        1
 62
     0
 92
       -2
340
14
 93
        0
 40
0.045
309
GRIDFORMAT_END
 95
       16
302
GRIDFORMAT
  1
GRIDFORMAT_BEGIN
 90
        0
 91
        1
 62
     0
 92
       -2
340
14
 93
        0
 40
0.045
309
GRIDFORMAT_END
 95
       32
302
GRIDFORMAT
  1
GRIDFORMAT_BEGIN
 90
        0
 91
        1
 62
     0
 92
       -2
340
14
 93
        0
 40
0.045
309
GRIDFORMAT_END
309
TABLEFORMAT_END
  1
CELLSTYLE_BEGIN
 90
        1
 91
        1
300
_TITLE
309
CELLSTYLE_END
300
CELLSTYLE
  1
TABLEFORMAT_BEGIN
 90
        5
170
     1
 91
        0
 92
        0
 62
   257
 93
        1
300
CONTENTFORMAT
  1
CONTENTFORMAT_BEGIN
 90
        0
 91
        0
 92
        4
 93
        0
300

 40
0.0
140
1.0
 94
        5
 62
     0
340
11
144
0.18
309
CONTENTFORMAT_END
171
     1
301
MARGIN
  1
CELLMARGIN_BEGIN
 40
0.06
 40
0.06
 40
0.06
 40
0.06
 40
0.06
 40
0.06
309
CELLMARGIN_END
 94
        6
 95
        1
302
GRIDFORMAT
  1
GRIDFORMAT_BEGIN
 90
        0
 91
        1
 62
     0
 92
       -2
340
14
 93
        0
 40
0.045
309
GRIDFORMAT_END
 95
        2
302
GRIDFORMAT
  1
GRIDFORMAT_BEGIN
 90
        0
 91
        1
 62
     0
 92
       -2
340
14
 93
        0
 40
0.045
309
GRIDFORMAT_END
 95
        4
302
GRIDFORMAT
  1
GRIDFORMAT_BEGIN
 90
        0
 91
        1
 62
     0
 92
       -2
340
14
 93
        0
 40
0.045
309
GRIDFORMAT_END
 95
        8
302
GRIDFORMAT
  1
GRIDFORMAT_BEGIN
 90
        0
 91
        1
 62
     0
 92
       -2
340
14
 93
        0
 40
0.045
309
GRIDFORMAT_END
 95
       16
302
GRIDFORMAT
  1
GRIDFORMAT_BEGIN
 90
        0
 91
        1
 62
     0
 92
       -2
340
14
 93
        0
 40
0.045
309
GRIDFORMAT_END
 95
       32
302
GRIDFORMAT
  1
GRIDFORMAT_BEGIN
 90
        0
 91
        1
 62
     0
 92
       -2
340
14
 93
        0
 40
0.045
309
GRIDFORMAT_END
309
TABLEFORMAT_END
  1
CELLSTYLE_BEGIN
 90
        2
 91
        1
300
_HEADER
309
CELLSTYLE_END
300
CELLSTYLE
  1
TABLEFORMAT_BEGIN
 90
        5
170
     1
 91
        0
 92
        0
 62
   257
 93
        1
300
CONTENTFORMAT
  1
CONTENTFORMAT_BEGIN
 90
        0
 91
        0
 92
        4
 93
        0
300

 40
0.0
140
1.0
 94
        2
 62
     0
340
11
144
0.18
309
CONTENTFORMAT_END
171
     1
301
MARGIN
  1
CELLMARGIN_BEGIN
 40
0.06
 40
0.06
 40
0.06
 40
0.06
 40
0.06
 40
0.06
309
CELLMARGIN_END
 94
        6
 95
        1
302
GRIDFORMAT
  1
GRIDFORMAT_BEGIN
 90
        0
 91
        1
 62
     0
 92
       -2
340
14
 93
        0
 40
0.045
309
GRIDFORMAT_END
 95
        2
302
GRIDFORMAT
  1
GRIDFORMAT_BEGIN
 90
        0
 91
        1
 62
     0
 92
       -2
340
14
 93
        0
 40
0.045
309
GRIDFORMAT_END
 95
        4
302
GRIDFORMAT
  1
GRIDFORMAT_BEGIN
 90
        0
 91
        1
 62
     0
 92
       -2
340
14
 93
        0
 40
0.045
309
GRIDFORMAT_END
 95
        8
302
GRIDFORMAT
  1
GRIDFORMAT_BEGIN
 90
        0
 91
        1
 62
     0
 92
       -2
340
14
 93
        0
 40
0.045
309
GRIDFORMAT_END
 95
       16
302
GRIDFORMAT
  1
GRIDFORMAT_BEGIN
 90
        0
 91
        1
 62
     0
 92
       -2
340
14
 93
        0
 40
0.045
309
GRIDFORMAT_END
 95
       32
302
GRIDFORMAT
  1
GRIDFORMAT_BEGIN
 90
        0
 91
        1
 62
     0
 92
       -2
340
14
 93
        0
 40
0.045
309
GRIDFORMAT_END
309
TABLEFORMAT_END
  1
CELLSTYLE_BEGIN
 90
        3
 91
        2
300
_DATA
309
CELLSTYLE_END
  0
ENDSEC
  0
EOF
