  0
SECTION
  2
HEADER
  9
$ACADVER
  1
AC1027
  9
$ACADMAINTVER
 70
   105
  9
$DWGCODEPAGE
  3
ANSI_1252
  9
$LASTSAVEDBY
  1
Office Desk
  9
$REQUIREDVERSIONS
160
                 0
  9
$INSBASE
 10
0.0
 20
0.0
 30
0.0
  9
$EXTMIN
 10
-574.0955
 20
4.2395
 30
0.0
  9
$EXTMAX
 10
-440.972
 20
167.2735
 30
0.0
  9
$LIMMIN
 10
0.0
 20
0.0
  9
$LIMMAX
 10
12.0
 20
9.0
  9
$ORTHOMODE
 70
     0
  9
$REGENMODE
 70
     1
  9
$FILLMODE
 70
     1
  9
$QTEXTMODE
 70
     0
  9
$MIRRTEXT
 70
     1
  9
$LTSCALE
 40
1.0
  9
$ATTMODE
 70
     1
  9
$TEXTSIZE
 40
0.2
  9
$TRACEWID
 40
0.05
  9
$TEXTSTYLE
  7
Standard
  9
$CLAYER
  8
0
  9
$CELTYPE
  6
ByLayer
  9
$CECOLOR
 62
   256
  9
$CELTSCALE
 40
1.0
  9
$DISPSILH
 70
     0
  9
$DIMSCALE
 40
1.0
  9
$DIMASZ
 40
0.18
  9
$DIMEXO
 40
0.0625
  9
$DIMDLI
 40
0.38
  9
$DIMRND
 40
0.0
  9
$DIMDLE
 40
0.0
  9
$DIMEXE
 40
0.18
  9
$DIMTP
 40
0.0
  9
$DIMTM
 40
0.0
  9
$DIMTXT
 40
0.18
  9
$DIMCEN
 40
0.09
  9
$DIMTSZ
 40
0.0
  9
$DIMTOL
 70
     0
  9
$DIMLIM
 70
     0
  9
$DIMTIH
 70
     1
  9
$DIMTOH
 70
     1
  9
$DIMSE1
 70
     0
  9
$DIMSE2
 70
     0
  9
$DIMTAD
 70
     0
  9
$DIMZIN
 70
     0
  9
$DIMBLK
  1

  9
$DIMASO
 70
     1
  9
$DIMSHO
 70
     1
  9
$DIMPOST
  1

  9
$DIMAPOST
  1

  9
$DIMALT
 70
     0
  9
$DIMALTD
 70
     2
  9
$DIMALTF
 40
25.4
  9
$DIMLFAC
 40
1.0
  9
$DIMTOFL
 70
     0
  9
$DIMTVP
 40
0.0
  9
$DIMTIX
 70
     0
  9
$DIMSOXD
 70
     0
  9
$DIMSAH
 70
     0
  9
$DIMBLK1
  1

  9
$DIMBLK2
  1

  9
$DIMSTYLE
  2
Standard
  9
$DIMCLRD
 70
     0
  9
$DIMCLRE
 70
     0
  9
$DIMCLRT
 70
     0
  9
$DIMTFAC
 40
1.0
  9
$DIMGAP
 40
0.09
  9
$DIMJUST
 70
     0
  9
$DIMSD1
 70
     0
  9
$DIMSD2
 70
     0
  9
$DIMTOLJ
 70
     1
  9
$DIMTZIN
 70
     0
  9
$DIMALTZ
 70
     0
  9
$DIMALTTZ
 70
     0
  9
$DIMUPT
 70
     0
  9
$DIMDEC
 70
     4
  9
$DIMTDEC
 70
     4
  9
$DIMALTU
 70
     2
  9
$DIMALTTD
 70
     2
  9
$DIMTXSTY
  7
Standard
  9
$DIMAUNIT
 70
     0
  9
$DIMADEC
 70
     0
  9
$DIMALTRND
 40
0.0
  9
$DIMAZIN
 70
     0
  9
$DIMDSEP
 70
    46
  9
$DIMATFIT
 70
     3
  9
$DIMFRAC
 70
     0
  9
$DIMLDRBLK
  1

  9
$DIMLUNIT
 70
     2
  9
$DIMLWD
 70
    -2
  9
$DIMLWE
 70
    -2
  9
$DIMTMOVE
 70
     0
  9
$DIMFXL
 40
1.0
  9
$DIMFXLON
 70
     0
  9
$DIMJOGANG
 40
0.7853981633974483
  9
$DIMTFILL
 70
     0
  9
$DIMTFILLCLR
 70
     0
  9
$DIMARCSYM
 70
     0
  9
$DIMLTYPE
  6

  9
$DIMLTEX1
  6

  9
$DIMLTEX2
  6

  9
$DIMTXTDIRECTION
 70
     0
  9
$LUNITS
 70
     2
  9
$LUPREC
 70
     4
  9
$SKETCHINC
 40
0.1
  9
$FILLETRAD
 40
0.0
  9
$AUNITS
 70
     0
  9
$AUPREC
 70
     0
  9
$MENU
  1
.
  9
$ELEVATION
 40
0.0
  9
$PELEVATION
 40
0.0
  9
$THICKNESS
 40
0.0
  9
$LIMCHECK
 70
     0
  9
$CHAMFERA
 40
0.0
  9
$CHAMFERB
 40
0.0
  9
$CHAMFERC
 40
0.0
  9
$CHAMFERD
 40
0.0
  9
$SKPOLY
 70
     0
  9
$TDCREATE
 40
2461015.755806702
  9
$TDUCREATE
 40
2461015.526640035
  9
$TDUPDATE
 40
2461015.755806794
  9
$TDUUPDATE
 40
2461015.526640128
  9
$TDINDWG
 40
0.0000000116
  9
$TDUSRTIMER
 40
0.0000000116
  9
$USRTIMER
 70
     1
  9
$ANGBASE
 50
0.0
  9
$ANGDIR
 70
     0
  9
$PDMODE
 70
     0
  9
$PDSIZE
 40
0.0
  9
$PLINEWID
 40
0.0
  9
$SPLFRAME
 70
     0
  9
$SPLINETYPE
 70
     6
  9
$SPLINESEGS
 70
     8
  9
$HANDSEED
  5
97
  9
$SURFTAB1
 70
     6
  9
$SURFTAB2
 70
     6
  9
$SURFTYPE
 70
     6
  9
$SURFU
 70
     6
  9
$SURFV
 70
     6
  9
$UCSBASE
  2

  9
$UCSNAME
  2

  9
$UCSORG
 10
0.0
 20
0.0
 30
0.0
  9
$UCSXDIR
 10
1.0
 20
0.0
 30
0.0
  9
$UCSYDIR
 10
0.0
 20
1.0
 30
0.0
  9
$UCSORTHOREF
  2

  9
$UCSORTHOVIEW
 70
     0
  9
$UCSORGTOP
 10
0.0
 20
0.0
 30
0.0
  9
$UCSORGBOTTOM
 10
0.0
 20
0.0
 30
0.0
  9
$UCSORGLEFT
 10
0.0
 20
0.0
 30
0.0
  9
$UCSORGRIGHT
 10
0.0
 20
0.0
 30
0.0
  9
$UCSORGFRONT
 10
0.0
 20
0.0
 30
0.0
  9
$UCSORGBACK
 10
0.0
 20
0.0
 30
0.0
  9
$PUCSBASE
  2

  9
$PUCSNAME
  2

  9
$PUCSORG
 10
0.0
 20
0.0
 30
0.0
  9
$PUCSXDIR
 10
1.0
 20
0.0
 30
0.0
  9
$PUCSYDIR
 10
0.0
 20
1.0
 30
0.0
  9
$PUCSORTHOREF
  2

  9
$PUCSORTHOVIEW
 70
     0
  9
$PUCSORGTOP
 10
0.0
 20
0.0
 30
0.0
  9
$PUCSORGBOTTOM
 10
0.0
 20
0.0
 30
0.0
  9
$PUCSORGLEFT
 10
0.0
 20
0.0
 30
0.0
  9
$PUCSORGRIGHT
 10
0.0
 20
0.0
 30
0.0
  9
$PUCSORGFRONT
 10
0.0
 20
0.0
 30
0.0
  9
$PUCSORGBACK
 10
0.0
 20
0.0
 30
0.0
  9
$USERI1
 70
     0
  9
$USERI2
 70
     0
  9
$USERI3
 70
     0
  9
$USERI4
 70
     0
  9
$USERI5
 70
     0
  9
$USERR1
 40
0.0
  9
$USERR2
 40
0.0
  9
$USERR3
 40
0.0
  9
$USERR4
 40
0.0
  9
$USERR5
 40
0.0
  9
$WORLDVIEW
 70
     1
  9
$SHADEDGE
 70
     3
  9
$SHADEDIF
 70
    70
  9
$TILEMODE
 70
     1
  9
$MAXACTVP
 70
    64
  9
$PINSBASE
 10
0.0
 20
0.0
 30
0.0
  9
$PLIMCHECK
 70
     0
  9
$PEXTMIN
 10
1.000000000000000E+20
 20
1.000000000000000E+20
 30
1.000000000000000E+20
  9
$PEXTMAX
 10
-1.000000000000000E+20
 20
-1.000000000000000E+20
 30
-1.000000000000000E+20
  9
$PLIMMIN
 10
0.0
 20
0.0
  9
$PLIMMAX
 10
12.0
 20
9.0
  9
$UNITMODE
 70
     0
  9
$VISRETAIN
 70
     1
  9
$PLINEGEN
 70
     0
  9
$PSLTSCALE
 70
     1
  9
$TREEDEPTH
 70
  3020
  9
$CMLSTYLE
  2
Standard
  9
$CMLJUST
 70
     0
  9
$CMLSCALE
 40
1.0
  9
$PROXYGRAPHICS
 70
     1
  9
$MEASUREMENT
 70
     0
  9
$CELWEIGHT
370
    -1
  9
$ENDCAPS
280
     0
  9
$JOINSTYLE
280
     0
  9
$LWDISPLAY
290
     0
  9
$INSUNITS
 70
     4
  9
$HYPERLINKBASE
  1

  9
$STYLESHEET
  1

  9
$XEDIT
290
     1
  9
$CEPSNTYPE
380
     0
  9
$PSTYLEMODE
290
     1
  9
$FINGERPRINTGUID
  2
{fc24ca2c-0207-4d71-adc8-862b907ff606}
  9
$VERSIONGUID
  2
{FAEB1C32-E019-11D5-929B-00C0DF256EC4}
  9
$EXTNAMES
290
     1
  9
$PSVPSCALE
 40
0.0
  9
$OLESTARTUP
290
     0
  9
$SORTENTS
280
   127
  9
$INDEXCTL
280
     0
  9
$HIDETEXT
280
     1
  9
$XCLIPFRAME
280
     2
  9
$HALOGAP
280
     0
  9
$OBSCOLOR
 70
   257
  9
$OBSLTYPE
280
     0
  9
$INTERSECTIONDISPLAY
280
     0
  9
$INTERSECTIONCOLOR
 70
   257
  9
$DIMASSOC
280
     2
  9
$PROJECTNAME
  1

  9
$CAMERADISPLAY
290
     0
  9
$LENSLENGTH
 40
50.0
  9
$CAMERAHEIGHT
 40
0.0
  9
$STEPSPERSEC
 40
2.0
  9
$STEPSIZE
 40
6.0
  9
$3DDWFPREC
 40
2.0
  9
$PSOLWIDTH
 40
0.25
  9
$PSOLHEIGHT
 40
4.0
  9
$LOFTANG1
 40
1.570796326794897
  9
$LOFTANG2
 40
1.570796326794897
  9
$LOFTMAG1
 40
0.0
  9
$LOFTMAG2
 40
0.0
  9
$LOFTPARAM
 70
     7
  9
$LOFTNORMALS
280
     1
  9
$LATITUDE
 40
37.795
  9
$LONGITUDE
 40
-122.394
  9
$NORTHDIRECTION
 40
0.0
  9
$TIMEZONE
 70
 -8000
  9
$LIGHTGLYPHDISPLAY
280
     1
  9
$TILEMODELIGHTSYNCH
280
     1
  9
$CMATERIAL
347
44
  9
$SOLIDHIST
280
     0
  9
$SHOWHIST
280
     1
  9
$DWFFRAME
280
     2
  9
$DGNFRAME
280
     2
  9
$REALWORLDSCALE
290
     1
  9
$INTERFERECOLOR
 62
   256
  9
$CSHADOW
280
     0
  9
$SHADOWPLANELOCATION
 40
0.0
  0
ENDSEC
  0
SECTION
  2
CLASSES
  0
CLASS
  1
ACDBDICTIONARYWDFLT
  2
AcDbDictionaryWithDefault
  3
ObjectDBX Classes
 90
        0
 91
        3
280
     0
281
     0
  0
CLASS
  1
VISUALSTYLE
  2
AcDbVisualStyle
  3
ObjectDBX Classes
 90
     4095
 91
        3
280
     0
281
     0
  0
CLASS
  1
MATERIAL
  2
AcDbMaterial
  3
ObjectDBX Classes
 90
     1153
 91
        3
280
     0
281
     0
  0
CLASS
  1
SCALE
  2
AcDbScale
  3
ObjectDBX Classes
 90
     1153
 91
        3
280
     0
281
     0
  0
CLASS
  1
TABLESTYLE
  2
AcDbTableStyle
  3
ObjectDBX Classes
 90
     4095
 91
        3
280
     0
281
     0
  0
CLASS
  1
MLEADERSTYLE
  2
AcDbMLeaderStyle
  3
ACDB_MLEADERSTYLE_CLASS
 90
     4095
 91
        3
280
     0
281
     0
  0
CLASS
  1
SUN
  2
AcDbSun
  3
SCENEOE
 90
     1153
 91
        3
280
     0
281
     0
  0
CLASS
  1
DICTIONARYVAR
  2
AcDbDictionaryVar
  3
ObjectDBX Classes
 90
        0
 91
        3
280
     0
281
     0
  0
CLASS
  1
CELLSTYLEMAP
  2
AcDbCellStyleMap
  3
ObjectDBX Classes
 90
     1152
 91
        3
280
     0
281
     0
  0
ENDSEC
  0
SECTION
  2
TABLES
  0
TABLE
  2
VPORT
  5
8
330
0
100
AcDbSymbolTable
 70
     1
  0
VPORT
  5
29
330
8
100
AcDbSymbolTableRecord
100
AcDbViewportTableRecord
  2
*Active
 70
     0
 10
0.0
 20
0.0
 11
1.0
 21
1.0
 12
10.42990654205607
 22
4.5
 13
0.0
 23
0.0
 14
0.5
 24
0.5
 15
0.5
 25
0.5
 16
0.0
 26
0.0
 36
1.0
 17
0.0
 27
0.0
 37
0.0
 40
9.0
 41
1.972972972850329
 42
50.0
 43
0.0
 44
0.0
 50
0.0
 51
0.0
 71
     0
 72
   100
 73
     1
 74
     3
 75
     0
 76
     0
 77
     0
 78
     0
281
     0
 65
     1
110
0.0
120
0.0
130
0.0
111
1.0
121
0.0
131
0.0
112
0.0
122
1.0
132
0.0
 79
     0
146
0.0
348
2F
 60
     3
 61
     5
292
     1
282
     1
141
0.0
142
0.0
 63
   250
361
5D
  0
ENDTAB
  0
TABLE
  2
LTYPE
  5
5
330
0
100
AcDbSymbolTable
 70
     1
  0
LTYPE
  5
14
330
5
100
AcDbSymbolTableRecord
100
AcDbLinetypeTableRecord
  2
ByBlock
 70
     0
  3

 72
    65
 73
     0
 40
0.0
  0
LTYPE
  5
15
330
5
100
AcDbSymbolTableRecord
100
AcDbLinetypeTableRecord
  2
ByLayer
 70
     0
  3

 72
    65
 73
     0
 40
0.0
  0
LTYPE
  5
16
330
5
100
AcDbSymbolTableRecord
100
AcDbLinetypeTableRecord
  2
Continuous
 70
     0
  3
Solid line
 72
    65
 73
     0
 40
0.0
  0
ENDTAB
  0
TABLE
  2
LAYER
  5
2
330
0
100
AcDbSymbolTable
 70
     2
  0
LAYER
  5
10
330
2
100
AcDbSymbolTableRecord
100
AcDbLayerTableRecord
  2
0
 70
     0
 62
     7
  6
Continuous
370
    -3
390
F
347
46
348
0
  0
LAYER
  5
5F
330
2
100
AcDbSymbolTableRecord
100
AcDbLayerTableRecord
  2
Layer 1
 70
     0
 62
     7
  6
Continuous
370
    -3
390
F
347
46
348
0
  0
ENDTAB
  0
TABLE
  2
STYLE
  5
3
330
0
100
AcDbSymbolTable
 70
     1
  0
STYLE
  5
11
330
3
100
AcDbSymbolTableRecord
100
AcDbTextStyleTableRecord
  2
Standard
 70
     0
 40
0.0
 41
1.0
 50
0.0
 71
     0
 42
0.2
  3
txt
  4

  0
ENDTAB
  0
TABLE
  2
VIEW
  5
6
330
0
100
AcDbSymbolTable
 70
     0
  0
ENDTAB
  0
TABLE
  2
UCS
  5
7
330
0
100
AcDbSymbolTable
 70
     0
  0
ENDTAB
  0
TABLE
  2
APPID
  5
9
330
0
100
AcDbSymbolTable
 70
     2
  0
APPID
  5
12
330
9
100
AcDbSymbolTableRecord
100
AcDbRegAppTableRecord
  2
ACAD
 70
     0
  0
APPID
  5
5E
330
9
100
AcDbSymbolTableRecord
100
AcDbRegAppTableRecord
  2
ODA
 70
     0
  0
ENDTAB
  0
TABLE
  2
DIMSTYLE
  5
A
330
0
100
AcDbSymbolTable
 70
     1
100
AcDbDimStyleTable
  0
DIMSTYLE
105
27
330
A
100
AcDbSymbolTableRecord
100
AcDbDimStyleTableRecord
  2
Standard
 70
     0
178
     0
340
11
  0
ENDTAB
  0
TABLE
  2
BLOCK_RECORD
  5
1
330
0
100
AcDbSymbolTable
 70
     1
  0
BLOCK_RECORD
  5
1F
330
1
100
AcDbSymbolTableRecord
100
AcDbBlockTableRecord
  2
*Model_Space
340
22
 70
     0
280
     1
281
     0
  0
BLOCK_RECORD
  5
1B
330
1
100
AcDbSymbolTableRecord
100
AcDbBlockTableRecord
  2
*Paper_Space
340
1E
 70
     0
280
     1
281
     0
  0
BLOCK_RECORD
  5
23
330
1
100
AcDbSymbolTableRecord
100
AcDbBlockTableRecord
  2
*Paper_Space0
340
26
 70
     0
280
     1
281
     0
  0
ENDTAB
  0
ENDSEC
  0
SECTION
  2
BLOCKS
  0
BLOCK
  5
20
330
1F
100
AcDbEntity
  8
0
100
AcDbBlockBegin
  2
*Model_Space
 70
     0
 10
0.0
 20
0.0
 30
0.0
  3
*Model_Space
  1

  0
ENDBLK
  5
21
330
1F
100
AcDbEntity
  8
0
100
AcDbBlockEnd
  0
BLOCK
  5
1C
330
1B
100
AcDbEntity
 67
     1
  8
0
100
AcDbBlockBegin
  2
*Paper_Space
 70
     0
 10
0.0
 20
0.0
 30
0.0
  3
*Paper_Space
  1

  0
ENDBLK
  5
1D
330
1B
100
AcDbEntity
 67
     1
  8
0
100
AcDbBlockEnd
  0
BLOCK
  5
24
330
23
100
AcDbEntity
  8
0
100
AcDbBlockBegin
  2
*Paper_Space0
 70
     0
 10
0.0
 20
0.0
 30
0.0
  3
*Paper_Space0
  1

  0
ENDBLK
  5
25
330
23
100
AcDbEntity
  8
0
100
AcDbBlockEnd
  0
ENDSEC
  0
SECTION
  2
ENTITIES
  0
LWPOLYLINE
  5
60
330
1F
100
AcDbEntity
  8
Layer 1
 62
   250
370
     9
100
AcDbPolyline
 90
        5
 70
     1
 43
0.0
 10
-574.0574
 20
4.2776
 10
-441.0102
 20
4.2776
 10
-441.0102
 20
167.2354
 10
-574.0574
 20
167.2354
 10
-574.0574
 20
4.2776
  0
LWPOLYLINE
  5
61
330
1F
100
AcDbEntity
  8
Layer 1
 62
     7
370
    18
100
AcDbPolyline
 90
        5
 70
     1
 43
0.0
 10
-501.7846
 20
153.6311
 10
-501.8665
 20
131.0321
 10
-553.022
 20
133.979
 10
-552.6241
 20
157.3323
 10
-501.7846
 20
153.6311
  0
LWPOLYLINE
  5
62
330
1F
100
AcDbEntity
  8
Layer 1
 62
     7
370
    18
100
AcDbPolyline
 90
        5
 70
     1
 43
0.0
 10
-511.9097
 20
131.6103
 10
-532.3709
 20
132.7894
 10
-532.5839
 20
25.8566
 10
-511.8804
 20
26.2632
 10
-511.9097
 20
131.6103
  0
LWPOLYLINE
  5
63
330
1F
100
AcDbEntity
  8
Layer 1
 62
     7
370
    18
100
AcDbPolyline
 90
        5
 70
     1
 43
0.0
 10
-532.602
 20
132.167
 10
-541.8491
 20
130.4247
 10
-542.4943
 20
26.8285
 10
-532.5839
 20
25.8566
 10
-532.602
 20
132.167
  0
LWPOLYLINE
  5
64
330
1F
100
AcDbEntity
  8
Layer 1
 62
     7
370
    18
100
AcDbPolyline
 90
        2
 70
     0
 43
0.0
 10
-542.4351
 20
133.1621
 10
-541.8491
 20
130.4247
  0
LWPOLYLINE
  5
65
330
1F
100
AcDbEntity
  8
Layer 1
 62
     7
370
    18
100
AcDbPolyline
 90
       78
 70
     0
 43
0.0
 10
-506.1764
 20
153.9508
 10
-505.3737
 20
154.0342
 10
-504.5383
 20
154.1871
 10
-503.7133
 20
154.3847
 10
-502.9418
 20
154.6021
 10
-502.2668
 20
154.8145
 10
-501.7313
 20
154.997
 10
-501.3785
 20
155.1247
 10
-501.2513
 20
155.1728
 10
-501.217
 20
155.178
 10
-501.1138
 20
155.1916
 10
-500.9413
 20
155.21
 10
-500.6991
 20
155.2301
 10
-500.3866
 20
155.2485
 10
-500.0035
 20
155.2619
 10
-499.5493
 20
155.267
 10
-499.0235
 20
155.2604
 10
-498.5387
 20
155.1837
 10
-498.1926
 20
155.0036
 10
-497.9624
 20
154.7554
 10
-497.8252
 20
154.4738
 10
-497.7582
 20
154.1939
 10
-497.7386
 20
153.9507
 10
-497.7436
 20
153.7791
 10
-497.7503
 20
153.7141
 10
-497.7632
 20
153.0818
 10
-497.7973
 20
151.3909
 10
-497.8458
 20
148.9507
 10
-497.9018
 20
146.0701
 10
-497.9583
 20
143.0584
 10
-498.0084
 20
140.2247
 10
-498.0454
 20
137.8781
 10
-498.0623
 20
136.3277
 10
-498.0374
 20
135.0559
 10
-497.9645
 20
133.4439
 10
-497.8592
 20
131.6486
 10
-497.7375
 20
129.8275
 10
-497.6152
 20
128.1374
 10
-497.5083
 20
126.7357
 10
-497.4325
 20
125.7794
 10
-497.4037
 20
125.4257
 10
-497.1693
 20
124.1787
 10
-496.5512
 20
120.8873
 10
-495.6773
 20
116.226
 10
-494.6753
 20
110.8691
 10
-493.673
 20
105.4911
 10
-492.7981
 20
100.7664
 10
-492.1786
 20
97.3694
 10
-491.9421
 20
95.9746
 10
-491.9589
 20
95.8252
 10
-492.0072
 20
95.7118
 10
-492.0766
 20
95.6293
 10
-492.1566
 20
95.5729
 10
-492.2369
 20
95.5376
 10
-492.3071
 20
95.5186
 10
-492.3569
 20
95.5107
 10
-492.3758
 20
95.5092
 10
-494.4576
 20
95.1719
 10
-499.5745
 20
120.5873
 10
-501.8665
 20
131.0321
 10
-511.9094
 20
129.0502
 10
-505.2432
 20
95.5609
 10
-505.2373
 20
95.4949
 10
-505.2029
 20
95.3226
 10
-505.1149
 20
95.0825
 10
-504.9482
 20
94.8131
 10
-504.6775
 20
94.5528
 10
-504.278
 20
94.3401
 10
-503.7243
 20
94.2136
 10
-502.9914
 20
94.2117
 10
-501.979
 20
94.3106
 10
-500.6884
 20
94.4498
 10
-499.2469
 20
94.6128
 10
-497.7819
 20
94.7831
 10
-496.4207
 20
94.9443
 10
-495.2908
 20
95.0798
 10
-494.5194
 20
95.1732
 10
-494.234
 20
95.208
  0
LWPOLYLINE
  5
66
330
1F
100
AcDbEntity
  8
Layer 1
 62
     7
370
    18
100
AcDbPolyline
 90
        5
 70
     1
 43
0.0
 10
-552.6241
 20
157.3323
 10
-561.7304
 20
154.2683
 10
-561.9159
 20
131.8179
 10
-553.022
 20
133.979
 10
-552.6241
 20
157.3323
  0
LWPOLYLINE
  5
67
330
1F
100
AcDbEntity
  8
Layer 1
 62
     7
370
    18
100
AcDbPolyline
 90
        5
 70
     1
 43
0.0
 10
-542.4351
 20
133.1621
 10
-553.022
 20
133.979
 10
-561.9159
 20
131.8179
 10
-541.8491
 20
130.4247
 10
-542.4351
 20
133.1621
  0
LWPOLYLINE
  5
68
330
1F
100
AcDbEntity
  8
Layer 1
 62
     7
370
    18
100
AcDbPolyline
 90
       41
 70
     1
 43
0.0
 10
-556.871
 20
155.5028
 10
-556.7198
 20
155.4494
 10
-556.3211
 20
155.2395
 10
-555.7566
 20
154.799
 10
-555.1085
 20
154.0535
 10
-554.4587
 20
152.9287
 10
-553.8893
 20
151.3503
 10
-553.4821
 20
149.2441
 10
-553.3193
 20
146.5358
 10
-553.4117
 20
143.7301
 10
-553.6953
 20
141.3584
 10
-554.1398
 20
139.3859
 10
-554.7147
 20
137.7779
 10
-555.3897
 20
136.4997
 10
-556.1343
 20
135.5165
 10
-556.9182
 20
134.7936
 10
-557.7109
 20
134.2963
 10
-557.9033
 20
134.2818
 10
-558.4074
 20
134.3222
 10
-559.1133
 20
134.5436
 10
-559.9112
 20
135.072
 10
-560.6912
 20
136.0335
 10
-561.3435
 20
137.5541
 10
-561.7582
 20
139.76
 10
-561.8256
 20
142.777
 10
-561.8322
 20
143.0571
 10
-561.8344
 20
143.8276
 10
-561.8061
 20
144.9841
 10
-561.721
 20
146.4219
 10
-561.5528
 20
148.0365
 10
-561.2753
 20
149.7235
 10
-560.8623
 20
151.3781
 10
-560.2876
 20
152.896
 10
-559.6322
 20
154.0911
 10
-559.0064
 20
154.8948
 10
-558.4281
 20
155.3786
 10
-557.915
 20
155.614
 10
-557.4849
 20
155.6726
 10
-557.1557
 20
155.626
 10
-556.9451
 20
155.5455
 10
-556.871
 20
155.5028
  0
LWPOLYLINE
  5
69
330
1F
100
AcDbEntity
  8
Layer 1
 62
     7
370
    18
100
AcDbPolyline
 90
       33
 70
     1
 43
0.0
 10
-557.5811
 20
152.9683
 10
-557.6143
 20
152.9636
 10
-557.6477
 20
152.9314
 10
-557.6803
 20
152.8742
 10
-557.7114
 20
152.7948
 10
-557.74
 20
152.6958
 10
-557.7652
 20
152.58
 10
-557.7861
 20
152.4498
 10
-557.802
 20
152.3081
 10
-557.8115
 20
152.1644
 10
-557.8141
 20
152.0287
 10
-557.8103
 20
151.9041
 10
-557.8003
 20
151.7934
 10
-557.7846
 20
151.6998
 10
-557.7636
 20
151.6264
 10
-557.7376
 20
151.5761
 10
-557.7069
 20
151.552
 10
-557.6737
 20
151.5567
 10
-557.6403
 20
151.5889
 10
-557.6076
 20
151.646
 10
-557.5765
 20
151.7254
 10
-557.5478
 20
151.8243
 10
-557.5225
 20
151.9402
 10
-557.5015
 20
152.0703
 10
-557.4856
 20
152.212
 10
-557.4762
 20
152.3557
 10
-557.4736
 20
152.4914
 10
-557.4775
 20
152.6161
 10
-557.4875
 20
152.7268
 10
-557.5033
 20
152.8204
 10
-557.5244
 20
152.8939
 10
-557.5505
 20
152.9442
 10
-557.5811
 20
152.9683
  0
LWPOLYLINE
  5
6A
330
1F
100
AcDbEntity
  8
Layer 1
 62
     7
370
    18
100
AcDbPolyline
 90
       33
 70
     1
 43
0.0
 10
-558.6522
 20
152.7088
 10
-558.6854
 20
152.7041
 10
-558.7188
 20
152.6719
 10
-558.7514
 20
152.6147
 10
-558.7825
 20
152.5353
 10
-558.8111
 20
152.4363
 10
-558.8363
 20
152.3205
 10
-558.8572
 20
152.1903
 10
-558.8731
 20
152.0486
 10
-558.8826
 20
151.9049
 10
-558.8852
 20
151.7692
 10
-558.8814
 20
151.6446
 10
-558.8714
 20
151.5339
 10
-558.8557
 20
151.4403
 10
-558.8347
 20
151.3669
 10
-558.8087
 20
151.3166
 10
-558.778
 20
151.2925
 10
-558.7448
 20
151.2972
 10
-558.7113
 20
151.3294
 10
-558.6786
 20
151.3865
 10
-558.6475
 20
151.4659
 10
-558.6189
 20
151.5648
 10
-558.5936
 20
151.6807
 10
-558.5726
 20
151.8108
 10
-558.5567
 20
151.9525
 10
-558.5472
 20
152.0962
 10
-558.5446
 20
152.2319
 10
-558.5486
 20
152.3567
 10
-558.5586
 20
152.4673
 10
-558.5744
 20
152.5609
 10
-558.5955
 20
152.6344
 10
-558.6215
 20
152.6847
 10
-558.6522
 20
152.7088
  0
LWPOLYLINE
  5
6B
330
1F
100
AcDbEntity
  8
Layer 1
 62
     7
370
    18
100
AcDbPolyline
 90
       33
 70
     1
 43
0.0
 10
-556.5854
 20
152.1294
 10
-556.6186
 20
152.1247
 10
-556.652
 20
152.0925
 10
-556.6846
 20
152.0353
 10
-556.7156
 20
151.9559
 10
-556.7442
 20
151.8569
 10
-556.7694
 20
151.7411
 10
-556.7903
 20
151.6109
 10
-556.8062
 20
151.4692
 10
-556.8157
 20
151.3255
 10
-556.8183
 20
151.1898
 10
-556.8145
 20
151.0652
 10
-556.8046
 20
150.9545
 10
-556.7889
 20
150.8609
 10
-556.7679
 20
150.7875
 10
-556.7418
 20
150.7372
 10
-556.7112
 20
150.7131
 10
-556.678
 20
150.7178
 10
-556.6445
 20
150.75
 10
-556.6118
 20
150.8071
 10
-556.5807
 20
150.8865
 10
-556.552
 20
150.9854
 10
-556.5267
 20
151.1013
 10
-556.5057
 20
151.2314
 10
-556.4898
 20
151.3731
 10
-556.4804
 20
151.5168
 10
-556.4778
 20
151.6525
 10
-556.4817
 20
151.7772
 10
-556.4917
 20
151.8879
 10
-556.5075
 20
151.9815
 10
-556.5286
 20
152.055
 10
-556.5547
 20
152.1053
 10
-556.5854
 20
152.1294
  0
LWPOLYLINE
  5
6C
330
1F
100
AcDbEntity
  8
Layer 1
 62
     7
370
    18
100
AcDbPolyline
 90
       33
 70
     1
 43
0.0
 10
-559.6611
 20
151.4312
 10
-559.6943
 20
151.4265
 10
-559.7276
 20
151.3943
 10
-559.7603
 20
151.3371
 10
-559.7913
 20
151.2577
 10
-559.8199
 20
151.1587
 10
-559.8451
 20
151.0429
 10
-559.866
 20
150.9127
 10
-559.8819
 20
150.771
 10
-559.8914
 20
150.6273
 10
-559.894
 20
150.4916
 10
-559.8902
 20
150.367
 10
-559.8802
 20
150.2563
 10
-559.8645
 20
150.1627
 10
-559.8435
 20
150.0893
 10
-559.8175
 20
150.039
 10
-559.7868
 20
150.0149
 10
-559.7536
 20
150.0196
 10
-559.7202
 20
150.0518
 10
-559.6875
 20
150.1089
 10
-559.6564
 20
150.1883
 10
-559.6277
 20
150.2872
 10
-559.6024
 20
150.4031
 10
-559.5814
 20
150.5332
 10
-559.5655
 20
150.6749
 10
-559.5561
 20
150.8186
 10
-559.5535
 20
150.9543
 10
-559.5574
 20
151.079
 10
-559.5674
 20
151.1897
 10
-559.5832
 20
151.2833
 10
-559.6043
 20
151.3568
 10
-559.6304
 20
151.4071
 10
-559.6611
 20
151.4312
  0
LWPOLYLINE
  5
6D
330
1F
100
AcDbEntity
  8
Layer 1
 62
     7
370
    18
100
AcDbPolyline
 90
       33
 70
     1
 43
0.0
 10
-555.8074
 20
150.3097
 10
-555.8406
 20
150.305
 10
-555.874
 20
150.2728
 10
-555.9066
 20
150.2156
 10
-555.9376
 20
150.1362
 10
-555.9662
 20
150.0373
 10
-555.9914
 20
149.9214
 10
-556.0123
 20
149.7912
 10
-556.0282
 20
149.6495
 10
-556.0377
 20
149.5058
 10
-556.0403
 20
149.3701
 10
-556.0365
 20
149.2455
 10
-556.0266
 20
149.1348
 10
-556.0109
 20
149.0412
 10
-555.9899
 20
148.9678
 10
-555.9638
 20
148.9175
 10
-555.9332
 20
148.8934
 10
-555.9
 20
148.8981
 10
-555.8665
 20
148.9303
 10
-555.8338
 20
148.9874
 10
-555.8027
 20
149.0668
 10
-555.774
 20
149.1658
 10
-555.7487
 20
149.2816
 10
-555.7277
 20
149.4118
 10
-555.7118
 20
149.5535
 10
-555.7024
 20
149.6972
 10
-555.6998
 20
149.8329
 10
-555.7037
 20
149.9576
 10
-555.7137
 20
150.0683
 10
-555.7295
 20
150.1618
 10
-555.7506
 20
150.2353
 10
-555.7767
 20
150.2856
 10
-555.8074
 20
150.3097
  0
LWPOLYLINE
  5
6E
330
1F
100
AcDbEntity
  8
Layer 1
 62
     7
370
    18
100
AcDbPolyline
 90
       33
 70
     1
 43
0.0
 10
-560.4066
 20
149.3626
 10
-560.4398
 20
149.3579
 10
-560.4731
 20
149.3257
 10
-560.5058
 20
149.2685
 10
-560.5368
 20
149.1891
 10
-560.5654
 20
149.0901
 10
-560.5906
 20
148.9743
 10
-560.6115
 20
148.8441
 10
-560.6274
 20
148.7024
 10
-560.6369
 20
148.5587
 10
-560.6395
 20
148.423
 10
-560.6357
 20
148.2984
 10
-560.6257
 20
148.1877
 10
-560.61
 20
148.0941
 10
-560.589
 20
148.0207
 10
-560.563
 20
147.9704
 10
-560.5323
 20
147.9463
 10
-560.4991
 20
147.951
 10
-560.4657
 20
147.9832
 10
-560.433
 20
148.0403
 10
-560.4019
 20
148.1197
 10
-560.3732
 20
148.2186
 10
-560.3479
 20
148.3345
 10
-560.3269
 20
148.4646
 10
-560.311
 20
148.6063
 10
-560.3016
 20
148.75
 10
-560.299
 20
148.8857
 10
-560.3029
 20
149.0105
 10
-560.3129
 20
149.1211
 10
-560.3287
 20
149.2147
 10
-560.3498
 20
149.2882
 10
-560.3759
 20
149.3385
 10
-560.4066
 20
149.3626
  0
LWPOLYLINE
  5
6F
330
1F
100
AcDbEntity
  8
Layer 1
 62
     7
370
    18
100
AcDbPolyline
 90
       33
 70
     1
 43
0.0
 10
-555.3639
 20
147.8102
 10
-555.3971
 20
147.8055
 10
-555.4305
 20
147.7733
 10
-555.4631
 20
147.7161
 10
-555.4942
 20
147.6367
 10
-555.5228
 20
147.5377
 10
-555.548
 20
147.4219
 10
-555.5689
 20
147.2917
 10
-555.5848
 20
147.15
 10
-555.5943
 20
147.0063
 10
-555.5969
 20
146.8706
 10
-555.5931
 20
146.746
 10
-555.5831
 20
146.6353
 10
-555.5674
 20
146.5417
 10
-555.5464
 20
146.4683
 10
-555.5204
 20
146.418
 10
-555.4897
 20
146.3939
 10
-555.4565
 20
146.3986
 10
-555.423
 20
146.4308
 10
-555.3903
 20
146.4879
 10
-555.3592
 20
146.5673
 10
-555.3305
 20
146.6662
 10
-555.3053
 20
146.7821
 10
-555.2842
 20
146.9122
 10
-555.2683
 20
147.0539
 10
-555.2589
 20
147.1976
 10
-555.2563
 20
147.3333
 10
-555.2602
 20
147.458
 10
-555.2703
 20
147.5687
 10
-555.2861
 20
147.6623
 10
-555.3072
 20
147.7358
 10
-555.3332
 20
147.7861
 10
-555.3639
 20
147.8102
  0
LWPOLYLINE
  5
70
330
1F
100
AcDbEntity
  8
Layer 1
 62
     7
370
    18
100
AcDbPolyline
 90
       33
 70
     1
 43
0.0
 10
-556.6375
 20
147.5857
 10
-556.6707
 20
147.581
 10
-556.704
 20
147.5487
 10
-556.7367
 20
147.4915
 10
-556.7677
 20
147.4122
 10
-556.7963
 20
147.3132
 10
-556.8215
 20
147.1973
 10
-556.8424
 20
147.0672
 10
-556.8583
 20
146.9255
 10
-556.8678
 20
146.7818
 10
-556.8704
 20
146.6461
 10
-556.8666
 20
146.5215
 10
-556.8567
 20
146.4108
 10
-556.841
 20
146.3172
 10
-556.82
 20
146.2438
 10
-556.7939
 20
146.1935
 10
-556.7633
 20
146.1694
 10
-556.7301
 20
146.1741
 10
-556.6966
 20
146.2063
 10
-556.6639
 20
146.2634
 10
-556.6328
 20
146.3428
 10
-556.6041
 20
146.4417
 10
-556.5788
 20
146.5576
 10
-556.5578
 20
146.6877
 10
-556.5419
 20
146.8294
 10
-556.5325
 20
146.9731
 10
-556.5299
 20
147.1088
 10
-556.5338
 20
147.2335
 10
-556.5438
 20
147.3442
 10
-556.5596
 20
147.4378
 10
-556.5807
 20
147.5113
 10
-556.6068
 20
147.5616
 10
-556.6375
 20
147.5857
  0
LWPOLYLINE
  5
71
330
1F
100
AcDbEntity
  8
Layer 1
 62
     7
370
    18
100
AcDbPolyline
 90
       33
 70
     1
 43
0.0
 10
-559.7252
 20
147.0276
 10
-559.7584
 20
147.0229
 10
-559.7918
 20
146.9907
 10
-559.8244
 20
146.9335
 10
-559.8555
 20
146.8542
 10
-559.884
 20
146.7552
 10
-559.9092
 20
146.6393
 10
-559.9302
 20
146.5092
 10
-559.9461
 20
146.3675
 10
-559.9556
 20
146.2238
 10
-559.9582
 20
146.0881
 10
-559.9543
 20
145.9635
 10
-559.9444
 20
145.8528
 10
-559.9287
 20
145.7592
 10
-559.9077
 20
145.6858
 10
-559.8816
 20
145.6355
 10
-559.851
 20
145.6114
 10
-559.8178
 20
145.6161
 10
-559.7843
 20
145.6483
 10
-559.7516
 20
145.7054
 10
-559.7205
 20
145.7848
 10
-559.6918
 20
145.8837
 10
-559.6665
 20
145.9996
 10
-559.6455
 20
146.1297
 10
-559.6296
 20
146.2714
 10
-559.6202
 20
146.4151
 10
-559.6176
 20
146.5508
 10
-559.6215
 20
146.6755
 10
-559.6315
 20
146.7862
 10
-559.6473
 20
146.8798
 10
-559.6684
 20
146.9532
 10
-559.6945
 20
147.0035
 10
-559.7252
 20
147.0276
  0
LWPOLYLINE
  5
72
330
1F
100
AcDbEntity
  8
Layer 1
 62
     7
370
    18
100
AcDbPolyline
 90
       33
 70
     1
 43
0.0
 10
-560.8498
 20
146.7373
 10
-560.883
 20
146.7326
 10
-560.9163
 20
146.7004
 10
-560.949
 20
146.6432
 10
-560.98
 20
146.5638
 10
-561.0086
 20
146.4648
 10
-561.0338
 20
146.349
 10
-561.0547
 20
146.2188
 10
-561.0706
 20
146.0771
 10
-561.0801
 20
145.9334
 10
-561.0827
 20
145.7977
 10
-561.0789
 20
145.6731
 10
-561.069
 20
145.5624
 10
-561.0533
 20
145.4688
 10
-561.0323
 20
145.3954
 10
-561.0062
 20
145.3451
 10
-560.9756
 20
145.321
 10
-560.9424
 20
145.3257
 10
-560.9089
 20
145.3579
 10
-560.8762
 20
145.415
 10
-560.8451
 20
145.4944
 10
-560.8164
 20
145.5933
 10
-560.7911
 20
145.7092
 10
-560.7701
 20
145.8393
 10
-560.7542
 20
145.981
 10
-560.7448
 20
146.1247
 10
-560.7422
 20
146.2604
 10
-560.7461
 20
146.3851
 10
-560.7561
 20
146.4958
 10
-560.7719
 20
146.5894
 10
-560.793
 20
146.6629
 10
-560.8191
 20
146.7132
 10
-560.8498
 20
146.7373
  0
LWPOLYLINE
  5
73
330
1F
100
AcDbEntity
  8
Layer 1
 62
     7
370
    18
100
AcDbPolyline
 90
       33
 70
     1
 43
0.0
 10
-557.6397
 20
149.643
 10
-557.6729
 20
149.6383
 10
-557.7063
 20
149.6061
 10
-557.7389
 20
149.5489
 10
-557.7699
 20
149.4696
 10
-557.7985
 20
149.3706
 10
-557.8237
 20
149.2547
 10
-557.8446
 20
149.1246
 10
-557.8605
 20
148.9829
 10
-557.87
 20
148.8392
 10
-557.8726
 20
148.7035
 10
-557.8688
 20
148.5789
 10
-557.8589
 20
148.4682
 10
-557.8432
 20
148.3746
 10
-557.8222
 20
148.3012
 10
-557.7961
 20
148.2509
 10
-557.7655
 20
148.2268
 10
-557.7323
 20
148.2315
 10
-557.6988
 20
148.2637
 10
-557.6661
 20
148.3208
 10
-557.635
 20
148.4002
 10
-557.6063
 20
148.4991
 10
-557.581
 20
148.615
 10
-557.56
 20
148.7451
 10
-557.5441
 20
148.8868
 10
-557.5347
 20
149.0305
 10
-557.5321
 20
149.1662
 10
-557.536
 20
149.2909
 10
-557.546
 20
149.4016
 10
-557.5618
 20
149.4952
 10
-557.5829
 20
149.5686
 10
-557.609
 20
149.6189
 10
-557.6397
 20
149.643
  0
LWPOLYLINE
  5
74
330
1F
100
AcDbEntity
  8
Layer 1
 62
     7
370
    18
100
AcDbPolyline
 90
       33
 70
     1
 43
0.0
 10
-558.7643
 20
149.3527
 10
-558.7975
 20
149.348
 10
-558.8308
 20
149.3158
 10
-558.8635
 20
149.2586
 10
-558.8945
 20
149.1792
 10
-558.9231
 20
149.0802
 10
-558.9483
 20
148.9644
 10
-558.9692
 20
148.8342
 10
-558.9851
 20
148.6925
 10
-558.9946
 20
148.5488
 10
-558.9972
 20
148.4131
 10
-558.9934
 20
148.2885
 10
-558.9834
 20
148.1778
 10
-558.9677
 20
148.0842
 10
-558.9467
 20
148.0108
 10
-558.9207
 20
147.9605
 10
-558.89
 20
147.9364
 10
-558.8568
 20
147.9411
 10
-558.8234
 20
147.9733
 10
-558.7907
 20
148.0304
 10
-558.7596
 20
148.1098
 10
-558.7309
 20
148.2087
 10
-558.7056
 20
148.3246
 10
-558.6846
 20
148.4547
 10
-558.6687
 20
148.5964
 10
-558.6593
 20
148.7401
 10
-558.6567
 20
148.8758
 10
-558.6606
 20
149.0005
 10
-558.6706
 20
149.1112
 10
-558.6864
 20
149.2048
 10
-558.7075
 20
149.2783
 10
-558.7336
 20
149.3286
 10
-558.7643
 20
149.3527
  0
LWPOLYLINE
  5
75
330
1F
100
AcDbEntity
  8
Layer 1
 62
     7
370
    18
100
AcDbPolyline
 90
       33
 70
     1
 43
0.0
 10
-558.8394
 20
137.1215
 10
-558.8057
 20
137.1278
 10
-558.7719
 20
137.1613
 10
-558.7391
 20
137.2192
 10
-558.7079
 20
137.299
 10
-558.6794
 20
137.3979
 10
-558.6543
 20
137.5132
 10
-558.6336
 20
137.6423
 10
-558.6182
 20
137.7826
 10
-558.6093
 20
137.9245
 10
-558.6073
 20
138.0582
 10
-558.6118
 20
138.1807
 10
-558.6225
 20
138.2891
 10
-558.6388
 20
138.3804
 10
-558.6606
 20
138.4516
 10
-558.6872
 20
138.4998
 10
-558.7185
 20
138.5219
 10
-558.7522
 20
138.5157
 10
-558.7859
 20
138.4824
 10
-558.8189
 20
138.4245
 10
-558.8501
 20
138.3448
 10
-558.8787
 20
138.2459
 10
-558.9038
 20
138.1306
 10
-558.9246
 20
138.0013
 10
-558.9401
 20
137.8609
 10
-558.949
 20
137.719
 10
-558.951
 20
137.5853
 10
-558.9464
 20
137.4628
 10
-558.9357
 20
137.3543
 10
-558.9192
 20
137.263
 10
-558.8974
 20
137.1918
 10
-558.8707
 20
137.1436
 10
-558.8394
 20
137.1215
  0
LWPOLYLINE
  5
76
330
1F
100
AcDbEntity
  8
Layer 1
 62
     7
370
    18
100
AcDbPolyline
 90
       33
 70
     1
 43
0.0
 10
-557.7529
 20
137.4315
 10
-557.7192
 20
137.4379
 10
-557.6854
 20
137.4713
 10
-557.6525
 20
137.5293
 10
-557.6214
 20
137.609
 10
-557.5928
 20
137.7079
 10
-557.5678
 20
137.8233
 10
-557.5471
 20
137.9524
 10
-557.5317
 20
138.0927
 10
-557.5228
 20
138.2345
 10
-557.5207
 20
138.3682
 10
-557.5252
 20
138.4907
 10
-557.5359
 20
138.5991
 10
-557.5522
 20
138.6904
 10
-557.574
 20
138.7616
 10
-557.6006
 20
138.8098
 10
-557.6319
 20
138.8319
 10
-557.6656
 20
138.8257
 10
-557.6994
 20
138.7924
 10
-557.7323
 20
138.7345
 10
-557.7636
 20
138.6548
 10
-557.7922
 20
138.5559
 10
-557.8173
 20
138.4406
 10
-557.8381
 20
138.3113
 10
-557.8536
 20
138.1709
 10
-557.8625
 20
138.029
 10
-557.8644
 20
137.8954
 10
-557.8598
 20
137.7728
 10
-557.8491
 20
137.6644
 10
-557.8327
 20
137.573
 10
-557.8109
 20
137.5018
 10
-557.7841
 20
137.4536
 10
-557.7529
 20
137.4315
  0
LWPOLYLINE
  5
77
330
1F
100
AcDbEntity
  8
Layer 1
 62
     7
370
    18
100
AcDbPolyline
 90
       33
 70
     1
 43
0.0
 10
-559.8547
 20
137.8964
 10
-559.821
 20
137.9027
 10
-559.7872
 20
137.9362
 10
-559.7544
 20
137.9941
 10
-559.7232
 20
138.0739
 10
-559.6947
 20
138.1728
 10
-559.6697
 20
138.2881
 10
-559.649
 20
138.4172
 10
-559.6336
 20
138.5575
 10
-559.6246
 20
138.6995
 10
-559.6226
 20
138.8334
 10
-559.6271
 20
138.956
 10
-559.6377
 20
139.0644
 10
-559.654
 20
139.1558
 10
-559.6757
 20
139.227
 10
-559.7024
 20
139.2752
 10
-559.7336
 20
139.2973
 10
-559.7673
 20
139.291
 10
-559.8011
 20
139.2575
 10
-559.8341
 20
139.1996
 10
-559.8653
 20
139.1198
 10
-559.894
 20
139.021
 10
-559.9191
 20
138.9057
 10
-559.9398
 20
138.7766
 10
-559.9553
 20
138.6363
 10
-559.9642
 20
138.4944
 10
-559.9662
 20
138.3607
 10
-559.9616
 20
138.2381
 10
-559.9509
 20
138.1297
 10
-559.9344
 20
138.0383
 10
-559.9126
 20
137.967
 10
-559.8859
 20
137.9187
 10
-559.8547
 20
137.8964
  0
LWPOLYLINE
  5
78
330
1F
100
AcDbEntity
  8
Layer 1
 62
     7
370
    18
100
AcDbPolyline
 90
       33
 70
     1
 43
0.0
 10
-556.7345
 20
138.7404
 10
-556.7008
 20
138.7468
 10
-556.667
 20
138.7802
 10
-556.6342
 20
138.8382
 10
-556.603
 20
138.9179
 10
-556.5745
 20
139.0168
 10
-556.5494
 20
139.1321
 10
-556.5287
 20
139.2612
 10
-556.5133
 20
139.4015
 10
-556.5043
 20
139.5435
 10
-556.5023
 20
139.6774
 10
-556.5068
 20
139.8
 10
-556.5174
 20
139.9085
 10
-556.5337
 20
139.9998
 10
-556.5555
 20
140.071
 10
-556.5821
 20
140.1192
 10
-556.6134
 20
140.1413
 10
-556.6471
 20
140.135
 10
-556.6809
 20
140.1015
 10
-556.7139
 20
140.0436
 10
-556.7451
 20
139.9638
 10
-556.7738
 20
139.865
 10
-556.7989
 20
139.7497
 10
-556.8196
 20
139.6206
 10
-556.8351
 20
139.4803
 10
-556.844
 20
139.3384
 10
-556.8459
 20
139.2047
 10
-556.8413
 20
139.0821
 10
-556.8306
 20
138.9737
 10
-556.8142
 20
138.8823
 10
-556.7924
 20
138.811
 10
-556.7657
 20
138.7627
 10
-556.7345
 20
138.7404
  0
LWPOLYLINE
  5
79
330
1F
100
AcDbEntity
  8
Layer 1
 62
     7
370
    18
100
AcDbPolyline
 90
       33
 70
     1
 43
0.0
 10
-560.6535
 20
139.6481
 10
-560.6198
 20
139.6545
 10
-560.586
 20
139.6879
 10
-560.5532
 20
139.7459
 10
-560.522
 20
139.8256
 10
-560.4935
 20
139.9245
 10
-560.4684
 20
140.0399
 10
-560.4477
 20
140.169
 10
-560.4323
 20
140.3093
 10
-560.4233
 20
140.4513
 10
-560.4213
 20
140.5851
 10
-560.4258
 20
140.7077
 10
-560.4364
 20
140.8162
 10
-560.4527
 20
140.9075
 10
-560.4745
 20
140.9787
 10
-560.5011
 20
141.0269
 10
-560.5324
 20
141.049
 10
-560.5661
 20
141.0427
 10
-560.5999
 20
141.0092
 10
-560.6329
 20
140.9513
 10
-560.6641
 20
140.8716
 10
-560.6928
 20
140.7728
 10
-560.7179
 20
140.6574
 10
-560.7386
 20
140.5283
 10
-560.7541
 20
140.388
 10
-560.763
 20
140.246
 10
-560.765
 20
140.1122
 10
-560.7604
 20
139.9897
 10
-560.7497
 20
139.8813
 10
-560.7332
 20
139.7899
 10
-560.7114
 20
139.7187
 10
-560.6847
 20
139.6704
 10
-560.6535
 20
139.6481
  0
LWPOLYLINE
  5
7A
330
1F
100
AcDbEntity
  8
Layer 1
 62
     7
370
    18
100
AcDbPolyline
 90
       33
 70
     1
 43
0.0
 10
-555.9872
 20
140.8149
 10
-555.9535
 20
140.8213
 10
-555.9197
 20
140.8547
 10
-555.8868
 20
140.9127
 10
-555.8557
 20
140.9924
 10
-555.8271
 20
141.0913
 10
-555.8021
 20
141.2067
 10
-555.7814
 20
141.3358
 10
-555.766
 20
141.4761
 10
-555.7571
 20
141.6179
 10
-555.755
 20
141.7516
 10
-555.7595
 20
141.8741
 10
-555.7702
 20
141.9825
 10
-555.7865
 20
142.0738
 10
-555.8083
 20
142.145
 10
-555.8349
 20
142.1932
 10
-555.8662
 20
142.2153
 10
-555.8999
 20
142.2091
 10
-555.9337
 20
142.1758
 10
-555.9666
 20
142.1179
 10
-555.9979
 20
142.0382
 10
-556.0265
 20
141.9393
 10
-556.0516
 20
141.824
 10
-556.0724
 20
141.6947
 10
-556.0879
 20
141.5543
 10
-556.0968
 20
141.4124
 10
-556.0987
 20
141.2788
 10
-556.0941
 20
141.1562
 10
-556.0834
 20
141.0478
 10
-556.067
 20
140.9564
 10
-556.0452
 20
140.8852
 10
-556.0184
 20
140.837
 10
-555.9872
 20
140.8149
  0
LWPOLYLINE
  5
7B
330
1F
100
AcDbEntity
  8
Layer 1
 62
     7
370
    18
100
AcDbPolyline
 90
       33
 70
     1
 43
0.0
 10
-561.1158
 20
142.0862
 10
-561.0821
 20
142.0925
 10
-561.0483
 20
142.126
 10
-561.0154
 20
142.1839
 10
-560.9843
 20
142.2637
 10
-560.9557
 20
142.3626
 10
-560.9307
 20
142.4779
 10
-560.91
 20
142.607
 10
-560.8946
 20
142.7473
 10
-560.8856
 20
142.8893
 10
-560.8836
 20
143.0232
 10
-560.8881
 20
143.1458
 10
-560.8987
 20
143.2542
 10
-560.915
 20
143.3456
 10
-560.9368
 20
143.4168
 10
-560.9634
 20
143.465
 10
-560.9947
 20
143.4871
 10
-561.0284
 20
143.4808
 10
-561.0622
 20
143.4473
 10
-561.0952
 20
143.3894
 10
-561.1264
 20
143.3096
 10
-561.155
 20
143.2108
 10
-561.1802
 20
143.0955
 10
-561.2009
 20
142.9664
 10
-561.2163
 20
142.8261
 10
-561.2253
 20
142.6841
 10
-561.2272
 20
142.5502
 10
-561.2227
 20
142.4276
 10
-561.212
 20
142.3191
 10
-561.1955
 20
142.2277
 10
-561.1738
 20
142.1565
 10
-561.147
 20
142.1083
 10
-561.1158
 20
142.0862
  0
LWPOLYLINE
  5
7C
330
1F
100
AcDbEntity
  8
Layer 1
 62
     7
370
    18
100
AcDbPolyline
 90
       33
 70
     1
 43
0.0
 10
-559.8234
 20
142.3722
 10
-559.7897
 20
142.3786
 10
-559.7559
 20
142.412
 10
-559.7231
 20
142.47
 10
-559.6919
 20
142.5497
 10
-559.6634
 20
142.6486
 10
-559.6383
 20
142.7639
 10
-559.6176
 20
142.893
 10
-559.6022
 20
143.0333
 10
-559.5933
 20
143.1752
 10
-559.5913
 20
143.3089
 10
-559.5958
 20
143.4314
 10
-559.6065
 20
143.5398
 10
-559.6228
 20
143.6311
 10
-559.6446
 20
143.7023
 10
-559.6712
 20
143.7505
 10
-559.7025
 20
143.7726
 10
-559.7362
 20
143.7664
 10
-559.7699
 20
143.7331
 10
-559.8029
 20
143.6752
 10
-559.8341
 20
143.5955
 10
-559.8627
 20
143.4966
 10
-559.8878
 20
143.3813
 10
-559.9086
 20
143.252
 10
-559.9241
 20
143.1116
 10
-559.933
 20
142.9697
 10
-559.935
 20
142.836
 10
-559.9304
 20
142.7135
 10
-559.9197
 20
142.605
 10
-559.9032
 20
142.5137
 10
-559.8814
 20
142.4425
 10
-559.8547
 20
142.3943
 10
-559.8234
 20
142.3722
  0
LWPOLYLINE
  5
7D
330
1F
100
AcDbEntity
  8
Layer 1
 62
     7
370
    18
100
AcDbPolyline
 90
       33
 70
     1
 43
0.0
 10
-556.6902
 20
143.079
 10
-556.6565
 20
143.0853
 10
-556.6228
 20
143.1187
 10
-556.5899
 20
143.1766
 10
-556.5588
 20
143.2563
 10
-556.5302
 20
143.3551
 10
-556.5052
 20
143.4705
 10
-556.4845
 20
143.5997
 10
-556.469
 20
143.7401
 10
-556.4601
 20
143.882
 10
-556.4581
 20
144.0157
 10
-556.4626
 20
144.1382
 10
-556.4733
 20
144.2466
 10
-556.4896
 20
144.3379
 10
-556.5114
 20
144.4091
 10
-556.538
 20
144.4573
 10
-556.5693
 20
144.4794
 10
-556.603
 20
144.4731
 10
-556.6368
 20
144.4396
 10
-556.6698
 20
144.3817
 10
-556.701
 20
144.3019
 10
-556.7296
 20
144.2031
 10
-556.7548
 20
144.0877
 10
-556.7755
 20
143.9586
 10
-556.7909
 20
143.8183
 10
-556.7998
 20
143.6765
 10
-556.8018
 20
143.5428
 10
-556.7972
 20
143.4202
 10
-556.7865
 20
143.3118
 10
-556.77
 20
143.2205
 10
-556.7482
 20
143.1493
 10
-556.7215
 20
143.1011
 10
-556.6902
 20
143.079
  0
LWPOLYLINE
  5
7E
330
1F
100
AcDbEntity
  8
Layer 1
 62
     7
370
    18
100
AcDbPolyline
 90
       33
 70
     1
 43
0.0
 10
-555.5496
 20
143.4219
 10
-555.5159
 20
143.4282
 10
-555.4821
 20
143.4617
 10
-555.4492
 20
143.5196
 10
-555.4181
 20
143.5994
 10
-555.3895
 20
143.6983
 10
-555.3645
 20
143.8136
 10
-555.3438
 20
143.9427
 10
-555.3284
 20
144.083
 10
-555.3195
 20
144.2249
 10
-555.3174
 20
144.3586
 10
-555.3219
 20
144.4811
 10
-555.3326
 20
144.5896
 10
-555.3489
 20
144.6809
 10
-555.3706
 20
144.7522
 10
-555.3973
 20
144.8005
 10
-555.4285
 20
144.8228
 10
-555.4622
 20
144.8165
 10
-555.496
 20
144.783
 10
-555.529
 20
144.7251
 10
-555.5602
 20
144.6453
 10
-555.5888
 20
144.5465
 10
-555.614
 20
144.4312
 10
-555.6347
 20
144.3021
 10
-555.6501
 20
144.1618
 10
-555.6591
 20
144.0198
 10
-555.661
 20
143.8859
 10
-555.6565
 20
143.7633
 10
-555.6458
 20
143.6548
 10
-555.6293
 20
143.5634
 10
-555.6076
 20
143.4922
 10
-555.5808
 20
143.444
 10
-555.5496
 20
143.4219
  0
LWPOLYLINE
  5
7F
330
1F
100
AcDbEntity
  8
Layer 1
 62
     7
370
    18
100
AcDbPolyline
 90
       33
 70
     1
 43
0.0
 10
-558.7957
 20
140.3981
 10
-558.762
 20
140.4043
 10
-558.7284
 20
140.4377
 10
-558.6955
 20
140.4955
 10
-558.6644
 20
140.5753
 10
-558.6358
 20
140.6742
 10
-558.6108
 20
140.7896
 10
-558.5901
 20
140.9188
 10
-558.5746
 20
141.0593
 10
-558.5657
 20
141.2011
 10
-558.5636
 20
141.3348
 10
-558.5681
 20
141.4573
 10
-558.5788
 20
141.5657
 10
-558.5951
 20
141.657
 10
-558.6169
 20
141.7282
 10
-558.6435
 20
141.7764
 10
-558.6748
 20
141.7985
 10
-558.7085
 20
141.7922
 10
-558.7423
 20
141.7587
 10
-558.7753
 20
141.7008
 10
-558.8065
 20
141.621
 10
-558.8352
 20
141.5222
 10
-558.8603
 20
141.4069
 10
-558.881
 20
141.2778
 10
-558.8965
 20
141.1375
 10
-558.9054
 20
140.9956
 10
-558.9073
 20
140.862
 10
-558.9027
 20
140.7394
 10
-558.892
 20
140.631
 10
-558.8755
 20
140.5396
 10
-558.8537
 20
140.4684
 10
-558.827
 20
140.4202
 10
-558.7957
 20
140.3981
  0
LWPOLYLINE
  5
80
330
1F
100
AcDbEntity
  8
Layer 1
 62
     7
370
    18
100
AcDbPolyline
 90
       33
 70
     1
 43
0.0
 10
-557.6551
 20
140.741
 10
-557.6214
 20
140.7474
 10
-557.5876
 20
140.7808
 10
-557.5548
 20
140.8388
 10
-557.5236
 20
140.9185
 10
-557.4951
 20
141.0174
 10
-557.47
 20
141.1328
 10
-557.4493
 20
141.2619
 10
-557.4339
 20
141.4022
 10
-557.425
 20
141.544
 10
-557.423
 20
141.6777
 10
-557.4275
 20
141.8002
 10
-557.4382
 20
141.9086
 10
-557.4545
 20
141.9999
 10
-557.4763
 20
142.0711
 10
-557.5029
 20
142.1193
 10
-557.5342
 20
142.1414
 10
-557.5679
 20
142.1352
 10
-557.6016
 20
142.1019
 10
-557.6346
 20
142.0441
 10
-557.6658
 20
141.9644
 10
-557.6944
 20
141.8655
 10
-557.7195
 20
141.7501
 10
-557.7403
 20
141.6209
 10
-557.7558
 20
141.4804
 10
-557.7647
 20
141.3386
 10
-557.7667
 20
141.2049
 10
-557.7621
 20
141.0823
 10
-557.7514
 20
140.9739
 10
-557.7349
 20
140.8826
 10
-557.7131
 20
140.8113
 10
-557.6864
 20
140.7631
 10
-557.6551
 20
140.741
  0
LWPOLYLINE
  5
81
330
1F
100
AcDbEntity
  8
Layer 1
 62
     7
370
    18
100
AcDbPolyline
 90
      162
 70
     0
 43
0.0
 10
-511.8808
 20
26.8437
 10
-511.8222
 20
26.8406
 10
-511.6672
 20
26.8242
 10
-511.4471
 20
26.784
 10
-511.1929
 20
26.7096
 10
-510.9359
 20
26.5904
 10
-510.7072
 20
26.416
 10
-510.5381
 20
26.1758
 10
-510.4597
 20
25.8594
 10
-510.4349
 20
25.5064
 10
-510.4072
 20
25.1696
 10
-510.3786
 20
24.8585
 10
-510.3508
 20
24.5827
 10
-510.3259
 20
24.3517
 10
-510.3057
 20
24.1749
 10
-510.2922
 20
24.0619
 10
-510.2873
 20
24.0221
 10
-510.2783
 20
23.9949
 10
-510.2653
 20
23.922
 10
-510.2687
 20
23.8167
 10
-510.3095
 20
23.6923
 10
-510.4081
 20
23.562
 10
-510.5853
 20
23.4391
 10
-510.8618
 20
23.3368
 10
-511.2583
 20
23.2684
 10
-514.9635
 20
22.8642
 10
-514.8742
 20
20.8121
 10
-514.8134
 20
20.8064
 10
-514.6517
 20
20.788
 10
-514.4201
 20
20.7551
 10
-514.1497
 20
20.7056
 10
-513.8714
 20
20.6378
 10
-513.6164
 20
20.5497
 10
-513.4157
 20
20.4393
 10
-513.3002
 20
20.3048
 10
-513.2434
 20
20.1552
 10
-513.207
 20
20.0023
 10
-513.2048
 20
19.8483
 10
-513.2506
 20
19.6954
 10
-513.358
 20
19.5458
 10
-513.5408
 20
19.4018
 10
-513.8128
 20
19.2656
 10
-514.1877
 20
19.1394
 10
-514.2292
 20
19.1271
 10
-514.3273
 20
19.0915
 10
-514.4421
 20
19.0347
 10
-514.5338
 20
18.9588
 10
-514.5625
 20
18.8658
 10
-514.4885
 20
18.7579
 10
-514.272
 20
18.6372
 10
-513.8731
 20
18.5057
 10
-513.4606
 20
18.3301
 10
-513.2158
 20
18.0917
 10
-513.1173
 20
17.8145
 10
-513.1438
 20
17.5223
 10
-513.2738
 20
17.2392
 10
-513.4862
 20
16.989
 10
-513.7595
 20
16.7957
 10
-514.0725
 20
16.6832
 10
-514.2948
 20
16.6032
 10
-514.3394
 20
16.4955
 10
-514.2503
 20
16.3662
 10
-514.071
 20
16.2214
 10
-513.8453
 20
16.0673
 10
-513.6169
 20
15.9099
 10
-513.4297
 20
15.7554
 10
-513.3273
 20
15.6099
 10
-513.265
 20
15.4559
 10
-513.2006
 20
15.2765
 10
-513.1819
 20
15.0786
 10
-513.2568
 20
14.8692
 10
-513.4728
 20
14.6554
 10
-513.8779
 20
14.444
 10
-514.5196
 20
14.242
 10
-515.4459
 20
14.0564
 10
-516.874
 20
13.8677
 10
-518.903
 20
13.6653
 10
-521.4033
 20
13.469
 10
-524.2453
 20
13.2989
 10
-527.2995
 20
13.175
 10
-530.4364
 20
13.1173
 10
-533.5262
 20
13.1458
 10
-536.4396
 20
13.2805
 10
-536.5641
 20
13.2806
 10
-536.8972
 20
13.2864
 10
-537.3784
 20
13.3066
 10
-537.9474
 20
13.3494
 10
-538.5435
 20
13.4233
 10
-539.1065
 20
13.5369
 10
-539.5757
 20
13.6986
 10
-539.8908
 20
13.9167
 10
-540.0638
 20
14.1484
 10
-540.1503
 20
14.3486
 10
-540.1551
 20
14.5229
 10
-540.0832
 20
14.6767
 10
-539.9393
 20
14.8155
 10
-539.7283
 20
14.9449
 10
-539.455
 20
15.0702
 10
-539.1243
 20
15.1969
 10
-538.83
 20
15.3287
 10
-538.6541
 20
15.4626
 10
-538.5841
 20
15.5948
 10
-538.6071
 20
15.7211
 10
-538.7104
 20
15.8374
 10
-538.8812
 20
15.9398
 10
-539.107
 20
16.0241
 10
-539.3748
 20
16.0864
 10
-539.6416
 20
16.1687
 10
-539.8623
 20
16.3054
 10
-540.0213
 20
16.481
 10
-540.1032
 20
16.6798
 10
-540.0925
 20
16.8864
 10
-539.9736
 20
17.0851
 10
-539.7311
 20
17.2603
 10
-539.3495
 20
17.3966
 10
-538.9626
 20
17.5157
 10
-538.708
 20
17.648
 10
-538.5756
 20
17.7905
 10
-538.5553
 20
17.9402
 10
-538.637
 20
18.0942
 10
-538.8106
 20
18.2495
 10
-539.066
 20
18.4031
 10
-539.3931
 20
18.5522
 10
-539.6962
 20
18.7164
 10
-539.8939
 20
18.9094
 10
-539.9973
 20
19.1191
 10
-540.0176
 20
19.3335
 10
-539.9659
 20
19.5406
 10
-539.8533
 20
19.7282
 10
-539.691
 20
19.8844
 10
-539.4902
 20
19.9971
 10
-539.0373
 20
20.1255
 10
-538.6041
 20
20.2445
 10
-538.423
 20
20.3386
 10
-538.2804
 20
20.4762
 10
-538.1877
 20
20.6723
 10
-538.1561
 20
20.9424
 10
-538.1967
 20
22.7322
 10
-538.3329
 20
22.7388
 10
-538.6972
 20
22.7587
 10
-539.2233
 20
22.792
 10
-539.8449
 20
22.839
 10
-540.4957
 20
22.8997
 10
-541.1094
 20
22.9742
 10
-541.6196
 20
23.0628
 10
-541.9601
 20
23.1656
 10
-542.1914
 20
23.2702
 10
-542.4118
 20
23.3744
 10
-542.6113
 20
23.4939
 10
-542.78
 20
23.6441
 10
-542.908
 20
23.8407
 10
-542.9855
 20
24.0993
 10
-543.0024
 20
24.4354
 10
-542.949
 20
24.8646
 10
-542.8688
 20
25.3294
 10
-542.8102
 20
25.7569
 10
-542.7696
 20
26.1396
 10
-542.7439
 20
26.4697
 10
-542.7296
 20
26.7397
 10
-542.7236
 20
26.942
 10
-542.7224
 20
27.069
 10
-542.7227
 20
27.113
  0
LWPOLYLINE
  5
82
330
1F
100
AcDbEntity
  8
Layer 1
 62
     7
370
    18
100
AcDbPolyline
 90
        9
 70
     0
 43
0.0
 10
-514.2996
 20
20.0079
 10
-515.0797
 20
19.9516
 10
-517.1853
 20
19.8126
 10
-520.2648
 20
19.6355
 10
-523.9663
 20
19.465
 10
-527.9381
 20
19.3457
 10
-531.8283
 20
19.3225
 10
-535.2851
 20
19.44
 10
-537.9568
 20
19.7428
  0
LWPOLYLINE
  5
83
330
1F
100
AcDbEntity
  8
Layer 1
 62
     7
370
    18
100
AcDbPolyline
 90
        9
 70
     0
 43
0.0
 10
-514.4705
 20
18.3907
 10
-515.2506
 20
18.3344
 10
-517.3562
 20
18.1954
 10
-520.4357
 20
18.0183
 10
-524.1372
 20
17.8478
 10
-528.109
 20
17.7286
 10
-531.9992
 20
17.7054
 10
-535.456
 20
17.8229
 10
-538.1277
 20
18.1257
  0
LWPOLYLINE
  5
84
330
1F
100
AcDbEntity
  8
Layer 1
 62
     7
370
    18
100
AcDbPolyline
 90
        9
 70
     0
 43
0.0
 10
-514.1145
 20
17.0189
 10
-514.9308
 20
16.96
 10
-517.1344
 20
16.8145
 10
-520.357
 20
16.6291
 10
-524.2307
 20
16.4507
 10
-528.3871
 20
16.3259
 10
-532.4581
 20
16.3017
 10
-536.0757
 20
16.4246
 10
-538.8717
 20
16.7416
  0
LWPOLYLINE
  5
85
330
1F
100
AcDbEntity
  8
Layer 1
 62
     7
370
    18
100
AcDbPolyline
 90
        9
 70
     0
 43
0.0
 10
-514.3423
 20
15.509
 10
-515.1224
 20
15.4527
 10
-517.2281
 20
15.3137
 10
-520.3075
 20
15.1366
 10
-524.0091
 20
14.9661
 10
-527.9808
 20
14.8468
 10
-531.871
 20
14.8236
 10
-535.3279
 20
14.9411
 10
-537.9996
 20
15.2439
  0
LWPOLYLINE
  5
86
330
1F
100
AcDbEntity
  8
Layer 1
 62
     7
370
     9
100
AcDbPolyline
 90
        2
 70
     0
 43
0.0
 10
-513.4865
 20
12.9217
 10
-465.0001
 20
13.935
  0
LWPOLYLINE
  5
87
330
1F
100
AcDbEntity
  8
Layer 1
 62
     7
370
     9
100
AcDbPolyline
 90
        2
 70
     0
 43
0.0
 10
-545.6119
 20
156.616
 10
-464.1251
 20
157.5512
  0
LWPOLYLINE
  5
88
330
1F
100
AcDbEntity
  8
Layer 1
 62
     7
370
     9
100
AcDbPolyline
 90
        2
 70
     0
 43
0.0
 10
-474.1868
 20
157.4192
 10
-472.8668
 20
13.8535
  0
LWPOLYLINE
  5
89
330
1F
100
AcDbEntity
  8
Layer 1
 62
     7
370
     9
100
AcDbPolyline
 90
        7
 70
     1
 43
0.0
 10
-449.9157
 20
57.1863
 10
-449.9291
 20
58.4454
 10
-462.3043
 20
58.3171
 10
-461.9492
 20
55.2976
 10
-460.8521
 20
55.309
 10
-460.8699
 20
57.0726
 10
-449.9157
 20
57.1863
  0
LWPOLYLINE
  5
8A
330
1F
100
AcDbEntity
  8
Layer 1
 62
     7
370
     9
100
AcDbPolyline
 90
      162
 70
     1
 43
0.0
 10
-450.3147
 20
92.1674
 10
-450.328
 20
93.4272
 10
-455.275
 20
93.3757
 10
-455.6031
 20
93.362
 10
-455.9156
 20
93.3278
 10
-456.2124
 20
93.2734
 10
-456.4936
 20
93.1986
 10
-456.7591
 20
93.1034
 10
-457.009
 20
92.9879
 10
-457.2431
 20
92.8521
 10
-457.4616
 20
92.696
 10
-457.5661
 20
92.6092
 10
-457.6652
 20
92.5171
 10
-457.7588
 20
92.4196
 10
-457.8471
 20
92.3168
 10
-457.9299
 20
92.2086
 10
-458.0073
 20
92.0952
 10
-458.0792
 20
91.9764
 10
-458.1458
 20
91.8523
 10
-458.2057
 20
91.7206
 10
-458.2573
 20
91.5789
 10
-458.3006
 20
91.4271
 10
-458.3356
 20
91.2654
 10
-458.3623
 20
91.0936
 10
-458.3807
 20
90.9118
 10
-458.3909
 20
90.72
 10
-458.3929
 20
90.5182
 10
-458.3838
 20
90.3145
 10
-458.3606
 20
90.1174
 10
-458.3235
 20
89.9269
 10
-458.2725
 20
89.743
 10
-458.2074
 20
89.5657
 10
-458.1284
 20
89.3951
 10
-458.0354
 20
89.231
 10
-457.9285
 20
89.0736
 10
-457.8219
 20
88.9374
 10
-457.7076
 20
88.8074
 10
-457.5857
 20
88.6836
 10
-457.4561
 20
88.5661
 10
-457.319
 20
88.4548
 10
-457.1745
 20
88.3497
 10
-457.0225
 20
88.2509
 10
-456.8632
 20
88.1582
 10
-457.0085
 20
88.0834
 10
-457.1487
 20
88.002
 10
-457.2832
 20
87.914
 10
-457.4114
 20
87.8196
 10
-457.5159
 20
87.7326
 10
-457.6149
 20
87.6403
 10
-457.7084
 20
87.5427
 10
-457.7966
 20
87.4398
 10
-457.8792
 20
87.3316
 10
-457.9565
 20
87.2181
 10
-458.0285
 20
87.0994
 10
-458.095
 20
86.9753
 10
-458.1549
 20
86.8437
 10
-458.2066
 20
86.7021
 10
-458.25
 20
86.5505
 10
-458.2851
 20
86.3887
 10
-458.3119
 20
86.2169
 10
-458.3304
 20
86.0351
 10
-458.3407
 20
85.8432
 10
-458.3427
 20
85.6412
 10
-458.3336
 20
85.4375
 10
-458.3104
 20
85.2405
 10
-458.2733
 20
85.0501
 10
-458.2222
 20
84.8664
 10
-458.1571
 20
84.6893
 10
-458.0779
 20
84.5188
 10
-457.9848
 20
84.355
 10
-457.8777
 20
84.1978
 10
-457.7764
 20
84.0677
 10
-457.6683
 20
83.9433
 10
-457.5534
 20
83.8245
 10
-457.4316
 20
83.7115
 10
-457.303
 20
83.6042
 10
-457.1675
 20
83.5026
 10
-457.0251
 20
83.4068
 10
-456.8759
 20
83.3167
 10
-458.1382
 20
83.3033
 10
-458.1255
 20
82.0448
 10
-450.2105
 20
82.1268
 10
-450.2238
 20
83.3859
 10
-454.2737
 20
83.344
 10
-454.51
 20
83.3707
 10
-454.7372
 20
83.4065
 10
-454.9553
 20
83.4515
 10
-455.1645
 20
83.5055
 10
-455.3648
 20
83.5687
 10
-455.5562
 20
83.641
 10
-455.7389
 20
83.7223
 10
-455.9128
 20
83.8128
 10
-456.0367
 20
83.8865
 10
-456.1551
 20
83.9665
 10
-456.2678
 20
84.0527
 10
-456.375
 20
84.1453
 10
-456.4766
 20
84.244
 10
-456.5727
 20
84.349
 10
-456.6632
 20
84.4603
 10
-456.7482
 20
84.5777
 10
-456.8253
 20
84.6996
 10
-456.8924
 20
84.8239
 10
-456.9494
 20
84.9505
 10
-456.9963
 20
85.0794
 10
-457.0332
 20
85.2107
 10
-457.0599
 20
85.3442
 10
-457.0765
 20
85.4801
 10
-457.083
 20
85.6183
 10
-457.0817
 20
85.7534
 10
-457.0749
 20
85.8795
 10
-457.0627
 20
85.9967
 10
-457.045
 20
86.1049
 10
-457.0219
 20
86.2041
 10
-456.9934
 20
86.2943
 10
-456.9595
 20
86.3756
 10
-456.9203
 20
86.448
 10
-456.7881
 20
86.6307
 10
-456.6327
 20
86.7894
 10
-456.4539
 20
86.9242
 10
-456.2519
 20
87.0351
 10
-456.0265
 20
87.122
 10
-455.7779
 20
87.1851
 10
-455.506
 20
87.2243
 10
-455.2108
 20
87.2395
 10
-450.2645
 20
87.2904
 10
-450.2772
 20
88.5501
 10
-455.2241
 20
88.4987
 10
-455.5265
 20
88.4872
 10
-455.9636
 20
88.6893
 10
-456.0875
 20
88.7631
 10
-456.2059
 20
88.8432
 10
-456.3187
 20
88.9295
 10
-456.4259
 20
89.022
 10
-456.5275
 20
89.1208
 10
-456.6235
 20
89.2258
 10
-456.714
 20
89.3372
 10
-456.799
 20
89.4548
 10
-456.8761
 20
89.5765
 10
-456.9431
 20
89.7005
 10
-457.0
 20
89.8269
 10
-457.0468
 20
89.9557
 10
-457.0835
 20
90.0868
 10
-457.1102
 20
90.2204
 10
-457.1267
 20
90.3563
 10
-457.1332
 20
90.4947
 10
-457.1321
 20
90.6296
 10
-457.1255
 20
90.7557
 10
-457.1134
 20
90.8728
 10
-457.0958
 20
90.9811
 10
-457.0727
 20
91.0803
 10
-457.0443
 20
91.1707
 10
-457.0104
 20
91.252
 10
-456.9712
 20
91.3244
 10
-456.839
 20
91.5071
 10
-456.6834
 20
91.6659
 10
-456.5046
 20
91.8008
 10
-456.3024
 20
91.9117
 10
-456.0771
 20
91.9987
 10
-455.8284
 20
92.0618
 10
-455.5566
 20
92.1009
 10
-455.2616
 20
92.116
 10
-450.3147
 20
92.1674
  0
LWPOLYLINE
  5
8B
330
1F
100
AcDbEntity
  8
Layer 1
 62
     7
370
     9
100
AcDbPolyline
 90
      162
 70
     1
 43
0.0
 10
-450.4576
 20
105.8978
 10
-450.4703
 20
107.1575
 10
-455.4173
 20
107.1061
 10
-455.7454
 20
107.0924
 10
-456.0579
 20
107.0582
 10
-456.3547
 20
107.0038
 10
-456.636
 20
106.929
 10
-456.9016
 20
106.8338
 10
-457.1515
 20
106.7183
 10
-457.3858
 20
106.5825
 10
-457.6045
 20
106.4263
 10
-457.709
 20
106.3393
 10
-457.808
 20
106.2471
 10
-457.9015
 20
106.1496
 10
-457.9897
 20
106.0469
 10
-458.0723
 20
105.9388
 10
-458.1496
 20
105.8254
 10
-458.2216
 20
105.7067
 10
-458.2881
 20
105.5827
 10
-458.348
 20
105.4509
 10
-458.3996
 20
105.3092
 10
-458.4429
 20
105.1574
 10
-458.4779
 20
104.9957
 10
-458.5046
 20
104.8239
 10
-458.523
 20
104.6421
 10
-458.5332
 20
104.4504
 10
-458.5352
 20
104.2486
 10
-458.5261
 20
104.0449
 10
-458.503
 20
103.8478
 10
-458.466
 20
103.6573
 10
-458.415
 20
103.4734
 10
-458.35
 20
103.2961
 10
-458.2709
 20
103.1255
 10
-458.1779
 20
102.9614
 10
-458.0708
 20
102.804
 10
-457.9642
 20
102.6677
 10
-457.8499
 20
102.5376
 10
-457.728
 20
102.4138
 10
-457.5985
 20
102.2961
 10
-457.4615
 20
102.1847
 10
-457.317
 20
102.0795
 10
-457.1652
 20
101.9806
 10
-457.0061
 20
101.8879
 10
-457.1511
 20
101.8134
 10
-457.2911
 20
101.7322
 10
-457.4255
 20
101.6443
 10
-457.5537
 20
101.5499
 10
-457.6582
 20
101.4629
 10
-457.7572
 20
101.3706
 10
-457.8508
 20
101.273
 10
-457.9389
 20
101.1702
 10
-458.0217
 20
101.062
 10
-458.0991
 20
100.9485
 10
-458.1712
 20
100.8297
 10
-458.2379
 20
100.7056
 10
-458.2976
 20
100.5739
 10
-458.3492
 20
100.4322
 10
-458.3924
 20
100.2805
 10
-458.4275
 20
100.1188
 10
-458.4542
 20
99.9471
 10
-458.4727
 20
99.7653
 10
-458.483
 20
99.5735
 10
-458.485
 20
99.3715
 10
-458.4759
 20
99.1678
 10
-458.4527
 20
98.9708
 10
-458.4156
 20
98.7805
 10
-458.3645
 20
98.5968
 10
-458.2994
 20
98.4197
 10
-458.2202
 20
98.2492
 10
-458.1271
 20
98.0854
 10
-458.02
 20
97.9282
 10
-457.9187
 20
97.7981
 10
-457.8106
 20
97.6737
 10
-457.6957
 20
97.5549
 10
-457.574
 20
97.4419
 10
-457.4454
 20
97.3345
 10
-457.3101
 20
97.2329
 10
-457.1678
 20
97.1371
 10
-457.0188
 20
97.047
 10
-458.2811
 20
97.0337
 10
-458.2678
 20
95.7746
 10
-450.3534
 20
95.8571
 10
-450.3661
 20
97.1163
 10
-454.4161
 20
97.0737
 10
-454.6524
 20
97.1006
 10
-454.8795
 20
97.1366
 10
-455.0976
 20
97.1816
 10
-455.3068
 20
97.2358
 10
-455.5071
 20
97.299
 10
-455.6985
 20
97.3713
 10
-455.8812
 20
97.4527
 10
-456.0551
 20
97.5432
 10
-456.179
 20
97.6169
 10
-456.2974
 20
97.6968
 10
-456.4101
 20
97.7831
 10
-456.5173
 20
97.8756
 10
-456.6189
 20
97.9744
 10
-456.715
 20
98.0794
 10
-456.8055
 20
98.1906
 10
-456.8905
 20
98.3081
 10
-456.9676
 20
98.43
 10
-457.0347
 20
98.5543
 10
-457.0917
 20
98.6809
 10
-457.1386
 20
98.8098
 10
-457.1755
 20
98.941
 10
-457.2022
 20
99.0746
 10
-457.2188
 20
99.2105
 10
-457.2253
 20
99.3487
 10
-457.224
 20
99.4838
 10
-457.2173
 20
99.6099
 10
-457.2052
 20
99.727
 10
-457.1877
 20
99.8351
 10
-457.1647
 20
99.9343
 10
-457.1363
 20
100.0244
 10
-457.1025
 20
100.1056
 10
-457.0633
 20
100.1777
 10
-456.9309
 20
100.3606
 10
-456.7753
 20
100.5195
 10
-456.5964
 20
100.6544
 10
-456.3943
 20
100.7653
 10
-456.169
 20
100.8522
 10
-455.9205
 20
100.9152
 10
-455.6487
 20
100.9542
 10
-455.3537
 20
100.9693
 10
-450.4068
 20
101.0207
 10
-450.4201
 20
102.2805
 10
-455.3664
 20
102.229
 10
-455.6688
 20
102.217
 10
-456.1059
 20
102.4196
 10
-456.2298
 20
102.4935
 10
-456.3482
 20
102.5735
 10
-456.461
 20
102.6598
 10
-456.5682
 20
102.7523
 10
-456.6698
 20
102.8511
 10
-456.7658
 20
102.9561
 10
-456.8563
 20
103.0675
 10
-456.9413
 20
103.1851
 10
-457.0185
 20
103.3068
 10
-457.0856
 20
103.4309
 10
-457.1426
 20
103.5573
 10
-457.1895
 20
103.6861
 10
-457.2263
 20
103.8172
 10
-457.253
 20
103.9507
 10
-457.2696
 20
104.0867
 10
-457.2761
 20
104.2251
 10
-457.2748
 20
104.36
 10
-457.268
 20
104.486
 10
-457.2558
 20
104.6032
 10
-457.2382
 20
104.7114
 10
-457.2151
 20
104.8107
 10
-457.1866
 20
104.901
 10
-457.1527
 20
104.9824
 10
-457.1135
 20
105.0548
 10
-456.9813
 20
105.2375
 10
-456.8258
 20
105.3963
 10
-456.6471
 20
105.5311
 10
-456.445
 20
105.6421
 10
-456.2197
 20
105.7291
 10
-455.971
 20
105.7922
 10
-455.6991
 20
105.8312
 10
-455.4039
 20
105.8463
 10
-450.4576
 20
105.8978
  0
LWPOLYLINE
  5
8C
330
1F
100
AcDbEntity
  8
Layer 1
 62
     7
370
     9
100
AcDbPolyline
 90
        7
 70
     1
 43
0.0
 10
-449.9691
 20
62.3505
 10
-449.9824
 20
63.6102
 10
-462.3577
 20
63.4819
 10
-462.0026
 20
60.4618
 10
-460.9055
 20
60.4732
 10
-460.9239
 20
62.2368
 10
-449.9691
 20
62.3505
  0
LWPOLYLINE
  5
8D
330
1F
100
AcDbEntity
  8
Layer 1
 62
     7
370
     9
100
AcDbPolyline
 90
       87
 70
     1
 43
0.0
 10
-450.0072
 20
65.9862
 10
-450.0968
 20
74.6051
 10
-451.3559
 20
74.5924
 10
-451.2981
 20
69.0139
 10
-455.5691
 20
73.2348
 10
-455.8764
 20
73.5101
 10
-456.1985
 20
73.7481
 10
-456.5354
 20
73.9487
 10
-456.8871
 20
74.1121
 10
-457.2535
 20
74.2382
 10
-457.6348
 20
74.327
 10
-458.0309
 20
74.3786
 10
-458.4418
 20
74.3929
 10
-458.8613
 20
74.3695
 10
-459.2637
 20
74.3083
 10
-459.6488
 20
74.2094
 10
-460.0168
 20
74.0727
 10
-460.3675
 20
73.8983
 10
-460.7009
 20
73.6861
 10
-461.017
 20
73.4361
 10
-461.3158
 20
73.1484
 10
-461.5929
 20
72.8292
 10
-461.8326
 20
72.4962
 10
-462.0346
 20
72.1496
 10
-462.1992
 20
71.7893
 10
-462.3261
 20
71.4153
 10
-462.4155
 20
71.0276
 10
-462.4673
 20
70.6264
 10
-462.4816
 20
70.2115
 10
-462.4575
 20
69.7809
 10
-462.3942
 20
69.3668
 10
-462.2916
 20
68.9692
 10
-462.15
 20
68.5881
 10
-461.9691
 20
68.2235
 10
-461.749
 20
67.8753
 10
-461.4897
 20
67.5435
 10
-461.1913
 20
67.2282
 10
-460.8711
 20
66.9481
 10
-460.5347
 20
66.7084
 10
-460.182
 20
66.5089
 10
-459.8131
 20
66.3498
 10
-459.428
 20
66.231
 10
-459.0267
 20
66.1527
 10
-458.6092
 20
66.1147
 10
-458.1756
 20
66.1171
 10
-458.189
 20
67.3946
 10
-458.4701
 20
67.381
 10
-458.7451
 20
67.3978
 10
-459.014
 20
67.4451
 10
-459.2767
 20
67.5228
 10
-459.5332
 20
67.6309
 10
-459.7835
 20
67.7695
 10
-460.0277
 20
67.9385
 10
-460.2657
 20
68.1379
 10
-460.4785
 20
68.3516
 10
-460.6634
 20
68.5769
 10
-460.8204
 20
68.8138
 10
-460.9494
 20
69.0621
 10
-461.0504
 20
69.322
 10
-461.1235
 20
69.5934
 10
-461.1685
 20
69.8764
 10
-461.1856
 20
70.1708
 10
-461.176
 20
70.4601
 10
-461.1411
 20
70.7388
 10
-461.0807
 20
71.0068
 10
-460.995
 20
71.2641
 10
-460.8838
 20
71.5107
 10
-460.7473
 20
71.7465
 10
-460.5853
 20
71.9716
 10
-460.3979
 20
72.1859
 10
-460.19
 20
72.384
 10
-459.9718
 20
72.5561
 10
-459.7432
 20
72.7022
 10
-459.5044
 20
72.8224
 10
-459.2552
 20
72.9165
 10
-458.9957
 20
72.9847
 10
-458.7258
 20
73.0268
 10
-458.4456
 20
73.0429
 10
-458.1588
 20
73.0331
 10
-457.883
 20
72.998
 10
-457.6181
 20
72.9375
 10
-457.3642
 20
72.8516
 10
-457.1213
 20
72.7403
 10
-456.8893
 20
72.6037
 10
-456.6684
 20
72.4415
 10
-456.4585
 20
72.2539
 10
-450.0072
 20
65.9862
  0
ENDSEC
  0
SECTION
  2
OBJECTS
  0
DICTIONARY
  5
C
330
0
100
AcDbDictionary
281
     1
  3
ACAD_DETAILVIEWSTYLE
350
95
  3
ACAD_GROUP
350
D
  3
ACAD_LAYOUT
350
1A
  3
ACAD_MATERIAL
350
43
  3
ACAD_MLEADERSTYLE
350
5B
  3
ACAD_MLINESTYLE
350
17
  3
ACAD_PLOTSETTINGS
350
19
  3
ACAD_PLOTSTYLENAME
350
E
  3
ACAD_SCALELIST
350
47
  3
ACAD_SECTIONVIEWSTYLE
350
96
  3
ACAD_TABLESTYLE
350
59
  3
ACAD_VISUALSTYLE
350
2A
  3
ACDB_RECOMPOSE_DATA
350
92
  3
AcDbVariableDictionary
350
8E
  0
SUN
  5
5D
330
29
100
AcDbSun
 90
        1
290
     0
 63
     7
421
 16777215
 40
1.0
291
     1
 91
  2455826
 92
 54000000
292
     0
 70
     2
 71
   256
280
     1
  0
DICTIONARY
  5
95
102
{ACAD_REACTORS
330
C
102
}
330
C
100
AcDbDictionary
281
     1
  0
DICTIONARY
  5
D
102
{ACAD_REACTORS
330
C
102
}
330
C
100
AcDbDictionary
281
     1
  0
DICTIONARY
  5
1A
102
{ACAD_REACTORS
330
C
102
}
330
C
100
AcDbDictionary
281
     1
  3
Layout1
350
1E
  3
Layout2
350
26
  3
Model
350
22
  0
DICTIONARY
  5
43
102
{ACAD_REACTORS
330
C
102
}
330
C
100
AcDbDictionary
281
     1
  3
ByBlock
350
45
  3
ByLayer
350
44
  3
Global
350
46
  0
DICTIONARY
  5
5B
102
{ACAD_REACTORS
330
C
102
}
330
C
100
AcDbDictionary
281
     1
  3
Standard
350
5C
  0
DICTIONARY
  5
17
102
{ACAD_REACTORS
330
C
102
}
330
C
100
AcDbDictionary
281
     1
  3
Standard
350
18
  0
DICTIONARY
  5
19
102
{ACAD_REACTORS
330
C
102
}
330
C
100
AcDbDictionary
281
     1
  0
ACDBDICTIONARYWDFLT
  5
E
102
{ACAD_REACTORS
330
C
102
}
330
C
100
AcDbDictionary
281
     1
  3
Normal
350
F
100
AcDbDictionaryWithDefault
340
F
  0
DICTIONARY
  5
47
102
{ACAD_REACTORS
330
C
102
}
330
C
100
AcDbDictionary
281
     1
  3
A0
350
48
  3
A1
350
49
  3
A2
350
4A
  3
A3
350
4B
  3
A4
350
4C
  3
A5
350
4D
  3
A6
350
4E
  3
A7
350
4F
  3
A8
350
50
  3
A9
350
51
  3
B1
350
52
  3
B2
350
53
  3
B3
350
54
  3
B4
350
55
  3
B5
350
56
  3
B6
350
57
  3
B7
350
58
  0
DICTIONARY
  5
96
102
{ACAD_REACTORS
330
C
102
}
330
C
100
AcDbDictionary
281
     1
  0
DICTIONARY
  5
59
102
{ACAD_REACTORS
330
C
102
}
330
C
100
AcDbDictionary
281
     1
  3
Standard
350
5A
  0
DICTIONARY
  5
2A
102
{ACAD_REACTORS
330
C
102
}
330
C
100
AcDbDictionary
281
     1
  3
2dWireframe
350
2F
  3
Basic
350
32
  3
Brighten
350
36
  3
ColorChange
350
3A
  3
Conceptual
350
34
  3
Dim
350
35
  3
EdgeColorOff
350
3D
  3
Facepattern
350
39
  3
Flat
350
2B
  3
FlatWithEdges
350
2C
  3
Gouraud
350
2D
  3
GouraudWithEdges
350
2E
  3
Hidden
350
31
  3
JitterOff
350
3B
  3
Linepattern
350
38
  3
OverhangOff
350
3C
  3
Realistic
350
33
  3
Shaded
350
42
  3
Shaded with edges
350
41
  3
Shades of Gray
350
3E
  3
Sketchy
350
3F
  3
Thicken
350
37
  3
Wireframe
350
30
  3
X-Ray
350
40
  0
XRECORD
  5
92
102
{ACAD_REACTORS
330
C
102
}
330
C
100
AcDbXrecord
280
     1
 90
        1
330
5A
  0
DICTIONARY
  5
8E
102
{ACAD_REACTORS
330
C
102
}
330
C
100
AcDbDictionary
281
     1
  3
CANNOSCALE
350
8F
  3
CMLEADERSTYLE
350
94
  3
CTABLESTYLE
350
93
  0
LAYOUT
  5
1E
102
{ACAD_REACTORS
330
1A
102
}
330
1A
100
AcDbPlotSettings
  1

  2
none_device
  4

  6

 40
0.0
 41
0.0
 42
0.0
 43
0.0
 44
0.0
 45
0.0
 46
0.0
 47
0.0
 48
0.0
 49
0.0
140
0.0
141
0.0
142
1.0
143
1.0
 70
   688
 72
     0
 73
     0
 74
     5
  7

 75
    16
 76
     0
 77
     2
 78
   300
147
1.0
148
0.0
149
0.0
100
AcDbLayout
  1
Layout1
 70
     1
 71
     1
 10
0.0
 20
0.0
 11
12.0
 21
9.0
 12
0.0
 22
0.0
 32
0.0
 14
1.000000000000000E+20
 24
1.000000000000000E+20
 34
1.000000000000000E+20
 15
-1.000000000000000E+20
 25
-1.000000000000000E+20
 35
-1.000000000000000E+20
146
0.0
 13
0.0
 23
0.0
 33
0.0
 16
1.0
 26
0.0
 36
0.0
 17
0.0
 27
1.0
 37
0.0
 76
     0
330
1B
  0
LAYOUT
  5
26
102
{ACAD_REACTORS
330
1A
102
}
330
1A
100
AcDbPlotSettings
  1

  2
none_device
  4

  6

 40
0.0
 41
0.0
 42
0.0
 43
0.0
 44
0.0
 45
0.0
 46
0.0
 47
0.0
 48
0.0
 49
0.0
140
0.0
141
0.0
142
1.0
143
1.0
 70
   688
 72
     0
 73
     0
 74
     5
  7

 75
    16
 76
     0
 77
     2
 78
   300
147
1.0
148
0.0
149
0.0
100
AcDbLayout
  1
Layout2
 70
     1
 71
     2
 10
0.0
 20
0.0
 11
0.0
 21
0.0
 12
0.0
 22
0.0
 32
0.0
 14
0.0
 24
0.0
 34
0.0
 15
0.0
 25
0.0
 35
0.0
146
0.0
 13
0.0
 23
0.0
 33
0.0
 16
1.0
 26
0.0
 36
0.0
 17
0.0
 27
1.0
 37
0.0
 76
     0
330
23
  0
LAYOUT
  5
22
102
{ACAD_REACTORS
330
1A
102
}
330
1A
100
AcDbPlotSettings
  1

  2
none_device
  4
Letter_(8.50_x_11.00_Inches)
  6

 40
6.35
 41
6.35
 42
6.35000508
 43
6.35000508
 44
215.9
 45
279.4
 46
0.0
 47
0.0
 48
0.0
 49
0.0
140
0.0
141
0.0
142
1.0
143
1.0
 70
  1712
 72
     0
 73
     0
 74
     0
  7

 75
     0
 76
     0
 77
     2
 78
   300
147
1.0
148
0.0
149
0.0
100
AcDbLayout
  1
Model
 70
     1
 71
     0
 10
0.0
 20
0.0
 11
12.0
 21
9.0
 12
0.0
 22
0.0
 32
0.0
 14
-574.0955
 24
4.2395
 34
0.0
 15
-440.972
 25
167.2735
 35
0.0
146
0.0
 13
0.0
 23
0.0
 33
0.0
 16
1.0
 26
0.0
 36
0.0
 17
0.0
 27
1.0
 37
0.0
 76
     0
330
1F
331
29
  0
MATERIAL
  5
45
102
{ACAD_REACTORS
330
43
102
}
330
43
100
AcDbMaterial
  1
ByBlock
 72
     1
 94
      127
  0
MATERIAL
  5
44
102
{ACAD_REACTORS
330
43
102
}
330
43
100
AcDbMaterial
  1
ByLayer
 72
     1
 94
      127
  0
MATERIAL
  5
46
102
{ACAD_REACTORS
330
43
102
}
330
43
100
AcDbMaterial
  1
Global
 72
     1
 94
      127
  0
MLEADERSTYLE
  5
5C
102
{ACAD_REACTORS
330
5B
102
}
330
5B
100
AcDbMLeaderStyle
179
     2
170
     2
171
     1
172
     0
 90
        2
 40
0.0
 41
0.0
173
     1
 91
-1056964608
340
14
 92
       -2
290
     1
 42
0.09
291
     1
 43
0.36
  3
Standard
341
0
 44
0.18
300

342
11
174
     1
178
     6
175
     1
176
     0
 93
-1056964608
 45
0.18
292
     0
297
     0
 46
0.18
343
0
 94
-1056964608
 47
1.0
 49
1.0
140
1.0
293
     1
141
0.0
294
     1
177
     0
142
1.0
295
     0
296
     0
143
0.125
271
     0
272
     9
273
     9
298
     0
  0
MLINESTYLE
  5
18
102
{ACAD_REACTORS
330
17
102
}
330
17
100
AcDbMlineStyle
  2
Standard
 70
     0
  3

 62
   256
 51
90.0
 52
90.0
 71
     2
 49
0.5
 62
   256
  6
BYLAYER
 49
-0.5
 62
   256
  6
BYLAYER
  0
ACDBPLACEHOLDER
  5
F
102
{ACAD_REACTORS
330
E
102
}
330
E
  0
SCALE
  5
48
102
{ACAD_REACTORS
330
47
102
}
330
47
100
AcDbScale
 70
     0
300
1:1
140
1.0
141
1.0
290
     1
  0
SCALE
  5
49
102
{ACAD_REACTORS
330
47
102
}
330
47
100
AcDbScale
 70
     0
300
1/128" = 1'-0"
140
0.0078125
141
12.0
290
     0
  0
SCALE
  5
4A
102
{ACAD_REACTORS
330
47
102
}
330
47
100
AcDbScale
 70
     0
300
1/64" = 1'-0"
140
0.015625
141
12.0
290
     0
  0
SCALE
  5
4B
102
{ACAD_REACTORS
330
47
102
}
330
47
100
AcDbScale
 70
     0
300
1/32" = 1'-0"
140
0.03125
141
12.0
290
     0
  0
SCALE
  5
4C
102
{ACAD_REACTORS
330
47
102
}
330
47
100
AcDbScale
 70
     0
300
1/16" = 1'-0"
140
0.0625
141
12.0
290
     0
  0
SCALE
  5
4D
102
{ACAD_REACTORS
330
47
102
}
330
47
100
AcDbScale
 70
     0
300
3/32" = 1'-0"
140
0.09375
141
12.0
290
     0
  0
SCALE
  5
4E
102
{ACAD_REACTORS
330
47
102
}
330
47
100
AcDbScale
 70
     0
300
1/8" = 1'-0"
140
0.125
141
12.0
290
     0
  0
SCALE
  5
4F
102
{ACAD_REACTORS
330
47
102
}
330
47
100
AcDbScale
 70
     0
300
3/16" = 1'-0"
140
0.1875
141
12.0
290
     0
  0
SCALE
  5
50
102
{ACAD_REACTORS
330
47
102
}
330
47
100
AcDbScale
 70
     0
300
1/4" = 1'-0"
140
0.25
141
12.0
290
     0
  0
SCALE
  5
51
102
{ACAD_REACTORS
330
47
102
}
330
47
100
AcDbScale
 70
     0
300
3/8" = 1'-0"
140
0.375
141
12.0
290
     0
  0
SCALE
  5
52
102
{ACAD_REACTORS
330
47
102
}
330
47
100
AcDbScale
 70
     0
300
1/2" = 1'-0"
140
0.5
141
12.0
290
     0
  0
SCALE
  5
53
102
{ACAD_REACTORS
330
47
102
}
330
47
100
AcDbScale
 70
     0
300
3/4" = 1'-0"
140
0.75
141
12.0
290
     0
  0
SCALE
  5
54
102
{ACAD_REACTORS
330
47
102
}
330
47
100
AcDbScale
 70
     0
300
1" = 1'-0"
140
1.0
141
12.0
290
     0
  0
SCALE
  5
55
102
{ACAD_REACTORS
330
47
102
}
330
47
100
AcDbScale
 70
     0
300
1-1/2" = 1'-0"
140
1.5
141
12.0
290
     0
  0
SCALE
  5
56
102
{ACAD_REACTORS
330
47
102
}
330
47
100
AcDbScale
 70
     0
300
3" = 1'-0"
140
3.0
141
12.0
290
     0
  0
SCALE
  5
57
102
{ACAD_REACTORS
330
47
102
}
330
47
100
AcDbScale
 70
     0
300
6" = 1'-0"
140
6.0
141
12.0
290
     0
  0
SCALE
  5
58
102
{ACAD_REACTORS
330
47
102
}
330
47
100
AcDbScale
 70
     0
300
1'-0" = 1'-0"
140
12.0
141
12.0
290
     0
  0
TABLESTYLE
  5
5A
102
{ACAD_REACTORS
330
59
102
}
102
{ACAD_XDICTIONARY
360
90
102
}
330
59
100
AcDbTableStyle
  3
Standard
 70
     0
 71
     0
 40
0.06
 41
0.06
280
     0
281
     0
  7
Standard
140
0.18
170
     2
 62
     0
 63
   257
283
     0
 90
        4
 91
        0
  1

274
    -2
284
     1
 64
     0
275
    -2
285
     1
 65
     0
276
    -2
286
     1
 66
     0
277
    -2
287
     1
 67
     0
278
    -2
288
     1
 68
     0
279
    -2
289
     1
 69
     0
  7
Standard
140
0.25
170
     5
 62
     0
 63
   257
283
     0
 90
        4
 91
        0
  1

274
    -2
284
     1
 64
     0
275
    -2
285
     1
 65
     0
276
    -2
286
     1
 66
     0
277
    -2
287
     1
 67
     0
278
    -2
288
     1
 68
     0
279
    -2
289
     1
 69
     0
  7
Standard
140
0.18
170
     5
 62
     0
 63
   257
283
     0
 90
        4
 91
        0
  1

274
    -2
284
     1
 64
     0
275
    -2
285
     1
 65
     0
276
    -2
286
     1
 66
     0
277
    -2
287
     1
 67
     0
278
    -2
288
     1
 68
     0
279
    -2
289
     1
 69
     0
  0
VISUALSTYLE
  5
2F
102
{ACAD_REACTORS
330
2A
102
}
330
2A
100
AcDbVisualStyle
  2
2dWireframe
 70
     4
177
     3
291
     0
 70
    58
 90
        0
176
     1
 90
        2
176
     1
 90
        0
176
     1
 90
        0
176
     1
 40
0.6
176
     1
 40
30.0
176
     1
 62
     7
420
 16777215
176
     1
 90
        1
176
     1
 90
        4
176
     1
 62
     7
176
     1
 62
   257
176
     1
 90
        1
176
     1
 90
        1
176
     1
 40
1.0
176
     1
 90
        0
176
     1
 62
   257
176
     1
 40
1.0
176
     1
 90
        1
176
     1
 90
        6
176
     1
 90
        2
176
     1
 62
     7
176
     1
 90
        5
176
     1
 90
        0
176
     1
 90
        0
176
     1
290
     0
176
     1
 90
        1
176
     1
 40
0.0
176
     1
 90
        0
176
     1
290
     1
176
     1
290
     1
176
     1
290
     0
176
     1
290
     0
176
     1
290
     0
176
     1
290
     0
176
     1
290
     0
176
     1
290
     0
176
     1
290
     0
176
     1
 90
       50
176
     1
 40
0.0
176
     1
 40
1.0
176
     1
 90
        0
176
     1
 62
    18
420
        0
176
     1
 90
       50
176
     1
 90
        3
176
     1
 62
     5
420
      255
176
     1
290
     0
176
     1
 90
       50
176
     1
 90
       50
176
     1
 90
       50
176
     1
290
     0
176
     1
 90
       50
176
     1
 62
   256
176
     0
 40
1.0
176
     0
 90
        2
176
     1
  1
strokes_ogs.tif
176
     1
290
     0
176
     1
 40
1.0
176
     1
 40
1.0
176
     1
  0
VISUALSTYLE
  5
32
102
{ACAD_REACTORS
330
2A
102
}
330
2A
100
AcDbVisualStyle
  2
Basic
 70
     7
177
     3
291
     1
 70
    58
 90
        1
176
     1
 90
        0
176
     1
 90
        1
176
     1
 90
        0
176
     1
 40
0.6
176
     1
 40
30.0
176
     1
 62
     7
420
 16777215
176
     1
 90
        0
176
     1
 90
        4
176
     1
 62
     7
176
     1
 62
   257
176
     1
 90
        1
176
     1
 90
        1
176
     1
 40
1.0
176
     1
 90
        8
176
     1
 62
     7
176
     1
 40
1.0
176
     1
 90
        1
176
     1
 90
        6
176
     1
 90
        2
176
     1
 62
     7
176
     1
 90
        5
176
     1
 90
        0
176
     1
 90
        0
176
     1
290
     0
176
     1
 90
        1
176
     1
 40
0.0
176
     1
 90
        0
176
     1
290
     0
176
     1
290
     1
176
     1
290
     1
176
     1
290
     0
176
     1
290
     0
176
     1
290
     0
176
     1
290
     0
176
     1
290
     0
176
     1
290
     0
176
     1
 90
       50
176
     1
 40
0.0
176
     1
 40
1.0
176
     1
 90
        0
176
     1
 62
    18
420
        0
176
     1
 90
       50
176
     1
 90
        3
176
     1
 62
     5
420
      255
176
     1
290
     0
176
     1
 90
       50
176
     1
 90
       50
176
     1
 90
       50
176
     1
290
     0
176
     1
 90
       50
176
     1
 62
   256
176
     0
 40
1.0
176
     0
 90
        2
176
     1
  1
strokes_ogs.tif
176
     1
290
     0
176
     1
 40
1.0
176
     1
 40
1.0
176
     1
  0
VISUALSTYLE
  5
36
102
{ACAD_REACTORS
330
2A
102
}
330
2A
100
AcDbVisualStyle
  2
Brighten
 70
    12
177
     3
291
     1
 70
    58
 90
        2
176
     1
 90
        2
176
     1
 90
        0
176
     1
 90
        0
176
     1
 40
0.6
176
     1
 40
30.0
176
     1
 62
     7
420
 16777215
176
     1
 90
        1
176
     1
 90
        4
176
     1
 62
     7
176
     1
 62
   257
176
     1
 90
        1
176
     1
 90
        1
176
     1
 40
1.0
176
     1
 90
        8
176
     1
 62
     7
176
     1
 40
1.0
176
     1
 90
        1
176
     1
 90
        6
176
     1
 90
        2
176
     1
 62
     7
176
     1
 90
        5
176
     1
 90
        0
176
     1
 90
        0
176
     1
290
     0
176
     1
 90
        1
176
     1
 40
50.0
176
     1
 90
        0
176
     1
290
     0
176
     1
290
     1
176
     1
290
     1
176
     1
290
     0
176
     1
290
     0
176
     1
290
     0
176
     1
290
     0
176
     1
290
     0
176
     1
290
     0
176
     1
 90
       50
176
     1
 40
0.0
176
     1
 40
1.0
176
     1
 90
        0
176
     1
 62
    18
420
        0
176
     1
 90
       50
176
     1
 90
        3
176
     1
 62
     5
420
      255
176
     1
290
     0
176
     1
 90
       50
176
     1
 90
       50
176
     1
 90
       50
176
     1
290
     0
176
     1
 90
       50
176
     1
 62
   256
176
     0
 40
1.0
176
     0
 90
        2
176
     1
  1
strokes_ogs.tif
176
     1
290
     0
176
     1
 40
1.0
176
     1
 40
1.0
176
     1
  0
VISUALSTYLE
  5
3A
102
{ACAD_REACTORS
330
2A
102
}
330
2A
100
AcDbVisualStyle
  2
ColorChange
 70
    16
177
     3
291
     1
 70
    58
 90
        2
176
     1
 90
        2
176
     1
 90
        3
176
     1
 90
        0
176
     1
 40
0.6
176
     1
 40
30.0
176
     1
 62
     8
420
  8421504
176
     1
 90
        1
176
     1
 90
        4
176
     1
 62
     7
176
     1
 62
   257
176
     1
 90
        1
176
     1
 90
        1
176
     1
 40
1.0
176
     1
 90
        8
176
     1
 62
     8
420
  8421504
176
     1
 40
1.0
176
     1
 90
        1
176
     1
 90
        6
176
     1
 90
        2
176
     1
 62
     7
176
     1
 90
        5
176
     1
 90
        0
176
     1
 90
        0
176
     1
290
     0
176
     1
 90
        1
176
     1
 40
0.0
176
     1
 90
        0
176
     1
290
     0
176
     1
290
     1
176
     1
290
     1
176
     1
290
     0
176
     1
290
     0
176
     1
290
     0
176
     1
290
     0
176
     1
290
     0
176
     1
290
     0
176
     1
 90
       50
176
     1
 40
0.0
176
     1
 40
1.0
176
     1
 90
        0
176
     1
 62
    18
420
        0
176
     1
 90
       50
176
     1
 90
        3
176
     1
 62
     5
420
      255
176
     1
290
     0
176
     1
 90
       50
176
     1
 90
       50
176
     1
 90
       50
176
     1
290
     0
176
     1
 90
       50
176
     1
 62
   256
176
     0
 40
1.0
176
     0
 90
        2
176
     1
  1
strokes_ogs.tif
176
     1
290
     0
176
     1
 40
1.0
176
     1
 40
1.0
176
     1
  0
VISUALSTYLE
  5
34
102
{ACAD_REACTORS
330
2A
102
}
330
2A
100
AcDbVisualStyle
  2
Conceptual
 70
     9
177
     3
291
     0
 70
    58
 90
        3
176
     1
 90
        2
176
     1
 90
        0
176
     1
 90
        0
176
     1
 40
0.6
176
     1
 40
30.0
176
     1
 62
     7
420
 16777215
176
     1
 90
        2
176
     1
 90
        2
176
     1
 62
     7
176
     1
 62
   257
176
     1
 90
        1
176
     1
 90
        1
176
     1
 40
179.0
176
     1
 90
        8
176
     1
 62
     7
176
     1
 40
1.0
176
     1
 90
        1
176
     1
 90
        6
176
     1
 90
        2
176
     1
 62
     7
176
     1
 90
        3
176
     1
 90
        0
176
     1
 90
        0
176
     1
290
     0
176
     1
 90
        1
176
     1
 40
0.0
176
     1
 90
        0
176
     1
290
     0
176
     1
290
     1
176
     1
290
     1
176
     1
290
     0
176
     1
290
     0
176
     1
290
     0
176
     1
290
     0
176
     1
290
     0
176
     1
290
     0
176
     1
 90
       50
176
     1
 40
0.0
176
     1
 40
1.0
176
     1
 90
        0
176
     1
 62
    18
420
        0
176
     1
 90
       50
176
     1
 90
        3
176
     1
 62
     5
420
      255
176
     1
290
     0
176
     1
 90
       50
176
     1
 90
       50
176
     1
 90
       50
176
     1
290
     0
176
     1
 90
       50
176
     1
 62
   256
176
     0
 40
1.0
176
     0
 90
        2
176
     1
  1
strokes_ogs.tif
176
     1
290
     0
176
     1
 40
1.0
176
     1
 40
1.0
176
     1
  0
VISUALSTYLE
  5
35
102
{ACAD_REACTORS
330
2A
102
}
330
2A
100
AcDbVisualStyle
  2
Dim
 70
    11
177
     3
291
     1
 70
    58
 90
        2
176
     1
 90
        2
176
     1
 90
        0
176
     1
 90
        0
176
     1
 40
0.6
176
     1
 40
30.0
176
     1
 62
     7
420
 16777215
176
     1
 90
        1
176
     1
 90
        4
176
     1
 62
     7
176
     1
 62
   257
176
     1
 90
        1
176
     1
 90
        1
176
     1
 40
1.0
176
     1
 90
        8
176
     1
 62
     7
176
     1
 40
1.0
176
     1
 90
        1
176
     1
 90
        6
176
     1
 90
        2
176
     1
 62
     7
176
     1
 90
        5
176
     1
 90
        0
176
     1
 90
        0
176
     1
290
     0
176
     1
 90
        1
176
     1
 40
-50.0
176
     1
 90
        0
176
     1
290
     0
176
     1
290
     1
176
     1
290
     1
176
     1
290
     0
176
     1
290
     0
176
     1
290
     0
176
     1
290
     0
176
     1
290
     0
176
     1
290
     0
176
     1
 90
       50
176
     1
 40
0.0
176
     1
 40
1.0
176
     1
 90
        0
176
     1
 62
    18
420
        0
176
     1
 90
       50
176
     1
 90
        3
176
     1
 62
     5
420
      255
176
     1
290
     0
176
     1
 90
       50
176
     1
 90
       50
176
     1
 90
       50
176
     1
290
     0
176
     1
 90
       50
176
     1
 62
   256
176
     0
 40
1.0
176
     0
 90
        2
176
     1
  1
strokes_ogs.tif
176
     1
290
     0
176
     1
 40
1.0
176
     1
 40
1.0
176
     1
  0
VISUALSTYLE
  5
3D
102
{ACAD_REACTORS
330
2A
102
}
330
2A
100
AcDbVisualStyle
  2
EdgeColorOff
 70
    22
177
     3
291
     1
 70
    58
 90
        2
176
     0
 90
        2
176
     0
 90
        0
176
     0
 90
        0
176
     0
 40
0.6
176
     0
 40
30.0
176
     0
 62
     7
420
 16777215
176
     0
 90
        1
176
     0
 90
        4
176
     0
 62
     7
176
     0
 62
   257
176
     0
 90
        1
176
     0
 90
        1
176
     0
 40
1.0
176
     0
 90
        8
176
     2
 62
     7
176
     0
 40
1.0
176
     0
 90
        1
176
     0
 90
        6
176
     0
 90
        2
176
     0
 62
     7
176
     0
 90
        5
176
     0
 90
        0
176
     0
 90
        0
176
     0
290
     0
176
     0
 90
        1
176
     0
 40
0.0
176
     0
 90
        0
176
     0
290
     0
176
     0
290
     1
176
     0
290
     1
176
     0
290
     0
176
     0
290
     0
176
     0
290
     0
176
     0
290
     0
176
     0
290
     0
176
     0
290
     0
176
     0
 90
       50
176
     0
 40
0.0
176
     0
 40
1.0
176
     0
 90
        0
176
     0
 62
    18
420
        0
176
     0
 90
       50
176
     0
 90
        3
176
     0
 62
     5
420
      255
176
     0
290
     0
176
     0
 90
       50
176
     0
 90
       50
176
     0
 90
       50
176
     0
290
     0
176
     0
 90
       50
176
     0
 62
   256
176
     0
 40
1.0
176
     0
 90
        2
176
     0
  1
strokes_ogs.tif
176
     0
290
     0
176
     0
 40
1.0
176
     0
 40
1.0
176
     0
  0
VISUALSTYLE
  5
39
102
{ACAD_REACTORS
330
2A
102
}
330
2A
100
AcDbVisualStyle
  2
Facepattern
 70
    15
177
     3
291
     1
 70
    58
 90
        2
176
     1
 90
        2
176
     1
 90
        0
176
     1
 90
        0
176
     1
 40
0.6
176
     1
 40
30.0
176
     1
 62
     7
420
 16777215
176
     1
 90
        1
176
     1
 90
        4
176
     1
 62
     7
176
     1
 62
   257
176
     1
 90
        1
176
     1
 90
        1
176
     1
 40
1.0
176
     1
 90
        8
176
     1
 62
     7
176
     1
 40
1.0
176
     1
 90
        1
176
     1
 90
        6
176
     1
 90
        2
176
     1
 62
     7
176
     1
 90
        5
176
     1
 90
        0
176
     1
 90
        0
176
     1
290
     0
176
     1
 90
        1
176
     1
 40
0.0
176
     1
 90
        0
176
     1
290
     0
176
     1
290
     1
176
     1
290
     1
176
     1
290
     0
176
     1
290
     0
176
     1
290
     0
176
     1
290
     0
176
     1
290
     0
176
     1
290
     0
176
     1
 90
       50
176
     1
 40
0.0
176
     1
 40
1.0
176
     1
 90
        0
176
     1
 62
    18
420
        0
176
     1
 90
       50
176
     1
 90
        3
176
     1
 62
     5
420
      255
176
     1
290
     0
176
     1
 90
       50
176
     1
 90
       50
176
     1
 90
       50
176
     1
290
     0
176
     1
 90
       50
176
     1
 62
   256
176
     0
 40
1.0
176
     0
 90
        2
176
     1
  1
strokes_ogs.tif
176
     1
290
     0
176
     1
 40
1.0
176
     1
 40
1.0
176
     1
  0
VISUALSTYLE
  5
2B
102
{ACAD_REACTORS
330
2A
102
}
330
2A
100
AcDbVisualStyle
  2
Flat
 70
     0
177
     3
291
     1
 70
    58
 90
        2
176
     1
 90
        1
176
     1
 90
        1
176
     1
 90
        2
176
     1
 40
0.6
176
     1
 40
30.0
176
     1
 62
     7
420
 16777215
176
     1
 90
        0
176
     1
 90
        0
176
     1
 62
     7
176
     1
 62
   257
176
     1
 90
        1
176
     1
 90
        1
176
     1
 40
1.0
176
     1
 90
        8
176
     1
 62
     7
176
     1
 40
1.0
176
     1
 90
        1
176
     1
 90
        6
176
     1
 90
        2
176
     1
 62
     7
176
     1
 90
        5
176
     1
 90
        0
176
     1
 90
        0
176
     1
290
     0
176
     1
 90
       13
176
     1
 40
0.0
176
     1
 90
        0
176
     1
290
     0
176
     1
290
     1
176
     1
290
     1
176
     1
290
     0
176
     1
290
     0
176
     1
290
     0
176
     1
290
     0
176
     1
290
     0
176
     1
290
     0
176
     1
 90
       50
176
     1
 40
0.0
176
     1
 40
1.0
176
     1
 90
        0
176
     1
 62
    18
420
        0
176
     1
 90
       50
176
     1
 90
        3
176
     1
 62
     5
420
      255
176
     1
290
     0
176
     1
 90
       50
176
     1
 90
       50
176
     1
 90
       50
176
     1
290
     0
176
     1
 90
       50
176
     1
 62
   256
176
     0
 40
1.0
176
     0
 90
        2
176
     1
  1
strokes_ogs.tif
176
     1
290
     0
176
     1
 40
1.0
176
     1
 40
1.0
176
     1
  0
VISUALSTYLE
  5
2C
102
{ACAD_REACTORS
330
2A
102
}
330
2A
100
AcDbVisualStyle
  2
FlatWithEdges
 70
     1
177
     3
291
     1
 70
    58
 90
        2
176
     1
 90
        1
176
     1
 90
        1
176
     1
 90
        2
176
     1
 40
0.6
176
     1
 40
30.0
176
     1
 62
     7
420
 16777215
176
     1
 90
        1
176
     1
 90
        0
176
     1
 62
     7
176
     1
 62
   257
176
     1
 90
        1
176
     1
 90
        1
176
     1
 40
1.0
176
     1
 90
        0
176
     1
 62
   257
176
     1
 40
1.0
176
     1
 90
        1
176
     1
 90
        6
176
     1
 90
        2
176
     1
 62
     7
176
     1
 90
        5
176
     1
 90
        0
176
     1
 90
        0
176
     1
290
     0
176
     1
 90
       13
176
     1
 40
0.0
176
     1
 90
        0
176
     1
290
     0
176
     1
290
     1
176
     1
290
     1
176
     1
290
     0
176
     1
290
     0
176
     1
290
     0
176
     1
290
     0
176
     1
290
     0
176
     1
290
     0
176
     1
 90
       50
176
     1
 40
0.0
176
     1
 40
1.0
176
     1
 90
        0
176
     1
 62
    18
420
        0
176
     1
 90
       50
176
     1
 90
        3
176
     1
 62
     5
420
      255
176
     1
290
     0
176
     1
 90
       50
176
     1
 90
       50
176
     1
 90
       50
176
     1
290
     0
176
     1
 90
       50
176
     1
 62
   256
176
     0
 40
1.0
176
     0
 90
        2
176
     1
  1
strokes_ogs.tif
176
     1
290
     0
176
     1
 40
1.0
176
     1
 40
1.0
176
     1
  0
VISUALSTYLE
  5
2D
102
{ACAD_REACTORS
330
2A
102
}
330
2A
100
AcDbVisualStyle
  2
Gouraud
 70
     2
177
     3
291
     1
 70
    58
 90
        2
176
     1
 90
        2
176
     1
 90
        1
176
     1
 90
        2
176
     1
 40
0.6
176
     1
 40
30.0
176
     1
 62
     7
420
 16777215
176
     1
 90
        0
176
     1
 90
        0
176
     1
 62
     7
176
     1
 62
   257
176
     1
 90
        1
176
     1
 90
        1
176
     1
 40
1.0
176
     1
 90
        0
176
     1
 62
     7
176
     1
 40
1.0
176
     1
 90
        1
176
     1
 90
        6
176
     1
 90
        2
176
     1
 62
     7
176
     1
 90
        5
176
     1
 90
        0
176
     1
 90
        0
176
     1
290
     0
176
     1
 90
       13
176
     1
 40
0.0
176
     1
 90
        0
176
     1
290
     0
176
     1
290
     1
176
     1
290
     1
176
     1
290
     0
176
     1
290
     0
176
     1
290
     0
176
     1
290
     0
176
     1
290
     0
176
     1
290
     0
176
     1
 90
       50
176
     1
 40
0.0
176
     1
 40
1.0
176
     1
 90
        0
176
     1
 62
    18
420
        0
176
     1
 90
       50
176
     1
 90
        3
176
     1
 62
     5
420
      255
176
     1
290
     0
176
     1
 90
       50
176
     1
 90
       50
176
     1
 90
       50
176
     1
290
     0
176
     1
 90
       50
176
     1
 62
   256
176
     0
 40
1.0
176
     0
 90
        2
176
     1
  1
strokes_ogs.tif
176
     1
290
     0
176
     1
 40
1.0
176
     1
 40
1.0
176
     1
  0
VISUALSTYLE
  5
2E
102
{ACAD_REACTORS
330
2A
102
}
330
2A
100
AcDbVisualStyle
  2
GouraudWithEdges
 70
     3
177
     3
291
     1
 70
    58
 90
        2
176
     1
 90
        2
176
     1
 90
        1
176
     1
 90
        2
176
     1
 40
0.6
176
     1
 40
30.0
176
     1
 62
     7
420
 16777215
176
     1
 90
        1
176
     1
 90
        0
176
     1
 62
     7
176
     1
 62
   257
176
     1
 90
        1
176
     1
 90
        1
176
     1
 40
1.0
176
     1
 90
        0
176
     1
 62
   257
176
     1
 40
1.0
176
     1
 90
        1
176
     1
 90
        6
176
     1
 90
        2
176
     1
 62
     7
176
     1
 90
        5
176
     1
 90
        0
176
     1
 90
        0
176
     1
290
     0
176
     1
 90
       13
176
     1
 40
0.0
176
     1
 90
        0
176
     1
290
     0
176
     1
290
     1
176
     1
290
     1
176
     1
290
     0
176
     1
290
     0
176
     1
290
     0
176
     1
290
     0
176
     1
290
     0
176
     1
290
     0
176
     1
 90
       50
176
     1
 40
0.0
176
     1
 40
1.0
176
     1
 90
        0
176
     1
 62
    18
420
        0
176
     1
 90
       50
176
     1
 90
        3
176
     1
 62
     5
420
      255
176
     1
290
     0
176
     1
 90
       50
176
     1
 90
       50
176
     1
 90
       50
176
     1
290
     0
176
     1
 90
       50
176
     1
 62
   256
176
     0
 40
1.0
176
     0
 90
        2
176
     1
  1
strokes_ogs.tif
176
     1
290
     0
176
     1
 40
1.0
176
     1
 40
1.0
176
     1
  0
VISUALSTYLE
  5
31
102
{ACAD_REACTORS
330
2A
102
}
330
2A
100
AcDbVisualStyle
  2
Hidden
 70
     6
177
     3
291
     0
 70
    58
 90
        1
176
     1
 90
        2
176
     1
 90
        2
176
     1
 90
        0
176
     1
 40
0.6
176
     1
 40
30.0
176
     1
 62
     7
420
 16777215
176
     1
 90
        2
176
     1
 90
        2
176
     1
 62
     7
176
     1
 62
   257
176
     1
 90
        2
176
     1
 90
        1
176
     1
 40
40.0
176
     1
 90
        0
176
     1
 62
   257
176
     1
 40
1.0
176
     1
 90
        1
176
     1
 90
        6
176
     1
 90
        2
176
     1
 62
     7
176
     1
 90
        3
176
     1
 90
        0
176
     1
 90
        0
176
     1
290
     0
176
     1
 90
        1
176
     1
 40
0.0
176
     1
 90
        0
176
     1
290
     0
176
     1
290
     1
176
     1
290
     1
176
     1
290
     0
176
     1
290
     0
176
     1
290
     0
176
     1
290
     0
176
     1
290
     0
176
     1
290
     0
176
     1
 90
       50
176
     1
 40
0.0
176
     1
 40
1.0
176
     1
 90
        0
176
     1
 62
    18
420
        0
176
     1
 90
       50
176
     1
 90
        3
176
     1
 62
     5
420
      255
176
     1
290
     0
176
     1
 90
       50
176
     1
 90
       50
176
     1
 90
       50
176
     1
290
     0
176
     1
 90
       50
176
     1
 62
   256
176
     0
 40
1.0
176
     0
 90
        2
176
     1
  1
strokes_ogs.tif
176
     1
290
     0
176
     1
 40
1.0
176
     1
 40
1.0
176
     1
  0
VISUALSTYLE
  5
3B
102
{ACAD_REACTORS
330
2A
102
}
330
2A
100
AcDbVisualStyle
  2
JitterOff
 70
    20
177
     3
291
     1
 70
    58
 90
        2
176
     0
 90
        2
176
     0
 90
        0
176
     0
 90
        0
176
     0
 40
0.6
176
     0
 40
30.0
176
     0
 62
     7
420
 16777215
176
     0
 90
        1
176
     0
 90
        4
176
     0
 62
     7
176
     0
 62
   257
176
     0
 90
        1
176
     0
 90
        1
176
     0
 40
1.0
176
     0
 90
       10
176
     2
 62
     7
176
     0
 40
1.0
176
     0
 90
        1
176
     0
 90
        6
176
     0
 90
        2
176
     0
 62
     7
176
     0
 90
        5
176
     0
 90
        0
176
     0
 90
        0
176
     0
290
     0
176
     0
 90
        1
176
     0
 40
0.0
176
     0
 90
        0
176
     0
290
     0
176
     0
290
     1
176
     0
290
     1
176
     0
290
     0
176
     0
290
     0
176
     0
290
     0
176
     0
290
     0
176
     0
290
     0
176
     0
290
     0
176
     0
 90
       50
176
     0
 40
0.0
176
     0
 40
1.0
176
     0
 90
        0
176
     0
 62
    18
420
        0
176
     0
 90
       50
176
     0
 90
        3
176
     0
 62
     5
420
      255
176
     0
290
     0
176
     0
 90
       50
176
     0
 90
       50
176
     0
 90
       50
176
     0
290
     0
176
     0
 90
       50
176
     0
 62
   256
176
     0
 40
1.0
176
     0
 90
        2
176
     0
  1
strokes_ogs.tif
176
     0
290
     0
176
     0
 40
1.0
176
     0
 40
1.0
176
     0
  0
VISUALSTYLE
  5
38
102
{ACAD_REACTORS
330
2A
102
}
330
2A
100
AcDbVisualStyle
  2
Linepattern
 70
    14
177
     3
291
     1
 70
    58
 90
        2
176
     1
 90
        2
176
     1
 90
        0
176
     1
 90
        0
176
     1
 40
0.6
176
     1
 40
30.0
176
     1
 62
     7
420
 16777215
176
     1
 90
        1
176
     1
 90
        4
176
     1
 62
     7
176
     1
 62
   257
176
     1
 90
        7
176
     1
 90
        7
176
     1
 40
1.0
176
     1
 90
        8
176
     1
 62
     7
176
     1
 40
1.0
176
     1
 90
        1
176
     1
 90
        6
176
     1
 90
        2
176
     1
 62
     7
176
     1
 90
        5
176
     1
 90
        0
176
     1
 90
        0
176
     1
290
     0
176
     1
 90
        1
176
     1
 40
0.0
176
     1
 90
        0
176
     1
290
     0
176
     1
290
     1
176
     1
290
     1
176
     1
290
     0
176
     1
290
     0
176
     1
290
     0
176
     1
290
     0
176
     1
290
     0
176
     1
290
     0
176
     1
 90
       50
176
     1
 40
0.0
176
     1
 40
1.0
176
     1
 90
        0
176
     1
 62
    18
420
        0
176
     1
 90
       50
176
     1
 90
        3
176
     1
 62
     5
420
      255
176
     1
290
     0
176
     1
 90
       50
176
     1
 90
       50
176
     1
 90
       50
176
     1
290
     0
176
     1
 90
       50
176
     1
 62
   256
176
     0
 40
1.0
176
     0
 90
        2
176
     1
  1
strokes_ogs.tif
176
     1
290
     0
176
     1
 40
1.0
176
     1
 40
1.0
176
     1
  0
VISUALSTYLE
  5
3C
102
{ACAD_REACTORS
330
2A
102
}
330
2A
100
AcDbVisualStyle
  2
OverhangOff
 70
    21
177
     3
291
     1
 70
    58
 90
        2
176
     0
 90
        2
176
     0
 90
        0
176
     0
 90
        0
176
     0
 40
0.6
176
     0
 40
30.0
176
     0
 62
     7
420
 16777215
176
     0
 90
        1
176
     0
 90
        4
176
     0
 62
     7
176
     0
 62
   257
176
     0
 90
        1
176
     0
 90
        1
176
     0
 40
1.0
176
     0
 90
        9
176
     2
 62
     7
176
     0
 40
1.0
176
     0
 90
        1
176
     0
 90
        6
176
     0
 90
        2
176
     0
 62
     7
176
     0
 90
        5
176
     0
 90
        0
176
     0
 90
        0
176
     0
290
     0
176
     0
 90
        1
176
     0
 40
0.0
176
     0
 90
        0
176
     0
290
     0
176
     0
290
     1
176
     0
290
     1
176
     0
290
     0
176
     0
290
     0
176
     0
290
     0
176
     0
290
     0
176
     0
290
     0
176
     0
290
     0
176
     0
 90
       50
176
     0
 40
0.0
176
     0
 40
1.0
176
     0
 90
        0
176
     0
 62
    18
420
        0
176
     0
 90
       50
176
     0
 90
        3
176
     0
 62
     5
420
      255
176
     0
290
     0
176
     0
 90
       50
176
     0
 90
       50
176
     0
 90
       50
176
     0
290
     0
176
     0
 90
       50
176
     0
 62
   256
176
     0
 40
1.0
176
     0
 90
        2
176
     0
  1
strokes_ogs.tif
176
     0
290
     0
176
     0
 40
1.0
176
     0
 40
1.0
176
     0
  0
VISUALSTYLE
  5
33
102
{ACAD_REACTORS
330
2A
102
}
330
2A
100
AcDbVisualStyle
  2
Realistic
 70
     8
177
     3
291
     0
 70
    58
 90
        2
176
     1
 90
        3
176
     1
 90
        0
176
     1
 90
        2
176
     1
 40
0.6
176
     1
 40
30.0
176
     1
 62
     7
420
 16777215
176
     1
 90
        0
176
     1
 90
        0
176
     1
 62
     7
176
     1
 62
   257
176
     1
 90
        1
176
     1
 90
        1
176
     1
 40
1.0
176
     1
 90
        8
176
     1
 62
   257
176
     1
 40
1.0
176
     1
 90
        1
176
     1
 90
        6
176
     1
 90
        2
176
     1
 62
     7
176
     1
 90
        3
176
     1
 90
        0
176
     1
 90
        0
176
     1
290
     0
176
     1
 90
       13
176
     1
 40
0.0
176
     1
 90
        0
176
     1
290
     0
176
     1
290
     1
176
     1
290
     1
176
     1
290
     0
176
     1
290
     0
176
     1
290
     0
176
     1
290
     0
176
     1
290
     0
176
     1
290
     0
176
     1
 90
       50
176
     1
 40
0.0
176
     1
 40
1.0
176
     1
 90
        0
176
     1
 62
    18
420
        0
176
     1
 90
       50
176
     1
 90
        3
176
     1
 62
     5
420
      255
176
     1
290
     0
176
     1
 90
       50
176
     1
 90
       50
176
     1
 90
       50
176
     1
290
     0
176
     1
 90
       50
176
     1
 62
   256
176
     0
 40
1.0
176
     0
 90
        2
176
     1
  1
strokes_ogs.tif
176
     1
290
     0
176
     1
 40
1.0
176
     1
 40
1.0
176
     1
  0
VISUALSTYLE
  5
42
102
{ACAD_REACTORS
330
2A
102
}
330
2A
100
AcDbVisualStyle
  2
Shaded
 70
    27
177
     3
291
     0
 70
    58
 90
        2
176
     1
 90
        2
176
     1
 90
        1
176
     1
 90
        2
176
     1
 40
0.6
176
     1
 40
30.0
176
     1
 62
     7
420
 16777215
176
     1
 90
        0
176
     1
 90
        4
176
     1
 62
     7
176
     1
 62
   257
176
     1
 90
        1
176
     1
 90
        1
176
     1
 40
1.0
176
     1
 90
        8
176
     1
 62
   257
176
     1
 40
1.0
176
     1
 90
        1
176
     1
 90
        6
176
     1
 90
        2
176
     1
 62
     8
420
  7895160
176
     1
 90
        3
176
     1
 90
        0
176
     1
 90
        0
176
     1
290
     0
176
     1
 90
        5
176
     1
 40
0.0
176
     1
 90
        0
176
     1
290
     0
176
     1
290
     1
176
     1
290
     1
176
     1
290
     0
176
     1
290
     0
176
     1
290
     0
176
     1
290
     0
176
     1
290
     0
176
     1
290
     0
176
     1
 90
       50
176
     1
 40
0.0
176
     1
 40
1.0
176
     1
 90
        0
176
     1
 62
    18
420
        0
176
     1
 90
       50
176
     1
 90
        3
176
     1
 62
     5
420
      255
176
     1
290
     0
176
     1
 90
       50
176
     1
 90
       50
176
     1
 90
       50
176
     1
290
     0
176
     1
 90
       50
176
     1
 62
   256
176
     0
 40
1.0
176
     0
 90
        2
176
     1
  1
strokes_ogs.tif
176
     1
290
     0
176
     1
 40
1.0
176
     1
 40
1.0
176
     1
  0
VISUALSTYLE
  5
41
102
{ACAD_REACTORS
330
2A
102
}
330
2A
100
AcDbVisualStyle
  2
Shaded with edges
 70
    26
177
     3
291
     0
 70
    58
 90
        2
176
     1
 90
        2
176
     1
 90
        1
176
     1
 90
        2
176
     1
 40
0.6
176
     1
 40
30.0
176
     1
 62
     7
420
 16777215
176
     1
 90
        1
176
     1
 90
       10
176
     1
 62
     7
176
     1
 62
   257
176
     1
 90
        2
176
     1
 90
        1
176
     1
 40
1.0
176
     1
 90
        8
176
     1
 62
   257
176
     1
 40
1.0
176
     1
 90
        1
176
     1
 90
        6
176
     1
 90
        2
176
     1
 62
     7
176
     1
 90
        3
176
     1
 90
        0
176
     1
 90
        0
176
     1
290
     0
176
     1
 90
        5
176
     1
 40
0.0
176
     1
 90
        0
176
     1
290
     0
176
     1
290
     1
176
     1
290
     1
176
     1
290
     0
176
     1
290
     0
176
     1
290
     0
176
     1
290
     0
176
     1
290
     0
176
     1
290
     0
176
     1
 90
       50
176
     1
 40
0.0
176
     1
 40
1.0
176
     1
 90
        0
176
     1
 62
    18
420
        0
176
     1
 90
       50
176
     1
 90
        3
176
     1
 62
     5
420
      255
176
     1
290
     0
176
     1
 90
       50
176
     1
 90
       50
176
     1
 90
       50
176
     1
290
     0
176
     1
 90
       50
176
     1
 62
   256
176
     0
 40
1.0
176
     0
 90
        2
176
     1
  1
strokes_ogs.tif
176
     1
290
     0
176
     1
 40
1.0
176
     1
 40
1.0
176
     1
  0
VISUALSTYLE
  5
3E
102
{ACAD_REACTORS
330
2A
102
}
330
2A
100
AcDbVisualStyle
  2
Shades of Gray
 70
    23
177
     3
291
     0
 70
    58
 90
        2
176
     1
 90
        2
176
     1
 90
        3
176
     1
 90
        0
176
     1
 40
0.6
176
     1
 40
30.0
176
     1
 62
     7
420
 16777215
176
     1
 90
        2
176
     1
 90
        2
176
     1
 62
     7
176
     1
 62
     7
176
     1
 90
        1
176
     1
 90
        1
176
     1
 40
40.0
176
     1
 90
        8
176
     1
 62
     7
176
     1
 40
1.0
176
     1
 90
        1
176
     1
 90
        6
176
     1
 90
        2
176
     1
 62
     7
176
     1
 90
        3
176
     1
 90
        0
176
     1
 90
        0
176
     1
290
     0
176
     1
 90
        1
176
     1
 40
0.0
176
     1
 90
        0
176
     1
290
     0
176
     1
290
     1
176
     1
290
     1
176
     1
290
     0
176
     1
290
     0
176
     1
290
     0
176
     1
290
     0
176
     1
290
     0
176
     1
290
     0
176
     1
 90
       50
176
     1
 40
0.0
176
     1
 40
1.0
176
     1
 90
        0
176
     1
 62
    18
420
        0
176
     1
 90
       50
176
     1
 90
        3
176
     1
 62
     5
420
      255
176
     1
290
     0
176
     1
 90
       50
176
     1
 90
       50
176
     1
 90
       50
176
     1
290
     0
176
     1
 90
       50
176
     1
 62
   256
176
     0
 40
1.0
176
     0
 90
        2
176
     1
  1
strokes_ogs.tif
176
     1
290
     0
176
     1
 40
1.0
176
     1
 40
1.0
176
     1
  0
VISUALSTYLE
  5
3F
102
{ACAD_REACTORS
330
2A
102
}
330
2A
100
AcDbVisualStyle
  2
Sketchy
 70
    24
177
     3
291
     0
 70
    58
 90
        1
176
     1
 90
        2
176
     1
 90
        2
176
     1
 90
        0
176
     1
 40
0.6
176
     1
 40
30.0
176
     1
 62
     7
420
 16777215
176
     1
 90
        2
176
     1
 90
        2
176
     1
 62
     7
176
     1
 62
     7
176
     1
 90
        1
176
     1
 90
        1
176
     1
 40
40.0
176
     1
 90
       11
176
     1
 62
     7
176
     1
 40
1.0
176
     1
 90
        1
176
     1
 90
        6
176
     1
 90
        2
176
     1
 62
     7
176
     1
 90
        6
176
     1
 90
        0
176
     1
 90
        0
176
     1
290
     0
176
     1
 90
        1
176
     1
 40
0.0
176
     1
 90
        0
176
     1
290
     0
176
     1
290
     1
176
     1
290
     1
176
     1
290
     0
176
     1
290
     0
176
     1
290
     0
176
     1
290
     0
176
     1
290
     0
176
     1
290
     0
176
     1
 90
       50
176
     1
 40
0.0
176
     1
 40
1.0
176
     1
 90
        0
176
     1
 62
    18
420
        0
176
     1
 90
       50
176
     1
 90
        3
176
     1
 62
     5
420
      255
176
     1
290
     0
176
     1
 90
       50
176
     1
 90
       50
176
     1
 90
       50
176
     1
290
     0
176
     1
 90
       50
176
     1
 62
   256
176
     0
 40
1.0
176
     0
 90
        2
176
     1
  1
strokes_ogs.tif
176
     1
290
     0
176
     1
 40
1.0
176
     1
 40
1.0
176
     1
  0
VISUALSTYLE
  5
37
102
{ACAD_REACTORS
330
2A
102
}
330
2A
100
AcDbVisualStyle
  2
Thicken
 70
    13
177
     3
291
     1
 70
    58
 90
        2
176
     1
 90
        2
176
     1
 90
        0
176
     1
 90
        0
176
     1
 40
0.6
176
     1
 40
30.0
176
     1
 62
     7
420
 16777215
176
     1
 90
        1
176
     1
 90
        4
176
     1
 62
     7
176
     1
 62
   257
176
     1
 90
        1
176
     1
 90
        1
176
     1
 40
1.0
176
     1
 90
       12
176
     1
 62
     7
176
     1
 40
1.0
176
     1
 90
        1
176
     1
 90
        6
176
     1
 90
        2
176
     1
 62
     7
176
     1
 90
        5
176
     1
 90
        0
176
     1
 90
        0
176
     1
290
     0
176
     1
 90
        1
176
     1
 40
0.0
176
     1
 90
        0
176
     1
290
     0
176
     1
290
     1
176
     1
290
     1
176
     1
290
     0
176
     1
290
     0
176
     1
290
     0
176
     1
290
     0
176
     1
290
     0
176
     1
290
     0
176
     1
 90
       50
176
     1
 40
0.0
176
     1
 40
1.0
176
     1
 90
        0
176
     1
 62
    18
420
        0
176
     1
 90
       50
176
     1
 90
        3
176
     1
 62
     5
420
      255
176
     1
290
     0
176
     1
 90
       50
176
     1
 90
       50
176
     1
 90
       50
176
     1
290
     0
176
     1
 90
       50
176
     1
 62
   256
176
     0
 40
1.0
176
     0
 90
        2
176
     1
  1
strokes_ogs.tif
176
     1
290
     0
176
     1
 40
1.0
176
     1
 40
1.0
176
     1
  0
VISUALSTYLE
  5
30
102
{ACAD_REACTORS
330
2A
102
}
330
2A
100
AcDbVisualStyle
  2
Wireframe
 70
     5
177
     3
291
     0
 70
    58
 90
        0
176
     1
 90
        2
176
     1
 90
        0
176
     1
 90
        0
176
     1
 40
0.6
176
     1
 40
30.0
176
     1
 62
     7
420
 16777215
176
     1
 90
        1
176
     1
 90
        4
176
     1
 62
     7
176
     1
 62
   257
176
     1
 90
        1
176
     1
 90
        1
176
     1
 40
1.0
176
     1
 90
        0
176
     1
 62
   257
176
     1
 40
1.0
176
     1
 90
        1
176
     1
 90
        6
176
     1
 90
        2
176
     1
 62
     7
176
     1
 90
        3
176
     1
 90
        0
176
     1
 90
        0
176
     1
290
     0
176
     1
 90
        1
176
     1
 40
0.0
176
     1
 90
        0
176
     1
290
     0
176
     1
290
     1
176
     1
290
     1
176
     1
290
     0
176
     1
290
     0
176
     1
290
     0
176
     1
290
     0
176
     1
290
     0
176
     1
290
     0
176
     1
 90
       50
176
     1
 40
0.0
176
     1
 40
1.0
176
     1
 90
        0
176
     1
 62
    18
420
        0
176
     1
 90
       50
176
     1
 90
        3
176
     1
 62
     5
420
      255
176
     1
290
     0
176
     1
 90
       50
176
     1
 90
       50
176
     1
 90
       50
176
     1
290
     0
176
     1
 90
       50
176
     1
 62
   256
176
     0
 40
1.0
176
     0
 90
        2
176
     1
  1
strokes_ogs.tif
176
     1
290
     0
176
     1
 40
1.0
176
     1
 40
1.0
176
     1
  0
VISUALSTYLE
  5
40
102
{ACAD_REACTORS
330
2A
102
}
330
2A
100
AcDbVisualStyle
  2
X-Ray
 70
    25
177
     3
291
     0
 70
    58
 90
        2
176
     1
 90
        2
176
     1
 90
        1
176
     1
 90
        1
176
     1
 40
0.5
176
     1
 40
30.0
176
     1
 62
     7
420
 16777215
176
     1
 90
        1
176
     1
 90
        0
176
     1
 62
     7
176
     1
 62
   257
176
     1
 90
        1
176
     1
 90
        1
176
     1
 40
1.0
176
     1
 90
        8
176
     1
 62
     7
176
     1
 40
1.0
176
     1
 90
        1
176
     1
 90
        6
176
     1
 90
        2
176
     1
 62
     7
176
     1
 90
        3
176
     1
 90
        0
176
     1
 90
        0
176
     1
290
     0
176
     1
 90
       13
176
     1
 40
0.0
176
     1
 90
        0
176
     1
290
     0
176
     1
290
     1
176
     1
290
     1
176
     1
290
     0
176
     1
290
     0
176
     1
290
     0
176
     1
290
     0
176
     1
290
     0
176
     1
290
     0
176
     1
 90
       50
176
     1
 40
0.0
176
     1
 40
1.0
176
     1
 90
        0
176
     1
 62
    18
420
        0
176
     1
 90
       50
176
     1
 90
        3
176
     1
 62
     5
420
      255
176
     1
290
     0
176
     1
 90
       50
176
     1
 90
       50
176
     1
 90
       50
176
     1
290
     0
176
     1
 90
       50
176
     1
 62
   256
176
     0
 40
1.0
176
     0
 90
        2
176
     1
  1
strokes_ogs.tif
176
     1
290
     0
176
     1
 40
1.0
176
     1
 40
1.0
176
     1
  0
DICTIONARYVAR
  5
8F
102
{ACAD_REACTORS
330
8E
102
}
330
8E
100
DictionaryVariables
280
     0
  1
1:1
  0
DICTIONARYVAR
  5
94
102
{ACAD_REACTORS
330
8E
102
}
330
8E
100
DictionaryVariables
280
     0
  1
Standard
  0
DICTIONARYVAR
  5
93
102
{ACAD_REACTORS
330
8E
102
}
330
8E
100
DictionaryVariables
280
     0
  1
Standard
  0
DICTIONARY
  5
90
330
5A
100
AcDbDictionary
280
     1
281
     1
  3
ACAD_ROUNDTRIP_2008_TABLESTYLE_CELLSTYLEMAP
360
91
  0
CELLSTYLEMAP
  5
91
102
{ACAD_REACTORS
330
90
102
}
330
90
100
AcDbCellStyleMap
 90
        3
300
CELLSTYLE
  1
TABLEFORMAT_BEGIN
 90
        5
170
     1
 91
        0
 92
    32768
 62
   257
 93
        1
300
CONTENTFORMAT
  1
CONTENTFORMAT_BEGIN
 90
        0
 91
        0
 92
        4
 93
        0
300

 40
0.0
140
1.0
 94
        5
 62
     0
340
11
144
0.25
309
CONTENTFORMAT_END
171
     1
301
MARGIN
  1
CELLMARGIN_BEGIN
 40
0.06
 40
0.06
 40
0.06
 40
0.06
 40
0.06
 40
0.06
309
CELLMARGIN_END
 94
        6
 95
        1
302
GRIDFORMAT
  1
GRIDFORMAT_BEGIN
 90
        0
 91
        1
 62
     0
 92
       -2
340
14
 93
        0
 40
0.045
309
GRIDFORMAT_END
 95
        2
302
GRIDFORMAT
  1
GRIDFORMAT_BEGIN
 90
        0
 91
        1
 62
     0
 92
       -2
340
14
 93
        0
 40
0.045
309
GRIDFORMAT_END
 95
        4
302
GRIDFORMAT
  1
GRIDFORMAT_BEGIN
 90
        0
 91
        1
 62
     0
 92
       -2
340
14
 93
        0
 40
0.045
309
GRIDFORMAT_END
 95
        8
302
GRIDFORMAT
  1
GRIDFORMAT_BEGIN
 90
        0
 91
        1
 62
     0
 92
       -2
340
14
 93
        0
 40
0.045
309
GRIDFORMAT_END
 95
       16
302
GRIDFORMAT
  1
GRIDFORMAT_BEGIN
 90
        0
 91
        1
 62
     0
 92
       -2
340
14
 93
        0
 40
0.045
309
GRIDFORMAT_END
 95
       32
302
GRIDFORMAT
  1
GRIDFORMAT_BEGIN
 90
        0
 91
        1
 62
     0
 92
       -2
340
14
 93
        0
 40
0.045
309
GRIDFORMAT_END
309
TABLEFORMAT_END
  1
CELLSTYLE_BEGIN
 90
        1
 91
        1
300
_TITLE
309
CELLSTYLE_END
300
CELLSTYLE
  1
TABLEFORMAT_BEGIN
 90
        5
170
     1
 91
        0
 92
        0
 62
   257
 93
        1
300
CONTENTFORMAT
  1
CONTENTFORMAT_BEGIN
 90
        0
 91
        0
 92
        4
 93
        0
300

 40
0.0
140
1.0
 94
        5
 62
     0
340
11
144
0.18
309
CONTENTFORMAT_END
171
     1
301
MARGIN
  1
CELLMARGIN_BEGIN
 40
0.06
 40
0.06
 40
0.06
 40
0.06
 40
0.06
 40
0.06
309
CELLMARGIN_END
 94
        6
 95
        1
302
GRIDFORMAT
  1
GRIDFORMAT_BEGIN
 90
        0
 91
        1
 62
     0
 92
       -2
340
14
 93
        0
 40
0.045
309
GRIDFORMAT_END
 95
        2
302
GRIDFORMAT
  1
GRIDFORMAT_BEGIN
 90
        0
 91
        1
 62
     0
 92
       -2
340
14
 93
        0
 40
0.045
309
GRIDFORMAT_END
 95
        4
302
GRIDFORMAT
  1
GRIDFORMAT_BEGIN
 90
        0
 91
        1
 62
     0
 92
       -2
340
14
 93
        0
 40
0.045
309
GRIDFORMAT_END
 95
        8
302
GRIDFORMAT
  1
GRIDFORMAT_BEGIN
 90
        0
 91
        1
 62
     0
 92
       -2
340
14
 93
        0
 40
0.045
309
GRIDFORMAT_END
 95
       16
302
GRIDFORMAT
  1
GRIDFORMAT_BEGIN
 90
        0
 91
        1
 62
     0
 92
       -2
340
14
 93
        0
 40
0.045
309
GRIDFORMAT_END
 95
       32
302
GRIDFORMAT
  1
GRIDFORMAT_BEGIN
 90
        0
 91
        1
 62
     0
 92
       -2
340
14
 93
        0
 40
0.045
309
GRIDFORMAT_END
309
TABLEFORMAT_END
  1
CELLSTYLE_BEGIN
 90
        2
 91
        1
300
_HEADER
309
CELLSTYLE_END
300
CELLSTYLE
  1
TABLEFORMAT_BEGIN
 90
        5
170
     1
 91
        0
 92
        0
 62
   257
 93
        1
300
CONTENTFORMAT
  1
CONTENTFORMAT_BEGIN
 90
        0
 91
        0
 92
        4
 93
        0
300

 40
0.0
140
1.0
 94
        2
 62
     0
340
11
144
0.18
309
CONTENTFORMAT_END
171
     1
301
MARGIN
  1
CELLMARGIN_BEGIN
 40
0.06
 40
0.06
 40
0.06
 40
0.06
 40
0.06
 40
0.06
309
CELLMARGIN_END
 94
        6
 95
        1
302
GRIDFORMAT
  1
GRIDFORMAT_BEGIN
 90
        0
 91
        1
 62
     0
 92
       -2
340
14
 93
        0
 40
0.045
309
GRIDFORMAT_END
 95
        2
302
GRIDFORMAT
  1
GRIDFORMAT_BEGIN
 90
        0
 91
        1
 62
     0
 92
       -2
340
14
 93
        0
 40
0.045
309
GRIDFORMAT_END
 95
        4
302
GRIDFORMAT
  1
GRIDFORMAT_BEGIN
 90
        0
 91
        1
 62
     0
 92
       -2
340
14
 93
        0
 40
0.045
309
GRIDFORMAT_END
 95
        8
302
GRIDFORMAT
  1
GRIDFORMAT_BEGIN
 90
        0
 91
        1
 62
     0
 92
       -2
340
14
 93
        0
 40
0.045
309
GRIDFORMAT_END
 95
       16
302
GRIDFORMAT
  1
GRIDFORMAT_BEGIN
 90
        0
 91
        1
 62
     0
 92
       -2
340
14
 93
        0
 40
0.045
309
GRIDFORMAT_END
 95
       32
302
GRIDFORMAT
  1
GRIDFORMAT_BEGIN
 90
        0
 91
        1
 62
     0
 92
       -2
340
14
 93
        0
 40
0.045
309
GRIDFORMAT_END
309
TABLEFORMAT_END
  1
CELLSTYLE_BEGIN
 90
        3
 91
        2
300
_DATA
309
CELLSTYLE_END
  0
ENDSEC
  0
EOF
