  0
SECTION
  2
HEADER
  9
$ACADVER
  1
AC1027
  9
$ACADMAINTVER
 70
   105
  9
$DWGCODEPAGE
  3
ANSI_1252
  9
$LASTSAVEDBY
  1
Office Desk
  9
$REQUIREDVERSIONS
160
                 0
  9
$INSBASE
 10
0.0
 20
0.0
 30
0.0
  9
$EXTMIN
 10
312.646
 20
29.9007
 30
0.0
  9
$EXTMAX
 10
445.7695
 20
192.9347
 30
0.0
  9
$LIMMIN
 10
0.0
 20
0.0
  9
$LIMMAX
 10
12.0
 20
9.0
  9
$ORTHOMODE
 70
     0
  9
$REGENMODE
 70
     1
  9
$FILLMODE
 70
     1
  9
$QTEXTMODE
 70
     0
  9
$MIRRTEXT
 70
     1
  9
$LTSCALE
 40
1.0
  9
$ATTMODE
 70
     1
  9
$TEXTSIZE
 40
0.2
  9
$TRACEWID
 40
0.05
  9
$TEXTSTYLE
  7
Standard
  9
$CLAYER
  8
0
  9
$CELTYPE
  6
ByLayer
  9
$CECOLOR
 62
   256
  9
$CELTSCALE
 40
1.0
  9
$DISPSILH
 70
     0
  9
$DIMSCALE
 40
1.0
  9
$DIMASZ
 40
0.18
  9
$DIMEXO
 40
0.0625
  9
$DIMDLI
 40
0.38
  9
$DIMRND
 40
0.0
  9
$DIMDLE
 40
0.0
  9
$DIMEXE
 40
0.18
  9
$DIMTP
 40
0.0
  9
$DIMTM
 40
0.0
  9
$DIMTXT
 40
0.18
  9
$DIMCEN
 40
0.09
  9
$DIMTSZ
 40
0.0
  9
$DIMTOL
 70
     0
  9
$DIMLIM
 70
     0
  9
$DIMTIH
 70
     1
  9
$DIMTOH
 70
     1
  9
$DIMSE1
 70
     0
  9
$DIMSE2
 70
     0
  9
$DIMTAD
 70
     0
  9
$DIMZIN
 70
     0
  9
$DIMBLK
  1

  9
$DIMASO
 70
     1
  9
$DIMSHO
 70
     1
  9
$DIMPOST
  1

  9
$DIMAPOST
  1

  9
$DIMALT
 70
     0
  9
$DIMALTD
 70
     2
  9
$DIMALTF
 40
25.4
  9
$DIMLFAC
 40
1.0
  9
$DIMTOFL
 70
     0
  9
$DIMTVP
 40
0.0
  9
$DIMTIX
 70
     0
  9
$DIMSOXD
 70
     0
  9
$DIMSAH
 70
     0
  9
$DIMBLK1
  1

  9
$DIMBLK2
  1

  9
$DIMSTYLE
  2
Standard
  9
$DIMCLRD
 70
     0
  9
$DIMCLRE
 70
     0
  9
$DIMCLRT
 70
     0
  9
$DIMTFAC
 40
1.0
  9
$DIMGAP
 40
0.09
  9
$DIMJUST
 70
     0
  9
$DIMSD1
 70
     0
  9
$DIMSD2
 70
     0
  9
$DIMTOLJ
 70
     1
  9
$DIMTZIN
 70
     0
  9
$DIMALTZ
 70
     0
  9
$DIMALTTZ
 70
     0
  9
$DIMUPT
 70
     0
  9
$DIMDEC
 70
     4
  9
$DIMTDEC
 70
     4
  9
$DIMALTU
 70
     2
  9
$DIMALTTD
 70
     2
  9
$DIMTXSTY
  7
Standard
  9
$DIMAUNIT
 70
     0
  9
$DIMADEC
 70
     0
  9
$DIMALTRND
 40
0.0
  9
$DIMAZIN
 70
     0
  9
$DIMDSEP
 70
    46
  9
$DIMATFIT
 70
     3
  9
$DIMFRAC
 70
     0
  9
$DIMLDRBLK
  1

  9
$DIMLUNIT
 70
     2
  9
$DIMLWD
 70
    -2
  9
$DIMLWE
 70
    -2
  9
$DIMTMOVE
 70
     0
  9
$DIMFXL
 40
1.0
  9
$DIMFXLON
 70
     0
  9
$DIMJOGANG
 40
0.7853981633974483
  9
$DIMTFILL
 70
     0
  9
$DIMTFILLCLR
 70
     0
  9
$DIMARCSYM
 70
     0
  9
$DIMLTYPE
  6

  9
$DIMLTEX1
  6

  9
$DIMLTEX2
  6

  9
$DIMTXTDIRECTION
 70
     0
  9
$LUNITS
 70
     2
  9
$LUPREC
 70
     4
  9
$SKETCHINC
 40
0.1
  9
$FILLETRAD
 40
0.0
  9
$AUNITS
 70
     0
  9
$AUPREC
 70
     0
  9
$MENU
  1
.
  9
$ELEVATION
 40
0.0
  9
$PELEVATION
 40
0.0
  9
$THICKNESS
 40
0.0
  9
$LIMCHECK
 70
     0
  9
$CHAMFERA
 40
0.0
  9
$CHAMFERB
 40
0.0
  9
$CHAMFERC
 40
0.0
  9
$CHAMFERD
 40
0.0
  9
$SKPOLY
 70
     0
  9
$TDCREATE
 40
2461015.754226586
  9
$TDUCREATE
 40
2461015.525059919
  9
$TDUPDATE
 40
2461015.754226655
  9
$TDUUPDATE
 40
2461015.525059989
  9
$TDINDWG
 40
0.0000000116
  9
$TDUSRTIMER
 40
0.0000000116
  9
$USRTIMER
 70
     1
  9
$ANGBASE
 50
0.0
  9
$ANGDIR
 70
     0
  9
$PDMODE
 70
     0
  9
$PDSIZE
 40
0.0
  9
$PLINEWID
 40
0.0
  9
$SPLFRAME
 70
     0
  9
$SPLINETYPE
 70
     6
  9
$SPLINESEGS
 70
     8
  9
$HANDSEED
  5
93
  9
$SURFTAB1
 70
     6
  9
$SURFTAB2
 70
     6
  9
$SURFTYPE
 70
     6
  9
$SURFU
 70
     6
  9
$SURFV
 70
     6
  9
$UCSBASE
  2

  9
$UCSNAME
  2

  9
$UCSORG
 10
0.0
 20
0.0
 30
0.0
  9
$UCSXDIR
 10
1.0
 20
0.0
 30
0.0
  9
$UCSYDIR
 10
0.0
 20
1.0
 30
0.0
  9
$UCSORTHOREF
  2

  9
$UCSORTHOVIEW
 70
     0
  9
$UCSORGTOP
 10
0.0
 20
0.0
 30
0.0
  9
$UCSORGBOTTOM
 10
0.0
 20
0.0
 30
0.0
  9
$UCSORGLEFT
 10
0.0
 20
0.0
 30
0.0
  9
$UCSORGRIGHT
 10
0.0
 20
0.0
 30
0.0
  9
$UCSORGFRONT
 10
0.0
 20
0.0
 30
0.0
  9
$UCSORGBACK
 10
0.0
 20
0.0
 30
0.0
  9
$PUCSBASE
  2

  9
$PUCSNAME
  2

  9
$PUCSORG
 10
0.0
 20
0.0
 30
0.0
  9
$PUCSXDIR
 10
1.0
 20
0.0
 30
0.0
  9
$PUCSYDIR
 10
0.0
 20
1.0
 30
0.0
  9
$PUCSORTHOREF
  2

  9
$PUCSORTHOVIEW
 70
     0
  9
$PUCSORGTOP
 10
0.0
 20
0.0
 30
0.0
  9
$PUCSORGBOTTOM
 10
0.0
 20
0.0
 30
0.0
  9
$PUCSORGLEFT
 10
0.0
 20
0.0
 30
0.0
  9
$PUCSORGRIGHT
 10
0.0
 20
0.0
 30
0.0
  9
$PUCSORGFRONT
 10
0.0
 20
0.0
 30
0.0
  9
$PUCSORGBACK
 10
0.0
 20
0.0
 30
0.0
  9
$USERI1
 70
     0
  9
$USERI2
 70
     0
  9
$USERI3
 70
     0
  9
$USERI4
 70
     0
  9
$USERI5
 70
     0
  9
$USERR1
 40
0.0
  9
$USERR2
 40
0.0
  9
$USERR3
 40
0.0
  9
$USERR4
 40
0.0
  9
$USERR5
 40
0.0
  9
$WORLDVIEW
 70
     1
  9
$SHADEDGE
 70
     3
  9
$SHADEDIF
 70
    70
  9
$TILEMODE
 70
     1
  9
$MAXACTVP
 70
    64
  9
$PINSBASE
 10
0.0
 20
0.0
 30
0.0
  9
$PLIMCHECK
 70
     0
  9
$PEXTMIN
 10
1.000000000000000E+20
 20
1.000000000000000E+20
 30
1.000000000000000E+20
  9
$PEXTMAX
 10
-1.000000000000000E+20
 20
-1.000000000000000E+20
 30
-1.000000000000000E+20
  9
$PLIMMIN
 10
0.0
 20
0.0
  9
$PLIMMAX
 10
12.0
 20
9.0
  9
$UNITMODE
 70
     0
  9
$VISRETAIN
 70
     1
  9
$PLINEGEN
 70
     0
  9
$PSLTSCALE
 70
     1
  9
$TREEDEPTH
 70
  3020
  9
$CMLSTYLE
  2
Standard
  9
$CMLJUST
 70
     0
  9
$CMLSCALE
 40
1.0
  9
$PROXYGRAPHICS
 70
     1
  9
$MEASUREMENT
 70
     0
  9
$CELWEIGHT
370
    -1
  9
$ENDCAPS
280
     0
  9
$JOINSTYLE
280
     0
  9
$LWDISPLAY
290
     0
  9
$INSUNITS
 70
     4
  9
$HYPERLINKBASE
  1

  9
$STYLESHEET
  1

  9
$XEDIT
290
     1
  9
$CEPSNTYPE
380
     0
  9
$PSTYLEMODE
290
     1
  9
$FINGERPRINTGUID
  2
{3f665103-6587-44d8-a24f-4c17398ab85b}
  9
$VERSIONGUID
  2
{FAEB1C32-E019-11D5-929B-00C0DF256EC4}
  9
$EXTNAMES
290
     1
  9
$PSVPSCALE
 40
0.0
  9
$OLESTARTUP
290
     0
  9
$SORTENTS
280
   127
  9
$INDEXCTL
280
     0
  9
$HIDETEXT
280
     1
  9
$XCLIPFRAME
280
     2
  9
$HALOGAP
280
     0
  9
$OBSCOLOR
 70
   257
  9
$OBSLTYPE
280
     0
  9
$INTERSECTIONDISPLAY
280
     0
  9
$INTERSECTIONCOLOR
 70
   257
  9
$DIMASSOC
280
     2
  9
$PROJECTNAME
  1

  9
$CAMERADISPLAY
290
     0
  9
$LENSLENGTH
 40
50.0
  9
$CAMERAHEIGHT
 40
0.0
  9
$STEPSPERSEC
 40
2.0
  9
$STEPSIZE
 40
6.0
  9
$3DDWFPREC
 40
2.0
  9
$PSOLWIDTH
 40
0.25
  9
$PSOLHEIGHT
 40
4.0
  9
$LOFTANG1
 40
1.570796326794897
  9
$LOFTANG2
 40
1.570796326794897
  9
$LOFTMAG1
 40
0.0
  9
$LOFTMAG2
 40
0.0
  9
$LOFTPARAM
 70
     7
  9
$LOFTNORMALS
280
     1
  9
$LATITUDE
 40
37.795
  9
$LONGITUDE
 40
-122.394
  9
$NORTHDIRECTION
 40
0.0
  9
$TIMEZONE
 70
 -8000
  9
$LIGHTGLYPHDISPLAY
280
     1
  9
$TILEMODELIGHTSYNCH
280
     1
  9
$CMATERIAL
347
44
  9
$SOLIDHIST
280
     0
  9
$SHOWHIST
280
     1
  9
$DWFFRAME
280
     2
  9
$DGNFRAME
280
     2
  9
$REALWORLDSCALE
290
     1
  9
$INTERFERECOLOR
 62
   256
  9
$CSHADOW
280
     0
  9
$SHADOWPLANELOCATION
 40
0.0
  0
ENDSEC
  0
SECTION
  2
CLASSES
  0
CLASS
  1
ACDBDICTIONARYWDFLT
  2
AcDbDictionaryWithDefault
  3
ObjectDBX Classes
 90
        0
 91
        3
280
     0
281
     0
  0
CLASS
  1
VISUALSTYLE
  2
AcDbVisualStyle
  3
ObjectDBX Classes
 90
     4095
 91
        3
280
     0
281
     0
  0
CLASS
  1
MATERIAL
  2
AcDbMaterial
  3
ObjectDBX Classes
 90
     1153
 91
        3
280
     0
281
     0
  0
CLASS
  1
SCALE
  2
AcDbScale
  3
ObjectDBX Classes
 90
     1153
 91
        3
280
     0
281
     0
  0
CLASS
  1
TABLESTYLE
  2
AcDbTableStyle
  3
ObjectDBX Classes
 90
     4095
 91
        3
280
     0
281
     0
  0
CLASS
  1
MLEADERSTYLE
  2
AcDbMLeaderStyle
  3
ACDB_MLEADERSTYLE_CLASS
 90
     4095
 91
        3
280
     0
281
     0
  0
CLASS
  1
SUN
  2
AcDbSun
  3
SCENEOE
 90
     1153
 91
        3
280
     0
281
     0
  0
CLASS
  1
DICTIONARYVAR
  2
AcDbDictionaryVar
  3
ObjectDBX Classes
 90
        0
 91
        3
280
     0
281
     0
  0
CLASS
  1
CELLSTYLEMAP
  2
AcDbCellStyleMap
  3
ObjectDBX Classes
 90
     1152
 91
        3
280
     0
281
     0
  0
ENDSEC
  0
SECTION
  2
TABLES
  0
TABLE
  2
VPORT
  5
8
330
0
100
AcDbSymbolTable
 70
     1
  0
VPORT
  5
29
330
8
100
AcDbSymbolTableRecord
100
AcDbViewportTableRecord
  2
*Active
 70
     0
 10
0.0
 20
0.0
 11
1.0
 21
1.0
 12
10.42990654205607
 22
4.5
 13
0.0
 23
0.0
 14
0.5
 24
0.5
 15
0.5
 25
0.5
 16
0.0
 26
0.0
 36
1.0
 17
0.0
 27
0.0
 37
0.0
 40
9.0
 41
1.972972972850329
 42
50.0
 43
0.0
 44
0.0
 50
0.0
 51
0.0
 71
     0
 72
   100
 73
     1
 74
     3
 75
     0
 76
     0
 77
     0
 78
     0
281
     0
 65
     1
110
0.0
120
0.0
130
0.0
111
1.0
121
0.0
131
0.0
112
0.0
122
1.0
132
0.0
 79
     0
146
0.0
348
2F
 60
     3
 61
     5
292
     1
282
     1
141
0.0
142
0.0
 63
   250
361
5D
  0
ENDTAB
  0
TABLE
  2
LTYPE
  5
5
330
0
100
AcDbSymbolTable
 70
     1
  0
LTYPE
  5
14
330
5
100
AcDbSymbolTableRecord
100
AcDbLinetypeTableRecord
  2
ByBlock
 70
     0
  3

 72
    65
 73
     0
 40
0.0
  0
LTYPE
  5
15
330
5
100
AcDbSymbolTableRecord
100
AcDbLinetypeTableRecord
  2
ByLayer
 70
     0
  3

 72
    65
 73
     0
 40
0.0
  0
LTYPE
  5
16
330
5
100
AcDbSymbolTableRecord
100
AcDbLinetypeTableRecord
  2
Continuous
 70
     0
  3
Solid line
 72
    65
 73
     0
 40
0.0
  0
ENDTAB
  0
TABLE
  2
LAYER
  5
2
330
0
100
AcDbSymbolTable
 70
     2
  0
LAYER
  5
10
330
2
100
AcDbSymbolTableRecord
100
AcDbLayerTableRecord
  2
0
 70
     0
 62
     7
  6
Continuous
370
    -3
390
F
347
46
348
0
  0
LAYER
  5
5F
330
2
100
AcDbSymbolTableRecord
100
AcDbLayerTableRecord
  2
Layer 1
 70
     0
 62
     7
  6
Continuous
370
    -3
390
F
347
46
348
0
  0
ENDTAB
  0
TABLE
  2
STYLE
  5
3
330
0
100
AcDbSymbolTable
 70
     1
  0
STYLE
  5
11
330
3
100
AcDbSymbolTableRecord
100
AcDbTextStyleTableRecord
  2
Standard
 70
     0
 40
0.0
 41
1.0
 50
0.0
 71
     0
 42
0.2
  3
txt
  4

  0
ENDTAB
  0
TABLE
  2
VIEW
  5
6
330
0
100
AcDbSymbolTable
 70
     0
  0
ENDTAB
  0
TABLE
  2
UCS
  5
7
330
0
100
AcDbSymbolTable
 70
     0
  0
ENDTAB
  0
TABLE
  2
APPID
  5
9
330
0
100
AcDbSymbolTable
 70
     2
  0
APPID
  5
12
330
9
100
AcDbSymbolTableRecord
100
AcDbRegAppTableRecord
  2
ACAD
 70
     0
  0
APPID
  5
5E
330
9
100
AcDbSymbolTableRecord
100
AcDbRegAppTableRecord
  2
ODA
 70
     0
  0
ENDTAB
  0
TABLE
  2
DIMSTYLE
  5
A
330
0
100
AcDbSymbolTable
 70
     1
100
AcDbDimStyleTable
  0
DIMSTYLE
105
27
330
A
100
AcDbSymbolTableRecord
100
AcDbDimStyleTableRecord
  2
Standard
 70
     0
178
     0
340
11
  0
ENDTAB
  0
TABLE
  2
BLOCK_RECORD
  5
1
330
0
100
AcDbSymbolTable
 70
     1
  0
BLOCK_RECORD
  5
1F
330
1
100
AcDbSymbolTableRecord
100
AcDbBlockTableRecord
  2
*Model_Space
340
22
 70
     0
280
     1
281
     0
  0
BLOCK_RECORD
  5
1B
330
1
100
AcDbSymbolTableRecord
100
AcDbBlockTableRecord
  2
*Paper_Space
340
1E
 70
     0
280
     1
281
     0
  0
BLOCK_RECORD
  5
23
330
1
100
AcDbSymbolTableRecord
100
AcDbBlockTableRecord
  2
*Paper_Space0
340
26
 70
     0
280
     1
281
     0
  0
ENDTAB
  0
ENDSEC
  0
SECTION
  2
BLOCKS
  0
BLOCK
  5
20
330
1F
100
AcDbEntity
  8
0
100
AcDbBlockBegin
  2
*Model_Space
 70
     0
 10
0.0
 20
0.0
 30
0.0
  3
*Model_Space
  1

  0
ENDBLK
  5
21
330
1F
100
AcDbEntity
  8
0
100
AcDbBlockEnd
  0
BLOCK
  5
1C
330
1B
100
AcDbEntity
 67
     1
  8
0
100
AcDbBlockBegin
  2
*Paper_Space
 70
     0
 10
0.0
 20
0.0
 30
0.0
  3
*Paper_Space
  1

  0
ENDBLK
  5
1D
330
1B
100
AcDbEntity
 67
     1
  8
0
100
AcDbBlockEnd
  0
BLOCK
  5
24
330
23
100
AcDbEntity
  8
0
100
AcDbBlockBegin
  2
*Paper_Space0
 70
     0
 10
0.0
 20
0.0
 30
0.0
  3
*Paper_Space0
  1

  0
ENDBLK
  5
25
330
23
100
AcDbEntity
  8
0
100
AcDbBlockEnd
  0
ENDSEC
  0
SECTION
  2
ENTITIES
  0
LWPOLYLINE
  5
60
330
1F
100
AcDbEntity
  8
Layer 1
 62
   250
370
     9
100
AcDbPolyline
 90
        5
 70
     1
 43
0.0
 10
312.6841
 20
29.9388
 10
445.7313
 20
29.9388
 10
445.7313
 20
192.8966
 10
312.6841
 20
192.8966
 10
312.6841
 20
29.9388
  0
LWPOLYLINE
  5
61
330
1F
100
AcDbEntity
  8
Layer 1
 62
     7
370
    18
100
AcDbPolyline
 90
       33
 70
     1
 43
0.0
 10
333.1158
 20
181.8277
 10
333.9943
 20
181.2559
 10
334.7439
 20
180.2859
 10
335.3533
 20
178.9692
 10
335.8114
 20
177.3574
 10
336.1069
 20
175.5023
 10
336.2286
 20
173.4553
 10
336.1653
 20
171.2682
 10
335.9056
 20
168.9926
 10
335.4616
 20
166.7868
 10
334.8696
 20
164.7997
 10
334.1549
 20
163.0694
 10
333.3427
 20
161.6334
 10
332.4582
 20
160.5298
 10
331.5269
 20
159.7962
 10
330.5738
 20
159.4705
 10
329.6244
 20
159.5905
 10
328.7459
 20
160.1623
 10
327.9963
 20
161.1324
 10
327.3869
 20
162.4491
 10
326.9288
 20
164.0609
 10
326.6333
 20
165.916
 10
326.5116
 20
167.9629
 10
326.575
 20
170.15
 10
326.8347
 20
172.4256
 10
327.2787
 20
174.6314
 10
327.8707
 20
176.6185
 10
328.5854
 20
178.3488
 10
329.3976
 20
179.7848
 10
330.282
 20
180.8884
 10
331.2134
 20
181.622
 10
332.1664
 20
181.9477
 10
333.1158
 20
181.8277
  0
LWPOLYLINE
  5
62
330
1F
100
AcDbEntity
  8
Layer 1
 62
     7
370
    18
100
AcDbPolyline
 90
       33
 70
     0
 43
0.0
 10
331.376
 20
181.708
 10
331.8587
 20
182.0352
 10
332.3516
 20
182.3
 10
332.8529
 20
182.5
 10
333.3605
 20
182.6333
 10
333.8725
 20
182.6976
 10
334.3871
 20
182.6908
 10
334.9023
 20
182.6107
 10
335.4162
 20
182.4552
 10
336.6789
 20
181.7165
 10
337.7749
 20
180.5535
 10
338.6864
 20
179.0248
 10
339.3955
 20
177.1886
 10
339.8844
 20
175.1034
 10
340.1353
 20
172.8275
 10
340.1303
 20
170.4194
 10
339.8515
 20
167.9374
 10
339.3092
 20
165.5545
 10
338.5496
 20
163.4316
 10
337.6069
 20
161.6071
 10
336.5152
 20
160.1199
 10
335.3088
 20
159.0086
 10
334.0218
 20
158.3118
 10
332.6885
 20
158.0682
 10
331.3431
 20
158.3165
 10
331.0824
 20
158.4256
 10
330.8275
 20
158.5529
 10
330.5786
 20
158.6981
 10
330.3359
 20
158.8606
 10
330.0994
 20
159.04
 10
329.8695
 20
159.2358
 10
329.6461
 20
159.4476
 10
329.4295
 20
159.6749
  0
LWPOLYLINE
  5
63
330
1F
100
AcDbEntity
  8
Layer 1
 62
     7
370
    18
100
AcDbPolyline
 90
       33
 70
     1
 43
0.0
 10
331.4897
 20
174.8409
 10
331.5291
 20
174.8137
 10
331.5618
 20
174.7658
 10
331.5875
 20
174.7
 10
331.6058
 20
174.6189
 10
331.6162
 20
174.525
 10
331.6182
 20
174.421
 10
331.6116
 20
174.3094
 10
331.5958
 20
174.1929
 10
331.5715
 20
174.0796
 10
331.5408
 20
173.9772
 10
331.5049
 20
173.8875
 10
331.4651
 20
173.8126
 10
331.4225
 20
173.7545
 10
331.3785
 20
173.7151
 10
331.3341
 20
173.6964
 10
331.2907
 20
173.7005
 10
331.2513
 20
173.7278
 10
331.2185
 20
173.7756
 10
331.1928
 20
173.8414
 10
331.1746
 20
173.9226
 10
331.1643
 20
174.0164
 10
331.1623
 20
174.1204
 10
331.1691
 20
174.2319
 10
331.1851
 20
174.3483
 10
331.2092
 20
174.4616
 10
331.2398
 20
174.5642
 10
331.2756
 20
174.6539
 10
331.3154
 20
174.7288
 10
331.3579
 20
174.787
 10
331.4019
 20
174.8264
 10
331.4463
 20
174.845
 10
331.4897
 20
174.8409
  0
LWPOLYLINE
  5
64
330
1F
100
AcDbEntity
  8
Layer 1
 62
     7
370
    18
100
AcDbPolyline
 90
       33
 70
     1
 43
0.0
 10
332.9325
 20
175.9929
 10
332.9719
 20
175.9656
 10
333.0047
 20
175.9178
 10
333.0304
 20
175.852
 10
333.0487
 20
175.7708
 10
333.059
 20
175.6769
 10
333.0611
 20
175.5729
 10
333.0544
 20
175.4614
 10
333.0386
 20
175.3449
 10
333.0143
 20
175.2316
 10
332.9836
 20
175.1292
 10
332.9477
 20
175.0395
 10
332.9079
 20
174.9646
 10
332.8654
 20
174.9065
 10
332.8213
 20
174.8671
 10
332.7769
 20
174.8484
 10
332.7335
 20
174.8525
 10
332.6941
 20
174.8797
 10
332.6614
 20
174.9276
 10
332.6357
 20
174.9934
 10
332.6175
 20
175.0745
 10
332.6072
 20
175.1684
 10
332.6052
 20
175.2724
 10
332.6119
 20
175.3839
 10
332.6279
 20
175.5003
 10
332.6521
 20
175.6136
 10
332.6827
 20
175.7162
 10
332.7184
 20
175.8059
 10
332.7582
 20
175.8808
 10
332.8007
 20
175.9389
 10
332.8447
 20
175.9783
 10
332.8891
 20
175.997
 10
332.9325
 20
175.9929
  0
LWPOLYLINE
  5
65
330
1F
100
AcDbEntity
  8
Layer 1
 62
     7
370
    18
100
AcDbPolyline
 90
       33
 70
     1
 43
0.0
 10
332.1729
 20
177.2081
 10
332.2123
 20
177.1808
 10
332.2451
 20
177.133
 10
332.2708
 20
177.0672
 10
332.2891
 20
176.986
 10
332.2995
 20
176.8921
 10
332.3015
 20
176.7881
 10
332.2949
 20
176.6766
 10
332.2791
 20
176.5601
 10
332.2548
 20
176.4468
 10
332.224
 20
176.3444
 10
332.1882
 20
176.2547
 10
332.1483
 20
176.1798
 10
332.1058
 20
176.1217
 10
332.0617
 20
176.0823
 10
332.0174
 20
176.0636
 10
331.974
 20
176.0677
 10
331.9346
 20
176.095
 10
331.9018
 20
176.1428
 10
331.8761
 20
176.2086
 10
331.8579
 20
176.2898
 10
331.8476
 20
176.3836
 10
331.8456
 20
176.4876
 10
331.8523
 20
176.5991
 10
331.8683
 20
176.7155
 10
331.8925
 20
176.8288
 10
331.9231
 20
176.9314
 10
331.9589
 20
177.0211
 10
331.9986
 20
177.096
 10
332.0411
 20
177.1541
 10
332.0852
 20
177.1935
 10
332.1295
 20
177.2122
 10
332.1729
 20
177.2081
  0
LWPOLYLINE
  5
66
330
1F
100
AcDbEntity
  8
Layer 1
 62
     7
370
    18
100
AcDbPolyline
 90
       33
 70
     1
 43
0.0
 10
331.2511
 20
177.5474
 10
331.2905
 20
177.5202
 10
331.3233
 20
177.4723
 10
331.349
 20
177.4065
 10
331.3673
 20
177.3254
 10
331.3776
 20
177.2315
 10
331.3797
 20
177.1275
 10
331.373
 20
177.0159
 10
331.3572
 20
176.8994
 10
331.3329
 20
176.7862
 10
331.3022
 20
176.6837
 10
331.2663
 20
176.594
 10
331.2265
 20
176.5192
 10
331.1839
 20
176.461
 10
331.1399
 20
176.4216
 10
331.0955
 20
176.403
 10
331.0521
 20
176.4071
 10
331.0127
 20
176.4343
 10
330.9799
 20
176.4822
 10
330.9542
 20
176.5479
 10
330.936
 20
176.6291
 10
330.9257
 20
176.7229
 10
330.9237
 20
176.827
 10
330.9305
 20
176.9385
 10
330.9465
 20
177.0549
 10
330.9706
 20
177.1682
 10
331.0012
 20
177.2707
 10
331.037
 20
177.3604
 10
331.0768
 20
177.4353
 10
331.1193
 20
177.4935
 10
331.1633
 20
177.5329
 10
331.2077
 20
177.5515
 10
331.2511
 20
177.5474
  0
LWPOLYLINE
  5
67
330
1F
100
AcDbEntity
  8
Layer 1
 62
     7
370
    18
100
AcDbPolyline
 90
       33
 70
     1
 43
0.0
 10
330.2327
 20
176.6567
 10
330.2721
 20
176.6294
 10
330.3048
 20
176.5816
 10
330.3305
 20
176.5158
 10
330.3488
 20
176.4346
 10
330.3592
 20
176.3407
 10
330.3612
 20
176.2367
 10
330.3546
 20
176.1252
 10
330.3388
 20
176.0087
 10
330.3145
 20
175.8954
 10
330.2838
 20
175.793
 10
330.2479
 20
175.7033
 10
330.2081
 20
175.6284
 10
330.1655
 20
175.5703
 10
330.1215
 20
175.5309
 10
330.0771
 20
175.5122
 10
330.0337
 20
175.5163
 10
329.9943
 20
175.5436
 10
329.9615
 20
175.5914
 10
329.9358
 20
175.6572
 10
329.9176
 20
175.7384
 10
329.9073
 20
175.8322
 10
329.9053
 20
175.9362
 10
329.9121
 20
176.0477
 10
329.9281
 20
176.1641
 10
329.9522
 20
176.2774
 10
329.9828
 20
176.38
 10
330.0186
 20
176.4697
 10
330.0584
 20
176.5446
 10
330.1009
 20
176.6027
 10
330.1449
 20
176.6421
 10
330.1893
 20
176.6608
 10
330.2327
 20
176.6567
  0
LWPOLYLINE
  5
68
330
1F
100
AcDbEntity
  8
Layer 1
 62
     7
370
    18
100
AcDbPolyline
 90
       33
 70
     1
 43
0.0
 10
329.4116
 20
175.266
 10
329.451
 20
175.2388
 10
329.4838
 20
175.1909
 10
329.5095
 20
175.1251
 10
329.5278
 20
175.044
 10
329.5381
 20
174.9501
 10
329.5402
 20
174.8461
 10
329.5335
 20
174.7345
 10
329.5177
 20
174.618
 10
329.4934
 20
174.5048
 10
329.4627
 20
174.4023
 10
329.4268
 20
174.3126
 10
329.387
 20
174.2377
 10
329.3445
 20
174.1796
 10
329.3004
 20
174.1402
 10
329.256
 20
174.1215
 10
329.2126
 20
174.1256
 10
329.1732
 20
174.1529
 10
329.1405
 20
174.2007
 10
329.1148
 20
174.2665
 10
329.0965
 20
174.3477
 10
329.0862
 20
174.4415
 10
329.0843
 20
174.5455
 10
329.091
 20
174.6571
 10
329.107
 20
174.7735
 10
329.1312
 20
174.8868
 10
329.1618
 20
174.9893
 10
329.1975
 20
175.079
 10
329.2373
 20
175.1539
 10
329.2798
 20
175.2121
 10
329.3238
 20
175.2515
 10
329.3682
 20
175.2701
 10
329.4116
 20
175.266
  0
LWPOLYLINE
  5
69
330
1F
100
AcDbEntity
  8
Layer 1
 62
     7
370
    18
100
AcDbPolyline
 90
       33
 70
     1
 43
0.0
 10
328.707
 20
173.0716
 10
328.7464
 20
173.0444
 10
328.7792
 20
172.9965
 10
328.8049
 20
172.9307
 10
328.8232
 20
172.8496
 10
328.8335
 20
172.7557
 10
328.8356
 20
172.6517
 10
328.8289
 20
172.5401
 10
328.8131
 20
172.4236
 10
328.7888
 20
172.3103
 10
328.7581
 20
172.2079
 10
328.7222
 20
172.1182
 10
328.6824
 20
172.0433
 10
328.6399
 20
171.9852
 10
328.5958
 20
171.9458
 10
328.5514
 20
171.9271
 10
328.508
 20
171.9312
 10
328.4686
 20
171.9585
 10
328.4359
 20
172.0063
 10
328.4102
 20
172.0721
 10
328.392
 20
172.1533
 10
328.3817
 20
172.2471
 10
328.3797
 20
172.3511
 10
328.3864
 20
172.4626
 10
328.4024
 20
172.579
 10
328.4266
 20
172.6923
 10
328.4572
 20
172.7949
 10
328.4929
 20
172.8846
 10
328.5327
 20
172.9595
 10
328.5752
 20
173.0177
 10
328.6192
 20
173.0571
 10
328.6636
 20
173.0757
 10
328.707
 20
173.0716
  0
LWPOLYLINE
  5
6A
330
1F
100
AcDbEntity
  8
Layer 1
 62
     7
370
    18
100
AcDbPolyline
 90
       33
 70
     1
 43
0.0
 10
330.2632
 20
174.0827
 10
330.3026
 20
174.0554
 10
330.3353
 20
174.0076
 10
330.361
 20
173.9418
 10
330.3793
 20
173.8606
 10
330.3897
 20
173.7667
 10
330.3917
 20
173.6627
 10
330.3851
 20
173.5512
 10
330.3693
 20
173.4347
 10
330.345
 20
173.3214
 10
330.3143
 20
173.219
 10
330.2784
 20
173.1293
 10
330.2386
 20
173.0544
 10
330.196
 20
172.9963
 10
330.152
 20
172.9569
 10
330.1076
 20
172.9382
 10
330.0642
 20
172.9423
 10
330.0248
 20
172.9696
 10
329.992
 20
173.0174
 10
329.9663
 20
173.0832
 10
329.9481
 20
173.1644
 10
329.9378
 20
173.2582
 10
329.9358
 20
173.3622
 10
329.9426
 20
173.4737
 10
329.9586
 20
173.5901
 10
329.9827
 20
173.7034
 10
330.0133
 20
173.806
 10
330.0491
 20
173.8957
 10
330.0889
 20
173.9706
 10
330.1314
 20
174.0287
 10
330.1754
 20
174.0681
 10
330.2198
 20
174.0868
 10
330.2632
 20
174.0827
  0
LWPOLYLINE
  5
6B
330
1F
100
AcDbEntity
  8
Layer 1
 62
     7
370
    18
100
AcDbPolyline
 90
       33
 70
     1
 43
0.0
 10
333.384
 20
173.9352
 10
333.4234
 20
173.9079
 10
333.4562
 20
173.8601
 10
333.4819
 20
173.7943
 10
333.5002
 20
173.7131
 10
333.5105
 20
173.6192
 10
333.5126
 20
173.5152
 10
333.5059
 20
173.4037
 10
333.4901
 20
173.2872
 10
333.4658
 20
173.1739
 10
333.4351
 20
173.0715
 10
333.3992
 20
172.9818
 10
333.3594
 20
172.9069
 10
333.3169
 20
172.8487
 10
333.2728
 20
172.8093
 10
333.2285
 20
172.7907
 10
333.1851
 20
172.7948
 10
333.1457
 20
172.822
 10
333.1129
 20
172.8699
 10
333.0872
 20
172.9356
 10
333.069
 20
173.0168
 10
333.0587
 20
173.1106
 10
333.0567
 20
173.2147
 10
333.0634
 20
173.3262
 10
333.0794
 20
173.4426
 10
333.1036
 20
173.5559
 10
333.1342
 20
173.6585
 10
333.1699
 20
173.7482
 10
333.2097
 20
173.8231
 10
333.2522
 20
173.8812
 10
333.2962
 20
173.9206
 10
333.3406
 20
173.9393
 10
333.384
 20
173.9352
  0
LWPOLYLINE
  5
6C
330
1F
100
AcDbEntity
  8
Layer 1
 62
     7
370
    18
100
AcDbPolyline
 90
       33
 70
     1
 43
0.0
 10
332.2796
 20
173.1862
 10
332.319
 20
173.1589
 10
332.3518
 20
173.1111
 10
332.3775
 20
173.0453
 10
332.3958
 20
172.9641
 10
332.4062
 20
172.8702
 10
332.4082
 20
172.7662
 10
332.4016
 20
172.6547
 10
332.3858
 20
172.5382
 10
332.3615
 20
172.4249
 10
332.3308
 20
172.3225
 10
332.2949
 20
172.2328
 10
332.2551
 20
172.1579
 10
332.2125
 20
172.0998
 10
332.1685
 20
172.0604
 10
332.1241
 20
172.0417
 10
332.0807
 20
172.0458
 10
332.0413
 20
172.0731
 10
332.0085
 20
172.1209
 10
331.9828
 20
172.1867
 10
331.9646
 20
172.2679
 10
331.9543
 20
172.3617
 10
331.9523
 20
172.4657
 10
331.9591
 20
172.5772
 10
331.9751
 20
172.6936
 10
331.9992
 20
172.8069
 10
332.0298
 20
172.9095
 10
332.0656
 20
172.9992
 10
332.1053
 20
173.0741
 10
332.1478
 20
173.1322
 10
332.1919
 20
173.1716
 10
332.2362
 20
173.1903
 10
332.2796
 20
173.1862
  0
LWPOLYLINE
  5
6D
330
1F
100
AcDbEntity
  8
Layer 1
 62
     7
370
    18
100
AcDbPolyline
 90
       33
 70
     1
 43
0.0
 10
333.4163
 20
171.4602
 10
333.4557
 20
171.433
 10
333.4885
 20
171.3851
 10
333.5142
 20
171.3193
 10
333.5325
 20
171.2382
 10
333.5428
 20
171.1443
 10
333.5449
 20
171.0403
 10
333.5382
 20
170.9287
 10
333.5224
 20
170.8122
 10
333.4981
 20
170.6989
 10
333.4674
 20
170.5965
 10
333.4315
 20
170.5068
 10
333.3917
 20
170.4319
 10
333.3492
 20
170.3738
 10
333.3051
 20
170.3344
 10
333.2607
 20
170.3157
 10
333.2173
 20
170.3198
 10
333.1779
 20
170.3471
 10
333.1451
 20
170.3949
 10
333.1194
 20
170.4607
 10
333.1012
 20
170.5419
 10
333.0909
 20
170.6357
 10
333.0889
 20
170.7397
 10
333.0957
 20
170.8512
 10
333.1117
 20
170.9676
 10
333.1359
 20
171.0809
 10
333.1665
 20
171.1835
 10
333.2022
 20
171.2732
 10
333.242
 20
171.3481
 10
333.2845
 20
171.4063
 10
333.3285
 20
171.4457
 10
333.3729
 20
171.4643
 10
333.4163
 20
171.4602
  0
LWPOLYLINE
  5
6E
330
1F
100
AcDbEntity
  8
Layer 1
 62
     7
370
    18
100
AcDbPolyline
 90
       33
 70
     1
 43
0.0
 10
330.0119
 20
165.9598
 10
329.9725
 20
165.9871
 10
329.9397
 20
166.0349
 10
329.914
 20
166.1007
 10
329.8958
 20
166.1819
 10
329.8854
 20
166.2758
 10
329.8833
 20
166.3798
 10
329.89
 20
166.4913
 10
329.9058
 20
166.6078
 10
329.9301
 20
166.7211
 10
329.9608
 20
166.8235
 10
329.9967
 20
166.9132
 10
330.0365
 20
166.9881
 10
330.0791
 20
167.0463
 10
330.1231
 20
167.0857
 10
330.1675
 20
167.1043
 10
330.2109
 20
167.1002
 10
330.2503
 20
167.073
 10
330.2831
 20
167.0251
 10
330.3088
 20
166.9594
 10
330.327
 20
166.8782
 10
330.3373
 20
166.7844
 10
330.3393
 20
166.6804
 10
330.3325
 20
166.5688
 10
330.3165
 20
166.4524
 10
330.2924
 20
166.3391
 10
330.2618
 20
166.2366
 10
330.226
 20
166.1468
 10
330.1863
 20
166.0719
 10
330.1437
 20
166.0138
 10
330.0997
 20
165.9744
 10
330.0553
 20
165.9557
 10
330.0119
 20
165.9598
  0
LWPOLYLINE
  5
6F
330
1F
100
AcDbEntity
  8
Layer 1
 62
     7
370
    18
100
AcDbPolyline
 90
       33
 70
     1
 43
0.0
 10
328.5691
 20
164.8079
 10
328.5297
 20
164.8351
 10
328.4969
 20
164.883
 10
328.4712
 20
164.9488
 10
328.4529
 20
165.0299
 10
328.4425
 20
165.1238
 10
328.4405
 20
165.2278
 10
328.4471
 20
165.3394
 10
328.4629
 20
165.4559
 10
328.4872
 20
165.5691
 10
328.518
 20
165.6716
 10
328.5538
 20
165.7613
 10
328.5937
 20
165.8362
 10
328.6362
 20
165.8943
 10
328.6803
 20
165.9337
 10
328.7246
 20
165.9523
 10
328.768
 20
165.9482
 10
328.8074
 20
165.921
 10
328.8402
 20
165.8731
 10
328.8659
 20
165.8074
 10
328.8841
 20
165.7262
 10
328.8944
 20
165.6324
 10
328.8964
 20
165.5284
 10
328.8897
 20
165.4168
 10
328.8737
 20
165.3004
 10
328.8495
 20
165.1871
 10
328.8189
 20
165.0846
 10
328.7831
 20
164.9949
 10
328.7434
 20
164.92
 10
328.7009
 20
164.8618
 10
328.6568
 20
164.8224
 10
328.6125
 20
164.8038
 10
328.5691
 20
164.8079
  0
LWPOLYLINE
  5
70
330
1F
100
AcDbEntity
  8
Layer 1
 62
     7
370
    18
100
AcDbPolyline
 90
       33
 70
     1
 43
0.0
 10
329.3286
 20
163.5926
 10
329.2892
 20
163.6199
 10
329.2565
 20
163.6677
 10
329.2308
 20
163.7335
 10
329.2125
 20
163.8147
 10
329.2021
 20
163.9086
 10
329.2001
 20
164.0126
 10
329.2067
 20
164.1241
 10
329.2225
 20
164.2406
 10
329.2468
 20
164.3539
 10
329.2775
 20
164.4563
 10
329.3134
 20
164.546
 10
329.3532
 20
164.6209
 10
329.3958
 20
164.6791
 10
329.4398
 20
164.7185
 10
329.4842
 20
164.7371
 10
329.5276
 20
164.733
 10
329.567
 20
164.7058
 10
329.5998
 20
164.6579
 10
329.6255
 20
164.5922
 10
329.6437
 20
164.511
 10
329.654
 20
164.4172
 10
329.656
 20
164.3132
 10
329.6492
 20
164.2016
 10
329.6332
 20
164.0852
 10
329.6091
 20
163.9719
 10
329.5785
 20
163.8694
 10
329.5427
 20
163.7797
 10
329.503
 20
163.7048
 10
329.4604
 20
163.6466
 10
329.4164
 20
163.6072
 10
329.372
 20
163.5885
 10
329.3286
 20
163.5926
  0
LWPOLYLINE
  5
71
330
1F
100
AcDbEntity
  8
Layer 1
 62
     7
370
    18
100
AcDbPolyline
 90
       33
 70
     1
 43
0.0
 10
330.2505
 20
163.2533
 10
330.2111
 20
163.2805
 10
330.1783
 20
163.3284
 10
330.1526
 20
163.3942
 10
330.1343
 20
163.4753
 10
330.124
 20
163.5692
 10
330.1219
 20
163.6732
 10
330.1286
 20
163.7848
 10
330.1444
 20
163.9013
 10
330.1687
 20
164.0146
 10
330.1994
 20
164.117
 10
330.2353
 20
164.2067
 10
330.2751
 20
164.2816
 10
330.3176
 20
164.3397
 10
330.3617
 20
164.3791
 10
330.4061
 20
164.3978
 10
330.4495
 20
164.3937
 10
330.4889
 20
164.3664
 10
330.5216
 20
164.3186
 10
330.5473
 20
164.2528
 10
330.5656
 20
164.1717
 10
330.5759
 20
164.0778
 10
330.5778
 20
163.9738
 10
330.5711
 20
163.8623
 10
330.5551
 20
163.7459
 10
330.5309
 20
163.6326
 10
330.5003
 20
163.53
 10
330.4646
 20
163.4403
 10
330.4248
 20
163.3654
 10
330.3823
 20
163.3072
 10
330.3383
 20
163.2678
 10
330.2939
 20
163.2492
 10
330.2505
 20
163.2533
  0
LWPOLYLINE
  5
72
330
1F
100
AcDbEntity
  8
Layer 1
 62
     7
370
    18
100
AcDbPolyline
 90
       33
 70
     1
 43
0.0
 10
331.2689
 20
164.144
 10
331.2295
 20
164.1713
 10
331.1967
 20
164.2191
 10
331.171
 20
164.2849
 10
331.1528
 20
164.3661
 10
331.1424
 20
164.46
 10
331.1403
 20
164.564
 10
331.147
 20
164.6755
 10
331.1628
 20
164.792
 10
331.1871
 20
164.9053
 10
331.2178
 20
165.0077
 10
331.2537
 20
165.0974
 10
331.2935
 20
165.1723
 10
331.3361
 20
165.2305
 10
331.3801
 20
165.2699
 10
331.4245
 20
165.2885
 10
331.4679
 20
165.2844
 10
331.5073
 20
165.2572
 10
331.5401
 20
165.2093
 10
331.5658
 20
165.1436
 10
331.584
 20
165.0624
 10
331.5943
 20
164.9686
 10
331.5963
 20
164.8646
 10
331.5895
 20
164.753
 10
331.5735
 20
164.6366
 10
331.5494
 20
164.5233
 10
331.5188
 20
164.4208
 10
331.483
 20
164.3311
 10
331.4433
 20
164.2562
 10
331.4007
 20
164.198
 10
331.3567
 20
164.1586
 10
331.3123
 20
164.1399
 10
331.2689
 20
164.144
  0
LWPOLYLINE
  5
73
330
1F
100
AcDbEntity
  8
Layer 1
 62
     7
370
    18
100
AcDbPolyline
 90
       33
 70
     1
 43
0.0
 10
332.09
 20
165.5347
 10
332.0506
 20
165.562
 10
332.0178
 20
165.6098
 10
331.9921
 20
165.6756
 10
331.9738
 20
165.7568
 10
331.9635
 20
165.8507
 10
331.9614
 20
165.9547
 10
331.9681
 20
166.0662
 10
331.9839
 20
166.1827
 10
332.0082
 20
166.296
 10
332.0389
 20
166.3984
 10
332.0748
 20
166.4881
 10
332.1146
 20
166.563
 10
332.1571
 20
166.6211
 10
332.2012
 20
166.6605
 10
332.2456
 20
166.6792
 10
332.289
 20
166.6751
 10
332.3284
 20
166.6478
 10
332.3611
 20
166.6
 10
332.3868
 20
166.5342
 10
332.405
 20
166.4531
 10
332.4153
 20
166.3592
 10
332.4173
 20
166.2552
 10
332.4106
 20
166.1437
 10
332.3946
 20
166.0273
 10
332.3704
 20
165.914
 10
332.3398
 20
165.8115
 10
332.3041
 20
165.7217
 10
332.2643
 20
165.6468
 10
332.2218
 20
165.5887
 10
332.1778
 20
165.5493
 10
332.1334
 20
165.5306
 10
332.09
 20
165.5347
  0
LWPOLYLINE
  5
74
330
1F
100
AcDbEntity
  8
Layer 1
 62
     7
370
    18
100
AcDbPolyline
 90
       33
 70
     1
 43
0.0
 10
332.7946
 20
167.7291
 10
332.7552
 20
167.7564
 10
332.7224
 20
167.8042
 10
332.6967
 20
167.87
 10
332.6784
 20
167.9512
 10
332.6681
 20
168.0451
 10
332.666
 20
168.1491
 10
332.6727
 20
168.2606
 10
332.6885
 20
168.3771
 10
332.7128
 20
168.4904
 10
332.7435
 20
168.5928
 10
332.7794
 20
168.6825
 10
332.8192
 20
168.7574
 10
332.8617
 20
168.8156
 10
332.9058
 20
168.855
 10
332.9501
 20
168.8736
 10
332.9935
 20
168.8695
 10
333.0329
 20
168.8423
 10
333.0657
 20
168.7944
 10
333.0914
 20
168.7287
 10
333.1096
 20
168.6475
 10
333.1199
 20
168.5537
 10
333.1219
 20
168.4497
 10
333.1152
 20
168.3381
 10
333.0992
 20
168.2217
 10
333.075
 20
168.1084
 10
333.0444
 20
168.0059
 10
333.0086
 20
167.9161
 10
332.9689
 20
167.8412
 10
332.9264
 20
167.7831
 10
332.8823
 20
167.7437
 10
332.838
 20
167.725
 10
332.7946
 20
167.7291
  0
LWPOLYLINE
  5
75
330
1F
100
AcDbEntity
  8
Layer 1
 62
     7
370
    18
100
AcDbPolyline
 90
       33
 70
     1
 43
0.0
 10
331.2384
 20
166.7181
 10
331.199
 20
166.7453
 10
331.1663
 20
166.7932
 10
331.1406
 20
166.859
 10
331.1223
 20
166.9401
 10
331.1119
 20
167.034
 10
331.1099
 20
167.138
 10
331.1165
 20
167.2496
 10
331.1323
 20
167.3661
 10
331.1566
 20
167.4793
 10
331.1873
 20
167.5818
 10
331.2232
 20
167.6715
 10
331.263
 20
167.7464
 10
331.3056
 20
167.8045
 10
331.3496
 20
167.8439
 10
331.394
 20
167.8625
 10
331.4374
 20
167.8584
 10
331.4768
 20
167.8312
 10
331.5096
 20
167.7833
 10
331.5353
 20
167.7176
 10
331.5535
 20
167.6364
 10
331.5638
 20
167.5426
 10
331.5658
 20
167.4386
 10
331.559
 20
167.327
 10
331.543
 20
167.2106
 10
331.5189
 20
167.0973
 10
331.4883
 20
166.9948
 10
331.4525
 20
166.9051
 10
331.4128
 20
166.8302
 10
331.3702
 20
166.772
 10
331.3262
 20
166.7326
 10
331.2818
 20
166.714
 10
331.2384
 20
166.7181
  0
LWPOLYLINE
  5
76
330
1F
100
AcDbEntity
  8
Layer 1
 62
     7
370
    18
100
AcDbPolyline
 90
       33
 70
     1
 43
0.0
 10
328.1176
 20
166.8656
 10
328.0782
 20
166.8928
 10
328.0454
 20
166.9407
 10
328.0197
 20
167.0065
 10
328.0014
 20
167.0876
 10
327.991
 20
167.1815
 10
327.989
 20
167.2855
 10
327.9956
 20
167.3971
 10
328.0114
 20
167.5136
 10
328.0357
 20
167.6268
 10
328.0665
 20
167.7293
 10
328.1023
 20
167.819
 10
328.1422
 20
167.8939
 10
328.1847
 20
167.952
 10
328.2288
 20
167.9914
 10
328.2731
 20
168.01
 10
328.3165
 20
168.0059
 10
328.3559
 20
167.9787
 10
328.3887
 20
167.9308
 10
328.4144
 20
167.8651
 10
328.4326
 20
167.7839
 10
328.4429
 20
167.6901
 10
328.4449
 20
167.5861
 10
328.4382
 20
167.4745
 10
328.4222
 20
167.3581
 10
328.398
 20
167.2448
 10
328.3674
 20
167.1423
 10
328.3316
 20
167.0526
 10
328.2919
 20
166.9777
 10
328.2494
 20
166.9195
 10
328.2053
 20
166.8801
 10
328.161
 20
166.8615
 10
328.1176
 20
166.8656
  0
LWPOLYLINE
  5
77
330
1F
100
AcDbEntity
  8
Layer 1
 62
     7
370
    18
100
AcDbPolyline
 90
       33
 70
     1
 43
0.0
 10
329.2219
 20
167.6145
 10
329.1825
 20
167.6418
 10
329.1498
 20
167.6896
 10
329.1241
 20
167.7554
 10
329.1058
 20
167.8366
 10
329.0954
 20
167.9305
 10
329.0934
 20
168.0345
 10
329.1
 20
168.146
 10
329.1158
 20
168.2625
 10
329.1401
 20
168.3758
 10
329.1708
 20
168.4782
 10
329.2067
 20
168.5679
 10
329.2465
 20
168.6428
 10
329.2891
 20
168.701
 10
329.3331
 20
168.7404
 10
329.3775
 20
168.759
 10
329.4209
 20
168.7549
 10
329.4603
 20
168.7277
 10
329.4931
 20
168.6798
 10
329.5188
 20
168.6141
 10
329.537
 20
168.5329
 10
329.5473
 20
168.4391
 10
329.5493
 20
168.3351
 10
329.5425
 20
168.2235
 10
329.5265
 20
168.1071
 10
329.5024
 20
167.9938
 10
329.4718
 20
167.8913
 10
329.436
 20
167.8016
 10
329.3963
 20
167.7267
 10
329.3537
 20
167.6685
 10
329.3097
 20
167.6291
 10
329.2653
 20
167.6104
 10
329.2219
 20
167.6145
  0
LWPOLYLINE
  5
78
330
1F
100
AcDbEntity
  8
Layer 1
 62
     7
370
    18
100
AcDbPolyline
 90
       33
 70
     1
 43
0.0
 10
328.0853
 20
169.3405
 10
328.0459
 20
169.3678
 10
328.0131
 20
169.4156
 10
327.9874
 20
169.4814
 10
327.9691
 20
169.5626
 10
327.9588
 20
169.6565
 10
327.9567
 20
169.7605
 10
327.9634
 20
169.872
 10
327.9792
 20
169.9885
 10
328.0035
 20
170.1018
 10
328.0342
 20
170.2042
 10
328.0701
 20
170.2939
 10
328.1099
 20
170.3688
 10
328.1524
 20
170.427
 10
328.1965
 20
170.4664
 10
328.2409
 20
170.485
 10
328.2843
 20
170.4809
 10
328.3237
 20
170.4537
 10
328.3564
 20
170.4058
 10
328.3821
 20
170.3401
 10
328.4004
 20
170.2589
 10
328.4107
 20
170.1651
 10
328.4126
 20
170.0611
 10
328.4059
 20
169.9495
 10
328.3899
 20
169.8331
 10
328.3657
 20
169.7198
 10
328.3351
 20
169.6173
 10
328.2994
 20
169.5275
 10
328.2596
 20
169.4526
 10
328.2171
 20
169.3945
 10
328.1731
 20
169.3551
 10
328.1287
 20
169.3364
 10
328.0853
 20
169.3405
  0
LWPOLYLINE
  5
79
330
1F
100
AcDbEntity
  8
Layer 1
 62
     7
370
    18
100
AcDbPolyline
 90
       33
 70
     1
 43
0.0
 10
332.1538
 20
169.3374
 10
332.1144
 20
169.3647
 10
332.0817
 20
169.4125
 10
332.056
 20
169.4783
 10
332.0377
 20
169.5595
 10
332.0273
 20
169.6534
 10
332.0253
 20
169.7574
 10
332.0319
 20
169.8689
 10
332.0477
 20
169.9854
 10
332.072
 20
170.0987
 10
332.1027
 20
170.2011
 10
332.1386
 20
170.2908
 10
332.1784
 20
170.3657
 10
332.221
 20
170.4239
 10
332.265
 20
170.4633
 10
332.3094
 20
170.4819
 10
332.3528
 20
170.4778
 10
332.3922
 20
170.4506
 10
332.425
 20
170.4027
 10
332.4507
 20
170.337
 10
332.4689
 20
170.2558
 10
332.4792
 20
170.162
 10
332.4812
 20
170.058
 10
332.4744
 20
169.9464
 10
332.4584
 20
169.83
 10
332.4343
 20
169.7167
 10
332.4037
 20
169.6142
 10
332.3679
 20
169.5245
 10
332.3282
 20
169.4496
 10
332.2856
 20
169.3914
 10
332.2416
 20
169.352
 10
332.1972
 20
169.3333
 10
332.1538
 20
169.3374
  0
LWPOLYLINE
  5
7A
330
1F
100
AcDbEntity
  8
Layer 1
 62
     7
370
    18
100
AcDbPolyline
 90
       33
 70
     1
 43
0.0
 10
329.2554
 20
170.3873
 10
329.216
 20
170.4146
 10
329.1832
 20
170.4624
 10
329.1575
 20
170.5282
 10
329.1392
 20
170.6094
 10
329.1289
 20
170.7033
 10
329.1268
 20
170.8073
 10
329.1335
 20
170.9188
 10
329.1493
 20
171.0353
 10
329.1736
 20
171.1486
 10
329.2043
 20
171.251
 10
329.2402
 20
171.3407
 10
329.28
 20
171.4156
 10
329.3225
 20
171.4738
 10
329.3666
 20
171.5132
 10
329.411
 20
171.5318
 10
329.4544
 20
171.5277
 10
329.4938
 20
171.5005
 10
329.5265
 20
171.4526
 10
329.5522
 20
171.3869
 10
329.5704
 20
171.3057
 10
329.5807
 20
171.2119
 10
329.5827
 20
171.1079
 10
329.576
 20
170.9963
 10
329.56
 20
170.8799
 10
329.5358
 20
170.7666
 10
329.5052
 20
170.6641
 10
329.4695
 20
170.5743
 10
329.4297
 20
170.4994
 10
329.3872
 20
170.4413
 10
329.3432
 20
170.4019
 10
329.2988
 20
170.3832
 10
329.2554
 20
170.3873
  0
LWPOLYLINE
  5
7B
330
1F
100
AcDbEntity
  8
Layer 1
 62
     7
370
    18
100
AcDbPolyline
 90
      368
 70
     0
 43
0.0
 10
337.4675
 20
180.9405
 10
384.7439
 20
176.1032
 10
384.8617
 20
176.1407
 10
385.1748
 20
176.2283
 10
385.3856
 20
176.279
 10
385.6226
 20
176.3281
 10
385.8782
 20
176.3709
 10
386.1447
 20
176.4027
 10
386.4532
 20
176.4128
 10
386.8193
 20
176.3984
 10
387.2126
 20
176.3666
 10
387.6027
 20
176.3246
 10
387.9591
 20
176.2796
 10
388.2514
 20
176.2386
 10
388.449
 20
176.2087
 10
388.5217
 20
176.1972
 10
388.6016
 20
176.1855
 10
388.8187
 20
176.1359
 10
389.1389
 20
176.0265
 10
389.5281
 20
175.8354
 10
389.9522
 20
175.5407
 10
390.3772
 20
175.1206
 10
390.769
 20
174.5532
 10
391.0936
 20
173.8166
 10
391.1069
 20
173.7953
 10
391.1426
 20
173.7256
 10
391.1939
 20
173.5988
 10
391.2542
 20
173.4059
 10
391.3169
 20
173.1382
 10
391.3755
 20
172.787
 10
391.4232
 20
172.3434
 10
391.4534
 20
171.7986
 10
391.5047
 20
170.8242
 10
391.6079
 20
169.2479
 10
391.7449
 20
167.2953
 10
391.8976
 20
165.1919
 10
392.0478
 20
163.1633
 10
392.1776
 20
161.4351
 10
392.2687
 20
160.2327
 10
392.3031
 20
159.7818
 10
392.3113
 20
159.6236
 10
392.34
 20
159.1871
 10
392.3955
 20
158.5295
 10
392.484
 20
157.7079
 10
392.6117
 20
156.7796
 10
392.7848
 20
155.8017
 10
393.0096
 20
154.8313
 10
393.2922
 20
153.9257
 10
393.7208
 20
152.4438
 10
394.3303
 20
149.9541
 10
395.0474
 20
146.8282
 10
395.7986
 20
143.4376
 10
396.5106
 20
140.1538
 10
397.1101
 20
137.3482
 10
397.5236
 20
135.3925
 10
397.6777
 20
134.658
 10
397.7245
 20
134.4278
 10
397.841
 20
133.7951
 10
397.9909
 20
132.8471
 10
398.1381
 20
131.6708
 10
398.2466
 20
130.3533
 10
398.2802
 20
128.9816
 10
398.2028
 20
127.6428
 10
397.9782
 20
126.4239
 10
397.6323
 20
125.4171
 10
397.2349
 20
124.6374
 10
396.8161
 20
124.0563
 10
396.406
 20
123.645
 10
396.0347
 20
123.3749
 10
395.7322
 20
123.2175
 10
395.5286
 20
123.144
 10
395.4541
 20
123.1259
 10
395.3721
 20
123.0996
 10
395.1437
 20
123.031
 10
394.7948
 20
122.9356
 10
394.3517
 20
122.8287
 10
393.8403
 20
122.7258
 10
393.2869
 20
122.6424
 10
392.7175
 20
122.5939
 10
392.1582
 20
122.5957
 10
390.385
 20
122.6909
 10
390.302
 20
122.7297
 10
390.0747
 20
122.8489
 10
389.7355
 20
123.0523
 10
389.3166
 20
123.344
 10
388.8505
 20
123.7279
 10
388.3696
 20
124.208
 10
387.9062
 20
124.7884
 10
387.4927
 20
125.4729
 10
386.8748
 20
127.1731
 10
385.8724
 20
130.431
 10
384.6295
 20
134.6968
 10
383.2899
 20
139.4203
 10
381.9976
 20
144.0516
 10
380.8963
 20
148.0407
 10
380.1301
 20
150.8374
 10
379.8427
 20
151.8919
 10
379.8027
 20
151.9871
 10
379.7099
 20
152.2154
 10
379.605
 20
152.4905
 10
379.5287
 20
152.7262
 10
379.4833
 20
152.8844
 10
379.406
 20
153.1499
 10
379.3125
 20
153.4898
 10
379.2184
 20
153.8714
 10
379.1393
 20
154.2618
 10
379.091
 20
154.6282
 10
379.0892
 20
154.9378
 10
379.1494
 20
155.1577
 10
375.8896
 20
155.6872
 10
375.9055
 20
155.5726
 10
375.9405
 20
155.2596
 10
375.9758
 20
154.7942
 10
375.9925
 20
154.2222
 10
375.9719
 20
153.5896
 10
375.8951
 20
152.9425
 10
375.7433
 20
152.3268
 10
375.4975
 20
151.7885
 10
375.3754
 20
151.5507
 10
373.8407
 20
52.1157
 10
373.9229
 20
52.1008
 10
374.1436
 20
52.0504
 10
374.4634
 20
51.9563
 10
374.8435
 20
51.81
 10
375.2445
 20
51.6032
 10
375.6274
 20
51.3275
 10
375.9531
 20
50.9745
 10
376.1825
 20
50.5359
 10
376.1892
 20
50.5159
 10
376.2033
 20
50.4587
 10
376.2155
 20
50.3683
 10
376.2165
 20
50.2488
 10
376.1972
 20
50.1043
 10
376.1483
 20
49.9388
 10
376.0605
 20
49.7564
 10
375.9247
 20
49.5612
 10
373.863
 20
49.361
 10
373.9049
 20
47.5738
 10
375.0572
 20
46.9539
 10
373.9765
 20
46.3467
 10
373.9682
 20
46.3339
 10
373.9607
 20
46.3009
 10
373.9655
 20
46.2794
 10
373.9803
 20
46.2559
 10
374.0084
 20
46.2316
 10
374.0532
 20
46.2073
 10
374.0699
 20
46.0637
 10
374.2568
 20
45.9702
 10
374.6744
 20
45.7256
 10
374.9027
 20
45.5635
 10
375.1082
 20
45.3838
 10
375.2642
 20
45.1934
 10
375.3438
 20
44.999
 10
374.0586
 20
44.0293
 10
374.0493
 20
43.7482
 10
374.8754
 20
43.4261
 10
374.9541
 20
43.3491
 10
375.1103
 20
43.1525
 10
375.18
 20
43.0253
 10
375.2242
 20
42.8875
 10
375.228
 20
42.7456
 10
375.1762
 20
42.6058
 10
375.0694
 20
42.4726
 10
374.928
 20
42.3477
 10
374.7671
 20
42.2342
 10
374.6017
 20
42.1349
 10
374.3176
 20
41.9902
 10
374.1962
 20
41.9369
 10
374.1996
 20
41.9183
 10
374.2128
 20
41.8773
 10
374.2245
 20
41.8553
 10
374.2403
 20
41.8361
 10
374.2608
 20
41.8224
 10
374.2865
 20
41.817
 10
374.3043
 20
41.8064
 10
374.3038
 20
41.779
 10
374.2898
 20
41.7403
 10
374.2674
 20
41.6961
 10
374.2168
 20
41.6134
 10
374.1912
 20
41.5758
 10
374.3062
 20
41.5685
 10
374.5706
 20
41.5352
 10
374.721
 20
41.5034
 10
374.8635
 20
41.4586
 10
374.9829
 20
41.3988
 10
375.0641
 20
41.3216
 10
375.0983
 20
41.227
 10
375.0919
 20
41.1203
 10
375.0528
 20
41.0076
 10
374.9888
 20
40.8949
 10
374.9076
 20
40.7883
 10
374.8171
 20
40.6938
 10
374.7251
 20
40.6174
 10
374.6393
 20
40.5653
 10
374.2354
 20
40.5005
 10
373.2615
 20
40.3909
 10
371.8343
 20
40.2493
 10
370.0706
 20
40.0888
 10
368.0871
 20
39.9223
 10
366.0004
 20
39.7629
 10
363.9274
 20
39.6235
 10
361.9846
 20
39.517
 10
360.0805
 20
39.4564
 10
358.1052
 20
39.4406
 10
356.1485
 20
39.4621
 10
354.2998
 20
39.5134
 10
352.6488
 20
39.5868
 10
351.285
 20
39.6747
 10
350.2982
 20
39.7697
 10
349.7778
 20
39.864
 10
349.6553
 20
39.8897
 10
349.3723
 20
39.9585
 10
349.21
 20
40.0051
 10
349.055
 20
40.0579
 10
348.9231
 20
40.1152
 10
348.8301
 20
40.1756
 10
348.9979
 20
40.2548
 10
349.3838
 20
40.4499
 10
349.6036
 20
40.5708
 10
349.812
 20
40.6967
 10
349.9869
 20
40.8195
 10
350.1063
 20
40.9313
 10
350.1504
 20
41.0364
 10
350.1266
 20
41.1418
 10
350.0541
 20
41.243
 10
349.952
 20
41.3356
 10
349.7351
 20
41.4776
 10
349.6289
 20
41.5327
 10
349.5131
 20
41.5668
 10
349.2514
 20
41.6592
 10
349.1062
 20
41.7226
 10
348.9728
 20
41.7949
 10
348.8673
 20
41.8744
 10
348.8059
 20
41.959
 10
348.784
 20
42.0494
 10
348.7858
 20
42.1446
 10
348.8104
 20
42.2402
 10
348.8565
 20
42.3321
 10
348.9234
 20
42.4158
 10
349.0099
 20
42.4871
 10
349.1151
 20
42.5417
 10
349.238
 20
42.5753
 10
349.5661
 20
42.6468
 10
349.9462
 20
42.7476
 10
350.2606
 20
42.8376
 10
350.3916
 20
42.8765
 10
350.4094
 20
42.9437
 10
350.4282
 20
43.1014
 10
350.4218
 20
43.1937
 10
350.396
 20
43.2839
 10
350.3445
 20
43.364
 10
350.2608
 20
43.4257
 10
348.8289
 20
44.1822
 10
348.8158
 20
44.2287
 10
348.8061
 20
44.3395
 10
348.8164
 20
44.4056
 10
348.8441
 20
44.4716
 10
348.8948
 20
44.5323
 10
348.974
 20
44.5822
 10
349.0973
 20
44.6272
 10
349.2642
 20
44.6748
 10
349.4563
 20
44.7225
 10
349.6549
 20
44.7675
 10
349.9979
 20
44.8388
 10
350.1451
 20
44.8673
 10
350.1635
 20
44.8922
 10
350.2067
 20
44.9606
 10
350.257
 20
45.0633
 10
350.2965
 20
45.191
 10
350.3073
 20
45.3344
 10
350.2718
 20
45.4844
 10
350.1721
 20
45.6316
 10
349.9903
 20
45.7668
 10
349.7623
 20
45.8832
 10
349.5404
 20
45.9819
 10
349.3314
 20
46.0655
 10
349.1422
 20
46.1365
 10
348.9795
 20
46.1974
 10
348.8501
 20
46.2509
 10
348.761
 20
46.2994
 10
348.7189
 20
46.3454
 10
348.7172
 20
46.3988
 10
348.7436
 20
46.4647
 10
348.7963
 20
46.5388
 10
348.8738
 20
46.6169
 10
348.9743
 20
46.6946
 10
349.0962
 20
46.7677
 10
349.2378
 20
46.8317
 10
349.3974
 20
46.8825
 10
349.5604
 20
46.9338
 10
349.7121
 20
47.0013
 10
349.8511
 20
47.0829
 10
349.9757
 20
47.177
 10
350.0843
 20
47.2817
 10
350.1755
 20
47.3953
 10
350.2475
 20
47.5158
 10
350.2988
 20
47.6416
 10
350.3374
 20
47.8204
 10
350.3722
 20
48.0797
 10
350.4026
 20
48.3874
 10
350.4284
 20
48.7113
 10
350.4491
 20
49.0193
 10
350.4643
 20
49.2791
 10
350.4738
 20
49.4585
 10
350.477
 20
49.5255
 10
350.4567
 20
49.5586
 10
350.4006
 20
49.6311
 10
350.3614
 20
49.6697
 10
350.316
 20
49.7031
 10
350.2653
 20
49.7264
 10
350.2103
 20
49.7345
 10
350.08
 20
49.7474
 10
349.8304
 20
49.7848
 10
349.5021
 20
49.8411
 10
349.136
 20
49.9109
 10
348.7731
 20
49.9887
 10
348.454
 20
50.0688
 10
348.2197
 20
50.1458
 10
348.1109
 20
50.2142
 10
348.0793
 20
50.2985
 10
348.0542
 20
50.4214
 10
348.0433
 20
50.5746
 10
348.0542
 20
50.7497
 10
348.0946
 20
50.9385
 10
348.1721
 20
51.1327
 10
348.2944
 20
51.3239
 10
348.4691
 20
51.5038
 10
348.6731
 20
51.6819
 10
348.8804
 20
51.8687
 10
349.0939
 20
52.0575
 10
349.317
 20
52.242
 10
349.5526
 20
52.4155
 10
349.8039
 20
52.5714
 10
350.074
 20
52.7032
 10
350.366
 20
52.8044
 10
350.3775
 20
52.8087
 10
350.4083
 20
52.8251
 10
350.4527
 20
52.8591
 10
350.505
 20
52.9158
 10
350.5595
 20
53.0008
 10
350.6107
 20
53.1193
 10
350.6528
 20
53.2767
 10
350.6801
 20
53.4783
 10
350.7884
 20
57.8923
 10
351.0441
 20
69.155
 10
351.3973
 20
84.9741
 10
351.7981
 20
103.0573
 10
352.1967
 20
121.1124
 10
352.5431
 20
136.8469
 10
352.7875
 20
147.9687
 10
352.8801
 20
152.1853
 10
352.9201
 20
156.0346
 10
352.9148
 20
156.1128
 10
352.8867
 20
156.3195
 10
352.8176
 20
156.6132
 10
352.6893
 20
156.952
 10
352.4837
 20
157.2944
 10
352.1825
 20
157.5985
 10
351.7675
 20
157.8227
 10
351.2206
 20
157.9254
 10
350.0529
 20
157.9863
 10
348.0013
 20
158.1006
 10
345.3863
 20
158.2494
 10
342.5282
 20
158.4135
 10
339.7475
 20
158.5742
 10
337.3645
 20
158.7125
 10
335.6998
 20
158.8093
 10
335.0737
 20
158.8458
  0
LWPOLYLINE
  5
7C
330
1F
100
AcDbEntity
  8
Layer 1
 62
     7
370
    18
100
AcDbPolyline
 90
        9
 70
     0
 43
0.0
 10
352.8827
 20
152.4666
 10
353.527
 20
152.5656
 10
355.2931
 20
152.7993
 10
357.9314
 20
153.0726
 10
361.1917
 20
153.2905
 10
364.8242
 20
153.358
 10
368.5791
 20
153.1802
 10
372.2064
 20
152.662
 10
375.4562
 20
151.7083
  0
LWPOLYLINE
  5
7D
330
1F
100
AcDbEntity
  8
Layer 1
 62
     7
370
    18
100
AcDbPolyline
 90
       17
 70
     0
 43
0.0
 10
349.9446
 20
47.1516
 10
350.3534
 20
47.1304
 10
351.4543
 20
47.0739
 10
353.0591
 20
46.9931
 10
354.9793
 20
46.8988
 10
357.0269
 20
46.8018
 10
359.0134
 20
46.7129
 10
360.7507
 20
46.6431
 10
362.0504
 20
46.6031
 10
363.3246
 20
46.5945
 10
364.9984
 20
46.614
 10
366.9033
 20
46.6653
 10
368.8704
 20
46.7522
 10
370.7313
 20
46.8781
 10
372.3172
 20
47.047
 10
373.4595
 20
47.2622
 10
373.9897
 20
47.5277
  0
LWPOLYLINE
  5
7E
330
1F
100
AcDbEntity
  8
Layer 1
 62
     7
370
    18
100
AcDbPolyline
 90
       17
 70
     0
 43
0.0
 10
350.0986
 20
45.7235
 10
350.5074
 20
45.7023
 10
351.6083
 20
45.6459
 10
353.2131
 20
45.5651
 10
355.1334
 20
45.4707
 10
357.1809
 20
45.3737
 10
359.1675
 20
45.2849
 10
360.9048
 20
45.215
 10
362.2045
 20
45.175
 10
363.4787
 20
45.1664
 10
365.1525
 20
45.1859
 10
367.0573
 20
45.2373
 10
369.0244
 20
45.3241
 10
370.8853
 20
45.4501
 10
372.4712
 20
45.6189
 10
373.6135
 20
45.8342
 10
374.1437
 20
46.0996
  0
LWPOLYLINE
  5
7F
330
1F
100
AcDbEntity
  8
Layer 1
 62
     7
370
    18
100
AcDbPolyline
 90
       17
 70
     0
 43
0.0
 10
349.3042
 20
44.1962
 10
349.7343
 20
44.1739
 10
350.8924
 20
44.1145
 10
352.5806
 20
44.0295
 10
354.6008
 20
43.9302
 10
356.7548
 20
43.8282
 10
358.8447
 20
43.7348
 10
360.6723
 20
43.6614
 10
362.0396
 20
43.6195
 10
363.3802
 20
43.6104
 10
365.141
 20
43.6308
 10
367.1448
 20
43.6848
 10
369.2142
 20
43.7761
 10
371.1718
 20
43.9086
 10
372.8401
 20
44.0862
 10
374.0419
 20
44.3127
 10
374.5997
 20
44.5921
  0
LWPOLYLINE
  5
80
330
1F
100
AcDbEntity
  8
Layer 1
 62
     7
370
    18
100
AcDbPolyline
 90
       17
 70
     0
 43
0.0
 10
349.6591
 20
42.6624
 10
350.0911
 20
42.6426
 10
351.2545
 20
42.5901
 10
352.9503
 20
42.5151
 10
354.9796
 20
42.4279
 10
357.1432
 20
42.3386
 10
359.2424
 20
42.2576
 10
361.0781
 20
42.195
 10
362.4513
 20
42.1611
 10
363.7976
 20
42.1603
 10
365.5657
 20
42.1918
 10
367.5777
 20
42.2583
 10
369.6552
 20
42.3627
 10
371.6202
 20
42.5078
 10
373.2944
 20
42.6964
 10
374.4998
 20
42.9312
 10
375.0582
 20
43.2152
  0
LWPOLYLINE
  5
81
330
1F
100
AcDbEntity
  8
Layer 1
 62
     7
370
    18
100
AcDbPolyline
 90
       17
 70
     0
 43
0.0
 10
350.2546
 20
41.3205
 10
350.6676
 20
41.3016
 10
351.78
 20
41.2514
 10
353.4013
 20
41.1798
 10
355.3414
 20
41.0964
 10
357.41
 20
41.0111
 10
359.417
 20
40.9337
 10
361.1719
 20
40.8739
 10
362.4847
 20
40.8415
 10
363.7719
 20
40.8407
 10
365.4624
 20
40.8707
 10
367.386
 20
40.9343
 10
369.3722
 20
41.0342
 10
371.2508
 20
41.1729
 10
372.8515
 20
41.3532
 10
374.0039
 20
41.5777
 10
374.5377
 20
41.8491
  0
LWPOLYLINE
  5
82
330
1F
100
AcDbEntity
  8
Layer 1
 62
     7
370
     9
100
AcDbPolyline
 90
        2
 70
     0
 43
0.0
 10
374.1344
 20
40.7646
 10
421.2738
 20
41.7497
  0
LWPOLYLINE
  5
83
330
1F
100
AcDbEntity
  8
Layer 1
 62
     7
370
     9
100
AcDbPolyline
 90
        2
 70
     0
 43
0.0
 10
342.9016
 20
180.4666
 10
422.1245
 20
181.3759
  0
LWPOLYLINE
  5
84
330
1F
100
AcDbEntity
  8
Layer 1
 62
     7
370
     9
100
AcDbPolyline
 90
        2
 70
     0
 43
0.0
 10
412.3423
 20
181.2476
 10
413.6257
 20
41.6705
  0
LWPOLYLINE
  5
85
330
1F
100
AcDbEntity
  8
Layer 1
 62
     7
370
     9
100
AcDbPolyline
 90
        7
 70
     1
 43
0.0
 10
438.5093
 20
91.1582
 10
438.4968
 20
92.3365
 10
426.9215
 20
92.2159
 10
427.2537
 20
89.3916
 10
428.2799
 20
89.4023
 10
428.2626
 20
91.0518
 10
438.5093
 20
91.1582
  0
LWPOLYLINE
  5
86
330
1F
100
AcDbEntity
  8
Layer 1
 62
     7
370
     9
100
AcDbPolyline
 90
      162
 70
     1
 43
0.0
 10
438.1355
 20
123.878
 10
438.1236
 20
125.0563
 10
433.4965
 20
125.0082
 10
433.1896
 20
124.9955
 10
432.8973
 20
124.9638
 10
432.6196
 20
124.9129
 10
432.3566
 20
124.843
 10
432.1083
 20
124.754
 10
431.8746
 20
124.646
 10
431.6555
 20
124.519
 10
431.4512
 20
124.373
 10
431.3533
 20
124.2916
 10
431.2605
 20
124.2053
 10
431.1729
 20
124.114
 10
431.0904
 20
124.0178
 10
431.013
 20
123.9166
 10
430.9407
 20
123.8105
 10
430.8734
 20
123.6994
 10
430.8112
 20
123.5833
 10
430.7552
 20
123.4601
 10
430.7069
 20
123.3275
 10
430.6664
 20
123.1855
 10
430.6337
 20
123.0342
 10
430.6087
 20
122.8735
 10
430.5915
 20
122.7035
 10
430.5819
 20
122.5241
 10
430.5801
 20
122.3354
 10
430.5886
 20
122.1449
 10
430.6102
 20
121.9606
 10
430.6448
 20
121.7825
 10
430.6925
 20
121.6106
 10
430.7533
 20
121.4449
 10
430.8272
 20
121.2854
 10
430.9142
 20
121.132
 10
431.0144
 20
120.9848
 10
431.1141
 20
120.8572
 10
431.221
 20
120.7354
 10
431.3351
 20
120.6196
 10
431.4563
 20
120.5096
 10
431.5844
 20
120.4054
 10
431.7195
 20
120.3071
 10
431.8615
 20
120.2146
 10
432.0103
 20
120.1279
 10
431.8747
 20
120.0583
 10
431.7437
 20
119.9823
 10
431.618
 20
119.8999
 10
431.4981
 20
119.8112
 10
431.4004
 20
119.7299
 10
431.3078
 20
119.6436
 10
431.2203
 20
119.5524
 10
431.1378
 20
119.4563
 10
431.0604
 20
119.3552
 10
430.988
 20
119.2492
 10
430.9206
 20
119.1381
 10
430.8582
 20
119.0221
 10
430.8023
 20
118.8989
 10
430.7541
 20
118.7663
 10
430.7136
 20
118.6243
 10
430.6809
 20
118.473
 10
430.6558
 20
118.3124
 10
430.6385
 20
118.1423
 10
430.6289
 20
117.9629
 10
430.627
 20
117.7742
 10
430.6356
 20
117.5837
 10
430.6572
 20
117.3993
 10
430.692
 20
117.2212
 10
430.7398
 20
117.0492
 10
430.8007
 20
116.8835
 10
430.8747
 20
116.7239
 10
430.9618
 20
116.5706
 10
431.062
 20
116.4236
 10
431.1568
 20
116.3019
 10
431.2579
 20
116.1856
 10
431.3654
 20
116.0746
 10
431.4792
 20
115.9689
 10
431.5995
 20
115.8686
 10
431.7261
 20
115.7736
 10
431.8591
 20
115.6838
 10
431.9985
 20
115.5994
 10
430.8178
 20
115.5875
 10
430.8302
 20
114.4098
 10
438.233
 20
114.4864
 10
438.2211
 20
115.6642
 10
434.433
 20
115.625
 10
434.212
 20
115.65
 10
433.9995
 20
115.6835
 10
433.7955
 20
115.7255
 10
433.5998
 20
115.776
 10
433.4125
 20
115.8351
 10
433.2335
 20
115.9027
 10
433.0626
 20
115.9788
 10
432.8999
 20
116.0635
 10
432.784
 20
116.1326
 10
432.6733
 20
116.2075
 10
432.5678
 20
116.2882
 10
432.4675
 20
116.3747
 10
432.3725
 20
116.4671
 10
432.2826
 20
116.5653
 10
432.198
 20
116.6695
 10
432.1185
 20
116.7795
 10
432.0463
 20
116.8934
 10
431.9836
 20
117.0095
 10
431.9303
 20
117.1278
 10
431.8864
 20
117.2483
 10
431.8519
 20
117.371
 10
431.8269
 20
117.4959
 10
431.8114
 20
117.6229
 10
431.8053
 20
117.7522
 10
431.8065
 20
117.8786
 10
431.8128
 20
117.9965
 10
431.8241
 20
118.1061
 10
431.8406
 20
118.2073
 10
431.862
 20
118.3001
 10
431.8886
 20
118.3845
 10
431.9202
 20
118.4606
 10
431.9569
 20
118.5283
 10
432.0807
 20
118.6992
 10
432.2263
 20
118.8476
 10
432.3936
 20
118.9737
 10
432.5826
 20
119.0775
 10
432.7934
 20
119.1588
 10
433.026
 20
119.2178
 10
433.2804
 20
119.2544
 10
433.5565
 20
119.2687
 10
438.183
 20
119.3168
 10
438.1706
 20
120.4951
 10
433.544
 20
120.447
 10
433.2612
 20
120.4357
 10
432.8523
 20
120.6253
 10
432.7364
 20
120.6942
 10
432.6257
 20
120.769
 10
432.5202
 20
120.8497
 10
432.42
 20
120.9362
 10
432.3249
 20
121.0286
 10
432.2351
 20
121.1268
 10
432.1505
 20
121.2308
 10
432.071
 20
121.3407
 10
431.9988
 20
121.4547
 10
431.9361
 20
121.5709
 10
431.8828
 20
121.6893
 10
431.8389
 20
121.8098
 10
431.8044
 20
121.9325
 10
431.7794
 20
122.0574
 10
431.7639
 20
122.1846
 10
431.7578
 20
122.314
 10
431.759
 20
122.4402
 10
431.7653
 20
122.5581
 10
431.7768
 20
122.6676
 10
431.7933
 20
122.7688
 10
431.8149
 20
122.8616
 10
431.8415
 20
122.946
 10
431.8732
 20
123.022
 10
431.9099
 20
123.0895
 10
432.0336
 20
123.2605
 10
432.179
 20
123.4091
 10
432.3462
 20
123.5353
 10
432.5352
 20
123.639
 10
432.746
 20
123.7203
 10
432.9785
 20
123.7793
 10
433.2329
 20
123.8158
 10
433.509
 20
123.8299
 10
438.1355
 20
123.878
  0
LWPOLYLINE
  5
87
330
1F
100
AcDbEntity
  8
Layer 1
 62
     7
370
     9
100
AcDbPolyline
 90
      162
 70
     1
 43
0.0
 10
438.0024
 20
136.7208
 10
437.9905
 20
137.8991
 10
433.3634
 20
137.8509
 10
433.0565
 20
137.8382
 10
432.7642
 20
137.8065
 10
432.4865
 20
137.7556
 10
432.2235
 20
137.6857
 10
431.975
 20
137.5966
 10
431.7412
 20
137.4885
 10
431.522
 20
137.3613
 10
431.3175
 20
137.2151
 10
431.2198
 20
137.134
 10
431.1272
 20
137.0478
 10
431.0397
 20
136.9566
 10
430.9572
 20
136.8605
 10
430.8798
 20
136.7593
 10
430.8074
 20
136.6532
 10
430.7399
 20
136.5421
 10
430.6775
 20
136.426
 10
430.6216
 20
136.3028
 10
430.5735
 20
136.1702
 10
430.533
 20
136.0283
 10
430.5002
 20
135.877
 10
430.4752
 20
135.7163
 10
430.4578
 20
135.5463
 10
430.4483
 20
135.3669
 10
430.4464
 20
135.1782
 10
430.4549
 20
134.9876
 10
430.4766
 20
134.8033
 10
430.5113
 20
134.6251
 10
430.5591
 20
134.4531
 10
430.62
 20
134.2873
 10
430.694
 20
134.1276
 10
430.7811
 20
133.9742
 10
430.8813
 20
133.8269
 10
430.981
 20
133.6995
 10
431.0878
 20
133.5779
 10
431.2018
 20
133.4621
 10
431.3229
 20
133.3522
 10
431.451
 20
133.2481
 10
431.5862
 20
133.1498
 10
431.7282
 20
133.0574
 10
431.8772
 20
132.9707
 10
431.7416
 20
132.901
 10
431.6106
 20
132.825
 10
431.4849
 20
132.7426
 10
431.365
 20
132.6539
 10
431.2673
 20
132.5726
 10
431.1746
 20
132.4863
 10
431.087
 20
132.395
 10
431.0045
 20
132.2988
 10
430.927
 20
132.1977
 10
430.8546
 20
132.0917
 10
430.7873
 20
131.9807
 10
430.7251
 20
131.8648
 10
430.6692
 20
131.7416
 10
430.621
 20
131.609
 10
430.5805
 20
131.467
 10
430.5478
 20
131.3157
 10
430.5227
 20
131.155
 10
430.5054
 20
130.9849
 10
430.4958
 20
130.8053
 10
430.4939
 20
130.6164
 10
430.5025
 20
130.4259
 10
430.5241
 20
130.2416
 10
430.5588
 20
130.0635
 10
430.6066
 20
129.8917
 10
430.6674
 20
129.726
 10
430.7413
 20
129.5666
 10
430.8283
 20
129.4134
 10
430.9283
 20
129.2663
 10
431.0233
 20
129.1447
 10
431.1245
 20
129.0283
 10
431.2321
 20
128.9174
 10
431.346
 20
128.8117
 10
431.4663
 20
128.7113
 10
431.593
 20
128.6163
 10
431.726
 20
128.5266
 10
431.8654
 20
128.4422
 10
430.6847
 20
128.4303
 10
430.6971
 20
127.2525
 10
438.0999
 20
127.3292
 10
438.088
 20
128.5069
 10
434.2993
 20
128.4677
 10
434.0785
 20
128.4927
 10
433.8661
 20
128.5262
 10
433.6622
 20
128.5682
 10
433.4666
 20
128.6188
 10
433.2794
 20
128.6778
 10
433.1003
 20
128.7454
 10
432.9295
 20
128.8216
 10
432.7668
 20
128.9062
 10
432.6509
 20
128.9751
 10
432.5402
 20
129.0499
 10
432.4347
 20
129.1306
 10
432.3344
 20
129.2172
 10
432.2394
 20
129.3095
 10
432.1495
 20
129.4078
 10
432.0649
 20
129.5118
 10
431.9854
 20
129.6217
 10
431.9131
 20
129.7357
 10
431.8502
 20
129.852
 10
431.7969
 20
129.9704
 10
431.7531
 20
130.091
 10
431.7187
 20
130.2137
 10
431.6937
 20
130.3386
 10
431.6783
 20
130.4657
 10
431.6722
 20
130.595
 10
431.6734
 20
130.7214
 10
431.6797
 20
130.8393
 10
431.691
 20
130.9489
 10
431.7075
 20
131.0501
 10
431.7289
 20
131.1429
 10
431.7555
 20
131.2273
 10
431.7871
 20
131.3033
 10
431.8238
 20
131.371
 10
431.9474
 20
131.5419
 10
432.0929
 20
131.6903
 10
432.2602
 20
131.8164
 10
432.4492
 20
131.9202
 10
432.66
 20
132.0015
 10
432.8926
 20
132.0605
 10
433.1468
 20
132.0971
 10
433.4228
 20
132.1114
 10
438.0499
 20
132.1596
 10
438.0375
 20
133.3373
 10
433.4109
 20
133.2898
 10
433.1281
 20
133.2785
 10
432.7192
 20
133.468
 10
432.6033
 20
133.5369
 10
432.4926
 20
133.6116
 10
432.3871
 20
133.6922
 10
432.2869
 20
133.7787
 10
432.1918
 20
133.8711
 10
432.102
 20
133.9693
 10
432.0174
 20
134.0735
 10
431.9379
 20
134.1835
 10
431.8657
 20
134.2973
 10
431.8029
 20
134.4134
 10
431.7496
 20
134.5317
 10
431.7057
 20
134.6523
 10
431.6713
 20
134.7751
 10
431.6463
 20
134.9001
 10
431.6308
 20
135.0273
 10
431.6247
 20
135.1568
 10
431.6259
 20
135.283
 10
431.6321
 20
135.4008
 10
431.6435
 20
135.5103
 10
431.6599
 20
135.6114
 10
431.6813
 20
135.7041
 10
431.7079
 20
135.7885
 10
431.7395
 20
135.8645
 10
431.7762
 20
135.9322
 10
431.9
 20
136.1033
 10
432.0456
 20
136.2519
 10
432.2129
 20
136.3781
 10
432.402
 20
136.4818
 10
432.6128
 20
136.5631
 10
432.8454
 20
136.622
 10
433.0998
 20
136.6585
 10
433.3759
 20
136.6726
 10
438.0024
 20
136.7208
  0
LWPOLYLINE
  5
88
330
1F
100
AcDbEntity
  8
Layer 1
 62
     7
370
     9
100
AcDbPolyline
 90
        7
 70
     1
 43
0.0
 10
438.4588
 20
95.9885
 10
438.4469
 20
97.1669
 10
426.871
 20
97.0468
 10
427.2037
 20
94.2225
 10
428.23
 20
94.2332
 10
428.2127
 20
95.8822
 10
438.4588
 20
95.9885
  0
LWPOLYLINE
  5
89
330
1F
100
AcDbEntity
  8
Layer 1
 62
     7
370
     9
100
AcDbPolyline
 90
       87
 70
     1
 43
0.0
 10
438.4237
 20
99.3892
 10
438.3399
 20
107.4509
 10
437.1622
 20
107.4391
 10
437.2163
 20
102.2213
 10
433.2214
 20
106.1692
 10
432.9339
 20
106.4267
 10
432.6326
 20
106.6493
 10
432.3175
 20
106.837
 10
431.9886
 20
106.9899
 10
431.6458
 20
107.1078
 10
431.2892
 20
107.1909
 10
430.9187
 20
107.2391
 10
430.5343
 20
107.2525
 10
430.1419
 20
107.2306
 10
429.7656
 20
107.1735
 10
429.4053
 20
107.081
 10
429.0612
 20
106.9532
 10
428.7331
 20
106.7901
 10
428.4213
 20
106.5916
 10
428.1256
 20
106.3577
 10
427.8461
 20
106.0884
 10
427.5869
 20
105.7898
 10
427.3628
 20
105.4784
 10
427.1738
 20
105.1542
 10
427.0199
 20
104.8172
 10
426.9012
 20
104.4675
 10
426.8175
 20
104.105
 10
426.769
 20
103.7298
 10
426.7557
 20
103.3419
 10
426.7783
 20
102.9392
 10
426.8375
 20
102.5519
 10
426.9334
 20
102.18
 10
427.0659
 20
101.8234
 10
427.2351
 20
101.4823
 10
427.4409
 20
101.1565
 10
427.6834
 20
100.846
 10
427.9626
 20
100.5509
 10
428.2621
 20
100.289
 10
428.5768
 20
100.0647
 10
428.9067
 20
99.8782
 10
429.2517
 20
99.7294
 10
429.6119
 20
99.6184
 10
429.9872
 20
99.5452
 10
430.3777
 20
99.5098
 10
430.7833
 20
99.5122
 10
430.7708
 20
100.7072
 10
430.5078
 20
100.6943
 10
430.2506
 20
100.7099
 10
429.9991
 20
100.754
 10
429.7534
 20
100.8266
 10
429.5135
 20
100.9278
 10
429.2793
 20
101.0575
 10
429.0509
 20
101.2157
 10
428.8283
 20
101.4024
 10
428.6292
 20
101.6022
 10
428.4563
 20
101.8128
 10
428.3095
 20
102.0342
 10
428.1889
 20
102.2665
 10
428.0944
 20
102.5096
 10
428.026
 20
102.7636
 10
427.9839
 20
103.0283
 10
427.9679
 20
103.3039
 10
427.9769
 20
103.5745
 10
428.0096
 20
103.8351
 10
428.066
 20
104.0857
 10
428.1463
 20
104.3263
 10
428.2502
 20
104.5568
 10
428.3779
 20
104.7773
 10
428.5294
 20
104.9877
 10
428.7047
 20
105.1882
 10
428.8992
 20
105.3736
 10
429.1033
 20
105.5347
 10
429.317
 20
105.6714
 10
429.5404
 20
105.7837
 10
429.7735
 20
105.8717
 10
430.0163
 20
105.9354
 10
430.2687
 20
105.9747
 10
430.5308
 20
105.9898
 10
430.7991
 20
105.9808
 10
431.0571
 20
105.948
 10
431.3049
 20
105.8914
 10
431.5424
 20
105.8111
 10
431.7696
 20
105.7069
 10
431.9865
 20
105.579
 10
432.1931
 20
105.4273
 10
432.3895
 20
105.2518
 10
438.4237
 20
99.3892
  0
ENDSEC
  0
SECTION
  2
OBJECTS
  0
DICTIONARY
  5
C
330
0
100
AcDbDictionary
281
     1
  3
ACAD_DETAILVIEWSTYLE
350
91
  3
ACAD_GROUP
350
D
  3
ACAD_LAYOUT
350
1A
  3
ACAD_MATERIAL
350
43
  3
ACAD_MLEADERSTYLE
350
5B
  3
ACAD_MLINESTYLE
350
17
  3
ACAD_PLOTSETTINGS
350
19
  3
ACAD_PLOTSTYLENAME
350
E
  3
ACAD_SCALELIST
350
47
  3
ACAD_SECTIONVIEWSTYLE
350
92
  3
ACAD_TABLESTYLE
350
59
  3
ACAD_VISUALSTYLE
350
2A
  3
ACDB_RECOMPOSE_DATA
350
8E
  3
AcDbVariableDictionary
350
8A
  0
SUN
  5
5D
330
29
100
AcDbSun
 90
        1
290
     0
 63
     7
421
 16777215
 40
1.0
291
     1
 91
  2455826
 92
 54000000
292
     0
 70
     2
 71
   256
280
     1
  0
DICTIONARY
  5
91
102
{ACAD_REACTORS
330
C
102
}
330
C
100
AcDbDictionary
281
     1
  0
DICTIONARY
  5
D
102
{ACAD_REACTORS
330
C
102
}
330
C
100
AcDbDictionary
281
     1
  0
DICTIONARY
  5
1A
102
{ACAD_REACTORS
330
C
102
}
330
C
100
AcDbDictionary
281
     1
  3
Layout1
350
1E
  3
Layout2
350
26
  3
Model
350
22
  0
DICTIONARY
  5
43
102
{ACAD_REACTORS
330
C
102
}
330
C
100
AcDbDictionary
281
     1
  3
ByBlock
350
45
  3
ByLayer
350
44
  3
Global
350
46
  0
DICTIONARY
  5
5B
102
{ACAD_REACTORS
330
C
102
}
330
C
100
AcDbDictionary
281
     1
  3
Standard
350
5C
  0
DICTIONARY
  5
17
102
{ACAD_REACTORS
330
C
102
}
330
C
100
AcDbDictionary
281
     1
  3
Standard
350
18
  0
DICTIONARY
  5
19
102
{ACAD_REACTORS
330
C
102
}
330
C
100
AcDbDictionary
281
     1
  0
ACDBDICTIONARYWDFLT
  5
E
102
{ACAD_REACTORS
330
C
102
}
330
C
100
AcDbDictionary
281
     1
  3
Normal
350
F
100
AcDbDictionaryWithDefault
340
F
  0
DICTIONARY
  5
47
102
{ACAD_REACTORS
330
C
102
}
330
C
100
AcDbDictionary
281
     1
  3
A0
350
48
  3
A1
350
49
  3
A2
350
4A
  3
A3
350
4B
  3
A4
350
4C
  3
A5
350
4D
  3
A6
350
4E
  3
A7
350
4F
  3
A8
350
50
  3
A9
350
51
  3
B1
350
52
  3
B2
350
53
  3
B3
350
54
  3
B4
350
55
  3
B5
350
56
  3
B6
350
57
  3
B7
350
58
  0
DICTIONARY
  5
92
102
{ACAD_REACTORS
330
C
102
}
330
C
100
AcDbDictionary
281
     1
  0
DICTIONARY
  5
59
102
{ACAD_REACTORS
330
C
102
}
330
C
100
AcDbDictionary
281
     1
  3
Standard
350
5A
  0
DICTIONARY
  5
2A
102
{ACAD_REACTORS
330
C
102
}
330
C
100
AcDbDictionary
281
     1
  3
2dWireframe
350
2F
  3
Basic
350
32
  3
Brighten
350
36
  3
ColorChange
350
3A
  3
Conceptual
350
34
  3
Dim
350
35
  3
EdgeColorOff
350
3D
  3
Facepattern
350
39
  3
Flat
350
2B
  3
FlatWithEdges
350
2C
  3
Gouraud
350
2D
  3
GouraudWithEdges
350
2E
  3
Hidden
350
31
  3
JitterOff
350
3B
  3
Linepattern
350
38
  3
OverhangOff
350
3C
  3
Realistic
350
33
  3
Shaded
350
42
  3
Shaded with edges
350
41
  3
Shades of Gray
350
3E
  3
Sketchy
350
3F
  3
Thicken
350
37
  3
Wireframe
350
30
  3
X-Ray
350
40
  0
XRECORD
  5
8E
102
{ACAD_REACTORS
330
C
102
}
330
C
100
AcDbXrecord
280
     1
 90
        1
330
5A
  0
DICTIONARY
  5
8A
102
{ACAD_REACTORS
330
C
102
}
330
C
100
AcDbDictionary
281
     1
  3
CANNOSCALE
350
8B
  3
CMLEADERSTYLE
350
90
  3
CTABLESTYLE
350
8F
  0
LAYOUT
  5
1E
102
{ACAD_REACTORS
330
1A
102
}
330
1A
100
AcDbPlotSettings
  1

  2
none_device
  4

  6

 40
0.0
 41
0.0
 42
0.0
 43
0.0
 44
0.0
 45
0.0
 46
0.0
 47
0.0
 48
0.0
 49
0.0
140
0.0
141
0.0
142
1.0
143
1.0
 70
   688
 72
     0
 73
     0
 74
     5
  7

 75
    16
 76
     0
 77
     2
 78
   300
147
1.0
148
0.0
149
0.0
100
AcDbLayout
  1
Layout1
 70
     1
 71
     1
 10
0.0
 20
0.0
 11
12.0
 21
9.0
 12
0.0
 22
0.0
 32
0.0
 14
1.000000000000000E+20
 24
1.000000000000000E+20
 34
1.000000000000000E+20
 15
-1.000000000000000E+20
 25
-1.000000000000000E+20
 35
-1.000000000000000E+20
146
0.0
 13
0.0
 23
0.0
 33
0.0
 16
1.0
 26
0.0
 36
0.0
 17
0.0
 27
1.0
 37
0.0
 76
     0
330
1B
  0
LAYOUT
  5
26
102
{ACAD_REACTORS
330
1A
102
}
330
1A
100
AcDbPlotSettings
  1

  2
none_device
  4

  6

 40
0.0
 41
0.0
 42
0.0
 43
0.0
 44
0.0
 45
0.0
 46
0.0
 47
0.0
 48
0.0
 49
0.0
140
0.0
141
0.0
142
1.0
143
1.0
 70
   688
 72
     0
 73
     0
 74
     5
  7

 75
    16
 76
     0
 77
     2
 78
   300
147
1.0
148
0.0
149
0.0
100
AcDbLayout
  1
Layout2
 70
     1
 71
     2
 10
0.0
 20
0.0
 11
0.0
 21
0.0
 12
0.0
 22
0.0
 32
0.0
 14
0.0
 24
0.0
 34
0.0
 15
0.0
 25
0.0
 35
0.0
146
0.0
 13
0.0
 23
0.0
 33
0.0
 16
1.0
 26
0.0
 36
0.0
 17
0.0
 27
1.0
 37
0.0
 76
     0
330
23
  0
LAYOUT
  5
22
102
{ACAD_REACTORS
330
1A
102
}
330
1A
100
AcDbPlotSettings
  1

  2
none_device
  4
Letter_(8.50_x_11.00_Inches)
  6

 40
6.35
 41
6.35
 42
6.35000508
 43
6.35000508
 44
215.9
 45
279.4
 46
0.0
 47
0.0
 48
0.0
 49
0.0
140
0.0
141
0.0
142
1.0
143
1.0
 70
  1712
 72
     0
 73
     0
 74
     0
  7

 75
     0
 76
     0
 77
     2
 78
   300
147
1.0
148
0.0
149
0.0
100
AcDbLayout
  1
Model
 70
     1
 71
     0
 10
0.0
 20
0.0
 11
12.0
 21
9.0
 12
0.0
 22
0.0
 32
0.0
 14
312.646
 24
29.9007
 34
0.0
 15
445.7695
 25
192.9347
 35
0.0
146
0.0
 13
0.0
 23
0.0
 33
0.0
 16
1.0
 26
0.0
 36
0.0
 17
0.0
 27
1.0
 37
0.0
 76
     0
330
1F
331
29
  0
MATERIAL
  5
45
102
{ACAD_REACTORS
330
43
102
}
330
43
100
AcDbMaterial
  1
ByBlock
 72
     1
 94
      127
  0
MATERIAL
  5
44
102
{ACAD_REACTORS
330
43
102
}
330
43
100
AcDbMaterial
  1
ByLayer
 72
     1
 94
      127
  0
MATERIAL
  5
46
102
{ACAD_REACTORS
330
43
102
}
330
43
100
AcDbMaterial
  1
Global
 72
     1
 94
      127
  0
MLEADERSTYLE
  5
5C
102
{ACAD_REACTORS
330
5B
102
}
330
5B
100
AcDbMLeaderStyle
179
     2
170
     2
171
     1
172
     0
 90
        2
 40
0.0
 41
0.0
173
     1
 91
-1056964608
340
14
 92
       -2
290
     1
 42
0.09
291
     1
 43
0.36
  3
Standard
341
0
 44
0.18
300

342
11
174
     1
178
     6
175
     1
176
     0
 93
-1056964608
 45
0.18
292
     0
297
     0
 46
0.18
343
0
 94
-1056964608
 47
1.0
 49
1.0
140
1.0
293
     1
141
0.0
294
     1
177
     0
142
1.0
295
     0
296
     0
143
0.125
271
     0
272
     9
273
     9
298
     0
  0
MLINESTYLE
  5
18
102
{ACAD_REACTORS
330
17
102
}
330
17
100
AcDbMlineStyle
  2
Standard
 70
     0
  3

 62
   256
 51
90.0
 52
90.0
 71
     2
 49
0.5
 62
   256
  6
BYLAYER
 49
-0.5
 62
   256
  6
BYLAYER
  0
ACDBPLACEHOLDER
  5
F
102
{ACAD_REACTORS
330
E
102
}
330
E
  0
SCALE
  5
48
102
{ACAD_REACTORS
330
47
102
}
330
47
100
AcDbScale
 70
     0
300
1:1
140
1.0
141
1.0
290
     1
  0
SCALE
  5
49
102
{ACAD_REACTORS
330
47
102
}
330
47
100
AcDbScale
 70
     0
300
1/128" = 1'-0"
140
0.0078125
141
12.0
290
     0
  0
SCALE
  5
4A
102
{ACAD_REACTORS
330
47
102
}
330
47
100
AcDbScale
 70
     0
300
1/64" = 1'-0"
140
0.015625
141
12.0
290
     0
  0
SCALE
  5
4B
102
{ACAD_REACTORS
330
47
102
}
330
47
100
AcDbScale
 70
     0
300
1/32" = 1'-0"
140
0.03125
141
12.0
290
     0
  0
SCALE
  5
4C
102
{ACAD_REACTORS
330
47
102
}
330
47
100
AcDbScale
 70
     0
300
1/16" = 1'-0"
140
0.0625
141
12.0
290
     0
  0
SCALE
  5
4D
102
{ACAD_REACTORS
330
47
102
}
330
47
100
AcDbScale
 70
     0
300
3/32" = 1'-0"
140
0.09375
141
12.0
290
     0
  0
SCALE
  5
4E
102
{ACAD_REACTORS
330
47
102
}
330
47
100
AcDbScale
 70
     0
300
1/8" = 1'-0"
140
0.125
141
12.0
290
     0
  0
SCALE
  5
4F
102
{ACAD_REACTORS
330
47
102
}
330
47
100
AcDbScale
 70
     0
300
3/16" = 1'-0"
140
0.1875
141
12.0
290
     0
  0
SCALE
  5
50
102
{ACAD_REACTORS
330
47
102
}
330
47
100
AcDbScale
 70
     0
300
1/4" = 1'-0"
140
0.25
141
12.0
290
     0
  0
SCALE
  5
51
102
{ACAD_REACTORS
330
47
102
}
330
47
100
AcDbScale
 70
     0
300
3/8" = 1'-0"
140
0.375
141
12.0
290
     0
  0
SCALE
  5
52
102
{ACAD_REACTORS
330
47
102
}
330
47
100
AcDbScale
 70
     0
300
1/2" = 1'-0"
140
0.5
141
12.0
290
     0
  0
SCALE
  5
53
102
{ACAD_REACTORS
330
47
102
}
330
47
100
AcDbScale
 70
     0
300
3/4" = 1'-0"
140
0.75
141
12.0
290
     0
  0
SCALE
  5
54
102
{ACAD_REACTORS
330
47
102
}
330
47
100
AcDbScale
 70
     0
300
1" = 1'-0"
140
1.0
141
12.0
290
     0
  0
SCALE
  5
55
102
{ACAD_REACTORS
330
47
102
}
330
47
100
AcDbScale
 70
     0
300
1-1/2" = 1'-0"
140
1.5
141
12.0
290
     0
  0
SCALE
  5
56
102
{ACAD_REACTORS
330
47
102
}
330
47
100
AcDbScale
 70
     0
300
3" = 1'-0"
140
3.0
141
12.0
290
     0
  0
SCALE
  5
57
102
{ACAD_REACTORS
330
47
102
}
330
47
100
AcDbScale
 70
     0
300
6" = 1'-0"
140
6.0
141
12.0
290
     0
  0
SCALE
  5
58
102
{ACAD_REACTORS
330
47
102
}
330
47
100
AcDbScale
 70
     0
300
1'-0" = 1'-0"
140
12.0
141
12.0
290
     0
  0
TABLESTYLE
  5
5A
102
{ACAD_REACTORS
330
59
102
}
102
{ACAD_XDICTIONARY
360
8C
102
}
330
59
100
AcDbTableStyle
  3
Standard
 70
     0
 71
     0
 40
0.06
 41
0.06
280
     0
281
     0
  7
Standard
140
0.18
170
     2
 62
     0
 63
   257
283
     0
 90
        4
 91
        0
  1

274
    -2
284
     1
 64
     0
275
    -2
285
     1
 65
     0
276
    -2
286
     1
 66
     0
277
    -2
287
     1
 67
     0
278
    -2
288
     1
 68
     0
279
    -2
289
     1
 69
     0
  7
Standard
140
0.25
170
     5
 62
     0
 63
   257
283
     0
 90
        4
 91
        0
  1

274
    -2
284
     1
 64
     0
275
    -2
285
     1
 65
     0
276
    -2
286
     1
 66
     0
277
    -2
287
     1
 67
     0
278
    -2
288
     1
 68
     0
279
    -2
289
     1
 69
     0
  7
Standard
140
0.18
170
     5
 62
     0
 63
   257
283
     0
 90
        4
 91
        0
  1

274
    -2
284
     1
 64
     0
275
    -2
285
     1
 65
     0
276
    -2
286
     1
 66
     0
277
    -2
287
     1
 67
     0
278
    -2
288
     1
 68
     0
279
    -2
289
     1
 69
     0
  0
VISUALSTYLE
  5
2F
102
{ACAD_REACTORS
330
2A
102
}
330
2A
100
AcDbVisualStyle
  2
2dWireframe
 70
     4
177
     3
291
     0
 70
    58
 90
        0
176
     1
 90
        2
176
     1
 90
        0
176
     1
 90
        0
176
     1
 40
0.6
176
     1
 40
30.0
176
     1
 62
     7
420
 16777215
176
     1
 90
        1
176
     1
 90
        4
176
     1
 62
     7
176
     1
 62
   257
176
     1
 90
        1
176
     1
 90
        1
176
     1
 40
1.0
176
     1
 90
        0
176
     1
 62
   257
176
     1
 40
1.0
176
     1
 90
        1
176
     1
 90
        6
176
     1
 90
        2
176
     1
 62
     7
176
     1
 90
        5
176
     1
 90
        0
176
     1
 90
        0
176
     1
290
     0
176
     1
 90
        1
176
     1
 40
0.0
176
     1
 90
        0
176
     1
290
     1
176
     1
290
     1
176
     1
290
     0
176
     1
290
     0
176
     1
290
     0
176
     1
290
     0
176
     1
290
     0
176
     1
290
     0
176
     1
290
     0
176
     1
 90
       50
176
     1
 40
0.0
176
     1
 40
1.0
176
     1
 90
        0
176
     1
 62
    18
420
        0
176
     1
 90
       50
176
     1
 90
        3
176
     1
 62
     5
420
      255
176
     1
290
     0
176
     1
 90
       50
176
     1
 90
       50
176
     1
 90
       50
176
     1
290
     0
176
     1
 90
       50
176
     1
 62
   256
176
     0
 40
1.0
176
     0
 90
        2
176
     1
  1
strokes_ogs.tif
176
     1
290
     0
176
     1
 40
1.0
176
     1
 40
1.0
176
     1
  0
VISUALSTYLE
  5
32
102
{ACAD_REACTORS
330
2A
102
}
330
2A
100
AcDbVisualStyle
  2
Basic
 70
     7
177
     3
291
     1
 70
    58
 90
        1
176
     1
 90
        0
176
     1
 90
        1
176
     1
 90
        0
176
     1
 40
0.6
176
     1
 40
30.0
176
     1
 62
     7
420
 16777215
176
     1
 90
        0
176
     1
 90
        4
176
     1
 62
     7
176
     1
 62
   257
176
     1
 90
        1
176
     1
 90
        1
176
     1
 40
1.0
176
     1
 90
        8
176
     1
 62
     7
176
     1
 40
1.0
176
     1
 90
        1
176
     1
 90
        6
176
     1
 90
        2
176
     1
 62
     7
176
     1
 90
        5
176
     1
 90
        0
176
     1
 90
        0
176
     1
290
     0
176
     1
 90
        1
176
     1
 40
0.0
176
     1
 90
        0
176
     1
290
     0
176
     1
290
     1
176
     1
290
     1
176
     1
290
     0
176
     1
290
     0
176
     1
290
     0
176
     1
290
     0
176
     1
290
     0
176
     1
290
     0
176
     1
 90
       50
176
     1
 40
0.0
176
     1
 40
1.0
176
     1
 90
        0
176
     1
 62
    18
420
        0
176
     1
 90
       50
176
     1
 90
        3
176
     1
 62
     5
420
      255
176
     1
290
     0
176
     1
 90
       50
176
     1
 90
       50
176
     1
 90
       50
176
     1
290
     0
176
     1
 90
       50
176
     1
 62
   256
176
     0
 40
1.0
176
     0
 90
        2
176
     1
  1
strokes_ogs.tif
176
     1
290
     0
176
     1
 40
1.0
176
     1
 40
1.0
176
     1
  0
VISUALSTYLE
  5
36
102
{ACAD_REACTORS
330
2A
102
}
330
2A
100
AcDbVisualStyle
  2
Brighten
 70
    12
177
     3
291
     1
 70
    58
 90
        2
176
     1
 90
        2
176
     1
 90
        0
176
     1
 90
        0
176
     1
 40
0.6
176
     1
 40
30.0
176
     1
 62
     7
420
 16777215
176
     1
 90
        1
176
     1
 90
        4
176
     1
 62
     7
176
     1
 62
   257
176
     1
 90
        1
176
     1
 90
        1
176
     1
 40
1.0
176
     1
 90
        8
176
     1
 62
     7
176
     1
 40
1.0
176
     1
 90
        1
176
     1
 90
        6
176
     1
 90
        2
176
     1
 62
     7
176
     1
 90
        5
176
     1
 90
        0
176
     1
 90
        0
176
     1
290
     0
176
     1
 90
        1
176
     1
 40
50.0
176
     1
 90
        0
176
     1
290
     0
176
     1
290
     1
176
     1
290
     1
176
     1
290
     0
176
     1
290
     0
176
     1
290
     0
176
     1
290
     0
176
     1
290
     0
176
     1
290
     0
176
     1
 90
       50
176
     1
 40
0.0
176
     1
 40
1.0
176
     1
 90
        0
176
     1
 62
    18
420
        0
176
     1
 90
       50
176
     1
 90
        3
176
     1
 62
     5
420
      255
176
     1
290
     0
176
     1
 90
       50
176
     1
 90
       50
176
     1
 90
       50
176
     1
290
     0
176
     1
 90
       50
176
     1
 62
   256
176
     0
 40
1.0
176
     0
 90
        2
176
     1
  1
strokes_ogs.tif
176
     1
290
     0
176
     1
 40
1.0
176
     1
 40
1.0
176
     1
  0
VISUALSTYLE
  5
3A
102
{ACAD_REACTORS
330
2A
102
}
330
2A
100
AcDbVisualStyle
  2
ColorChange
 70
    16
177
     3
291
     1
 70
    58
 90
        2
176
     1
 90
        2
176
     1
 90
        3
176
     1
 90
        0
176
     1
 40
0.6
176
     1
 40
30.0
176
     1
 62
     8
420
  8421504
176
     1
 90
        1
176
     1
 90
        4
176
     1
 62
     7
176
     1
 62
   257
176
     1
 90
        1
176
     1
 90
        1
176
     1
 40
1.0
176
     1
 90
        8
176
     1
 62
     8
420
  8421504
176
     1
 40
1.0
176
     1
 90
        1
176
     1
 90
        6
176
     1
 90
        2
176
     1
 62
     7
176
     1
 90
        5
176
     1
 90
        0
176
     1
 90
        0
176
     1
290
     0
176
     1
 90
        1
176
     1
 40
0.0
176
     1
 90
        0
176
     1
290
     0
176
     1
290
     1
176
     1
290
     1
176
     1
290
     0
176
     1
290
     0
176
     1
290
     0
176
     1
290
     0
176
     1
290
     0
176
     1
290
     0
176
     1
 90
       50
176
     1
 40
0.0
176
     1
 40
1.0
176
     1
 90
        0
176
     1
 62
    18
420
        0
176
     1
 90
       50
176
     1
 90
        3
176
     1
 62
     5
420
      255
176
     1
290
     0
176
     1
 90
       50
176
     1
 90
       50
176
     1
 90
       50
176
     1
290
     0
176
     1
 90
       50
176
     1
 62
   256
176
     0
 40
1.0
176
     0
 90
        2
176
     1
  1
strokes_ogs.tif
176
     1
290
     0
176
     1
 40
1.0
176
     1
 40
1.0
176
     1
  0
VISUALSTYLE
  5
34
102
{ACAD_REACTORS
330
2A
102
}
330
2A
100
AcDbVisualStyle
  2
Conceptual
 70
     9
177
     3
291
     0
 70
    58
 90
        3
176
     1
 90
        2
176
     1
 90
        0
176
     1
 90
        0
176
     1
 40
0.6
176
     1
 40
30.0
176
     1
 62
     7
420
 16777215
176
     1
 90
        2
176
     1
 90
        2
176
     1
 62
     7
176
     1
 62
   257
176
     1
 90
        1
176
     1
 90
        1
176
     1
 40
179.0
176
     1
 90
        8
176
     1
 62
     7
176
     1
 40
1.0
176
     1
 90
        1
176
     1
 90
        6
176
     1
 90
        2
176
     1
 62
     7
176
     1
 90
        3
176
     1
 90
        0
176
     1
 90
        0
176
     1
290
     0
176
     1
 90
        1
176
     1
 40
0.0
176
     1
 90
        0
176
     1
290
     0
176
     1
290
     1
176
     1
290
     1
176
     1
290
     0
176
     1
290
     0
176
     1
290
     0
176
     1
290
     0
176
     1
290
     0
176
     1
290
     0
176
     1
 90
       50
176
     1
 40
0.0
176
     1
 40
1.0
176
     1
 90
        0
176
     1
 62
    18
420
        0
176
     1
 90
       50
176
     1
 90
        3
176
     1
 62
     5
420
      255
176
     1
290
     0
176
     1
 90
       50
176
     1
 90
       50
176
     1
 90
       50
176
     1
290
     0
176
     1
 90
       50
176
     1
 62
   256
176
     0
 40
1.0
176
     0
 90
        2
176
     1
  1
strokes_ogs.tif
176
     1
290
     0
176
     1
 40
1.0
176
     1
 40
1.0
176
     1
  0
VISUALSTYLE
  5
35
102
{ACAD_REACTORS
330
2A
102
}
330
2A
100
AcDbVisualStyle
  2
Dim
 70
    11
177
     3
291
     1
 70
    58
 90
        2
176
     1
 90
        2
176
     1
 90
        0
176
     1
 90
        0
176
     1
 40
0.6
176
     1
 40
30.0
176
     1
 62
     7
420
 16777215
176
     1
 90
        1
176
     1
 90
        4
176
     1
 62
     7
176
     1
 62
   257
176
     1
 90
        1
176
     1
 90
        1
176
     1
 40
1.0
176
     1
 90
        8
176
     1
 62
     7
176
     1
 40
1.0
176
     1
 90
        1
176
     1
 90
        6
176
     1
 90
        2
176
     1
 62
     7
176
     1
 90
        5
176
     1
 90
        0
176
     1
 90
        0
176
     1
290
     0
176
     1
 90
        1
176
     1
 40
-50.0
176
     1
 90
        0
176
     1
290
     0
176
     1
290
     1
176
     1
290
     1
176
     1
290
     0
176
     1
290
     0
176
     1
290
     0
176
     1
290
     0
176
     1
290
     0
176
     1
290
     0
176
     1
 90
       50
176
     1
 40
0.0
176
     1
 40
1.0
176
     1
 90
        0
176
     1
 62
    18
420
        0
176
     1
 90
       50
176
     1
 90
        3
176
     1
 62
     5
420
      255
176
     1
290
     0
176
     1
 90
       50
176
     1
 90
       50
176
     1
 90
       50
176
     1
290
     0
176
     1
 90
       50
176
     1
 62
   256
176
     0
 40
1.0
176
     0
 90
        2
176
     1
  1
strokes_ogs.tif
176
     1
290
     0
176
     1
 40
1.0
176
     1
 40
1.0
176
     1
  0
VISUALSTYLE
  5
3D
102
{ACAD_REACTORS
330
2A
102
}
330
2A
100
AcDbVisualStyle
  2
EdgeColorOff
 70
    22
177
     3
291
     1
 70
    58
 90
        2
176
     0
 90
        2
176
     0
 90
        0
176
     0
 90
        0
176
     0
 40
0.6
176
     0
 40
30.0
176
     0
 62
     7
420
 16777215
176
     0
 90
        1
176
     0
 90
        4
176
     0
 62
     7
176
     0
 62
   257
176
     0
 90
        1
176
     0
 90
        1
176
     0
 40
1.0
176
     0
 90
        8
176
     2
 62
     7
176
     0
 40
1.0
176
     0
 90
        1
176
     0
 90
        6
176
     0
 90
        2
176
     0
 62
     7
176
     0
 90
        5
176
     0
 90
        0
176
     0
 90
        0
176
     0
290
     0
176
     0
 90
        1
176
     0
 40
0.0
176
     0
 90
        0
176
     0
290
     0
176
     0
290
     1
176
     0
290
     1
176
     0
290
     0
176
     0
290
     0
176
     0
290
     0
176
     0
290
     0
176
     0
290
     0
176
     0
290
     0
176
     0
 90
       50
176
     0
 40
0.0
176
     0
 40
1.0
176
     0
 90
        0
176
     0
 62
    18
420
        0
176
     0
 90
       50
176
     0
 90
        3
176
     0
 62
     5
420
      255
176
     0
290
     0
176
     0
 90
       50
176
     0
 90
       50
176
     0
 90
       50
176
     0
290
     0
176
     0
 90
       50
176
     0
 62
   256
176
     0
 40
1.0
176
     0
 90
        2
176
     0
  1
strokes_ogs.tif
176
     0
290
     0
176
     0
 40
1.0
176
     0
 40
1.0
176
     0
  0
VISUALSTYLE
  5
39
102
{ACAD_REACTORS
330
2A
102
}
330
2A
100
AcDbVisualStyle
  2
Facepattern
 70
    15
177
     3
291
     1
 70
    58
 90
        2
176
     1
 90
        2
176
     1
 90
        0
176
     1
 90
        0
176
     1
 40
0.6
176
     1
 40
30.0
176
     1
 62
     7
420
 16777215
176
     1
 90
        1
176
     1
 90
        4
176
     1
 62
     7
176
     1
 62
   257
176
     1
 90
        1
176
     1
 90
        1
176
     1
 40
1.0
176
     1
 90
        8
176
     1
 62
     7
176
     1
 40
1.0
176
     1
 90
        1
176
     1
 90
        6
176
     1
 90
        2
176
     1
 62
     7
176
     1
 90
        5
176
     1
 90
        0
176
     1
 90
        0
176
     1
290
     0
176
     1
 90
        1
176
     1
 40
0.0
176
     1
 90
        0
176
     1
290
     0
176
     1
290
     1
176
     1
290
     1
176
     1
290
     0
176
     1
290
     0
176
     1
290
     0
176
     1
290
     0
176
     1
290
     0
176
     1
290
     0
176
     1
 90
       50
176
     1
 40
0.0
176
     1
 40
1.0
176
     1
 90
        0
176
     1
 62
    18
420
        0
176
     1
 90
       50
176
     1
 90
        3
176
     1
 62
     5
420
      255
176
     1
290
     0
176
     1
 90
       50
176
     1
 90
       50
176
     1
 90
       50
176
     1
290
     0
176
     1
 90
       50
176
     1
 62
   256
176
     0
 40
1.0
176
     0
 90
        2
176
     1
  1
strokes_ogs.tif
176
     1
290
     0
176
     1
 40
1.0
176
     1
 40
1.0
176
     1
  0
VISUALSTYLE
  5
2B
102
{ACAD_REACTORS
330
2A
102
}
330
2A
100
AcDbVisualStyle
  2
Flat
 70
     0
177
     3
291
     1
 70
    58
 90
        2
176
     1
 90
        1
176
     1
 90
        1
176
     1
 90
        2
176
     1
 40
0.6
176
     1
 40
30.0
176
     1
 62
     7
420
 16777215
176
     1
 90
        0
176
     1
 90
        0
176
     1
 62
     7
176
     1
 62
   257
176
     1
 90
        1
176
     1
 90
        1
176
     1
 40
1.0
176
     1
 90
        8
176
     1
 62
     7
176
     1
 40
1.0
176
     1
 90
        1
176
     1
 90
        6
176
     1
 90
        2
176
     1
 62
     7
176
     1
 90
        5
176
     1
 90
        0
176
     1
 90
        0
176
     1
290
     0
176
     1
 90
       13
176
     1
 40
0.0
176
     1
 90
        0
176
     1
290
     0
176
     1
290
     1
176
     1
290
     1
176
     1
290
     0
176
     1
290
     0
176
     1
290
     0
176
     1
290
     0
176
     1
290
     0
176
     1
290
     0
176
     1
 90
       50
176
     1
 40
0.0
176
     1
 40
1.0
176
     1
 90
        0
176
     1
 62
    18
420
        0
176
     1
 90
       50
176
     1
 90
        3
176
     1
 62
     5
420
      255
176
     1
290
     0
176
     1
 90
       50
176
     1
 90
       50
176
     1
 90
       50
176
     1
290
     0
176
     1
 90
       50
176
     1
 62
   256
176
     0
 40
1.0
176
     0
 90
        2
176
     1
  1
strokes_ogs.tif
176
     1
290
     0
176
     1
 40
1.0
176
     1
 40
1.0
176
     1
  0
VISUALSTYLE
  5
2C
102
{ACAD_REACTORS
330
2A
102
}
330
2A
100
AcDbVisualStyle
  2
FlatWithEdges
 70
     1
177
     3
291
     1
 70
    58
 90
        2
176
     1
 90
        1
176
     1
 90
        1
176
     1
 90
        2
176
     1
 40
0.6
176
     1
 40
30.0
176
     1
 62
     7
420
 16777215
176
     1
 90
        1
176
     1
 90
        0
176
     1
 62
     7
176
     1
 62
   257
176
     1
 90
        1
176
     1
 90
        1
176
     1
 40
1.0
176
     1
 90
        0
176
     1
 62
   257
176
     1
 40
1.0
176
     1
 90
        1
176
     1
 90
        6
176
     1
 90
        2
176
     1
 62
     7
176
     1
 90
        5
176
     1
 90
        0
176
     1
 90
        0
176
     1
290
     0
176
     1
 90
       13
176
     1
 40
0.0
176
     1
 90
        0
176
     1
290
     0
176
     1
290
     1
176
     1
290
     1
176
     1
290
     0
176
     1
290
     0
176
     1
290
     0
176
     1
290
     0
176
     1
290
     0
176
     1
290
     0
176
     1
 90
       50
176
     1
 40
0.0
176
     1
 40
1.0
176
     1
 90
        0
176
     1
 62
    18
420
        0
176
     1
 90
       50
176
     1
 90
        3
176
     1
 62
     5
420
      255
176
     1
290
     0
176
     1
 90
       50
176
     1
 90
       50
176
     1
 90
       50
176
     1
290
     0
176
     1
 90
       50
176
     1
 62
   256
176
     0
 40
1.0
176
     0
 90
        2
176
     1
  1
strokes_ogs.tif
176
     1
290
     0
176
     1
 40
1.0
176
     1
 40
1.0
176
     1
  0
VISUALSTYLE
  5
2D
102
{ACAD_REACTORS
330
2A
102
}
330
2A
100
AcDbVisualStyle
  2
Gouraud
 70
     2
177
     3
291
     1
 70
    58
 90
        2
176
     1
 90
        2
176
     1
 90
        1
176
     1
 90
        2
176
     1
 40
0.6
176
     1
 40
30.0
176
     1
 62
     7
420
 16777215
176
     1
 90
        0
176
     1
 90
        0
176
     1
 62
     7
176
     1
 62
   257
176
     1
 90
        1
176
     1
 90
        1
176
     1
 40
1.0
176
     1
 90
        0
176
     1
 62
     7
176
     1
 40
1.0
176
     1
 90
        1
176
     1
 90
        6
176
     1
 90
        2
176
     1
 62
     7
176
     1
 90
        5
176
     1
 90
        0
176
     1
 90
        0
176
     1
290
     0
176
     1
 90
       13
176
     1
 40
0.0
176
     1
 90
        0
176
     1
290
     0
176
     1
290
     1
176
     1
290
     1
176
     1
290
     0
176
     1
290
     0
176
     1
290
     0
176
     1
290
     0
176
     1
290
     0
176
     1
290
     0
176
     1
 90
       50
176
     1
 40
0.0
176
     1
 40
1.0
176
     1
 90
        0
176
     1
 62
    18
420
        0
176
     1
 90
       50
176
     1
 90
        3
176
     1
 62
     5
420
      255
176
     1
290
     0
176
     1
 90
       50
176
     1
 90
       50
176
     1
 90
       50
176
     1
290
     0
176
     1
 90
       50
176
     1
 62
   256
176
     0
 40
1.0
176
     0
 90
        2
176
     1
  1
strokes_ogs.tif
176
     1
290
     0
176
     1
 40
1.0
176
     1
 40
1.0
176
     1
  0
VISUALSTYLE
  5
2E
102
{ACAD_REACTORS
330
2A
102
}
330
2A
100
AcDbVisualStyle
  2
GouraudWithEdges
 70
     3
177
     3
291
     1
 70
    58
 90
        2
176
     1
 90
        2
176
     1
 90
        1
176
     1
 90
        2
176
     1
 40
0.6
176
     1
 40
30.0
176
     1
 62
     7
420
 16777215
176
     1
 90
        1
176
     1
 90
        0
176
     1
 62
     7
176
     1
 62
   257
176
     1
 90
        1
176
     1
 90
        1
176
     1
 40
1.0
176
     1
 90
        0
176
     1
 62
   257
176
     1
 40
1.0
176
     1
 90
        1
176
     1
 90
        6
176
     1
 90
        2
176
     1
 62
     7
176
     1
 90
        5
176
     1
 90
        0
176
     1
 90
        0
176
     1
290
     0
176
     1
 90
       13
176
     1
 40
0.0
176
     1
 90
        0
176
     1
290
     0
176
     1
290
     1
176
     1
290
     1
176
     1
290
     0
176
     1
290
     0
176
     1
290
     0
176
     1
290
     0
176
     1
290
     0
176
     1
290
     0
176
     1
 90
       50
176
     1
 40
0.0
176
     1
 40
1.0
176
     1
 90
        0
176
     1
 62
    18
420
        0
176
     1
 90
       50
176
     1
 90
        3
176
     1
 62
     5
420
      255
176
     1
290
     0
176
     1
 90
       50
176
     1
 90
       50
176
     1
 90
       50
176
     1
290
     0
176
     1
 90
       50
176
     1
 62
   256
176
     0
 40
1.0
176
     0
 90
        2
176
     1
  1
strokes_ogs.tif
176
     1
290
     0
176
     1
 40
1.0
176
     1
 40
1.0
176
     1
  0
VISUALSTYLE
  5
31
102
{ACAD_REACTORS
330
2A
102
}
330
2A
100
AcDbVisualStyle
  2
Hidden
 70
     6
177
     3
291
     0
 70
    58
 90
        1
176
     1
 90
        2
176
     1
 90
        2
176
     1
 90
        0
176
     1
 40
0.6
176
     1
 40
30.0
176
     1
 62
     7
420
 16777215
176
     1
 90
        2
176
     1
 90
        2
176
     1
 62
     7
176
     1
 62
   257
176
     1
 90
        2
176
     1
 90
        1
176
     1
 40
40.0
176
     1
 90
        0
176
     1
 62
   257
176
     1
 40
1.0
176
     1
 90
        1
176
     1
 90
        6
176
     1
 90
        2
176
     1
 62
     7
176
     1
 90
        3
176
     1
 90
        0
176
     1
 90
        0
176
     1
290
     0
176
     1
 90
        1
176
     1
 40
0.0
176
     1
 90
        0
176
     1
290
     0
176
     1
290
     1
176
     1
290
     1
176
     1
290
     0
176
     1
290
     0
176
     1
290
     0
176
     1
290
     0
176
     1
290
     0
176
     1
290
     0
176
     1
 90
       50
176
     1
 40
0.0
176
     1
 40
1.0
176
     1
 90
        0
176
     1
 62
    18
420
        0
176
     1
 90
       50
176
     1
 90
        3
176
     1
 62
     5
420
      255
176
     1
290
     0
176
     1
 90
       50
176
     1
 90
       50
176
     1
 90
       50
176
     1
290
     0
176
     1
 90
       50
176
     1
 62
   256
176
     0
 40
1.0
176
     0
 90
        2
176
     1
  1
strokes_ogs.tif
176
     1
290
     0
176
     1
 40
1.0
176
     1
 40
1.0
176
     1
  0
VISUALSTYLE
  5
3B
102
{ACAD_REACTORS
330
2A
102
}
330
2A
100
AcDbVisualStyle
  2
JitterOff
 70
    20
177
     3
291
     1
 70
    58
 90
        2
176
     0
 90
        2
176
     0
 90
        0
176
     0
 90
        0
176
     0
 40
0.6
176
     0
 40
30.0
176
     0
 62
     7
420
 16777215
176
     0
 90
        1
176
     0
 90
        4
176
     0
 62
     7
176
     0
 62
   257
176
     0
 90
        1
176
     0
 90
        1
176
     0
 40
1.0
176
     0
 90
       10
176
     2
 62
     7
176
     0
 40
1.0
176
     0
 90
        1
176
     0
 90
        6
176
     0
 90
        2
176
     0
 62
     7
176
     0
 90
        5
176
     0
 90
        0
176
     0
 90
        0
176
     0
290
     0
176
     0
 90
        1
176
     0
 40
0.0
176
     0
 90
        0
176
     0
290
     0
176
     0
290
     1
176
     0
290
     1
176
     0
290
     0
176
     0
290
     0
176
     0
290
     0
176
     0
290
     0
176
     0
290
     0
176
     0
290
     0
176
     0
 90
       50
176
     0
 40
0.0
176
     0
 40
1.0
176
     0
 90
        0
176
     0
 62
    18
420
        0
176
     0
 90
       50
176
     0
 90
        3
176
     0
 62
     5
420
      255
176
     0
290
     0
176
     0
 90
       50
176
     0
 90
       50
176
     0
 90
       50
176
     0
290
     0
176
     0
 90
       50
176
     0
 62
   256
176
     0
 40
1.0
176
     0
 90
        2
176
     0
  1
strokes_ogs.tif
176
     0
290
     0
176
     0
 40
1.0
176
     0
 40
1.0
176
     0
  0
VISUALSTYLE
  5
38
102
{ACAD_REACTORS
330
2A
102
}
330
2A
100
AcDbVisualStyle
  2
Linepattern
 70
    14
177
     3
291
     1
 70
    58
 90
        2
176
     1
 90
        2
176
     1
 90
        0
176
     1
 90
        0
176
     1
 40
0.6
176
     1
 40
30.0
176
     1
 62
     7
420
 16777215
176
     1
 90
        1
176
     1
 90
        4
176
     1
 62
     7
176
     1
 62
   257
176
     1
 90
        7
176
     1
 90
        7
176
     1
 40
1.0
176
     1
 90
        8
176
     1
 62
     7
176
     1
 40
1.0
176
     1
 90
        1
176
     1
 90
        6
176
     1
 90
        2
176
     1
 62
     7
176
     1
 90
        5
176
     1
 90
        0
176
     1
 90
        0
176
     1
290
     0
176
     1
 90
        1
176
     1
 40
0.0
176
     1
 90
        0
176
     1
290
     0
176
     1
290
     1
176
     1
290
     1
176
     1
290
     0
176
     1
290
     0
176
     1
290
     0
176
     1
290
     0
176
     1
290
     0
176
     1
290
     0
176
     1
 90
       50
176
     1
 40
0.0
176
     1
 40
1.0
176
     1
 90
        0
176
     1
 62
    18
420
        0
176
     1
 90
       50
176
     1
 90
        3
176
     1
 62
     5
420
      255
176
     1
290
     0
176
     1
 90
       50
176
     1
 90
       50
176
     1
 90
       50
176
     1
290
     0
176
     1
 90
       50
176
     1
 62
   256
176
     0
 40
1.0
176
     0
 90
        2
176
     1
  1
strokes_ogs.tif
176
     1
290
     0
176
     1
 40
1.0
176
     1
 40
1.0
176
     1
  0
VISUALSTYLE
  5
3C
102
{ACAD_REACTORS
330
2A
102
}
330
2A
100
AcDbVisualStyle
  2
OverhangOff
 70
    21
177
     3
291
     1
 70
    58
 90
        2
176
     0
 90
        2
176
     0
 90
        0
176
     0
 90
        0
176
     0
 40
0.6
176
     0
 40
30.0
176
     0
 62
     7
420
 16777215
176
     0
 90
        1
176
     0
 90
        4
176
     0
 62
     7
176
     0
 62
   257
176
     0
 90
        1
176
     0
 90
        1
176
     0
 40
1.0
176
     0
 90
        9
176
     2
 62
     7
176
     0
 40
1.0
176
     0
 90
        1
176
     0
 90
        6
176
     0
 90
        2
176
     0
 62
     7
176
     0
 90
        5
176
     0
 90
        0
176
     0
 90
        0
176
     0
290
     0
176
     0
 90
        1
176
     0
 40
0.0
176
     0
 90
        0
176
     0
290
     0
176
     0
290
     1
176
     0
290
     1
176
     0
290
     0
176
     0
290
     0
176
     0
290
     0
176
     0
290
     0
176
     0
290
     0
176
     0
290
     0
176
     0
 90
       50
176
     0
 40
0.0
176
     0
 40
1.0
176
     0
 90
        0
176
     0
 62
    18
420
        0
176
     0
 90
       50
176
     0
 90
        3
176
     0
 62
     5
420
      255
176
     0
290
     0
176
     0
 90
       50
176
     0
 90
       50
176
     0
 90
       50
176
     0
290
     0
176
     0
 90
       50
176
     0
 62
   256
176
     0
 40
1.0
176
     0
 90
        2
176
     0
  1
strokes_ogs.tif
176
     0
290
     0
176
     0
 40
1.0
176
     0
 40
1.0
176
     0
  0
VISUALSTYLE
  5
33
102
{ACAD_REACTORS
330
2A
102
}
330
2A
100
AcDbVisualStyle
  2
Realistic
 70
     8
177
     3
291
     0
 70
    58
 90
        2
176
     1
 90
        3
176
     1
 90
        0
176
     1
 90
        2
176
     1
 40
0.6
176
     1
 40
30.0
176
     1
 62
     7
420
 16777215
176
     1
 90
        0
176
     1
 90
        0
176
     1
 62
     7
176
     1
 62
   257
176
     1
 90
        1
176
     1
 90
        1
176
     1
 40
1.0
176
     1
 90
        8
176
     1
 62
   257
176
     1
 40
1.0
176
     1
 90
        1
176
     1
 90
        6
176
     1
 90
        2
176
     1
 62
     7
176
     1
 90
        3
176
     1
 90
        0
176
     1
 90
        0
176
     1
290
     0
176
     1
 90
       13
176
     1
 40
0.0
176
     1
 90
        0
176
     1
290
     0
176
     1
290
     1
176
     1
290
     1
176
     1
290
     0
176
     1
290
     0
176
     1
290
     0
176
     1
290
     0
176
     1
290
     0
176
     1
290
     0
176
     1
 90
       50
176
     1
 40
0.0
176
     1
 40
1.0
176
     1
 90
        0
176
     1
 62
    18
420
        0
176
     1
 90
       50
176
     1
 90
        3
176
     1
 62
     5
420
      255
176
     1
290
     0
176
     1
 90
       50
176
     1
 90
       50
176
     1
 90
       50
176
     1
290
     0
176
     1
 90
       50
176
     1
 62
   256
176
     0
 40
1.0
176
     0
 90
        2
176
     1
  1
strokes_ogs.tif
176
     1
290
     0
176
     1
 40
1.0
176
     1
 40
1.0
176
     1
  0
VISUALSTYLE
  5
42
102
{ACAD_REACTORS
330
2A
102
}
330
2A
100
AcDbVisualStyle
  2
Shaded
 70
    27
177
     3
291
     0
 70
    58
 90
        2
176
     1
 90
        2
176
     1
 90
        1
176
     1
 90
        2
176
     1
 40
0.6
176
     1
 40
30.0
176
     1
 62
     7
420
 16777215
176
     1
 90
        0
176
     1
 90
        4
176
     1
 62
     7
176
     1
 62
   257
176
     1
 90
        1
176
     1
 90
        1
176
     1
 40
1.0
176
     1
 90
        8
176
     1
 62
   257
176
     1
 40
1.0
176
     1
 90
        1
176
     1
 90
        6
176
     1
 90
        2
176
     1
 62
     8
420
  7895160
176
     1
 90
        3
176
     1
 90
        0
176
     1
 90
        0
176
     1
290
     0
176
     1
 90
        5
176
     1
 40
0.0
176
     1
 90
        0
176
     1
290
     0
176
     1
290
     1
176
     1
290
     1
176
     1
290
     0
176
     1
290
     0
176
     1
290
     0
176
     1
290
     0
176
     1
290
     0
176
     1
290
     0
176
     1
 90
       50
176
     1
 40
0.0
176
     1
 40
1.0
176
     1
 90
        0
176
     1
 62
    18
420
        0
176
     1
 90
       50
176
     1
 90
        3
176
     1
 62
     5
420
      255
176
     1
290
     0
176
     1
 90
       50
176
     1
 90
       50
176
     1
 90
       50
176
     1
290
     0
176
     1
 90
       50
176
     1
 62
   256
176
     0
 40
1.0
176
     0
 90
        2
176
     1
  1
strokes_ogs.tif
176
     1
290
     0
176
     1
 40
1.0
176
     1
 40
1.0
176
     1
  0
VISUALSTYLE
  5
41
102
{ACAD_REACTORS
330
2A
102
}
330
2A
100
AcDbVisualStyle
  2
Shaded with edges
 70
    26
177
     3
291
     0
 70
    58
 90
        2
176
     1
 90
        2
176
     1
 90
        1
176
     1
 90
        2
176
     1
 40
0.6
176
     1
 40
30.0
176
     1
 62
     7
420
 16777215
176
     1
 90
        1
176
     1
 90
       10
176
     1
 62
     7
176
     1
 62
   257
176
     1
 90
        2
176
     1
 90
        1
176
     1
 40
1.0
176
     1
 90
        8
176
     1
 62
   257
176
     1
 40
1.0
176
     1
 90
        1
176
     1
 90
        6
176
     1
 90
        2
176
     1
 62
     7
176
     1
 90
        3
176
     1
 90
        0
176
     1
 90
        0
176
     1
290
     0
176
     1
 90
        5
176
     1
 40
0.0
176
     1
 90
        0
176
     1
290
     0
176
     1
290
     1
176
     1
290
     1
176
     1
290
     0
176
     1
290
     0
176
     1
290
     0
176
     1
290
     0
176
     1
290
     0
176
     1
290
     0
176
     1
 90
       50
176
     1
 40
0.0
176
     1
 40
1.0
176
     1
 90
        0
176
     1
 62
    18
420
        0
176
     1
 90
       50
176
     1
 90
        3
176
     1
 62
     5
420
      255
176
     1
290
     0
176
     1
 90
       50
176
     1
 90
       50
176
     1
 90
       50
176
     1
290
     0
176
     1
 90
       50
176
     1
 62
   256
176
     0
 40
1.0
176
     0
 90
        2
176
     1
  1
strokes_ogs.tif
176
     1
290
     0
176
     1
 40
1.0
176
     1
 40
1.0
176
     1
  0
VISUALSTYLE
  5
3E
102
{ACAD_REACTORS
330
2A
102
}
330
2A
100
AcDbVisualStyle
  2
Shades of Gray
 70
    23
177
     3
291
     0
 70
    58
 90
        2
176
     1
 90
        2
176
     1
 90
        3
176
     1
 90
        0
176
     1
 40
0.6
176
     1
 40
30.0
176
     1
 62
     7
420
 16777215
176
     1
 90
        2
176
     1
 90
        2
176
     1
 62
     7
176
     1
 62
     7
176
     1
 90
        1
176
     1
 90
        1
176
     1
 40
40.0
176
     1
 90
        8
176
     1
 62
     7
176
     1
 40
1.0
176
     1
 90
        1
176
     1
 90
        6
176
     1
 90
        2
176
     1
 62
     7
176
     1
 90
        3
176
     1
 90
        0
176
     1
 90
        0
176
     1
290
     0
176
     1
 90
        1
176
     1
 40
0.0
176
     1
 90
        0
176
     1
290
     0
176
     1
290
     1
176
     1
290
     1
176
     1
290
     0
176
     1
290
     0
176
     1
290
     0
176
     1
290
     0
176
     1
290
     0
176
     1
290
     0
176
     1
 90
       50
176
     1
 40
0.0
176
     1
 40
1.0
176
     1
 90
        0
176
     1
 62
    18
420
        0
176
     1
 90
       50
176
     1
 90
        3
176
     1
 62
     5
420
      255
176
     1
290
     0
176
     1
 90
       50
176
     1
 90
       50
176
     1
 90
       50
176
     1
290
     0
176
     1
 90
       50
176
     1
 62
   256
176
     0
 40
1.0
176
     0
 90
        2
176
     1
  1
strokes_ogs.tif
176
     1
290
     0
176
     1
 40
1.0
176
     1
 40
1.0
176
     1
  0
VISUALSTYLE
  5
3F
102
{ACAD_REACTORS
330
2A
102
}
330
2A
100
AcDbVisualStyle
  2
Sketchy
 70
    24
177
     3
291
     0
 70
    58
 90
        1
176
     1
 90
        2
176
     1
 90
        2
176
     1
 90
        0
176
     1
 40
0.6
176
     1
 40
30.0
176
     1
 62
     7
420
 16777215
176
     1
 90
        2
176
     1
 90
        2
176
     1
 62
     7
176
     1
 62
     7
176
     1
 90
        1
176
     1
 90
        1
176
     1
 40
40.0
176
     1
 90
       11
176
     1
 62
     7
176
     1
 40
1.0
176
     1
 90
        1
176
     1
 90
        6
176
     1
 90
        2
176
     1
 62
     7
176
     1
 90
        6
176
     1
 90
        0
176
     1
 90
        0
176
     1
290
     0
176
     1
 90
        1
176
     1
 40
0.0
176
     1
 90
        0
176
     1
290
     0
176
     1
290
     1
176
     1
290
     1
176
     1
290
     0
176
     1
290
     0
176
     1
290
     0
176
     1
290
     0
176
     1
290
     0
176
     1
290
     0
176
     1
 90
       50
176
     1
 40
0.0
176
     1
 40
1.0
176
     1
 90
        0
176
     1
 62
    18
420
        0
176
     1
 90
       50
176
     1
 90
        3
176
     1
 62
     5
420
      255
176
     1
290
     0
176
     1
 90
       50
176
     1
 90
       50
176
     1
 90
       50
176
     1
290
     0
176
     1
 90
       50
176
     1
 62
   256
176
     0
 40
1.0
176
     0
 90
        2
176
     1
  1
strokes_ogs.tif
176
     1
290
     0
176
     1
 40
1.0
176
     1
 40
1.0
176
     1
  0
VISUALSTYLE
  5
37
102
{ACAD_REACTORS
330
2A
102
}
330
2A
100
AcDbVisualStyle
  2
Thicken
 70
    13
177
     3
291
     1
 70
    58
 90
        2
176
     1
 90
        2
176
     1
 90
        0
176
     1
 90
        0
176
     1
 40
0.6
176
     1
 40
30.0
176
     1
 62
     7
420
 16777215
176
     1
 90
        1
176
     1
 90
        4
176
     1
 62
     7
176
     1
 62
   257
176
     1
 90
        1
176
     1
 90
        1
176
     1
 40
1.0
176
     1
 90
       12
176
     1
 62
     7
176
     1
 40
1.0
176
     1
 90
        1
176
     1
 90
        6
176
     1
 90
        2
176
     1
 62
     7
176
     1
 90
        5
176
     1
 90
        0
176
     1
 90
        0
176
     1
290
     0
176
     1
 90
        1
176
     1
 40
0.0
176
     1
 90
        0
176
     1
290
     0
176
     1
290
     1
176
     1
290
     1
176
     1
290
     0
176
     1
290
     0
176
     1
290
     0
176
     1
290
     0
176
     1
290
     0
176
     1
290
     0
176
     1
 90
       50
176
     1
 40
0.0
176
     1
 40
1.0
176
     1
 90
        0
176
     1
 62
    18
420
        0
176
     1
 90
       50
176
     1
 90
        3
176
     1
 62
     5
420
      255
176
     1
290
     0
176
     1
 90
       50
176
     1
 90
       50
176
     1
 90
       50
176
     1
290
     0
176
     1
 90
       50
176
     1
 62
   256
176
     0
 40
1.0
176
     0
 90
        2
176
     1
  1
strokes_ogs.tif
176
     1
290
     0
176
     1
 40
1.0
176
     1
 40
1.0
176
     1
  0
VISUALSTYLE
  5
30
102
{ACAD_REACTORS
330
2A
102
}
330
2A
100
AcDbVisualStyle
  2
Wireframe
 70
     5
177
     3
291
     0
 70
    58
 90
        0
176
     1
 90
        2
176
     1
 90
        0
176
     1
 90
        0
176
     1
 40
0.6
176
     1
 40
30.0
176
     1
 62
     7
420
 16777215
176
     1
 90
        1
176
     1
 90
        4
176
     1
 62
     7
176
     1
 62
   257
176
     1
 90
        1
176
     1
 90
        1
176
     1
 40
1.0
176
     1
 90
        0
176
     1
 62
   257
176
     1
 40
1.0
176
     1
 90
        1
176
     1
 90
        6
176
     1
 90
        2
176
     1
 62
     7
176
     1
 90
        3
176
     1
 90
        0
176
     1
 90
        0
176
     1
290
     0
176
     1
 90
        1
176
     1
 40
0.0
176
     1
 90
        0
176
     1
290
     0
176
     1
290
     1
176
     1
290
     1
176
     1
290
     0
176
     1
290
     0
176
     1
290
     0
176
     1
290
     0
176
     1
290
     0
176
     1
290
     0
176
     1
 90
       50
176
     1
 40
0.0
176
     1
 40
1.0
176
     1
 90
        0
176
     1
 62
    18
420
        0
176
     1
 90
       50
176
     1
 90
        3
176
     1
 62
     5
420
      255
176
     1
290
     0
176
     1
 90
       50
176
     1
 90
       50
176
     1
 90
       50
176
     1
290
     0
176
     1
 90
       50
176
     1
 62
   256
176
     0
 40
1.0
176
     0
 90
        2
176
     1
  1
strokes_ogs.tif
176
     1
290
     0
176
     1
 40
1.0
176
     1
 40
1.0
176
     1
  0
VISUALSTYLE
  5
40
102
{ACAD_REACTORS
330
2A
102
}
330
2A
100
AcDbVisualStyle
  2
X-Ray
 70
    25
177
     3
291
     0
 70
    58
 90
        2
176
     1
 90
        2
176
     1
 90
        1
176
     1
 90
        1
176
     1
 40
0.5
176
     1
 40
30.0
176
     1
 62
     7
420
 16777215
176
     1
 90
        1
176
     1
 90
        0
176
     1
 62
     7
176
     1
 62
   257
176
     1
 90
        1
176
     1
 90
        1
176
     1
 40
1.0
176
     1
 90
        8
176
     1
 62
     7
176
     1
 40
1.0
176
     1
 90
        1
176
     1
 90
        6
176
     1
 90
        2
176
     1
 62
     7
176
     1
 90
        3
176
     1
 90
        0
176
     1
 90
        0
176
     1
290
     0
176
     1
 90
       13
176
     1
 40
0.0
176
     1
 90
        0
176
     1
290
     0
176
     1
290
     1
176
     1
290
     1
176
     1
290
     0
176
     1
290
     0
176
     1
290
     0
176
     1
290
     0
176
     1
290
     0
176
     1
290
     0
176
     1
 90
       50
176
     1
 40
0.0
176
     1
 40
1.0
176
     1
 90
        0
176
     1
 62
    18
420
        0
176
     1
 90
       50
176
     1
 90
        3
176
     1
 62
     5
420
      255
176
     1
290
     0
176
     1
 90
       50
176
     1
 90
       50
176
     1
 90
       50
176
     1
290
     0
176
     1
 90
       50
176
     1
 62
   256
176
     0
 40
1.0
176
     0
 90
        2
176
     1
  1
strokes_ogs.tif
176
     1
290
     0
176
     1
 40
1.0
176
     1
 40
1.0
176
     1
  0
DICTIONARYVAR
  5
8B
102
{ACAD_REACTORS
330
8A
102
}
330
8A
100
DictionaryVariables
280
     0
  1
1:1
  0
DICTIONARYVAR
  5
90
102
{ACAD_REACTORS
330
8A
102
}
330
8A
100
DictionaryVariables
280
     0
  1
Standard
  0
DICTIONARYVAR
  5
8F
102
{ACAD_REACTORS
330
8A
102
}
330
8A
100
DictionaryVariables
280
     0
  1
Standard
  0
DICTIONARY
  5
8C
330
5A
100
AcDbDictionary
280
     1
281
     1
  3
ACAD_ROUNDTRIP_2008_TABLESTYLE_CELLSTYLEMAP
360
8D
  0
CELLSTYLEMAP
  5
8D
102
{ACAD_REACTORS
330
8C
102
}
330
8C
100
AcDbCellStyleMap
 90
        3
300
CELLSTYLE
  1
TABLEFORMAT_BEGIN
 90
        5
170
     1
 91
        0
 92
    32768
 62
   257
 93
        1
300
CONTENTFORMAT
  1
CONTENTFORMAT_BEGIN
 90
        0
 91
        0
 92
        4
 93
        0
300

 40
0.0
140
1.0
 94
        5
 62
     0
340
11
144
0.25
309
CONTENTFORMAT_END
171
     1
301
MARGIN
  1
CELLMARGIN_BEGIN
 40
0.06
 40
0.06
 40
0.06
 40
0.06
 40
0.06
 40
0.06
309
CELLMARGIN_END
 94
        6
 95
        1
302
GRIDFORMAT
  1
GRIDFORMAT_BEGIN
 90
        0
 91
        1
 62
     0
 92
       -2
340
14
 93
        0
 40
0.045
309
GRIDFORMAT_END
 95
        2
302
GRIDFORMAT
  1
GRIDFORMAT_BEGIN
 90
        0
 91
        1
 62
     0
 92
       -2
340
14
 93
        0
 40
0.045
309
GRIDFORMAT_END
 95
        4
302
GRIDFORMAT
  1
GRIDFORMAT_BEGIN
 90
        0
 91
        1
 62
     0
 92
       -2
340
14
 93
        0
 40
0.045
309
GRIDFORMAT_END
 95
        8
302
GRIDFORMAT
  1
GRIDFORMAT_BEGIN
 90
        0
 91
        1
 62
     0
 92
       -2
340
14
 93
        0
 40
0.045
309
GRIDFORMAT_END
 95
       16
302
GRIDFORMAT
  1
GRIDFORMAT_BEGIN
 90
        0
 91
        1
 62
     0
 92
       -2
340
14
 93
        0
 40
0.045
309
GRIDFORMAT_END
 95
       32
302
GRIDFORMAT
  1
GRIDFORMAT_BEGIN
 90
        0
 91
        1
 62
     0
 92
       -2
340
14
 93
        0
 40
0.045
309
GRIDFORMAT_END
309
TABLEFORMAT_END
  1
CELLSTYLE_BEGIN
 90
        1
 91
        1
300
_TITLE
309
CELLSTYLE_END
300
CELLSTYLE
  1
TABLEFORMAT_BEGIN
 90
        5
170
     1
 91
        0
 92
        0
 62
   257
 93
        1
300
CONTENTFORMAT
  1
CONTENTFORMAT_BEGIN
 90
        0
 91
        0
 92
        4
 93
        0
300

 40
0.0
140
1.0
 94
        5
 62
     0
340
11
144
0.18
309
CONTENTFORMAT_END
171
     1
301
MARGIN
  1
CELLMARGIN_BEGIN
 40
0.06
 40
0.06
 40
0.06
 40
0.06
 40
0.06
 40
0.06
309
CELLMARGIN_END
 94
        6
 95
        1
302
GRIDFORMAT
  1
GRIDFORMAT_BEGIN
 90
        0
 91
        1
 62
     0
 92
       -2
340
14
 93
        0
 40
0.045
309
GRIDFORMAT_END
 95
        2
302
GRIDFORMAT
  1
GRIDFORMAT_BEGIN
 90
        0
 91
        1
 62
     0
 92
       -2
340
14
 93
        0
 40
0.045
309
GRIDFORMAT_END
 95
        4
302
GRIDFORMAT
  1
GRIDFORMAT_BEGIN
 90
        0
 91
        1
 62
     0
 92
       -2
340
14
 93
        0
 40
0.045
309
GRIDFORMAT_END
 95
        8
302
GRIDFORMAT
  1
GRIDFORMAT_BEGIN
 90
        0
 91
        1
 62
     0
 92
       -2
340
14
 93
        0
 40
0.045
309
GRIDFORMAT_END
 95
       16
302
GRIDFORMAT
  1
GRIDFORMAT_BEGIN
 90
        0
 91
        1
 62
     0
 92
       -2
340
14
 93
        0
 40
0.045
309
GRIDFORMAT_END
 95
       32
302
GRIDFORMAT
  1
GRIDFORMAT_BEGIN
 90
        0
 91
        1
 62
     0
 92
       -2
340
14
 93
        0
 40
0.045
309
GRIDFORMAT_END
309
TABLEFORMAT_END
  1
CELLSTYLE_BEGIN
 90
        2
 91
        1
300
_HEADER
309
CELLSTYLE_END
300
CELLSTYLE
  1
TABLEFORMAT_BEGIN
 90
        5
170
     1
 91
        0
 92
        0
 62
   257
 93
        1
300
CONTENTFORMAT
  1
CONTENTFORMAT_BEGIN
 90
        0
 91
        0
 92
        4
 93
        0
300

 40
0.0
140
1.0
 94
        2
 62
     0
340
11
144
0.18
309
CONTENTFORMAT_END
171
     1
301
MARGIN
  1
CELLMARGIN_BEGIN
 40
0.06
 40
0.06
 40
0.06
 40
0.06
 40
0.06
 40
0.06
309
CELLMARGIN_END
 94
        6
 95
        1
302
GRIDFORMAT
  1
GRIDFORMAT_BEGIN
 90
        0
 91
        1
 62
     0
 92
       -2
340
14
 93
        0
 40
0.045
309
GRIDFORMAT_END
 95
        2
302
GRIDFORMAT
  1
GRIDFORMAT_BEGIN
 90
        0
 91
        1
 62
     0
 92
       -2
340
14
 93
        0
 40
0.045
309
GRIDFORMAT_END
 95
        4
302
GRIDFORMAT
  1
GRIDFORMAT_BEGIN
 90
        0
 91
        1
 62
     0
 92
       -2
340
14
 93
        0
 40
0.045
309
GRIDFORMAT_END
 95
        8
302
GRIDFORMAT
  1
GRIDFORMAT_BEGIN
 90
        0
 91
        1
 62
     0
 92
       -2
340
14
 93
        0
 40
0.045
309
GRIDFORMAT_END
 95
       16
302
GRIDFORMAT
  1
GRIDFORMAT_BEGIN
 90
        0
 91
        1
 62
     0
 92
       -2
340
14
 93
        0
 40
0.045
309
GRIDFORMAT_END
 95
       32
302
GRIDFORMAT
  1
GRIDFORMAT_BEGIN
 90
        0
 91
        1
 62
     0
 92
       -2
340
14
 93
        0
 40
0.045
309
GRIDFORMAT_END
309
TABLEFORMAT_END
  1
CELLSTYLE_BEGIN
 90
        3
 91
        2
300
_DATA
309
CELLSTYLE_END
  0
ENDSEC
  0
EOF
