  0
SECTION
  2
HEADER
  9
$ACADVER
  1
AC1027
  9
$ACADMAINTVER
 70
   105
  9
$DWGCODEPAGE
  3
ANSI_1252
  9
$LASTSAVEDBY
  1
Office Desk
  9
$REQUIREDVERSIONS
160
                 0
  9
$INSBASE
 10
0.0
 20
0.0
 30
0.0
  9
$EXTMIN
 10
-422.2622
 20
2.5335
 30
0.0
  9
$EXTMAX
 10
-289.1387
 20
165.5675
 30
0.0
  9
$LIMMIN
 10
0.0
 20
0.0
  9
$LIMMAX
 10
12.0
 20
9.0
  9
$ORTHOMODE
 70
     0
  9
$REGENMODE
 70
     1
  9
$FILLMODE
 70
     1
  9
$QTEXTMODE
 70
     0
  9
$MIRRTEXT
 70
     1
  9
$LTSCALE
 40
1.0
  9
$ATTMODE
 70
     1
  9
$TEXTSIZE
 40
0.2
  9
$TRACEWID
 40
0.05
  9
$TEXTSTYLE
  7
Standard
  9
$CLAYER
  8
0
  9
$CELTYPE
  6
ByLayer
  9
$CECOLOR
 62
   256
  9
$CELTSCALE
 40
1.0
  9
$DISPSILH
 70
     0
  9
$DIMSCALE
 40
1.0
  9
$DIMASZ
 40
0.18
  9
$DIMEXO
 40
0.0625
  9
$DIMDLI
 40
0.38
  9
$DIMRND
 40
0.0
  9
$DIMDLE
 40
0.0
  9
$DIMEXE
 40
0.18
  9
$DIMTP
 40
0.0
  9
$DIMTM
 40
0.0
  9
$DIMTXT
 40
0.18
  9
$DIMCEN
 40
0.09
  9
$DIMTSZ
 40
0.0
  9
$DIMTOL
 70
     0
  9
$DIMLIM
 70
     0
  9
$DIMTIH
 70
     1
  9
$DIMTOH
 70
     1
  9
$DIMSE1
 70
     0
  9
$DIMSE2
 70
     0
  9
$DIMTAD
 70
     0
  9
$DIMZIN
 70
     0
  9
$DIMBLK
  1

  9
$DIMASO
 70
     1
  9
$DIMSHO
 70
     1
  9
$DIMPOST
  1

  9
$DIMAPOST
  1

  9
$DIMALT
 70
     0
  9
$DIMALTD
 70
     2
  9
$DIMALTF
 40
25.4
  9
$DIMLFAC
 40
1.0
  9
$DIMTOFL
 70
     0
  9
$DIMTVP
 40
0.0
  9
$DIMTIX
 70
     0
  9
$DIMSOXD
 70
     0
  9
$DIMSAH
 70
     0
  9
$DIMBLK1
  1

  9
$DIMBLK2
  1

  9
$DIMSTYLE
  2
Standard
  9
$DIMCLRD
 70
     0
  9
$DIMCLRE
 70
     0
  9
$DIMCLRT
 70
     0
  9
$DIMTFAC
 40
1.0
  9
$DIMGAP
 40
0.09
  9
$DIMJUST
 70
     0
  9
$DIMSD1
 70
     0
  9
$DIMSD2
 70
     0
  9
$DIMTOLJ
 70
     1
  9
$DIMTZIN
 70
     0
  9
$DIMALTZ
 70
     0
  9
$DIMALTTZ
 70
     0
  9
$DIMUPT
 70
     0
  9
$DIMDEC
 70
     4
  9
$DIMTDEC
 70
     4
  9
$DIMALTU
 70
     2
  9
$DIMALTTD
 70
     2
  9
$DIMTXSTY
  7
Standard
  9
$DIMAUNIT
 70
     0
  9
$DIMADEC
 70
     0
  9
$DIMALTRND
 40
0.0
  9
$DIMAZIN
 70
     0
  9
$DIMDSEP
 70
    46
  9
$DIMATFIT
 70
     3
  9
$DIMFRAC
 70
     0
  9
$DIMLDRBLK
  1

  9
$DIMLUNIT
 70
     2
  9
$DIMLWD
 70
    -2
  9
$DIMLWE
 70
    -2
  9
$DIMTMOVE
 70
     0
  9
$DIMFXL
 40
1.0
  9
$DIMFXLON
 70
     0
  9
$DIMJOGANG
 40
0.7853981633974483
  9
$DIMTFILL
 70
     0
  9
$DIMTFILLCLR
 70
     0
  9
$DIMARCSYM
 70
     0
  9
$DIMLTYPE
  6

  9
$DIMLTEX1
  6

  9
$DIMLTEX2
  6

  9
$DIMTXTDIRECTION
 70
     0
  9
$LUNITS
 70
     2
  9
$LUPREC
 70
     4
  9
$SKETCHINC
 40
0.1
  9
$FILLETRAD
 40
0.0
  9
$AUNITS
 70
     0
  9
$AUPREC
 70
     0
  9
$MENU
  1
.
  9
$ELEVATION
 40
0.0
  9
$PELEVATION
 40
0.0
  9
$THICKNESS
 40
0.0
  9
$LIMCHECK
 70
     0
  9
$CHAMFERA
 40
0.0
  9
$CHAMFERB
 40
0.0
  9
$CHAMFERC
 40
0.0
  9
$CHAMFERD
 40
0.0
  9
$SKPOLY
 70
     0
  9
$TDCREATE
 40
2461015.749442605
  9
$TDUCREATE
 40
2461015.520275938
  9
$TDUPDATE
 40
2461015.749442686
  9
$TDUUPDATE
 40
2461015.520276019
  9
$TDINDWG
 40
0.0000000116
  9
$TDUSRTIMER
 40
0.0000000116
  9
$USRTIMER
 70
     1
  9
$ANGBASE
 50
0.0
  9
$ANGDIR
 70
     0
  9
$PDMODE
 70
     0
  9
$PDSIZE
 40
0.0
  9
$PLINEWID
 40
0.0
  9
$SPLFRAME
 70
     0
  9
$SPLINETYPE
 70
     6
  9
$SPLINESEGS
 70
     8
  9
$HANDSEED
  5
A0
  9
$SURFTAB1
 70
     6
  9
$SURFTAB2
 70
     6
  9
$SURFTYPE
 70
     6
  9
$SURFU
 70
     6
  9
$SURFV
 70
     6
  9
$UCSBASE
  2

  9
$UCSNAME
  2

  9
$UCSORG
 10
0.0
 20
0.0
 30
0.0
  9
$UCSXDIR
 10
1.0
 20
0.0
 30
0.0
  9
$UCSYDIR
 10
0.0
 20
1.0
 30
0.0
  9
$UCSORTHOREF
  2

  9
$UCSORTHOVIEW
 70
     0
  9
$UCSORGTOP
 10
0.0
 20
0.0
 30
0.0
  9
$UCSORGBOTTOM
 10
0.0
 20
0.0
 30
0.0
  9
$UCSORGLEFT
 10
0.0
 20
0.0
 30
0.0
  9
$UCSORGRIGHT
 10
0.0
 20
0.0
 30
0.0
  9
$UCSORGFRONT
 10
0.0
 20
0.0
 30
0.0
  9
$UCSORGBACK
 10
0.0
 20
0.0
 30
0.0
  9
$PUCSBASE
  2

  9
$PUCSNAME
  2

  9
$PUCSORG
 10
0.0
 20
0.0
 30
0.0
  9
$PUCSXDIR
 10
1.0
 20
0.0
 30
0.0
  9
$PUCSYDIR
 10
0.0
 20
1.0
 30
0.0
  9
$PUCSORTHOREF
  2

  9
$PUCSORTHOVIEW
 70
     0
  9
$PUCSORGTOP
 10
0.0
 20
0.0
 30
0.0
  9
$PUCSORGBOTTOM
 10
0.0
 20
0.0
 30
0.0
  9
$PUCSORGLEFT
 10
0.0
 20
0.0
 30
0.0
  9
$PUCSORGRIGHT
 10
0.0
 20
0.0
 30
0.0
  9
$PUCSORGFRONT
 10
0.0
 20
0.0
 30
0.0
  9
$PUCSORGBACK
 10
0.0
 20
0.0
 30
0.0
  9
$USERI1
 70
     0
  9
$USERI2
 70
     0
  9
$USERI3
 70
     0
  9
$USERI4
 70
     0
  9
$USERI5
 70
     0
  9
$USERR1
 40
0.0
  9
$USERR2
 40
0.0
  9
$USERR3
 40
0.0
  9
$USERR4
 40
0.0
  9
$USERR5
 40
0.0
  9
$WORLDVIEW
 70
     1
  9
$SHADEDGE
 70
     3
  9
$SHADEDIF
 70
    70
  9
$TILEMODE
 70
     1
  9
$MAXACTVP
 70
    64
  9
$PINSBASE
 10
0.0
 20
0.0
 30
0.0
  9
$PLIMCHECK
 70
     0
  9
$PEXTMIN
 10
1.000000000000000E+20
 20
1.000000000000000E+20
 30
1.000000000000000E+20
  9
$PEXTMAX
 10
-1.000000000000000E+20
 20
-1.000000000000000E+20
 30
-1.000000000000000E+20
  9
$PLIMMIN
 10
0.0
 20
0.0
  9
$PLIMMAX
 10
12.0
 20
9.0
  9
$UNITMODE
 70
     0
  9
$VISRETAIN
 70
     1
  9
$PLINEGEN
 70
     0
  9
$PSLTSCALE
 70
     1
  9
$TREEDEPTH
 70
  3020
  9
$CMLSTYLE
  2
Standard
  9
$CMLJUST
 70
     0
  9
$CMLSCALE
 40
1.0
  9
$PROXYGRAPHICS
 70
     1
  9
$MEASUREMENT
 70
     0
  9
$CELWEIGHT
370
    -1
  9
$ENDCAPS
280
     0
  9
$JOINSTYLE
280
     0
  9
$LWDISPLAY
290
     0
  9
$INSUNITS
 70
     4
  9
$HYPERLINKBASE
  1

  9
$STYLESHEET
  1

  9
$XEDIT
290
     1
  9
$CEPSNTYPE
380
     0
  9
$PSTYLEMODE
290
     1
  9
$FINGERPRINTGUID
  2
{067ca37a-d13b-4f5f-a2be-d6734619bf2c}
  9
$VERSIONGUID
  2
{FAEB1C32-E019-11D5-929B-00C0DF256EC4}
  9
$EXTNAMES
290
     1
  9
$PSVPSCALE
 40
0.0
  9
$OLESTARTUP
290
     0
  9
$SORTENTS
280
   127
  9
$INDEXCTL
280
     0
  9
$HIDETEXT
280
     1
  9
$XCLIPFRAME
280
     2
  9
$HALOGAP
280
     0
  9
$OBSCOLOR
 70
   257
  9
$OBSLTYPE
280
     0
  9
$INTERSECTIONDISPLAY
280
     0
  9
$INTERSECTIONCOLOR
 70
   257
  9
$DIMASSOC
280
     2
  9
$PROJECTNAME
  1

  9
$CAMERADISPLAY
290
     0
  9
$LENSLENGTH
 40
50.0
  9
$CAMERAHEIGHT
 40
0.0
  9
$STEPSPERSEC
 40
2.0
  9
$STEPSIZE
 40
6.0
  9
$3DDWFPREC
 40
2.0
  9
$PSOLWIDTH
 40
0.25
  9
$PSOLHEIGHT
 40
4.0
  9
$LOFTANG1
 40
1.570796326794897
  9
$LOFTANG2
 40
1.570796326794897
  9
$LOFTMAG1
 40
0.0
  9
$LOFTMAG2
 40
0.0
  9
$LOFTPARAM
 70
     7
  9
$LOFTNORMALS
280
     1
  9
$LATITUDE
 40
37.795
  9
$LONGITUDE
 40
-122.394
  9
$NORTHDIRECTION
 40
0.0
  9
$TIMEZONE
 70
 -8000
  9
$LIGHTGLYPHDISPLAY
280
     1
  9
$TILEMODELIGHTSYNCH
280
     1
  9
$CMATERIAL
347
44
  9
$SOLIDHIST
280
     0
  9
$SHOWHIST
280
     1
  9
$DWFFRAME
280
     2
  9
$DGNFRAME
280
     2
  9
$REALWORLDSCALE
290
     1
  9
$INTERFERECOLOR
 62
   256
  9
$CSHADOW
280
     0
  9
$SHADOWPLANELOCATION
 40
0.0
  0
ENDSEC
  0
SECTION
  2
CLASSES
  0
CLASS
  1
ACDBDICTIONARYWDFLT
  2
AcDbDictionaryWithDefault
  3
ObjectDBX Classes
 90
        0
 91
        3
280
     0
281
     0
  0
CLASS
  1
VISUALSTYLE
  2
AcDbVisualStyle
  3
ObjectDBX Classes
 90
     4095
 91
        3
280
     0
281
     0
  0
CLASS
  1
MATERIAL
  2
AcDbMaterial
  3
ObjectDBX Classes
 90
     1153
 91
        3
280
     0
281
     0
  0
CLASS
  1
SCALE
  2
AcDbScale
  3
ObjectDBX Classes
 90
     1153
 91
        3
280
     0
281
     0
  0
CLASS
  1
TABLESTYLE
  2
AcDbTableStyle
  3
ObjectDBX Classes
 90
     4095
 91
        3
280
     0
281
     0
  0
CLASS
  1
MLEADERSTYLE
  2
AcDbMLeaderStyle
  3
ACDB_MLEADERSTYLE_CLASS
 90
     4095
 91
        3
280
     0
281
     0
  0
CLASS
  1
SUN
  2
AcDbSun
  3
SCENEOE
 90
     1153
 91
        3
280
     0
281
     0
  0
CLASS
  1
DICTIONARYVAR
  2
AcDbDictionaryVar
  3
ObjectDBX Classes
 90
        0
 91
        3
280
     0
281
     0
  0
CLASS
  1
CELLSTYLEMAP
  2
AcDbCellStyleMap
  3
ObjectDBX Classes
 90
     1152
 91
        3
280
     0
281
     0
  0
ENDSEC
  0
SECTION
  2
TABLES
  0
TABLE
  2
VPORT
  5
8
330
0
100
AcDbSymbolTable
 70
     1
  0
VPORT
  5
29
330
8
100
AcDbSymbolTableRecord
100
AcDbViewportTableRecord
  2
*Active
 70
     0
 10
0.0
 20
0.0
 11
1.0
 21
1.0
 12
10.42990654205607
 22
4.5
 13
0.0
 23
0.0
 14
0.5
 24
0.5
 15
0.5
 25
0.5
 16
0.0
 26
0.0
 36
1.0
 17
0.0
 27
0.0
 37
0.0
 40
9.0
 41
1.972972972850329
 42
50.0
 43
0.0
 44
0.0
 50
0.0
 51
0.0
 71
     0
 72
   100
 73
     1
 74
     3
 75
     0
 76
     0
 77
     0
 78
     0
281
     0
 65
     1
110
0.0
120
0.0
130
0.0
111
1.0
121
0.0
131
0.0
112
0.0
122
1.0
132
0.0
 79
     0
146
0.0
348
2F
 60
     3
 61
     5
292
     1
282
     1
141
0.0
142
0.0
 63
   250
361
5D
  0
ENDTAB
  0
TABLE
  2
LTYPE
  5
5
330
0
100
AcDbSymbolTable
 70
     1
  0
LTYPE
  5
14
330
5
100
AcDbSymbolTableRecord
100
AcDbLinetypeTableRecord
  2
ByBlock
 70
     0
  3

 72
    65
 73
     0
 40
0.0
  0
LTYPE
  5
15
330
5
100
AcDbSymbolTableRecord
100
AcDbLinetypeTableRecord
  2
ByLayer
 70
     0
  3

 72
    65
 73
     0
 40
0.0
  0
LTYPE
  5
16
330
5
100
AcDbSymbolTableRecord
100
AcDbLinetypeTableRecord
  2
Continuous
 70
     0
  3
Solid line
 72
    65
 73
     0
 40
0.0
  0
ENDTAB
  0
TABLE
  2
LAYER
  5
2
330
0
100
AcDbSymbolTable
 70
     2
  0
LAYER
  5
10
330
2
100
AcDbSymbolTableRecord
100
AcDbLayerTableRecord
  2
0
 70
     0
 62
     7
  6
Continuous
370
    -3
390
F
347
46
348
0
  0
LAYER
  5
5F
330
2
100
AcDbSymbolTableRecord
100
AcDbLayerTableRecord
  2
Layer 1
 70
     0
 62
     7
  6
Continuous
370
    -3
390
F
347
46
348
0
  0
ENDTAB
  0
TABLE
  2
STYLE
  5
3
330
0
100
AcDbSymbolTable
 70
     1
  0
STYLE
  5
11
330
3
100
AcDbSymbolTableRecord
100
AcDbTextStyleTableRecord
  2
Standard
 70
     0
 40
0.0
 41
1.0
 50
0.0
 71
     0
 42
0.2
  3
txt
  4

  0
ENDTAB
  0
TABLE
  2
VIEW
  5
6
330
0
100
AcDbSymbolTable
 70
     0
  0
ENDTAB
  0
TABLE
  2
UCS
  5
7
330
0
100
AcDbSymbolTable
 70
     0
  0
ENDTAB
  0
TABLE
  2
APPID
  5
9
330
0
100
AcDbSymbolTable
 70
     2
  0
APPID
  5
12
330
9
100
AcDbSymbolTableRecord
100
AcDbRegAppTableRecord
  2
ACAD
 70
     0
  0
APPID
  5
5E
330
9
100
AcDbSymbolTableRecord
100
AcDbRegAppTableRecord
  2
ODA
 70
     0
  0
ENDTAB
  0
TABLE
  2
DIMSTYLE
  5
A
330
0
100
AcDbSymbolTable
 70
     1
100
AcDbDimStyleTable
  0
DIMSTYLE
105
27
330
A
100
AcDbSymbolTableRecord
100
AcDbDimStyleTableRecord
  2
Standard
 70
     0
178
     0
340
11
  0
ENDTAB
  0
TABLE
  2
BLOCK_RECORD
  5
1
330
0
100
AcDbSymbolTable
 70
     1
  0
BLOCK_RECORD
  5
1F
330
1
100
AcDbSymbolTableRecord
100
AcDbBlockTableRecord
  2
*Model_Space
340
22
 70
     0
280
     1
281
     0
  0
BLOCK_RECORD
  5
1B
330
1
100
AcDbSymbolTableRecord
100
AcDbBlockTableRecord
  2
*Paper_Space
340
1E
 70
     0
280
     1
281
     0
  0
BLOCK_RECORD
  5
23
330
1
100
AcDbSymbolTableRecord
100
AcDbBlockTableRecord
  2
*Paper_Space0
340
26
 70
     0
280
     1
281
     0
  0
ENDTAB
  0
ENDSEC
  0
SECTION
  2
BLOCKS
  0
BLOCK
  5
20
330
1F
100
AcDbEntity
  8
0
100
AcDbBlockBegin
  2
*Model_Space
 70
     0
 10
0.0
 20
0.0
 30
0.0
  3
*Model_Space
  1

  0
ENDBLK
  5
21
330
1F
100
AcDbEntity
  8
0
100
AcDbBlockEnd
  0
BLOCK
  5
1C
330
1B
100
AcDbEntity
 67
     1
  8
0
100
AcDbBlockBegin
  2
*Paper_Space
 70
     0
 10
0.0
 20
0.0
 30
0.0
  3
*Paper_Space
  1

  0
ENDBLK
  5
1D
330
1B
100
AcDbEntity
 67
     1
  8
0
100
AcDbBlockEnd
  0
BLOCK
  5
24
330
23
100
AcDbEntity
  8
0
100
AcDbBlockBegin
  2
*Paper_Space0
 70
     0
 10
0.0
 20
0.0
 30
0.0
  3
*Paper_Space0
  1

  0
ENDBLK
  5
25
330
23
100
AcDbEntity
  8
0
100
AcDbBlockEnd
  0
ENDSEC
  0
SECTION
  2
ENTITIES
  0
LWPOLYLINE
  5
60
330
1F
100
AcDbEntity
  8
Layer 1
 62
   250
370
     9
100
AcDbPolyline
 90
        5
 70
     1
 43
0.0
 10
-422.2241
 20
2.5716
 10
-289.1769
 20
2.5716
 10
-289.1769
 20
165.5294
 10
-422.2241
 20
165.5294
 10
-422.2241
 20
2.5716
  0
LWPOLYLINE
  5
61
330
1F
100
AcDbEntity
  8
Layer 1
 62
     7
370
     9
100
AcDbPolyline
 90
        7
 70
     1
 43
0.0
 10
-295.6157
 20
63.2965
 10
-295.6157
 20
64.5325
 10
-307.8079
 20
64.5325
 10
-307.4887
 20
61.5655
 10
-306.4079
 20
61.5655
 10
-306.4079
 20
63.2965
 10
-295.6157
 20
63.2965
  0
LWPOLYLINE
  5
62
330
1F
100
AcDbEntity
  8
Layer 1
 62
     7
370
     9
100
AcDbPolyline
 90
      162
 70
     1
 43
0.0
 10
-295.6508
 20
96.6581
 10
-295.6508
 20
97.8941
 10
-300.5246
 20
97.8941
 10
-300.8481
 20
97.884
 10
-301.1564
 20
97.8539
 10
-301.4494
 20
97.8035
 10
-301.7272
 20
97.7331
 10
-301.9898
 20
97.6424
 10
-302.2371
 20
97.5316
 10
-302.4693
 20
97.4007
 10
-302.6862
 20
97.2495
 10
-302.7901
 20
97.1652
 10
-302.8886
 20
97.0757
 10
-302.9819
 20
96.981
 10
-303.0698
 20
96.881
 10
-303.1525
 20
96.7758
 10
-303.2299
 20
96.6653
 10
-303.3021
 20
96.5495
 10
-303.369
 20
96.4285
 10
-303.4291
 20
96.2999
 10
-303.4811
 20
96.1613
 10
-303.5252
 20
96.0128
 10
-303.5613
 20
95.8545
 10
-303.5894
 20
95.6862
 10
-303.6094
 20
95.508
 10
-303.6215
 20
95.3198
 10
-303.6255
 20
95.1218
 10
-303.6186
 20
94.9218
 10
-303.5979
 20
94.7281
 10
-303.5634
 20
94.5408
 10
-303.515
 20
94.3599
 10
-303.4527
 20
94.1854
 10
-303.3766
 20
94.0172
 10
-303.2865
 20
93.8554
 10
-303.1825
 20
93.6999
 10
-303.0789
 20
93.5649
 10
-302.9677
 20
93.436
 10
-302.8489
 20
93.3131
 10
-302.7226
 20
93.1964
 10
-302.5888
 20
93.0856
 10
-302.4475
 20
92.981
 10
-302.2989
 20
92.8825
 10
-302.143
 20
92.79
 10
-302.2867
 20
92.7185
 10
-302.4256
 20
92.6402
 10
-302.559
 20
92.5552
 10
-302.6862
 20
92.4633
 10
-302.7901
 20
92.379
 10
-302.8886
 20
92.2895
 10
-302.9819
 20
92.1947
 10
-303.0698
 20
92.0948
 10
-303.1525
 20
91.9895
 10
-303.2299
 20
91.879
 10
-303.3021
 20
91.7632
 10
-303.369
 20
91.6422
 10
-303.4291
 20
91.5136
 10
-303.4811
 20
91.375
 10
-303.5252
 20
91.2265
 10
-303.5613
 20
91.0682
 10
-303.5894
 20
90.8999
 10
-303.6094
 20
90.7217
 10
-303.6215
 20
90.5335
 10
-303.6255
 20
90.3355
 10
-303.6186
 20
90.1355
 10
-303.5979
 20
89.9418
 10
-303.5634
 20
89.7546
 10
-303.515
 20
89.5737
 10
-303.4527
 20
89.3991
 10
-303.3766
 20
89.231
 10
-303.2865
 20
89.0692
 10
-303.1825
 20
88.9137
 10
-303.0841
 20
88.785
 10
-302.9789
 20
88.662
 10
-302.8669
 20
88.5444
 10
-302.7482
 20
88.4324
 10
-302.6228
 20
88.3259
 10
-302.4905
 20
88.2249
 10
-302.3514
 20
88.1294
 10
-302.2056
 20
88.0394
 10
-303.4484
 20
88.0394
 10
-303.4484
 20
86.8034
 10
-295.6508
 20
86.8034
 10
-295.6508
 20
88.0394
 10
-299.6416
 20
88.0394
 10
-299.8739
 20
88.0682
 10
-300.0972
 20
88.1058
 10
-300.3115
 20
88.1522
 10
-300.517
 20
88.2074
 10
-300.7137
 20
88.2714
 10
-300.9016
 20
88.3442
 10
-301.0807
 20
88.4259
 10
-301.2512
 20
88.5163
 10
-301.3724
 20
88.59
 10
-301.4881
 20
88.6697
 10
-301.5983
 20
88.7556
 10
-301.703
 20
88.8476
 10
-301.8021
 20
88.9456
 10
-301.8957
 20
89.0497
 10
-301.9836
 20
89.1598
 10
-302.066
 20
89.276
 10
-302.1408
 20
89.3961
 10
-302.2057
 20
89.5185
 10
-302.2605
 20
89.6432
 10
-302.3054
 20
89.7701
 10
-302.3403
 20
89.8992
 10
-302.3653
 20
90.0306
 10
-302.3802
 20
90.1641
 10
-302.3852
 20
90.2998
 10
-302.3826
 20
90.4324
 10
-302.3746
 20
90.5561
 10
-302.3614
 20
90.6709
 10
-302.343
 20
90.7769
 10
-302.3193
 20
90.8739
 10
-302.2904
 20
90.9622
 10
-302.2562
 20
91.0415
 10
-302.2168
 20
91.1121
 10
-302.0848
 20
91.2903
 10
-301.9301
 20
91.4447
 10
-301.7526
 20
91.5753
 10
-301.5524
 20
91.6821
 10
-301.3295
 20
91.7652
 10
-301.0839
 20
91.8245
 10
-300.8156
 20
91.86
 10
-300.5246
 20
91.8719
 10
-295.6508
 20
91.8719
 10
-295.6508
 20
93.1079
 10
-300.5246
 20
93.1079
 10
-300.8225
 20
93.0991
 10
-301.2512
 20
93.3025
 10
-301.3724
 20
93.3762
 10
-301.4881
 20
93.4559
 10
-301.5983
 20
93.5417
 10
-301.703
 20
93.6335
 10
-301.8021
 20
93.7314
 10
-301.8957
 20
93.8354
 10
-301.9836
 20
93.9454
 10
-302.066
 20
94.0616
 10
-302.1408
 20
94.1819
 10
-302.2057
 20
94.3045
 10
-302.2605
 20
94.4292
 10
-302.3054
 20
94.5562
 10
-302.3403
 20
94.6854
 10
-302.3653
 20
94.8168
 10
-302.3802
 20
94.9504
 10
-302.3852
 20
95.0861
 10
-302.3826
 20
95.2185
 10
-302.3746
 20
95.3421
 10
-302.3614
 20
95.4569
 10
-302.343
 20
95.5629
 10
-302.3193
 20
95.66
 10
-302.2904
 20
95.7483
 10
-302.2562
 20
95.8278
 10
-302.2168
 20
95.8984
 10
-302.0848
 20
96.0764
 10
-301.9301
 20
96.2307
 10
-301.7526
 20
96.3613
 10
-301.5524
 20
96.4681
 10
-301.3295
 20
96.5512
 10
-301.0839
 20
96.6106
 10
-300.8156
 20
96.6462
 10
-300.5246
 20
96.6581
 10
-295.6508
 20
96.6581
  0
LWPOLYLINE
  5
63
330
1F
100
AcDbEntity
  8
Layer 1
 62
     7
370
     9
100
AcDbPolyline
 90
      162
 70
     1
 43
0.0
 10
-295.6508
 20
110.1339
 10
-295.6508
 20
111.3698
 10
-300.5246
 20
111.3698
 10
-300.8481
 20
111.3597
 10
-301.1564
 20
111.3296
 10
-301.4494
 20
111.2792
 10
-301.7272
 20
111.2088
 10
-301.9898
 20
111.1181
 10
-302.2371
 20
111.0074
 10
-302.4693
 20
110.8764
 10
-302.6862
 20
110.7253
 10
-302.7901
 20
110.641
 10
-302.8886
 20
110.5515
 10
-302.9819
 20
110.4567
 10
-303.0698
 20
110.3568
 10
-303.1525
 20
110.2515
 10
-303.2299
 20
110.141
 10
-303.3021
 20
110.0252
 10
-303.369
 20
109.9042
 10
-303.4291
 20
109.7756
 10
-303.4811
 20
109.637
 10
-303.5252
 20
109.4885
 10
-303.5613
 20
109.3302
 10
-303.5894
 20
109.1619
 10
-303.6094
 20
108.9837
 10
-303.6215
 20
108.7955
 10
-303.6255
 20
108.5975
 10
-303.6186
 20
108.3975
 10
-303.5979
 20
108.2038
 10
-303.5634
 20
108.0165
 10
-303.515
 20
107.8356
 10
-303.4527
 20
107.6611
 10
-303.3766
 20
107.4929
 10
-303.2865
 20
107.3311
 10
-303.1825
 20
107.1756
 10
-303.0789
 20
107.0406
 10
-302.9677
 20
106.9117
 10
-302.8489
 20
106.7888
 10
-302.7226
 20
106.6721
 10
-302.5888
 20
106.5613
 10
-302.4475
 20
106.4567
 10
-302.2989
 20
106.3582
 10
-302.143
 20
106.2657
 10
-302.2867
 20
106.1942
 10
-302.4256
 20
106.1159
 10
-302.559
 20
106.0309
 10
-302.6862
 20
105.939
 10
-302.7901
 20
105.8547
 10
-302.8886
 20
105.7652
 10
-302.9819
 20
105.6704
 10
-303.0698
 20
105.5705
 10
-303.1525
 20
105.4652
 10
-303.2299
 20
105.3547
 10
-303.3021
 20
105.2389
 10
-303.369
 20
105.1179
 10
-303.4291
 20
104.9893
 10
-303.4811
 20
104.8507
 10
-303.5252
 20
104.7023
 10
-303.5613
 20
104.5439
 10
-303.5894
 20
104.3756
 10
-303.6094
 20
104.1974
 10
-303.6215
 20
104.0093
 10
-303.6255
 20
103.8112
 10
-303.6186
 20
103.6112
 10
-303.5979
 20
103.4175
 10
-303.5634
 20
103.2303
 10
-303.515
 20
103.0494
 10
-303.4527
 20
102.8748
 10
-303.3766
 20
102.7067
 10
-303.2865
 20
102.5449
 10
-303.1825
 20
102.3894
 10
-303.0841
 20
102.2607
 10
-302.9789
 20
102.1377
 10
-302.8669
 20
102.0201
 10
-302.7482
 20
101.9081
 10
-302.6228
 20
101.8016
 10
-302.4905
 20
101.7006
 10
-302.3514
 20
101.6051
 10
-302.2056
 20
101.5151
 10
-303.4484
 20
101.5151
 10
-303.4484
 20
100.2791
 10
-295.6508
 20
100.2791
 10
-295.6508
 20
101.5151
 10
-299.6416
 20
101.5151
 10
-299.8739
 20
101.5439
 10
-300.0972
 20
101.5815
 10
-300.3115
 20
101.6279
 10
-300.517
 20
101.6831
 10
-300.7137
 20
101.7471
 10
-300.9016
 20
101.8199
 10
-301.0807
 20
101.9016
 10
-301.2512
 20
101.992
 10
-301.3724
 20
102.0657
 10
-301.4881
 20
102.1454
 10
-301.5983
 20
102.2313
 10
-301.703
 20
102.3233
 10
-301.8021
 20
102.4213
 10
-301.8957
 20
102.5254
 10
-301.9836
 20
102.6355
 10
-302.066
 20
102.7517
 10
-302.1408
 20
102.8718
 10
-302.2057
 20
102.9942
 10
-302.2605
 20
103.1189
 10
-302.3054
 20
103.2458
 10
-302.3403
 20
103.3749
 10
-302.3653
 20
103.5063
 10
-302.3802
 20
103.6399
 10
-302.3852
 20
103.7756
 10
-302.3826
 20
103.9082
 10
-302.3746
 20
104.0319
 10
-302.3614
 20
104.1467
 10
-302.343
 20
104.2526
 10
-302.3193
 20
104.3497
 10
-302.2904
 20
104.4379
 10
-302.2562
 20
104.5173
 10
-302.2168
 20
104.5879
 10
-302.0848
 20
104.7661
 10
-301.9301
 20
104.9205
 10
-301.7526
 20
105.051
 10
-301.5524
 20
105.1578
 10
-301.3295
 20
105.2409
 10
-301.0839
 20
105.3002
 10
-300.8156
 20
105.3357
 10
-300.5246
 20
105.3476
 10
-295.6508
 20
105.3476
 10
-295.6508
 20
106.5836
 10
-300.5246
 20
106.5836
 10
-300.8225
 20
106.5748
 10
-301.2512
 20
106.7782
 10
-301.3724
 20
106.8519
 10
-301.4881
 20
106.9316
 10
-301.5983
 20
107.0174
 10
-301.703
 20
107.1092
 10
-301.8021
 20
107.2071
 10
-301.8957
 20
107.3111
 10
-301.9836
 20
107.4211
 10
-302.066
 20
107.5373
 10
-302.1408
 20
107.6577
 10
-302.2057
 20
107.7802
 10
-302.2605
 20
107.905
 10
-302.3054
 20
108.032
 10
-302.3403
 20
108.1611
 10
-302.3653
 20
108.2925
 10
-302.3802
 20
108.4261
 10
-302.3852
 20
108.5618
 10
-302.3826
 20
108.6942
 10
-302.3746
 20
108.8178
 10
-302.3614
 20
108.9326
 10
-302.343
 20
109.0386
 10
-302.3193
 20
109.1357
 10
-302.2904
 20
109.224
 10
-302.2562
 20
109.3035
 10
-302.2168
 20
109.3741
 10
-302.0848
 20
109.5521
 10
-301.9301
 20
109.7064
 10
-301.7526
 20
109.837
 10
-301.5524
 20
109.9439
 10
-301.3295
 20
110.027
 10
-301.0839
 20
110.0864
 10
-300.8156
 20
110.122
 10
-300.5246
 20
110.1339
 10
-295.6508
 20
110.1339
  0
LWPOLYLINE
  5
64
330
1F
100
AcDbEntity
  8
Layer 1
 62
     7
370
     9
100
AcDbPolyline
 90
        7
 70
     1
 43
0.0
 10
-295.6157
 20
68.365
 10
-295.6157
 20
69.6009
 10
-307.8079
 20
69.6009
 10
-307.4887
 20
66.6339
 10
-306.4079
 20
66.6339
 10
-306.4079
 20
68.365
 10
-295.6157
 20
68.365
  0
LWPOLYLINE
  5
65
330
1F
100
AcDbEntity
  8
Layer 1
 62
     7
370
     9
100
AcDbPolyline
 90
       92
 70
     1
 43
0.0
 10
-306.2665
 20
76.7271
 10
-306.1275
 20
76.931
 10
-305.9696
 20
77.121
 10
-305.7929
 20
77.2973
 10
-305.5973
 20
77.4599
 10
-305.3829
 20
77.6086
 10
-305.1497
 20
77.7437
 10
-304.8976
 20
77.8649
 10
-304.6268
 20
77.9725
 10
-304.2677
 20
78.0924
 10
-303.9032
 20
78.1964
 10
-303.5334
 20
78.2844
 10
-303.1584
 20
78.3564
 10
-302.778
 20
78.4124
 10
-302.3924
 20
78.4524
 10
-302.0015
 20
78.4764
 10
-301.6054
 20
78.4844
 10
-300.7286
 20
78.4312
 10
-300.2522
 20
78.3699
 10
-299.8021
 20
78.2899
 10
-299.3783
 20
78.1911
 10
-298.9807
 20
78.0736
 10
-298.6095
 20
77.9373
 10
-298.2645
 20
77.7823
 10
-297.9458
 20
77.6086
 10
-297.6534
 20
77.4161
 10
-297.4334
 20
77.2403
 10
-297.2427
 20
77.0552
 10
-297.0813
 20
76.8606
 10
-296.9493
 20
76.6567
 10
-296.8466
 20
76.4434
 10
-296.7733
 20
76.2207
 10
-296.7293
 20
75.9886
 10
-296.7146
 20
75.7471
 10
-296.7292
 20
75.4776
 10
-296.7728
 20
75.221
 10
-296.8455
 20
74.9775
 10
-296.9473
 20
74.7469
 10
-297.0781
 20
74.5292
 10
-297.2379
 20
74.3246
 10
-297.4268
 20
74.1329
 10
-297.6446
 20
73.9541
 10
-297.8596
 20
73.8063
 10
-298.0878
 20
73.6716
 10
-298.3292
 20
73.5503
 10
-298.584
 20
73.4422
 10
-298.847
 20
73.3466
 10
-299.1134
 20
73.2632
 10
-299.3831
 20
73.1921
 10
-299.656
 20
73.1331
 10
-300.7199
 20
72.9829
 10
-301.9039
 20
72.939
 10
-302.076
 20
72.942
 10
-302.2582
 20
72.9511
 10
-302.4504
 20
72.9662
 10
-302.6528
 20
72.9875
 10
-302.8653
 20
73.0147
 10
-303.0879
 20
73.0481
 10
-303.3206
 20
73.0876
 10
-303.5636
 20
73.1331
 10
-303.8334
 20
73.1916
 10
-304.102
 20
73.2612
 10
-304.3694
 20
73.3418
 10
-304.6356
 20
73.4334
 10
-304.8949
 20
73.5377
 10
-305.1408
 20
73.6564
 10
-305.3733
 20
73.7893
 10
-305.5925
 20
73.9366
 10
-305.6962
 20
74.0157
 10
-305.7947
 20
74.0988
 10
-305.8879
 20
74.1857
 10
-305.9759
 20
74.2764
 10
-306.0586
 20
74.3711
 10
-306.1361
 20
74.4696
 10
-306.2083
 20
74.5719
 10
-306.2753
 20
74.6782
 10
-306.3354
 20
74.7889
 10
-306.3874
 20
74.9045
 10
-306.4315
 20
75.0252
 10
-306.4676
 20
75.1508
 10
-306.4957
 20
75.2813
 10
-306.5157
 20
75.4168
 10
-306.5278
 20
75.5573
 10
-306.5318
 20
75.7027
 10
-306.5276
 20
75.8481
 10
-306.5152
 20
75.9885
 10
-306.4944
 20
76.124
 10
-306.4653
 20
76.2545
 10
-306.428
 20
76.3801
 10
-306.3824
 20
76.5008
 10
-306.3286
 20
76.6164
 10
-306.2665
 20
76.7271
  0
LWPOLYLINE
  5
66
330
1F
100
AcDbEntity
  8
Layer 1
 62
     7
370
     9
100
AcDbPolyline
 90
       65
 70
     1
 43
0.0
 10
-295.4561
 20
75.7646
 10
-295.4889
 20
76.2802
 10
-295.5874
 20
76.7629
 10
-295.7515
 20
77.2128
 10
-295.9813
 20
77.6299
 10
-296.2766
 20
78.0142
 10
-296.6376
 20
78.3656
 10
-297.0642
 20
78.6842
 10
-297.5564
 20
78.97
 10
-297.9858
 20
79.1707
 10
-298.439
 20
79.3447
 10
-298.9161
 20
79.4919
 10
-299.4169
 20
79.6125
 10
-299.9416
 20
79.7062
 10
-300.4901
 20
79.7732
 10
-301.0624
 20
79.8134
 10
-301.6586
 20
79.8268
 10
-302.2548
 20
79.8134
 10
-302.8271
 20
79.7732
 10
-303.3756
 20
79.7062
 10
-303.9004
 20
79.6125
 10
-304.4013
 20
79.4919
 10
-304.8785
 20
79.3447
 10
-305.3319
 20
79.1707
 10
-305.7615
 20
78.97
 10
-306.2535
 20
78.6842
 10
-306.6799
 20
78.3656
 10
-307.0408
 20
78.0142
 10
-307.336
 20
77.6299
 10
-307.5657
 20
77.2128
 10
-307.7298
 20
76.7629
 10
-307.8283
 20
76.2802
 10
-307.8611
 20
75.7646
 10
-307.8283
 20
75.249
 10
-307.7298
 20
74.7662
 10
-307.5657
 20
74.3162
 10
-307.336
 20
73.8991
 10
-307.0408
 20
73.5148
 10
-306.6799
 20
73.1634
 10
-306.2535
 20
72.8448
 10
-305.7615
 20
72.5592
 10
-305.3319
 20
72.3583
 10
-304.8785
 20
72.1843
 10
-304.4013
 20
72.037
 10
-303.9004
 20
71.9165
 10
-303.3756
 20
71.8228
 10
-302.8271
 20
71.7559
 10
-302.2548
 20
71.7158
 10
-301.6586
 20
71.7024
 10
-301.0624
 20
71.7158
 10
-300.4901
 20
71.7559
 10
-299.9416
 20
71.8228
 10
-299.4169
 20
71.9165
 10
-298.9161
 20
72.037
 10
-298.439
 20
72.1843
 10
-297.9858
 20
72.3583
 10
-297.5564
 20
72.5592
 10
-297.0642
 20
72.8448
 10
-296.6376
 20
73.1634
 10
-296.2766
 20
73.5148
 10
-295.9813
 20
73.8991
 10
-295.7515
 20
74.3162
 10
-295.5874
 20
74.7662
 10
-295.4889
 20
75.249
 10
-295.4561
 20
75.7646
  0
LWPOLYLINE
  5
67
330
1F
100
AcDbEntity
  8
Layer 1
 62
     7
370
     9
100
AcDbPolyline
 90
        2
 70
     0
 43
0.0
 10
-320.9469
 20
20.482
 10
-320.9469
 20
159.1188
  0
LWPOLYLINE
  5
68
330
1F
100
AcDbEntity
  8
Layer 1
 62
     7
370
     9
100
AcDbPolyline
 90
        2
 70
     0
 43
0.0
 10
-343.9046
 20
159.1189
 10
-315.434
 20
159.1189
  0
LWPOLYLINE
  5
69
330
1F
100
AcDbEntity
  8
Layer 1
 62
     7
370
     9
100
AcDbPolyline
 90
      221
 70
     1
 43
0.0
 10
-374.4554
 20
21.6437
 10
-374.5726
 20
21.6799
 10
-374.8863
 20
21.7917
 10
-375.3396
 20
21.9835
 10
-375.8754
 20
22.2599
 10
-376.437
 20
22.6254
 10
-376.9672
 20
23.0846
 10
-377.4092
 20
23.642
 10
-377.7061
 20
24.3022
 10
-377.7177
 20
24.4304
 10
-377.7485
 20
24.7802
 10
-377.7924
 20
25.2995
 10
-377.8433
 20
25.9361
 10
-377.8953
 20
26.638
 10
-377.9424
 20
27.353
 10
-377.9783
 20
28.0289
 10
-377.9972
 20
28.6137
 10
-378.0226
 20
29.3359
 10
-378.0757
 20
30.374
 10
-378.1471
 20
31.6011
 10
-378.227
 20
32.89
 10
-378.3059
 20
34.1136
 10
-378.3741
 20
35.145
 10
-378.4221
 20
35.857
 10
-378.4402
 20
36.1226
 10
-378.8614
 20
47.1869
 10
-379.2158
 20
58.4942
 10
-379.4374
 20
65.4726
 10
-379.5704
 20
76.4709
 10
-379.6591
 20
87.7561
 10
-379.6369
 20
101.095
 10
-379.4596
 20
114.6327
 10
-379.4153
 20
119.5356
 10
-379.5839
 20
119.5135
 10
-380.0413
 20
119.4544
 10
-380.7148
 20
119.3689
 10
-381.5315
 20
119.2676
 10
-382.4189
 20
119.1612
 10
-383.3043
 20
119.0601
 10
-384.1148
 20
118.9752
 10
-384.7778
 20
118.917
 10
-385.4572
 20
118.8476
 10
-386.3208
 20
118.7335
 10
-387.3019
 20
118.592
 10
-388.334
 20
118.4404
 10
-389.3503
 20
118.296
 10
-390.2841
 20
118.1762
 10
-391.0688
 20
118.0982
 10
-391.6378
 20
118.0794
 10
-392.1312
 20
118.0949
 10
-392.7201
 20
118.1207
 10
-393.384
 20
118.1754
 10
-394.1025
 20
118.2775
 10
-394.8552
 20
118.4456
 10
-395.6216
 20
118.6983
 10
-396.3813
 20
119.0542
 10
-397.1138
 20
119.5319
 10
-397.7447
 20
120.0152
 10
-398.2445
 20
120.4058
 10
-398.6599
 20
120.7495
 10
-399.0377
 20
121.0919
 10
-399.4249
 20
121.4787
 10
-399.8682
 20
121.9554
 10
-400.4145
 20
122.5678
 10
-401.1106
 20
123.3614
 10
-401.8496
 20
124.3217
 10
-402.4972
 20
125.379
 10
-403.0594
 20
126.496
 10
-403.5421
 20
127.6358
 10
-403.9513
 20
128.7611
 10
-404.293
 20
129.8348
 10
-404.5731
 20
130.8199
 10
-404.7976
 20
131.6792
 10
-405.0009
 20
132.7349
 10
-405.1949
 20
134.2495
 10
-405.3516
 20
136.0956
 10
-405.4431
 20
138.1463
 10
-405.4414
 20
140.2744
 10
-405.3187
 20
142.3527
 10
-405.0469
 20
144.2541
 10
-404.5982
 20
145.8514
 10
-404.1753
 20
147.1501
 10
-403.5689
 20
148.5578
 10
-402.7785
 20
150.0063
 10
-401.8037
 20
151.4271
 10
-400.6441
 20
152.752
 10
-399.2994
 20
153.9127
 10
-397.7691
 20
154.8407
 10
-396.0528
 20
155.4678
 10
-395.7674
 20
155.489
 10
-394.9866
 20
155.5469
 10
-393.824
 20
155.6326
 10
-392.3927
 20
155.7374
 10
-390.8062
 20
155.8525
 10
-389.1777
 20
155.9691
 10
-387.6207
 20
156.0785
 10
-386.2485
 20
156.172
 10
-383.6334
 20
156.3618
 10
-378.7996
 20
156.7254
 10
-372.5385
 20
157.2013
 10
-365.6413
 20
157.7283
 10
-358.8994
 20
158.2449
 10
-353.104
 20
158.6899
 10
-349.0465
 20
159.0019
 10
-347.5182
 20
159.1195
 10
-346.9959
 20
159.0688
 10
-346.4976
 20
159.0191
 10
-346.0177
 20
158.9711
 10
-345.5507
 20
158.9255
 10
-345.0908
 20
158.883
 10
-344.6326
 20
158.8445
 10
-344.1703
 20
158.8106
 10
-343.6985
 20
158.782
 10
-342.1738
 20
158.7357
 10
-342.0819
 20
158.7393
 10
-341.8295
 20
158.7441
 10
-341.452
 20
158.7409
 10
-340.9844
 20
158.7205
 10
-340.4619
 20
158.6738
 10
-339.9197
 20
158.5917
 10
-339.393
 20
158.465
 10
-338.917
 20
158.2845
 10
-338.3653
 20
158.0259
 10
-337.6174
 20
157.6476
 10
-336.7173
 20
157.1142
 10
-335.7091
 20
156.3906
 10
-334.6367
 20
155.4416
 10
-333.5442
 20
154.232
 10
-332.4756
 20
152.7265
 10
-331.4749
 20
150.8901
 10
-330.663
 20
148.8849
 10
-330.1042
 20
146.906
 10
-329.7581
 20
144.9674
 10
-329.5841
 20
143.0829
 10
-329.5415
 20
141.2665
 10
-329.5897
 20
139.5321
 10
-329.6881
 20
137.8937
 10
-329.7962
 20
136.3652
 10
-329.8309
 20
136.2053
 10
-329.9411
 20
135.7463
 10
-330.1362
 20
135.0191
 10
-330.4255
 20
134.0546
 10
-330.8183
 20
132.8838
 10
-331.3239
 20
131.5376
 10
-331.9516
 20
130.047
 10
-332.7108
 20
128.4429
 10
-332.7287
 20
128.423
 10
-332.7715
 20
128.3335
 10
-332.8225
 20
128.1295
 10
-332.8653
 20
127.7661
 10
-332.8832
 20
127.1984
 10
-332.8598
 20
126.3817
 10
-332.7783
 20
125.2709
 10
-332.6224
 20
123.8213
 10
-332.3545
 20
121.81
 10
-331.978
 20
119.2184
 10
-331.5372
 20
116.308
 10
-331.0768
 20
113.3404
 10
-330.6412
 20
110.577
 10
-330.275
 20
108.2794
 10
-330.0226
 20
106.7091
 10
-329.9286
 20
106.1275
 10
-329.8492
 20
105.7255
 10
-329.658
 20
104.6364
 10
-329.4253
 20
103.0357
 10
-329.2216
 20
101.0986
 10
-329.1173
 20
99.0006
 10
-329.1828
 20
96.9171
 10
-329.4884
 20
95.0234
 10
-330.1046
 20
93.495
 10
-330.1508
 20
93.4046
 10
-330.2923
 20
93.1597
 10
-330.5332
 20
92.7998
 10
-330.8776
 20
92.3643
 10
-331.3296
 20
91.8927
 10
-331.8934
 20
91.4245
 10
-332.5731
 20
90.9991
 10
-333.3729
 20
90.6559
 10
-333.4591
 20
90.6172
 10
-333.7065
 20
90.5194
 10
-334.0984
 20
90.3901
 10
-334.6177
 20
90.257
 10
-335.2479
 20
90.1476
 10
-335.9719
 20
90.0895
 10
-336.7731
 20
90.1104
 10
-337.6346
 20
90.2378
 10
-337.7523
 20
90.2617
 10
-338.0835
 20
90.3464
 10
-338.5954
 20
90.5116
 10
-339.255
 20
90.7769
 10
-340.0295
 20
91.1618
 10
-340.886
 20
91.686
 10
-341.7916
 20
92.3691
 10
-342.7135
 20
93.2307
 10
-344.0366
 20
94.8765
 10
-345.1375
 20
96.8251
 10
-346.049
 20
98.9981
 10
-346.8041
 20
101.317
 10
-347.4356
 20
103.7033
 10
-347.9764
 20
106.0787
 10
-348.4596
 20
108.3648
 10
-348.9179
 20
110.483
 10
-348.7854
 20
106.2135
 10
-347.3719
 20
60.6596
 10
-347.902
 20
27.0332
 10
-347.8629
 20
26.8654
 10
-347.7923
 20
26.4132
 10
-347.7599
 20
25.753
 10
-347.8357
 20
24.9616
 10
-348.0896
 20
24.1155
 10
-348.5913
 20
23.2914
 10
-349.4108
 20
22.5658
 10
-350.618
 20
22.0153
 10
-352.3794
 20
21.5723
 10
-354.7337
 20
21.1493
 10
-357.5583
 20
20.7928
 10
-360.731
 20
20.5497
 10
-364.1294
 20
20.4665
 10
-367.6311
 20
20.59
 10
-371.1139
 20
20.9668
 10
-374.4554
 20
21.6437
  0
LWPOLYLINE
  5
6A
330
1F
100
AcDbEntity
  8
Layer 1
 62
     7
370
     9
100
AcDbPolyline
 90
       25
 70
     0
 43
0.0
 10
-396.0528
 20
155.4678
 10
-395.7229
 20
155.4791
 10
-394.814
 20
155.4228
 10
-393.4473
 20
155.1631
 10
-391.7442
 20
154.5645
 10
-389.8257
 20
153.4914
 10
-387.8132
 20
151.8081
 10
-385.8279
 20
149.3791
 10
-383.991
 20
146.0688
 10
-383.7514
 20
145.4978
 10
-383.1837
 20
143.8943
 10
-382.5146
 20
141.4221
 10
-381.9707
 20
138.2454
 10
-381.7787
 20
134.5281
 10
-382.1654
 20
130.4343
 10
-383.3573
 20
126.128
 10
-385.5811
 20
121.7732
 10
-385.6845
 20
121.6558
 10
-385.9948
 20
121.338
 10
-386.5121
 20
120.8711
 10
-387.2364
 20
120.3064
 10
-388.1677
 20
119.6953
 10
-389.3061
 20
119.0891
 10
-390.6517
 20
118.5394
 10
-392.2045
 20
118.0973
  0
LWPOLYLINE
  5
6B
330
1F
100
AcDbEntity
  8
Layer 1
 62
     7
370
     9
100
AcDbPolyline
 90
       41
 70
     1
 43
0.0
 10
-402.5498
 20
145.7926
 10
-402.2973
 20
146.3246
 10
-401.7228
 20
147.3901
 10
-400.8346
 20
148.7545
 10
-399.6408
 20
150.1831
 10
-398.1496
 20
151.4411
 10
-396.369
 20
152.2938
 10
-394.3073
 20
152.5065
 10
-391.9727
 20
151.8445
 10
-391.565
 20
151.6291
 10
-390.5001
 20
150.9464
 10
-389.0149
 20
149.7417
 10
-387.3465
 20
147.9604
 10
-385.732
 20
145.5477
 10
-384.4083
 20
142.4491
 10
-383.6125
 20
138.6098
 10
-383.5816
 20
133.9751
 10
-383.6114
 20
133.3835
 10
-383.7742
 20
131.8294
 10
-384.1802
 20
129.644
 10
-384.9398
 20
127.1584
 10
-386.163
 20
124.7037
 10
-387.9602
 20
122.6111
 10
-390.4414
 20
121.2118
 10
-393.7171
 20
120.8369
 10
-394.0468
 20
120.9182
 10
-394.9336
 20
121.2338
 10
-396.2241
 20
121.8917
 10
-397.7651
 20
122.9995
 10
-399.4032
 20
124.6649
 10
-400.985
 20
126.9959
 10
-402.3572
 20
130.1
 10
-403.3665
 20
134.0852
 10
-403.4788
 20
134.7677
 10
-403.6116
 20
135.7678
 10
-403.7241
 20
137.0384
 10
-403.7752
 20
138.5321
 10
-403.7243
 20
140.2016
 10
-403.5303
 20
141.9998
 10
-403.1524
 20
143.8792
 10
-402.5498
 20
145.7926
  0
LWPOLYLINE
  5
6C
330
1F
100
AcDbEntity
  8
Layer 1
 62
     7
370
    18
100
AcDbPolyline
 90
       37
 70
     1
 43
0.0
 10
-384.5543
 20
123.3907
 10
-384.0619
 20
123.4383
 10
-382.7435
 20
123.5335
 10
-380.7986
 20
123.6104
 10
-378.4265
 20
123.6034
 10
-375.8267
 20
123.4466
 10
-373.1986
 20
123.0744
 10
-370.7415
 20
122.4211
 10
-368.6549
 20
121.4208
 10
-368.2458
 20
121.1541
 10
-368.2316
 20
120.6615
 10
-368.1199
 20
116.7099
 10
-367.839
 20
106.3636
 10
-367.4615
 20
91.596
 10
-367.0603
 20
74.38
 10
-366.708
 20
56.689
 10
-366.4775
 20
40.4959
 10
-366.4414
 20
27.7741
 10
-366.6725
 20
20.4966
 10
-368.5419
 20
20.6802
 10
-368.318
 20
27.4815
 10
-368.3408
 20
39.349
 10
-368.5465
 20
54.5532
 10
-368.8717
 20
71.3646
 10
-369.2526
 20
88.0536
 10
-369.6256
 20
102.8909
 10
-369.9271
 20
114.1468
 10
-370.0935
 20
120.0919
 10
-372.0857
 20
120.8438
 10
-374.4985
 20
121.3024
 10
-377.1207
 20
121.5272
 10
-379.7414
 20
121.5776
 10
-382.1497
 20
121.513
 10
-384.1345
 20
121.3927
 10
-385.4848
 20
121.2763
 10
-385.9897
 20
121.2231
 10
-384.5543
 20
123.3907
  0
LWPOLYLINE
  5
6D
330
1F
100
AcDbEntity
  8
Layer 1
 62
     7
370
     9
100
AcDbPolyline
 90
       50
 70
     0
 43
0.0
 10
-349.6136
 20
115.9422
 10
-345.9922
 20
101.6816
 10
-345.9447
 20
101.4674
 10
-345.7948
 20
100.8756
 10
-345.5309
 20
99.9825
 10
-345.1418
 20
98.8646
 10
-344.6161
 20
97.5982
 10
-343.9424
 20
96.2595
 10
-343.1093
 20
94.925
 10
-342.1055
 20
93.671
 10
-341.9609
 20
93.5404
 10
-341.5535
 20
93.204
 10
-340.9225
 20
92.7449
 10
-340.1072
 20
92.246
 10
-339.147
 20
91.7905
 10
-338.0813
 20
91.4613
 10
-336.9493
 20
91.3416
 10
-335.7903
 20
91.5143
 10
-334.7805
 20
92.016
 10
-334.0465
 20
92.7796
 10
-333.5537
 20
93.733
 10
-333.2674
 20
94.8041
 10
-333.1529
 20
95.9205
 10
-333.1756
 20
97.0101
 10
-333.3007
 20
98.0007
 10
-333.4936
 20
98.8201
 10
-333.9068
 20
100.5455
 10
-334.6392
 20
103.9166
 10
-335.5754
 20
108.3554
 10
-336.6
 20
113.2837
 10
-337.5977
 20
118.1232
 10
-338.4532
 20
122.2958
 10
-339.0511
 20
125.2234
 10
-339.276
 20
126.3277
 10
-339.0636
 20
126.5976
 10
-338.5045
 20
127.3647
 10
-337.7156
 20
128.5651
 10
-336.8139
 20
130.1347
 10
-335.9164
 20
132.0097
 10
-335.1399
 20
134.1261
 10
-334.6015
 20
136.4199
 10
-334.4181
 20
138.8272
 10
-334.5092
 20
141.3371
 10
-334.7637
 20
143.9467
 10
-335.2526
 20
146.6038
 10
-336.0469
 20
149.2566
 10
-337.2176
 20
151.8528
 10
-338.8357
 20
154.3404
 10
-340.9723
 20
156.6675
 10
-343.6985
 20
158.782
  0
LWPOLYLINE
  5
6E
330
1F
100
AcDbEntity
  8
Layer 1
 62
     7
370
     5
100
AcDbPolyline
 90
       33
 70
     1
 43
0.0
 10
-400.6566
 20
143.1056
 10
-400.5789
 20
143.0931
 10
-400.5065
 20
143.0573
 10
-400.4409
 20
143.0005
 10
-400.3838
 20
142.9254
 10
-400.3366
 20
142.8343
 10
-400.3009
 20
142.7297
 10
-400.2784
 20
142.614
 10
-400.2705
 20
142.4898
 10
-400.2784
 20
142.3656
 10
-400.3009
 20
142.2499
 10
-400.3366
 20
142.1452
 10
-400.3838
 20
142.054
 10
-400.4409
 20
141.9787
 10
-400.5065
 20
141.9218
 10
-400.5789
 20
141.8859
 10
-400.6566
 20
141.8734
 10
-400.7345
 20
141.8859
 10
-400.8071
 20
141.9218
 10
-400.8727
 20
141.9787
 10
-400.93
 20
142.054
 10
-400.9772
 20
142.1452
 10
-401.0129
 20
142.2499
 10
-401.0354
 20
142.3656
 10
-401.0433
 20
142.4898
 10
-401.0354
 20
142.614
 10
-401.0129
 20
142.7297
 10
-400.9772
 20
142.8343
 10
-400.93
 20
142.9254
 10
-400.8727
 20
143.0005
 10
-400.8071
 20
143.0573
 10
-400.7345
 20
143.0931
 10
-400.6566
 20
143.1056
  0
LWPOLYLINE
  5
6F
330
1F
100
AcDbEntity
  8
Layer 1
 62
     7
370
     5
100
AcDbPolyline
 90
       33
 70
     1
 43
0.0
 10
-399.1446
 20
146.0989
 10
-399.0667
 20
146.0864
 10
-398.9942
 20
146.0505
 10
-398.9285
 20
145.9936
 10
-398.8712
 20
145.9184
 10
-398.824
 20
145.8271
 10
-398.7883
 20
145.7224
 10
-398.7658
 20
145.6067
 10
-398.7579
 20
145.4825
 10
-398.7658
 20
145.3583
 10
-398.7883
 20
145.2427
 10
-398.824
 20
145.1381
 10
-398.8712
 20
145.047
 10
-398.9285
 20
144.9718
 10
-398.9942
 20
144.9151
 10
-399.0667
 20
144.8792
 10
-399.1446
 20
144.8667
 10
-399.2225
 20
144.8792
 10
-399.295
 20
144.9151
 10
-399.3605
 20
144.9718
 10
-399.4177
 20
145.047
 10
-399.4648
 20
145.1381
 10
-399.5004
 20
145.2427
 10
-399.5229
 20
145.3583
 10
-399.5307
 20
145.4825
 10
-399.5229
 20
145.6067
 10
-399.5004
 20
145.7224
 10
-399.4648
 20
145.8271
 10
-399.4177
 20
145.9184
 10
-399.3605
 20
145.9936
 10
-399.295
 20
146.0505
 10
-399.2225
 20
146.0864
 10
-399.1446
 20
146.0989
  0
LWPOLYLINE
  5
70
330
1F
100
AcDbEntity
  8
Layer 1
 62
     7
370
     5
100
AcDbPolyline
 90
       33
 70
     1
 43
0.0
 10
-397.0682
 20
148.0358
 10
-396.9903
 20
148.0233
 10
-396.9178
 20
147.9874
 10
-396.8522
 20
147.9305
 10
-396.7951
 20
147.8553
 10
-396.7479
 20
147.764
 10
-396.7123
 20
147.6593
 10
-396.6898
 20
147.5436
 10
-396.682
 20
147.4194
 10
-396.6898
 20
147.2952
 10
-396.7123
 20
147.1796
 10
-396.7479
 20
147.075
 10
-396.7951
 20
146.9839
 10
-396.8522
 20
146.9087
 10
-396.9178
 20
146.852
 10
-396.9903
 20
146.8161
 10
-397.0682
 20
146.8036
 10
-397.1461
 20
146.8161
 10
-397.2187
 20
146.852
 10
-397.2843
 20
146.9087
 10
-397.3416
 20
146.9839
 10
-397.3888
 20
147.075
 10
-397.4245
 20
147.1796
 10
-397.447
 20
147.2952
 10
-397.4549
 20
147.4194
 10
-397.447
 20
147.5436
 10
-397.4245
 20
147.6593
 10
-397.3888
 20
147.764
 10
-397.3416
 20
147.8553
 10
-397.2843
 20
147.9305
 10
-397.2187
 20
147.9874
 10
-397.1461
 20
148.0233
 10
-397.0682
 20
148.0358
  0
LWPOLYLINE
  5
71
330
1F
100
AcDbEntity
  8
Layer 1
 62
     7
370
     5
100
AcDbPolyline
 90
       33
 70
     1
 43
0.0
 10
-394.5511
 20
148.6297
 10
-394.4732
 20
148.6172
 10
-394.4007
 20
148.5814
 10
-394.335
 20
148.5246
 10
-394.2777
 20
148.4495
 10
-394.2305
 20
148.3584
 10
-394.1948
 20
148.2538
 10
-394.1723
 20
148.1381
 10
-394.1644
 20
148.0139
 10
-394.1723
 20
147.8897
 10
-394.1948
 20
147.774
 10
-394.2305
 20
147.6693
 10
-394.2777
 20
147.5781
 10
-394.335
 20
147.5028
 10
-394.4007
 20
147.4459
 10
-394.4732
 20
147.41
 10
-394.5511
 20
147.3975
 10
-394.629
 20
147.41
 10
-394.7015
 20
147.4459
 10
-394.7671
 20
147.5028
 10
-394.8242
 20
147.5781
 10
-394.8714
 20
147.6693
 10
-394.907
 20
147.774
 10
-394.9295
 20
147.8897
 10
-394.9373
 20
148.0139
 10
-394.9295
 20
148.1381
 10
-394.907
 20
148.2538
 10
-394.8714
 20
148.3584
 10
-394.8242
 20
148.4495
 10
-394.7671
 20
148.5246
 10
-394.7015
 20
148.5814
 10
-394.629
 20
148.6172
 10
-394.5511
 20
148.6297
  0
LWPOLYLINE
  5
72
330
1F
100
AcDbEntity
  8
Layer 1
 62
     7
370
     5
100
AcDbPolyline
 90
       33
 70
     1
 43
0.0
 10
-391.9452
 20
147.8819
 10
-391.8673
 20
147.8694
 10
-391.7948
 20
147.8335
 10
-391.7293
 20
147.7766
 10
-391.6721
 20
147.7013
 10
-391.625
 20
147.6101
 10
-391.5894
 20
147.5054
 10
-391.5669
 20
147.3897
 10
-391.5591
 20
147.2654
 10
-391.5669
 20
147.1412
 10
-391.5894
 20
147.0256
 10
-391.625
 20
146.921
 10
-391.6721
 20
146.8299
 10
-391.7293
 20
146.7547
 10
-391.7948
 20
146.698
 10
-391.8673
 20
146.6621
 10
-391.9452
 20
146.6496
 10
-392.0231
 20
146.6621
 10
-392.0957
 20
146.698
 10
-392.1614
 20
146.7547
 10
-392.2186
 20
146.8299
 10
-392.2659
 20
146.921
 10
-392.3016
 20
147.0256
 10
-392.3241
 20
147.1412
 10
-392.332
 20
147.2654
 10
-392.3241
 20
147.3897
 10
-392.3016
 20
147.5054
 10
-392.2659
 20
147.6101
 10
-392.2186
 20
147.7013
 10
-392.1614
 20
147.7766
 10
-392.0957
 20
147.8335
 10
-392.0231
 20
147.8694
 10
-391.9452
 20
147.8819
  0
LWPOLYLINE
  5
73
330
1F
100
AcDbEntity
  8
Layer 1
 62
     7
370
     5
100
AcDbPolyline
 90
       33
 70
     1
 43
0.0
 10
-389.5828
 20
145.7691
 10
-389.4958
 20
145.7566
 10
-389.4148
 20
145.7207
 10
-389.3416
 20
145.6638
 10
-389.2778
 20
145.5886
 10
-389.2251
 20
145.4973
 10
-389.1854
 20
145.3926
 10
-389.1603
 20
145.2769
 10
-389.1516
 20
145.1527
 10
-389.1603
 20
145.0285
 10
-389.1854
 20
144.9127
 10
-389.2251
 20
144.808
 10
-389.2778
 20
144.7168
 10
-389.3416
 20
144.6416
 10
-389.4148
 20
144.5847
 10
-389.4958
 20
144.5488
 10
-389.5828
 20
144.5363
 10
-389.6696
 20
144.5488
 10
-389.7504
 20
144.5847
 10
-389.8235
 20
144.6416
 10
-389.8872
 20
144.7168
 10
-389.9398
 20
144.808
 10
-389.9795
 20
144.9127
 10
-390.0046
 20
145.0285
 10
-390.0133
 20
145.1527
 10
-390.0046
 20
145.2769
 10
-389.9795
 20
145.3926
 10
-389.9398
 20
145.4973
 10
-389.8872
 20
145.5886
 10
-389.8235
 20
145.6638
 10
-389.7504
 20
145.7207
 10
-389.6696
 20
145.7566
 10
-389.5828
 20
145.7691
  0
LWPOLYLINE
  5
74
330
1F
100
AcDbEntity
  8
Layer 1
 62
     7
370
     5
100
AcDbPolyline
 90
       33
 70
     1
 43
0.0
 10
-387.7654
 20
142.6275
 10
-387.6786
 20
142.615
 10
-387.5978
 20
142.5791
 10
-387.5247
 20
142.5222
 10
-387.4609
 20
142.447
 10
-387.4083
 20
142.3557
 10
-387.3686
 20
142.251
 10
-387.3435
 20
142.1353
 10
-387.3348
 20
142.0111
 10
-387.3435
 20
141.8869
 10
-387.3686
 20
141.7712
 10
-387.4083
 20
141.6666
 10
-387.4609
 20
141.5755
 10
-387.5247
 20
141.5004
 10
-387.5978
 20
141.4436
 10
-387.6786
 20
141.4078
 10
-387.7654
 20
141.3953
 10
-387.8522
 20
141.4078
 10
-387.933
 20
141.4436
 10
-388.0061
 20
141.5004
 10
-388.0698
 20
141.5755
 10
-388.1224
 20
141.6666
 10
-388.1621
 20
141.7712
 10
-388.1872
 20
141.8869
 10
-388.1959
 20
142.0111
 10
-388.1872
 20
142.1353
 10
-388.1621
 20
142.251
 10
-388.1224
 20
142.3557
 10
-388.0698
 20
142.447
 10
-388.0061
 20
142.5222
 10
-387.933
 20
142.5791
 10
-387.8522
 20
142.615
 10
-387.7654
 20
142.6275
  0
LWPOLYLINE
  5
75
330
1F
100
AcDbEntity
  8
Layer 1
 62
     7
370
     5
100
AcDbPolyline
 90
       33
 70
     1
 43
0.0
 10
-386.7497
 20
138.8426
 10
-386.6629
 20
138.8301
 10
-386.5821
 20
138.7942
 10
-386.509
 20
138.7373
 10
-386.4452
 20
138.662
 10
-386.3926
 20
138.5708
 10
-386.3529
 20
138.4661
 10
-386.3278
 20
138.3504
 10
-386.3191
 20
138.2261
 10
-386.3278
 20
138.1019
 10
-386.3529
 20
137.9862
 10
-386.3926
 20
137.8815
 10
-386.4452
 20
137.7903
 10
-386.509
 20
137.715
 10
-386.5821
 20
137.6581
 10
-386.6629
 20
137.6222
 10
-386.7497
 20
137.6097
 10
-386.8365
 20
137.6222
 10
-386.9173
 20
137.6581
 10
-386.9904
 20
137.715
 10
-387.0541
 20
137.7903
 10
-387.1067
 20
137.8815
 10
-387.1464
 20
137.9862
 10
-387.1715
 20
138.1019
 10
-387.1802
 20
138.2261
 10
-387.1715
 20
138.3504
 10
-387.1464
 20
138.4661
 10
-387.1067
 20
138.5708
 10
-387.0541
 20
138.662
 10
-386.9904
 20
138.7373
 10
-386.9173
 20
138.7942
 10
-386.8365
 20
138.8301
 10
-386.7497
 20
138.8426
  0
LWPOLYLINE
  5
76
330
1F
100
AcDbEntity
  8
Layer 1
 62
     7
370
     5
100
AcDbPolyline
 90
       33
 70
     1
 43
0.0
 10
-386.5281
 20
134.7485
 10
-386.4413
 20
134.736
 10
-386.3605
 20
134.7002
 10
-386.2874
 20
134.6434
 10
-386.2237
 20
134.5683
 10
-386.1711
 20
134.4771
 10
-386.1314
 20
134.3725
 10
-386.1063
 20
134.2569
 10
-386.0976
 20
134.1327
 10
-386.1063
 20
134.0085
 10
-386.1314
 20
133.8927
 10
-386.1711
 20
133.788
 10
-386.2237
 20
133.6968
 10
-386.2874
 20
133.6216
 10
-386.3605
 20
133.5647
 10
-386.4413
 20
133.5288
 10
-386.5281
 20
133.5163
 10
-386.6149
 20
133.5288
 10
-386.6958
 20
133.5647
 10
-386.7691
 20
133.6216
 10
-386.8329
 20
133.6968
 10
-386.8856
 20
133.788
 10
-386.9254
 20
133.8927
 10
-386.9505
 20
134.0085
 10
-386.9593
 20
134.1327
 10
-386.9505
 20
134.2569
 10
-386.9254
 20
134.3725
 10
-386.8856
 20
134.4771
 10
-386.8329
 20
134.5683
 10
-386.7691
 20
134.6434
 10
-386.6958
 20
134.7002
 10
-386.6149
 20
134.736
 10
-386.5281
 20
134.7485
  0
LWPOLYLINE
  5
77
330
1F
100
AcDbEntity
  8
Layer 1
 62
     7
370
     5
100
AcDbPolyline
 90
       33
 70
     1
 43
0.0
 10
-387.2785
 20
130.9629
 10
-387.1917
 20
130.9504
 10
-387.1109
 20
130.9146
 10
-387.0378
 20
130.8578
 10
-386.974
 20
130.7827
 10
-386.9214
 20
130.6916
 10
-386.8817
 20
130.587
 10
-386.8566
 20
130.4713
 10
-386.8479
 20
130.3471
 10
-386.8566
 20
130.2229
 10
-386.8817
 20
130.1072
 10
-386.9214
 20
130.0025
 10
-386.974
 20
129.9113
 10
-387.0378
 20
129.836
 10
-387.1109
 20
129.7791
 10
-387.1917
 20
129.7432
 10
-387.2785
 20
129.7307
 10
-387.3653
 20
129.7432
 10
-387.4461
 20
129.7791
 10
-387.5192
 20
129.836
 10
-387.583
 20
129.9113
 10
-387.6356
 20
130.0025
 10
-387.6753
 20
130.1072
 10
-387.7004
 20
130.2229
 10
-387.7091
 20
130.3471
 10
-387.7004
 20
130.4713
 10
-387.6753
 20
130.587
 10
-387.6356
 20
130.6916
 10
-387.583
 20
130.7827
 10
-387.5192
 20
130.8578
 10
-387.4461
 20
130.9146
 10
-387.3653
 20
130.9504
 10
-387.2785
 20
130.9629
  0
LWPOLYLINE
  5
78
330
1F
100
AcDbEntity
  8
Layer 1
 62
     7
370
     5
100
AcDbPolyline
 90
       33
 70
     1
 43
0.0
 10
-388.8455
 20
128.0585
 10
-388.7587
 20
128.046
 10
-388.6778
 20
128.0101
 10
-388.6046
 20
127.9532
 10
-388.5408
 20
127.878
 10
-388.4881
 20
127.7867
 10
-388.4483
 20
127.682
 10
-388.4232
 20
127.5663
 10
-388.4144
 20
127.4421
 10
-388.4232
 20
127.3179
 10
-388.4483
 20
127.2022
 10
-388.4881
 20
127.0976
 10
-388.5408
 20
127.0065
 10
-388.6046
 20
126.9314
 10
-388.6778
 20
126.8746
 10
-388.7587
 20
126.8388
 10
-388.8455
 20
126.8263
 10
-388.9323
 20
126.8388
 10
-389.0131
 20
126.8746
 10
-389.0863
 20
126.9314
 10
-389.15
 20
127.0065
 10
-389.2026
 20
127.0976
 10
-389.2423
 20
127.2022
 10
-389.2674
 20
127.3179
 10
-389.2761
 20
127.4421
 10
-389.2674
 20
127.5663
 10
-389.2423
 20
127.682
 10
-389.2026
 20
127.7867
 10
-389.15
 20
127.878
 10
-389.0863
 20
127.9532
 10
-389.0131
 20
128.0101
 10
-388.9323
 20
128.046
 10
-388.8455
 20
128.0585
  0
LWPOLYLINE
  5
79
330
1F
100
AcDbEntity
  8
Layer 1
 62
     7
370
     5
100
AcDbPolyline
 90
       33
 70
     1
 43
0.0
 10
-391.0315
 20
126.1654
 10
-390.9447
 20
126.1529
 10
-390.8639
 20
126.1171
 10
-390.7908
 20
126.0603
 10
-390.7271
 20
125.9852
 10
-390.6745
 20
125.894
 10
-390.6348
 20
125.7894
 10
-390.6097
 20
125.6738
 10
-390.601
 20
125.5496
 10
-390.6097
 20
125.4254
 10
-390.6348
 20
125.3097
 10
-390.6745
 20
125.205
 10
-390.7271
 20
125.1138
 10
-390.7908
 20
125.0385
 10
-390.8639
 20
124.9816
 10
-390.9447
 20
124.9457
 10
-391.0315
 20
124.9332
 10
-391.1183
 20
124.9457
 10
-391.1991
 20
124.9816
 10
-391.2722
 20
125.0385
 10
-391.336
 20
125.1138
 10
-391.3886
 20
125.205
 10
-391.4283
 20
125.3097
 10
-391.4534
 20
125.4254
 10
-391.4621
 20
125.5496
 10
-391.4534
 20
125.6738
 10
-391.4283
 20
125.7894
 10
-391.3886
 20
125.894
 10
-391.336
 20
125.9852
 10
-391.2722
 20
126.0603
 10
-391.1991
 20
126.1171
 10
-391.1183
 20
126.1529
 10
-391.0315
 20
126.1654
  0
LWPOLYLINE
  5
7A
330
1F
100
AcDbEntity
  8
Layer 1
 62
     7
370
     5
100
AcDbPolyline
 90
       33
 70
     1
 43
0.0
 10
-393.4829
 20
125.5934
 10
-393.3961
 20
125.5809
 10
-393.3152
 20
125.545
 10
-393.2419
 20
125.4881
 10
-393.1781
 20
125.4129
 10
-393.1254
 20
125.3216
 10
-393.0856
 20
125.2169
 10
-393.0605
 20
125.1012
 10
-393.0517
 20
124.977
 10
-393.0605
 20
124.8528
 10
-393.0856
 20
124.7371
 10
-393.1254
 20
124.6325
 10
-393.1781
 20
124.5414
 10
-393.2419
 20
124.4663
 10
-393.3152
 20
124.4095
 10
-393.3961
 20
124.3737
 10
-393.4829
 20
124.3612
 10
-393.5697
 20
124.3737
 10
-393.6505
 20
124.4095
 10
-393.7236
 20
124.4663
 10
-393.7873
 20
124.5414
 10
-393.8399
 20
124.6325
 10
-393.8796
 20
124.7371
 10
-393.9047
 20
124.8528
 10
-393.9134
 20
124.977
 10
-393.9047
 20
125.1012
 10
-393.8796
 20
125.2169
 10
-393.8399
 20
125.3216
 10
-393.7873
 20
125.4129
 10
-393.7236
 20
125.4881
 10
-393.6505
 20
125.545
 10
-393.5697
 20
125.5809
 10
-393.4829
 20
125.5934
  0
LWPOLYLINE
  5
7B
330
1F
100
AcDbEntity
  8
Layer 1
 62
     7
370
     5
100
AcDbPolyline
 90
       33
 70
     1
 43
0.0
 10
-396.0662
 20
126.452
 10
-395.9794
 20
126.4395
 10
-395.8986
 20
126.4036
 10
-395.8255
 20
126.3467
 10
-395.7618
 20
126.2715
 10
-395.7092
 20
126.1802
 10
-395.6695
 20
126.0755
 10
-395.6444
 20
125.9598
 10
-395.6357
 20
125.8356
 10
-395.6444
 20
125.7114
 10
-395.6695
 20
125.5957
 10
-395.7092
 20
125.491
 10
-395.7618
 20
125.3998
 10
-395.8255
 20
125.3245
 10
-395.8986
 20
125.2676
 10
-395.9794
 20
125.2317
 10
-396.0662
 20
125.2192
 10
-396.153
 20
125.2317
 10
-396.2338
 20
125.2676
 10
-396.3069
 20
125.3245
 10
-396.3707
 20
125.3998
 10
-396.4233
 20
125.491
 10
-396.463
 20
125.5957
 10
-396.4881
 20
125.7114
 10
-396.4968
 20
125.8356
 10
-396.4881
 20
125.9598
 10
-396.463
 20
126.0755
 10
-396.4233
 20
126.1802
 10
-396.3707
 20
126.2715
 10
-396.3069
 20
126.3467
 10
-396.2338
 20
126.4036
 10
-396.153
 20
126.4395
 10
-396.0662
 20
126.452
  0
LWPOLYLINE
  5
7C
330
1F
100
AcDbEntity
  8
Layer 1
 62
     7
370
     5
100
AcDbPolyline
 90
       33
 70
     1
 43
0.0
 10
-398.3404
 20
128.5648
 10
-398.2536
 20
128.5523
 10
-398.1728
 20
128.5164
 10
-398.0997
 20
128.4595
 10
-398.036
 20
128.3843
 10
-397.9834
 20
128.293
 10
-397.9437
 20
128.1883
 10
-397.9186
 20
128.0726
 10
-397.9099
 20
127.9484
 10
-397.9186
 20
127.8241
 10
-397.9437
 20
127.7084
 10
-397.9834
 20
127.6037
 10
-398.036
 20
127.5125
 10
-398.0997
 20
127.4372
 10
-398.1728
 20
127.3803
 10
-398.2536
 20
127.3444
 10
-398.3404
 20
127.3319
 10
-398.4272
 20
127.3444
 10
-398.5081
 20
127.3803
 10
-398.5814
 20
127.4372
 10
-398.6452
 20
127.5125
 10
-398.6979
 20
127.6037
 10
-398.7377
 20
127.7084
 10
-398.7628
 20
127.8241
 10
-398.7716
 20
127.9484
 10
-398.7628
 20
128.0726
 10
-398.7377
 20
128.1883
 10
-398.6979
 20
128.293
 10
-398.6452
 20
128.3843
 10
-398.5814
 20
128.4595
 10
-398.5081
 20
128.5164
 10
-398.4272
 20
128.5523
 10
-398.3404
 20
128.5648
  0
LWPOLYLINE
  5
7D
330
1F
100
AcDbEntity
  8
Layer 1
 62
     7
370
     5
100
AcDbPolyline
 90
       33
 70
     1
 43
0.0
 10
-400.3149
 20
131.6951
 10
-400.2275
 20
131.7028
 10
-400.1406
 20
131.6864
 10
-400.0563
 20
131.6479
 10
-399.977
 20
131.5893
 10
-399.9049
 20
131.5126
 10
-399.8422
 20
131.4197
 10
-399.7912
 20
131.3128
 10
-399.7542
 20
131.1938
 10
-399.7341
 20
131.071
 10
-399.7319
 20
130.9527
 10
-399.7464
 20
130.8417
 10
-399.7766
 20
130.7409
 10
-399.8213
 20
130.6531
 10
-399.8794
 20
130.581
 10
-399.9498
 20
130.5275
 10
-400.0314
 20
130.4954
 10
-400.1188
 20
130.4879
 10
-400.2057
 20
130.5045
 10
-400.29
 20
130.5431
 10
-400.3694
 20
130.6018
 10
-400.4416
 20
130.6786
 10
-400.5044
 20
130.7714
 10
-400.5555
 20
130.8783
 10
-400.5928
 20
130.9973
 10
-400.6128
 20
131.1201
 10
-400.6149
 20
131.2384
 10
-400.6003
 20
131.3492
 10
-400.57
 20
131.45
 10
-400.5252
 20
131.5377
 10
-400.467
 20
131.6097
 10
-400.3965
 20
131.6631
 10
-400.3149
 20
131.6951
  0
LWPOLYLINE
  5
7E
330
1F
100
AcDbEntity
  8
Layer 1
 62
     7
370
     5
100
AcDbPolyline
 90
       33
 70
     1
 43
0.0
 10
-401.3193
 20
135.4469
 10
-401.2319
 20
135.4546
 10
-401.1449
 20
135.4382
 10
-401.0606
 20
135.3997
 10
-400.9812
 20
135.341
 10
-400.9089
 20
135.2643
 10
-400.8461
 20
135.1715
 10
-400.7951
 20
135.0646
 10
-400.758
 20
134.9456
 10
-400.738
 20
134.8228
 10
-400.7358
 20
134.7045
 10
-400.7504
 20
134.5936
 10
-400.7807
 20
134.4928
 10
-400.8255
 20
134.405
 10
-400.8837
 20
134.333
 10
-400.9542
 20
134.2797
 10
-401.0358
 20
134.2478
 10
-401.1232
 20
134.2401
 10
-401.2101
 20
134.2565
 10
-401.2944
 20
134.295
 10
-401.3737
 20
134.3537
 10
-401.4458
 20
134.4304
 10
-401.5085
 20
134.5232
 10
-401.5595
 20
134.6301
 10
-401.5966
 20
134.7491
 10
-401.6166
 20
134.8719
 10
-401.6188
 20
134.9902
 10
-401.6043
 20
135.101
 10
-401.5741
 20
135.2018
 10
-401.5294
 20
135.2895
 10
-401.4713
 20
135.3615
 10
-401.4009
 20
135.4149
 10
-401.3193
 20
135.4469
  0
LWPOLYLINE
  5
7F
330
1F
100
AcDbEntity
  8
Layer 1
 62
     7
370
     5
100
AcDbPolyline
 90
       33
 70
     1
 43
0.0
 10
-401.3769
 20
139.4121
 10
-401.2915
 20
139.4006
 10
-401.2108
 20
139.3676
 10
-401.1365
 20
139.3154
 10
-401.0705
 20
139.2463
 10
-401.0145
 20
139.1626
 10
-400.9704
 20
139.0665
 10
-400.94
 20
138.9603
 10
-400.9251
 20
138.8463
 10
-400.9274
 20
138.7324
 10
-400.9461
 20
138.6262
 10
-400.9796
 20
138.5301
 10
-401.0263
 20
138.4464
 10
-401.0847
 20
138.3773
 10
-401.1532
 20
138.3251
 10
-401.2302
 20
138.2921
 10
-401.3143
 20
138.2806
 10
-401.3995
 20
138.2921
 10
-401.48
 20
138.3251
 10
-401.5542
 20
138.3773
 10
-401.6202
 20
138.4464
 10
-401.6761
 20
138.5301
 10
-401.7202
 20
138.6262
 10
-401.7506
 20
138.7324
 10
-401.7655
 20
138.8463
 10
-401.7632
 20
138.9603
 10
-401.7445
 20
139.0665
 10
-401.711
 20
139.1626
 10
-401.6644
 20
139.2463
 10
-401.6061
 20
139.3154
 10
-401.5377
 20
139.3676
 10
-401.4608
 20
139.4006
 10
-401.3769
 20
139.4121
  0
LWPOLYLINE
  5
80
330
1F
100
AcDbEntity
  8
Layer 1
 62
     7
370
     5
100
AcDbPolyline
 90
       33
 70
     1
 43
0.0
 10
-397.0907
 20
139.5723
 10
-397.0053
 20
139.5608
 10
-396.9246
 20
139.5279
 10
-396.8504
 20
139.4758
 10
-396.7844
 20
139.4068
 10
-396.7285
 20
139.3231
 10
-396.6845
 20
139.227
 10
-396.6542
 20
139.1207
 10
-396.6395
 20
139.0065
 10
-396.6416
 20
138.8926
 10
-396.6601
 20
138.7865
 10
-396.6935
 20
138.6905
 10
-396.7401
 20
138.6069
 10
-396.7985
 20
138.5379
 10
-396.8669
 20
138.4858
 10
-396.944
 20
138.4529
 10
-397.0281
 20
138.4414
 10
-397.1135
 20
138.4529
 10
-397.1942
 20
138.4858
 10
-397.2684
 20
138.5379
 10
-397.3344
 20
138.6069
 10
-397.3903
 20
138.6905
 10
-397.4343
 20
138.7865
 10
-397.4646
 20
138.8926
 10
-397.4793
 20
139.0065
 10
-397.4771
 20
139.1207
 10
-397.4585
 20
139.227
 10
-397.4251
 20
139.3231
 10
-397.3784
 20
139.4068
 10
-397.32
 20
139.4758
 10
-397.2515
 20
139.5279
 10
-397.1746
 20
139.5608
 10
-397.0907
 20
139.5723
  0
LWPOLYLINE
  5
81
330
1F
100
AcDbEntity
  8
Layer 1
 62
     7
370
     5
100
AcDbPolyline
 90
       33
 70
     1
 43
0.0
 10
-395.2577
 20
141.9491
 10
-395.1724
 20
141.9376
 10
-395.0917
 20
141.9047
 10
-395.0175
 20
141.8526
 10
-394.9516
 20
141.7836
 10
-394.8957
 20
141.6999
 10
-394.8517
 20
141.6038
 10
-394.8214
 20
141.4975
 10
-394.8065
 20
141.3834
 10
-394.8086
 20
141.2695
 10
-394.8272
 20
141.1634
 10
-394.8607
 20
141.0674
 10
-394.9074
 20
140.9837
 10
-394.9657
 20
140.9148
 10
-395.0342
 20
140.8627
 10
-395.1112
 20
140.8298
 10
-395.1951
 20
140.8183
 10
-395.2805
 20
140.8298
 10
-395.3612
 20
140.8627
 10
-395.4354
 20
140.9148
 10
-395.5014
 20
140.9837
 10
-395.5573
 20
141.0674
 10
-395.6013
 20
141.1634
 10
-395.6316
 20
141.2695
 10
-395.6463
 20
141.3834
 10
-395.6441
 20
141.4975
 10
-395.6256
 20
141.6038
 10
-395.5922
 20
141.6999
 10
-395.5456
 20
141.7836
 10
-395.4873
 20
141.8526
 10
-395.4188
 20
141.9047
 10
-395.3418
 20
141.9376
 10
-395.2577
 20
141.9491
  0
LWPOLYLINE
  5
82
330
1F
100
AcDbEntity
  8
Layer 1
 62
     7
370
     5
100
AcDbPolyline
 90
       33
 70
     1
 43
0.0
 10
-392.7625
 20
141.4867
 10
-392.6772
 20
141.4752
 10
-392.5965
 20
141.4423
 10
-392.5224
 20
141.3902
 10
-392.4564
 20
141.3212
 10
-392.4006
 20
141.2376
 10
-392.3565
 20
141.1416
 10
-392.3262
 20
141.0355
 10
-392.3113
 20
140.9215
 10
-392.3135
 20
140.8074
 10
-392.3321
 20
140.7011
 10
-392.3655
 20
140.605
 10
-392.4122
 20
140.5213
 10
-392.4706
 20
140.4523
 10
-392.5391
 20
140.4002
 10
-392.6161
 20
140.3673
 10
-392.7
 20
140.3558
 10
-392.7853
 20
140.3673
 10
-392.866
 20
140.4002
 10
-392.9403
 20
140.4523
 10
-393.0063
 20
140.5213
 10
-393.0622
 20
140.605
 10
-393.1062
 20
140.7011
 10
-393.1365
 20
140.8074
 10
-393.1512
 20
140.9215
 10
-393.149
 20
141.0355
 10
-393.1305
 20
141.1416
 10
-393.0971
 20
141.2376
 10
-393.0505
 20
141.3212
 10
-392.9921
 20
141.3902
 10
-392.9237
 20
141.4423
 10
-392.8466
 20
141.4752
 10
-392.7625
 20
141.4867
  0
LWPOLYLINE
  5
83
330
1F
100
AcDbEntity
  8
Layer 1
 62
     7
370
     5
100
AcDbPolyline
 90
       33
 70
     1
 43
0.0
 10
-390.974
 20
138.494
 10
-390.8888
 20
138.4825
 10
-390.8083
 20
138.4495
 10
-390.7341
 20
138.3973
 10
-390.6681
 20
138.3282
 10
-390.6122
 20
138.2445
 10
-390.5681
 20
138.1484
 10
-390.5376
 20
138.0422
 10
-390.5227
 20
137.9283
 10
-390.5249
 20
137.8143
 10
-390.5435
 20
137.7081
 10
-390.5769
 20
137.612
 10
-390.6236
 20
137.5283
 10
-390.682
 20
137.4592
 10
-390.7505
 20
137.407
 10
-390.8275
 20
137.374
 10
-390.9114
 20
137.3625
 10
-390.9967
 20
137.374
 10
-391.0775
 20
137.407
 10
-391.1517
 20
137.4592
 10
-391.2178
 20
137.5283
 10
-391.2738
 20
137.612
 10
-391.3179
 20
137.7081
 10
-391.3483
 20
137.8143
 10
-391.3632
 20
137.9283
 10
-391.3608
 20
138.0422
 10
-391.3422
 20
138.1484
 10
-391.3087
 20
138.2445
 10
-391.262
 20
138.3282
 10
-391.2036
 20
138.3973
 10
-391.1351
 20
138.4495
 10
-391.0581
 20
138.4825
 10
-390.974
 20
138.494
  0
LWPOLYLINE
  5
84
330
1F
100
AcDbEntity
  8
Layer 1
 62
     7
370
     5
100
AcDbPolyline
 90
       33
 70
     1
 43
0.0
 10
-390.9959
 20
134.6208
 10
-390.9107
 20
134.6093
 10
-390.8302
 20
134.5763
 10
-390.756
 20
134.5242
 10
-390.69
 20
134.4551
 10
-390.6341
 20
134.3713
 10
-390.59
 20
134.2752
 10
-390.5595
 20
134.1691
 10
-390.5446
 20
134.0551
 10
-390.5468
 20
133.9411
 10
-390.5654
 20
133.8349
 10
-390.5988
 20
133.7388
 10
-390.6455
 20
133.6551
 10
-390.7039
 20
133.586
 10
-390.7724
 20
133.5338
 10
-390.8494
 20
133.5008
 10
-390.9333
 20
133.4893
 10
-391.0187
 20
133.5008
 10
-391.0994
 20
133.5338
 10
-391.1737
 20
133.586
 10
-391.2397
 20
133.6551
 10
-391.2957
 20
133.7388
 10
-391.3398
 20
133.8349
 10
-391.3702
 20
133.9411
 10
-391.3851
 20
134.0551
 10
-391.3827
 20
134.1691
 10
-391.3641
 20
134.2752
 10
-391.3306
 20
134.3713
 10
-391.2839
 20
134.4551
 10
-391.2255
 20
134.5242
 10
-391.157
 20
134.5763
 10
-391.08
 20
134.6093
 10
-390.9959
 20
134.6208
  0
LWPOLYLINE
  5
85
330
1F
100
AcDbEntity
  8
Layer 1
 62
     7
370
     5
100
AcDbPolyline
 90
       33
 70
     1
 43
0.0
 10
-397.0688
 20
135.721
 10
-396.9834
 20
135.7095
 10
-396.9027
 20
135.6766
 10
-396.8285
 20
135.6245
 10
-396.7625
 20
135.5555
 10
-396.7066
 20
135.4718
 10
-396.6626
 20
135.3757
 10
-396.6323
 20
135.2694
 10
-396.6176
 20
135.1553
 10
-396.6197
 20
135.0414
 10
-396.6382
 20
134.9353
 10
-396.6716
 20
134.8393
 10
-396.7182
 20
134.7556
 10
-396.7766
 20
134.6867
 10
-396.845
 20
134.6346
 10
-396.9221
 20
134.6017
 10
-397.0062
 20
134.5902
 10
-397.0916
 20
134.6017
 10
-397.1723
 20
134.6346
 10
-397.2465
 20
134.6867
 10
-397.3125
 20
134.7556
 10
-397.3684
 20
134.8393
 10
-397.4124
 20
134.9353
 10
-397.4427
 20
135.0414
 10
-397.4574
 20
135.1553
 10
-397.4552
 20
135.2694
 10
-397.4366
 20
135.3757
 10
-397.4032
 20
135.4718
 10
-397.3565
 20
135.5555
 10
-397.2981
 20
135.6245
 10
-397.2296
 20
135.6766
 10
-397.1527
 20
135.7095
 10
-397.0688
 20
135.721
  0
LWPOLYLINE
  5
86
330
1F
100
AcDbEntity
  8
Layer 1
 62
     7
370
     5
100
AcDbPolyline
 90
       33
 70
     1
 43
0.0
 10
-395.3897
 20
132.6401
 10
-395.3046
 20
132.6286
 10
-395.224
 20
132.5956
 10
-395.1498
 20
132.5435
 10
-395.0839
 20
132.4744
 10
-395.0279
 20
132.3906
 10
-394.9838
 20
132.2945
 10
-394.9534
 20
132.1884
 10
-394.9385
 20
132.0744
 10
-394.9409
 20
131.9604
 10
-394.9595
 20
131.8542
 10
-394.993
 20
131.7581
 10
-395.0397
 20
131.6744
 10
-395.098
 20
131.6053
 10
-395.1663
 20
131.5531
 10
-395.2432
 20
131.5201
 10
-395.3271
 20
131.5086
 10
-395.4125
 20
131.5201
 10
-395.4932
 20
131.5531
 10
-395.5675
 20
131.6053
 10
-395.6336
 20
131.6744
 10
-395.6896
 20
131.7581
 10
-395.7337
 20
131.8542
 10
-395.7641
 20
131.9604
 10
-395.779
 20
132.0744
 10
-395.7766
 20
132.1884
 10
-395.758
 20
132.2945
 10
-395.7245
 20
132.3906
 10
-395.6778
 20
132.4744
 10
-395.6194
 20
132.5435
 10
-395.5509
 20
132.5956
 10
-395.4738
 20
132.6286
 10
-395.3897
 20
132.6401
  0
LWPOLYLINE
  5
87
330
1F
100
AcDbEntity
  8
Layer 1
 62
     7
370
     5
100
AcDbPolyline
 90
       33
 70
     1
 43
0.0
 10
-392.8282
 20
132.0894
 10
-392.7429
 20
132.0779
 10
-392.6623
 20
132.045
 10
-392.5881
 20
131.9929
 10
-392.5222
 20
131.924
 10
-392.4663
 20
131.8403
 10
-392.4223
 20
131.7443
 10
-392.3919
 20
131.6382
 10
-392.377
 20
131.5243
 10
-392.3792
 20
131.4102
 10
-392.3978
 20
131.3039
 10
-392.4312
 20
131.2078
 10
-392.4779
 20
131.1241
 10
-392.5363
 20
131.055
 10
-392.6048
 20
131.0029
 10
-392.6818
 20
130.97
 10
-392.7657
 20
130.9585
 10
-392.851
 20
130.97
 10
-392.9317
 20
131.0029
 10
-393.006
 20
131.055
 10
-393.072
 20
131.1241
 10
-393.1279
 20
131.2078
 10
-393.1719
 20
131.3039
 10
-393.2022
 20
131.4102
 10
-393.2169
 20
131.5243
 10
-393.2147
 20
131.6382
 10
-393.1962
 20
131.7443
 10
-393.1628
 20
131.8403
 10
-393.1162
 20
131.924
 10
-393.0578
 20
131.9929
 10
-392.9894
 20
132.045
 10
-392.9123
 20
132.0779
 10
-392.8282
 20
132.0894
  0
LWPOLYLINE
  5
88
330
1F
100
AcDbEntity
  8
Layer 1
 62
     7
370
     5
100
AcDbPolyline
 90
       25
 70
     1
 43
0.0
 10
-398.2349
 20
143.6769
 10
-398.0098
 20
143.3811
 10
-397.7768
 20
143.095
 10
-397.57
 20
142.8454
 10
-397.4236
 20
142.6591
 10
-397.3471
 20
142.6666
 10
-397.2195
 20
142.808
 10
-397.0366
 20
143.0431
 10
-396.7942
 20
143.3317
 10
-396.4879
 20
143.6335
 10
-396.1135
 20
143.9083
 10
-395.6668
 20
144.1159
 10
-395.1435
 20
144.2161
 10
-395.1547
 20
144.6098
 10
-395.1794
 20
145.0427
 10
-395.2041
 20
145.4323
 10
-395.2153
 20
145.696
 10
-395.332
 20
145.9293
 10
-395.6424
 20
145.9427
 10
-396.0869
 20
145.7767
 10
-396.6059
 20
145.4719
 10
-397.1398
 20
145.069
 10
-397.629
 20
144.6084
 10
-398.0139
 20
144.1309
 10
-398.2349
 20
143.6769
  0
LWPOLYLINE
  5
89
330
1F
100
AcDbEntity
  8
Layer 1
 62
     7
370
     5
100
AcDbPolyline
 90
       19
 70
     1
 43
0.0
 10
-394.0394
 20
145.9328
 10
-393.9291
 20
144.4365
 10
-393.8537
 20
144.4292
 10
-393.6486
 20
144.3984
 10
-393.3458
 20
144.3309
 10
-392.9769
 20
144.2137
 10
-392.5739
 20
144.0336
 10
-392.1685
 20
143.7774
 10
-391.7927
 20
143.4319
 10
-391.4781
 20
142.984
 10
-390.7936
 20
144.1504
 10
-390.8425
 20
144.2189
 10
-390.9903
 20
144.4011
 10
-391.2384
 20
144.6622
 10
-391.5885
 20
144.9674
 10
-392.0421
 20
145.2818
 10
-392.6007
 20
145.5708
 10
-393.266
 20
145.7994
 10
-394.0394
 20
145.9328
  0
LWPOLYLINE
  5
8A
330
1F
100
AcDbEntity
  8
Layer 1
 62
     7
370
     5
100
AcDbPolyline
 90
       19
 70
     1
 43
0.0
 10
-389.7789
 20
142.6431
 10
-390.3582
 20
141.5605
 10
-390.3187
 20
141.4864
 10
-390.2124
 20
141.2736
 10
-390.0575
 20
140.9362
 10
-389.8723
 20
140.4883
 10
-389.6748
 20
139.944
 10
-389.4835
 20
139.3173
 10
-389.3164
 20
138.6225
 10
-389.1919
 20
137.8735
 10
-388.1476
 20
137.7962
 10
-388.1066
 20
137.9322
 10
-388.1224
 20
138.3134
 10
-388.2015
 20
138.8842
 10
-388.3505
 20
139.5893
 10
-388.5762
 20
140.3732
 10
-388.8851
 20
141.1804
 10
-389.2837
 20
141.9555
 10
-389.7789
 20
142.6431
  0
LWPOLYLINE
  5
8B
330
1F
100
AcDbEntity
  8
Layer 1
 62
     7
370
     5
100
AcDbPolyline
 90
       19
 70
     1
 43
0.0
 10
-399.7775
 20
135.5083
 10
-398.7447
 20
135.5627
 10
-398.7376
 20
135.4788
 10
-398.709
 20
135.2429
 10
-398.648
 20
134.8787
 10
-398.5438
 20
134.41
 10
-398.3854
 20
133.8604
 10
-398.1622
 20
133.2537
 10
-397.8631
 20
132.6135
 10
-397.4773
 20
131.9637
 10
-398.156
 20
130.8336
 10
-398.2521
 20
130.9001
 10
-398.4487
 20
131.1891
 10
-398.7107
 20
131.6632
 10
-399.0032
 20
132.2853
 10
-399.2912
 20
133.0181
 10
-399.5396
 20
133.8244
 10
-399.7133
 20
134.6668
 10
-399.7775
 20
135.5083
  0
LWPOLYLINE
  5
8C
330
1F
100
AcDbEntity
  8
Layer 1
 62
     7
370
     5
100
AcDbPolyline
 90
       19
 70
     1
 43
0.0
 10
-399.8722
 20
137.4682
 10
-398.8261
 20
137.5324
 10
-398.8283
 20
137.6286
 10
-398.8274
 20
137.8948
 10
-398.8124
 20
138.2977
 10
-398.7724
 20
138.8039
 10
-398.6962
 20
139.3799
 10
-398.573
 20
139.9922
 10
-398.3916
 20
140.6076
 10
-398.141
 20
141.1925
 10
-399.0952
 20
142.2757
 10
-399.1505
 20
142.1629
 10
-399.2917
 20
141.8461
 10
-399.4819
 20
141.3575
 10
-399.6841
 20
140.7295
 10
-399.8612
 20
139.9943
 10
-399.9762
 20
139.1841
 10
-399.9922
 20
138.3313
 10
-399.8722
 20
137.4682
  0
LWPOLYLINE
  5
8D
330
1F
100
AcDbEntity
  8
Layer 1
 62
     7
370
     5
100
AcDbPolyline
 90
       19
 70
     1
 43
0.0
 10
-393.8191
 20
127.5531
 10
-393.8856
 20
129.0604
 10
-393.9663
 20
129.0845
 10
-394.1854
 20
129.1563
 10
-394.5085
 20
129.2751
 10
-394.9012
 20
129.44
 10
-395.3292
 20
129.6504
 10
-395.7579
 20
129.9053
 10
-396.153
 20
130.2041
 10
-396.4801
 20
130.5459
 10
-397.1646
 20
129.3795
 10
-397.1033
 20
129.3105
 10
-396.9244
 20
129.1266
 10
-396.6359
 20
128.8626
 10
-396.2454
 20
128.553
 10
-395.7607
 20
128.2325
 10
-395.1896
 20
127.936
 10
-394.5398
 20
127.6979
 10
-393.8191
 20
127.5531
  0
LWPOLYLINE
  5
8E
330
1F
100
AcDbEntity
  8
Layer 1
 62
     7
370
     5
100
AcDbPolyline
 90
       19
 70
     1
 43
0.0
 10
-388.0745
 20
135.9981
 10
-389.1206
 20
135.9339
 10
-389.1184
 20
135.8377
 10
-389.1193
 20
135.5715
 10
-389.1343
 20
135.1686
 10
-389.1743
 20
134.6624
 10
-389.2505
 20
134.0864
 10
-389.3737
 20
133.4741
 10
-389.5551
 20
132.8587
 10
-389.8057
 20
132.2738
 10
-388.8514
 20
131.1906
 10
-388.7961
 20
131.3034
 10
-388.6549
 20
131.6202
 10
-388.4647
 20
132.1088
 10
-388.2626
 20
132.7368
 10
-388.0855
 20
133.472
 10
-387.9704
 20
134.2822
 10
-387.9545
 20
135.135
 10
-388.0745
 20
135.9981
  0
LWPOLYLINE
  5
8F
330
1F
100
AcDbEntity
  8
Layer 1
 62
     7
370
     5
100
AcDbPolyline
 90
       19
 70
     1
 43
0.0
 10
-389.5281
 20
129.515
 10
-390.55
 20
130.7285
 10
-390.5958
 20
130.668
 10
-390.7266
 20
130.5061
 10
-390.9321
 20
130.2725
 10
-391.2022
 20
129.9966
 10
-391.5267
 20
129.708
 10
-391.8955
 20
129.4362
 10
-392.2984
 20
129.2108
 10
-392.7252
 20
129.0613
 10
-392.5194
 20
127.4624
 10
-392.4459
 20
127.4823
 10
-392.2407
 20
127.549
 10
-391.9267
 20
127.6729
 10
-391.5269
 20
127.8644
 10
-391.0642
 20
128.134
 10
-390.5616
 20
128.492
 10
-390.0419
 20
128.9489
 10
-389.5281
 20
129.515
  0
LWPOLYLINE
  5
90
330
1F
100
AcDbEntity
  8
Layer 1
 62
     7
370
    18
100
AcDbPolyline
 90
        9
 70
     0
 43
0.0
 10
-374.9512
 20
20.1992
 10
-373.6603
 20
19.6485
 10
-371.6029
 20
19.0942
 10
-368.9126
 20
18.6208
 10
-365.7233
 20
18.3129
 10
-362.1686
 20
18.2549
 10
-358.3823
 20
18.5313
 10
-354.4982
 20
19.2267
 10
-350.6499
 20
20.4254
  0
LWPOLYLINE
  5
91
330
1F
100
AcDbEntity
  8
Layer 1
 62
     7
370
    25
100
AcDbPolyline
 90
       33
 70
     1
 43
0.0
 10
-374.8301
 20
21.7704
 10
-374.8343
 20
21.41
 10
-374.8421
 20
20.4331
 10
-374.846
 20
18.9965
 10
-374.8386
 20
17.2567
 10
-374.8127
 20
15.3705
 10
-374.7607
 20
13.4944
 10
-374.6753
 20
11.7851
 10
-374.5492
 20
10.3993
 10
-373.3859
 20
9.3294
 10
-370.5689
 20
8.5038
 10
-366.6609
 20
7.9832
 10
-362.2244
 20
7.828
 10
-357.822
 20
8.0989
 10
-354.0162
 20
8.8565
 10
-351.3695
 20
10.1613
 10
-350.4446
 20
12.074
 10
-350.5466
 20
14.2137
 10
-350.6106
 20
16.1436
 10
-350.6442
 20
17.8407
 10
-350.6548
 20
19.2814
 10
-350.65
 20
20.4425
 10
-350.6372
 20
21.3007
 10
-350.6241
 20
21.8328
 10
-350.618
 20
22.0153
 10
-351.2051
 20
21.8382
 10
-352.8471
 20
21.4059
 10
-355.365
 20
20.867
 10
-358.58
 20
20.3699
 10
-362.3129
 20
20.0631
 10
-366.3849
 20
20.0953
 10
-370.6169
 20
20.6149
 10
-374.8301
 20
21.7704
  0
LWPOLYLINE
  5
92
330
1F
100
AcDbEntity
  8
Layer 1
 62
     7
370
    18
100
AcDbPolyline
 90
        9
 70
     0
 43
0.0
 10
-374.9512
 20
18.0571
 10
-373.6603
 20
17.5064
 10
-371.6029
 20
16.9521
 10
-368.9126
 20
16.4787
 10
-365.7233
 20
16.1708
 10
-362.1686
 20
16.1128
 10
-358.3823
 20
16.3892
 10
-354.4982
 20
17.0846
 10
-350.6499
 20
18.2833
  0
LWPOLYLINE
  5
93
330
1F
100
AcDbEntity
  8
Layer 1
 62
     7
370
    18
100
AcDbPolyline
 90
        9
 70
     0
 43
0.0
 10
-374.9512
 20
15.9012
 10
-373.6603
 20
15.3505
 10
-371.6029
 20
14.7962
 10
-368.9126
 20
14.3228
 10
-365.7233
 20
14.0149
 10
-362.1686
 20
13.9569
 10
-358.3823
 20
14.2333
 10
-354.4982
 20
14.9287
 10
-350.6499
 20
16.1274
  0
LWPOLYLINE
  5
94
330
1F
100
AcDbEntity
  8
Layer 1
 62
     7
370
    18
100
AcDbPolyline
 90
        9
 70
     0
 43
0.0
 10
-374.9512
 20
13.7453
 10
-373.6603
 20
13.1946
 10
-371.6029
 20
12.6403
 10
-368.9126
 20
12.1669
 10
-365.7233
 20
11.859
 10
-362.1686
 20
11.801
 10
-358.3823
 20
12.0774
 10
-354.4982
 20
12.7728
 10
-350.6499
 20
13.9715
  0
LWPOLYLINE
  5
95
330
1F
100
AcDbEntity
  8
Layer 1
 62
     7
370
    18
100
AcDbPolyline
 90
        9
 70
     0
 43
0.0
 10
-374.9512
 20
11.5894
 10
-373.6603
 20
11.0387
 10
-371.6029
 20
10.4844
 10
-368.9126
 20
10.011
 10
-365.7233
 20
9.7031
 10
-362.1686
 20
9.6451
 10
-358.3823
 20
9.9216
 10
-354.4982
 20
10.6169
 10
-350.6499
 20
11.8157
  0
LWPOLYLINE
  5
96
330
1F
100
AcDbEntity
  8
Layer 1
 62
     7
370
     9
100
AcDbPolyline
 90
        2
 70
     0
 43
0.0
 10
-365.5821
 20
20.4824
 10
-315.434
 20
20.4824
  0
ENDSEC
  0
SECTION
  2
OBJECTS
  0
DICTIONARY
  5
C
330
0
100
AcDbDictionary
281
     1
  3
ACAD_DETAILVIEWSTYLE
350
9E
  3
ACAD_GROUP
350
D
  3
ACAD_LAYOUT
350
1A
  3
ACAD_MATERIAL
350
43
  3
ACAD_MLEADERSTYLE
350
5B
  3
ACAD_MLINESTYLE
350
17
  3
ACAD_PLOTSETTINGS
350
19
  3
ACAD_PLOTSTYLENAME
350
E
  3
ACAD_SCALELIST
350
47
  3
ACAD_SECTIONVIEWSTYLE
350
9F
  3
ACAD_TABLESTYLE
350
59
  3
ACAD_VISUALSTYLE
350
2A
  3
ACDB_RECOMPOSE_DATA
350
9B
  3
AcDbVariableDictionary
350
97
  0
SUN
  5
5D
330
29
100
AcDbSun
 90
        1
290
     0
 63
     7
421
 16777215
 40
1.0
291
     1
 91
  2455826
 92
 54000000
292
     0
 70
     2
 71
   256
280
     1
  0
DICTIONARY
  5
9E
102
{ACAD_REACTORS
330
C
102
}
330
C
100
AcDbDictionary
281
     1
  0
DICTIONARY
  5
D
102
{ACAD_REACTORS
330
C
102
}
330
C
100
AcDbDictionary
281
     1
  0
DICTIONARY
  5
1A
102
{ACAD_REACTORS
330
C
102
}
330
C
100
AcDbDictionary
281
     1
  3
Layout1
350
1E
  3
Layout2
350
26
  3
Model
350
22
  0
DICTIONARY
  5
43
102
{ACAD_REACTORS
330
C
102
}
330
C
100
AcDbDictionary
281
     1
  3
ByBlock
350
45
  3
ByLayer
350
44
  3
Global
350
46
  0
DICTIONARY
  5
5B
102
{ACAD_REACTORS
330
C
102
}
330
C
100
AcDbDictionary
281
     1
  3
Standard
350
5C
  0
DICTIONARY
  5
17
102
{ACAD_REACTORS
330
C
102
}
330
C
100
AcDbDictionary
281
     1
  3
Standard
350
18
  0
DICTIONARY
  5
19
102
{ACAD_REACTORS
330
C
102
}
330
C
100
AcDbDictionary
281
     1
  0
ACDBDICTIONARYWDFLT
  5
E
102
{ACAD_REACTORS
330
C
102
}
330
C
100
AcDbDictionary
281
     1
  3
Normal
350
F
100
AcDbDictionaryWithDefault
340
F
  0
DICTIONARY
  5
47
102
{ACAD_REACTORS
330
C
102
}
330
C
100
AcDbDictionary
281
     1
  3
A0
350
48
  3
A1
350
49
  3
A2
350
4A
  3
A3
350
4B
  3
A4
350
4C
  3
A5
350
4D
  3
A6
350
4E
  3
A7
350
4F
  3
A8
350
50
  3
A9
350
51
  3
B1
350
52
  3
B2
350
53
  3
B3
350
54
  3
B4
350
55
  3
B5
350
56
  3
B6
350
57
  3
B7
350
58
  0
DICTIONARY
  5
9F
102
{ACAD_REACTORS
330
C
102
}
330
C
100
AcDbDictionary
281
     1
  0
DICTIONARY
  5
59
102
{ACAD_REACTORS
330
C
102
}
330
C
100
AcDbDictionary
281
     1
  3
Standard
350
5A
  0
DICTIONARY
  5
2A
102
{ACAD_REACTORS
330
C
102
}
330
C
100
AcDbDictionary
281
     1
  3
2dWireframe
350
2F
  3
Basic
350
32
  3
Brighten
350
36
  3
ColorChange
350
3A
  3
Conceptual
350
34
  3
Dim
350
35
  3
EdgeColorOff
350
3D
  3
Facepattern
350
39
  3
Flat
350
2B
  3
FlatWithEdges
350
2C
  3
Gouraud
350
2D
  3
GouraudWithEdges
350
2E
  3
Hidden
350
31
  3
JitterOff
350
3B
  3
Linepattern
350
38
  3
OverhangOff
350
3C
  3
Realistic
350
33
  3
Shaded
350
42
  3
Shaded with edges
350
41
  3
Shades of Gray
350
3E
  3
Sketchy
350
3F
  3
Thicken
350
37
  3
Wireframe
350
30
  3
X-Ray
350
40
  0
XRECORD
  5
9B
102
{ACAD_REACTORS
330
C
102
}
330
C
100
AcDbXrecord
280
     1
 90
        1
330
5A
  0
DICTIONARY
  5
97
102
{ACAD_REACTORS
330
C
102
}
330
C
100
AcDbDictionary
281
     1
  3
CANNOSCALE
350
98
  3
CMLEADERSTYLE
350
9D
  3
CTABLESTYLE
350
9C
  0
LAYOUT
  5
1E
102
{ACAD_REACTORS
330
1A
102
}
330
1A
100
AcDbPlotSettings
  1

  2
none_device
  4

  6

 40
0.0
 41
0.0
 42
0.0
 43
0.0
 44
0.0
 45
0.0
 46
0.0
 47
0.0
 48
0.0
 49
0.0
140
0.0
141
0.0
142
1.0
143
1.0
 70
   688
 72
     0
 73
     0
 74
     5
  7

 75
    16
 76
     0
 77
     2
 78
   300
147
1.0
148
0.0
149
0.0
100
AcDbLayout
  1
Layout1
 70
     1
 71
     1
 10
0.0
 20
0.0
 11
12.0
 21
9.0
 12
0.0
 22
0.0
 32
0.0
 14
1.000000000000000E+20
 24
1.000000000000000E+20
 34
1.000000000000000E+20
 15
-1.000000000000000E+20
 25
-1.000000000000000E+20
 35
-1.000000000000000E+20
146
0.0
 13
0.0
 23
0.0
 33
0.0
 16
1.0
 26
0.0
 36
0.0
 17
0.0
 27
1.0
 37
0.0
 76
     0
330
1B
  0
LAYOUT
  5
26
102
{ACAD_REACTORS
330
1A
102
}
330
1A
100
AcDbPlotSettings
  1

  2
none_device
  4

  6

 40
0.0
 41
0.0
 42
0.0
 43
0.0
 44
0.0
 45
0.0
 46
0.0
 47
0.0
 48
0.0
 49
0.0
140
0.0
141
0.0
142
1.0
143
1.0
 70
   688
 72
     0
 73
     0
 74
     5
  7

 75
    16
 76
     0
 77
     2
 78
   300
147
1.0
148
0.0
149
0.0
100
AcDbLayout
  1
Layout2
 70
     1
 71
     2
 10
0.0
 20
0.0
 11
0.0
 21
0.0
 12
0.0
 22
0.0
 32
0.0
 14
0.0
 24
0.0
 34
0.0
 15
0.0
 25
0.0
 35
0.0
146
0.0
 13
0.0
 23
0.0
 33
0.0
 16
1.0
 26
0.0
 36
0.0
 17
0.0
 27
1.0
 37
0.0
 76
     0
330
23
  0
LAYOUT
  5
22
102
{ACAD_REACTORS
330
1A
102
}
330
1A
100
AcDbPlotSettings
  1

  2
none_device
  4
Letter_(8.50_x_11.00_Inches)
  6

 40
6.35
 41
6.35
 42
6.35000508
 43
6.35000508
 44
215.9
 45
279.4
 46
0.0
 47
0.0
 48
0.0
 49
0.0
140
0.0
141
0.0
142
1.0
143
1.0
 70
  1712
 72
     0
 73
     0
 74
     0
  7

 75
     0
 76
     0
 77
     2
 78
   300
147
1.0
148
0.0
149
0.0
100
AcDbLayout
  1
Model
 70
     1
 71
     0
 10
0.0
 20
0.0
 11
12.0
 21
9.0
 12
0.0
 22
0.0
 32
0.0
 14
-422.2622
 24
2.5335
 34
0.0
 15
-289.1387
 25
165.5675
 35
0.0
146
0.0
 13
0.0
 23
0.0
 33
0.0
 16
1.0
 26
0.0
 36
0.0
 17
0.0
 27
1.0
 37
0.0
 76
     0
330
1F
331
29
  0
MATERIAL
  5
45
102
{ACAD_REACTORS
330
43
102
}
330
43
100
AcDbMaterial
  1
ByBlock
 72
     1
 94
      127
  0
MATERIAL
  5
44
102
{ACAD_REACTORS
330
43
102
}
330
43
100
AcDbMaterial
  1
ByLayer
 72
     1
 94
      127
  0
MATERIAL
  5
46
102
{ACAD_REACTORS
330
43
102
}
330
43
100
AcDbMaterial
  1
Global
 72
     1
 94
      127
  0
MLEADERSTYLE
  5
5C
102
{ACAD_REACTORS
330
5B
102
}
330
5B
100
AcDbMLeaderStyle
179
     2
170
     2
171
     1
172
     0
 90
        2
 40
0.0
 41
0.0
173
     1
 91
-1056964608
340
14
 92
       -2
290
     1
 42
0.09
291
     1
 43
0.36
  3
Standard
341
0
 44
0.18
300

342
11
174
     1
178
     6
175
     1
176
     0
 93
-1056964608
 45
0.18
292
     0
297
     0
 46
0.18
343
0
 94
-1056964608
 47
1.0
 49
1.0
140
1.0
293
     1
141
0.0
294
     1
177
     0
142
1.0
295
     0
296
     0
143
0.125
271
     0
272
     9
273
     9
298
     0
  0
MLINESTYLE
  5
18
102
{ACAD_REACTORS
330
17
102
}
330
17
100
AcDbMlineStyle
  2
Standard
 70
     0
  3

 62
   256
 51
90.0
 52
90.0
 71
     2
 49
0.5
 62
   256
  6
BYLAYER
 49
-0.5
 62
   256
  6
BYLAYER
  0
ACDBPLACEHOLDER
  5
F
102
{ACAD_REACTORS
330
E
102
}
330
E
  0
SCALE
  5
48
102
{ACAD_REACTORS
330
47
102
}
330
47
100
AcDbScale
 70
     0
300
1:1
140
1.0
141
1.0
290
     1
  0
SCALE
  5
49
102
{ACAD_REACTORS
330
47
102
}
330
47
100
AcDbScale
 70
     0
300
1/128" = 1'-0"
140
0.0078125
141
12.0
290
     0
  0
SCALE
  5
4A
102
{ACAD_REACTORS
330
47
102
}
330
47
100
AcDbScale
 70
     0
300
1/64" = 1'-0"
140
0.015625
141
12.0
290
     0
  0
SCALE
  5
4B
102
{ACAD_REACTORS
330
47
102
}
330
47
100
AcDbScale
 70
     0
300
1/32" = 1'-0"
140
0.03125
141
12.0
290
     0
  0
SCALE
  5
4C
102
{ACAD_REACTORS
330
47
102
}
330
47
100
AcDbScale
 70
     0
300
1/16" = 1'-0"
140
0.0625
141
12.0
290
     0
  0
SCALE
  5
4D
102
{ACAD_REACTORS
330
47
102
}
330
47
100
AcDbScale
 70
     0
300
3/32" = 1'-0"
140
0.09375
141
12.0
290
     0
  0
SCALE
  5
4E
102
{ACAD_REACTORS
330
47
102
}
330
47
100
AcDbScale
 70
     0
300
1/8" = 1'-0"
140
0.125
141
12.0
290
     0
  0
SCALE
  5
4F
102
{ACAD_REACTORS
330
47
102
}
330
47
100
AcDbScale
 70
     0
300
3/16" = 1'-0"
140
0.1875
141
12.0
290
     0
  0
SCALE
  5
50
102
{ACAD_REACTORS
330
47
102
}
330
47
100
AcDbScale
 70
     0
300
1/4" = 1'-0"
140
0.25
141
12.0
290
     0
  0
SCALE
  5
51
102
{ACAD_REACTORS
330
47
102
}
330
47
100
AcDbScale
 70
     0
300
3/8" = 1'-0"
140
0.375
141
12.0
290
     0
  0
SCALE
  5
52
102
{ACAD_REACTORS
330
47
102
}
330
47
100
AcDbScale
 70
     0
300
1/2" = 1'-0"
140
0.5
141
12.0
290
     0
  0
SCALE
  5
53
102
{ACAD_REACTORS
330
47
102
}
330
47
100
AcDbScale
 70
     0
300
3/4" = 1'-0"
140
0.75
141
12.0
290
     0
  0
SCALE
  5
54
102
{ACAD_REACTORS
330
47
102
}
330
47
100
AcDbScale
 70
     0
300
1" = 1'-0"
140
1.0
141
12.0
290
     0
  0
SCALE
  5
55
102
{ACAD_REACTORS
330
47
102
}
330
47
100
AcDbScale
 70
     0
300
1-1/2" = 1'-0"
140
1.5
141
12.0
290
     0
  0
SCALE
  5
56
102
{ACAD_REACTORS
330
47
102
}
330
47
100
AcDbScale
 70
     0
300
3" = 1'-0"
140
3.0
141
12.0
290
     0
  0
SCALE
  5
57
102
{ACAD_REACTORS
330
47
102
}
330
47
100
AcDbScale
 70
     0
300
6" = 1'-0"
140
6.0
141
12.0
290
     0
  0
SCALE
  5
58
102
{ACAD_REACTORS
330
47
102
}
330
47
100
AcDbScale
 70
     0
300
1'-0" = 1'-0"
140
12.0
141
12.0
290
     0
  0
TABLESTYLE
  5
5A
102
{ACAD_REACTORS
330
59
102
}
102
{ACAD_XDICTIONARY
360
99
102
}
330
59
100
AcDbTableStyle
  3
Standard
 70
     0
 71
     0
 40
0.06
 41
0.06
280
     0
281
     0
  7
Standard
140
0.18
170
     2
 62
     0
 63
   257
283
     0
 90
        4
 91
        0
  1

274
    -2
284
     1
 64
     0
275
    -2
285
     1
 65
     0
276
    -2
286
     1
 66
     0
277
    -2
287
     1
 67
     0
278
    -2
288
     1
 68
     0
279
    -2
289
     1
 69
     0
  7
Standard
140
0.25
170
     5
 62
     0
 63
   257
283
     0
 90
        4
 91
        0
  1

274
    -2
284
     1
 64
     0
275
    -2
285
     1
 65
     0
276
    -2
286
     1
 66
     0
277
    -2
287
     1
 67
     0
278
    -2
288
     1
 68
     0
279
    -2
289
     1
 69
     0
  7
Standard
140
0.18
170
     5
 62
     0
 63
   257
283
     0
 90
        4
 91
        0
  1

274
    -2
284
     1
 64
     0
275
    -2
285
     1
 65
     0
276
    -2
286
     1
 66
     0
277
    -2
287
     1
 67
     0
278
    -2
288
     1
 68
     0
279
    -2
289
     1
 69
     0
  0
VISUALSTYLE
  5
2F
102
{ACAD_REACTORS
330
2A
102
}
330
2A
100
AcDbVisualStyle
  2
2dWireframe
 70
     4
177
     3
291
     0
 70
    58
 90
        0
176
     1
 90
        2
176
     1
 90
        0
176
     1
 90
        0
176
     1
 40
0.6
176
     1
 40
30.0
176
     1
 62
     7
420
 16777215
176
     1
 90
        1
176
     1
 90
        4
176
     1
 62
     7
176
     1
 62
   257
176
     1
 90
        1
176
     1
 90
        1
176
     1
 40
1.0
176
     1
 90
        0
176
     1
 62
   257
176
     1
 40
1.0
176
     1
 90
        1
176
     1
 90
        6
176
     1
 90
        2
176
     1
 62
     7
176
     1
 90
        5
176
     1
 90
        0
176
     1
 90
        0
176
     1
290
     0
176
     1
 90
        1
176
     1
 40
0.0
176
     1
 90
        0
176
     1
290
     1
176
     1
290
     1
176
     1
290
     0
176
     1
290
     0
176
     1
290
     0
176
     1
290
     0
176
     1
290
     0
176
     1
290
     0
176
     1
290
     0
176
     1
 90
       50
176
     1
 40
0.0
176
     1
 40
1.0
176
     1
 90
        0
176
     1
 62
    18
420
        0
176
     1
 90
       50
176
     1
 90
        3
176
     1
 62
     5
420
      255
176
     1
290
     0
176
     1
 90
       50
176
     1
 90
       50
176
     1
 90
       50
176
     1
290
     0
176
     1
 90
       50
176
     1
 62
   256
176
     0
 40
1.0
176
     0
 90
        2
176
     1
  1
strokes_ogs.tif
176
     1
290
     0
176
     1
 40
1.0
176
     1
 40
1.0
176
     1
  0
VISUALSTYLE
  5
32
102
{ACAD_REACTORS
330
2A
102
}
330
2A
100
AcDbVisualStyle
  2
Basic
 70
     7
177
     3
291
     1
 70
    58
 90
        1
176
     1
 90
        0
176
     1
 90
        1
176
     1
 90
        0
176
     1
 40
0.6
176
     1
 40
30.0
176
     1
 62
     7
420
 16777215
176
     1
 90
        0
176
     1
 90
        4
176
     1
 62
     7
176
     1
 62
   257
176
     1
 90
        1
176
     1
 90
        1
176
     1
 40
1.0
176
     1
 90
        8
176
     1
 62
     7
176
     1
 40
1.0
176
     1
 90
        1
176
     1
 90
        6
176
     1
 90
        2
176
     1
 62
     7
176
     1
 90
        5
176
     1
 90
        0
176
     1
 90
        0
176
     1
290
     0
176
     1
 90
        1
176
     1
 40
0.0
176
     1
 90
        0
176
     1
290
     0
176
     1
290
     1
176
     1
290
     1
176
     1
290
     0
176
     1
290
     0
176
     1
290
     0
176
     1
290
     0
176
     1
290
     0
176
     1
290
     0
176
     1
 90
       50
176
     1
 40
0.0
176
     1
 40
1.0
176
     1
 90
        0
176
     1
 62
    18
420
        0
176
     1
 90
       50
176
     1
 90
        3
176
     1
 62
     5
420
      255
176
     1
290
     0
176
     1
 90
       50
176
     1
 90
       50
176
     1
 90
       50
176
     1
290
     0
176
     1
 90
       50
176
     1
 62
   256
176
     0
 40
1.0
176
     0
 90
        2
176
     1
  1
strokes_ogs.tif
176
     1
290
     0
176
     1
 40
1.0
176
     1
 40
1.0
176
     1
  0
VISUALSTYLE
  5
36
102
{ACAD_REACTORS
330
2A
102
}
330
2A
100
AcDbVisualStyle
  2
Brighten
 70
    12
177
     3
291
     1
 70
    58
 90
        2
176
     1
 90
        2
176
     1
 90
        0
176
     1
 90
        0
176
     1
 40
0.6
176
     1
 40
30.0
176
     1
 62
     7
420
 16777215
176
     1
 90
        1
176
     1
 90
        4
176
     1
 62
     7
176
     1
 62
   257
176
     1
 90
        1
176
     1
 90
        1
176
     1
 40
1.0
176
     1
 90
        8
176
     1
 62
     7
176
     1
 40
1.0
176
     1
 90
        1
176
     1
 90
        6
176
     1
 90
        2
176
     1
 62
     7
176
     1
 90
        5
176
     1
 90
        0
176
     1
 90
        0
176
     1
290
     0
176
     1
 90
        1
176
     1
 40
50.0
176
     1
 90
        0
176
     1
290
     0
176
     1
290
     1
176
     1
290
     1
176
     1
290
     0
176
     1
290
     0
176
     1
290
     0
176
     1
290
     0
176
     1
290
     0
176
     1
290
     0
176
     1
 90
       50
176
     1
 40
0.0
176
     1
 40
1.0
176
     1
 90
        0
176
     1
 62
    18
420
        0
176
     1
 90
       50
176
     1
 90
        3
176
     1
 62
     5
420
      255
176
     1
290
     0
176
     1
 90
       50
176
     1
 90
       50
176
     1
 90
       50
176
     1
290
     0
176
     1
 90
       50
176
     1
 62
   256
176
     0
 40
1.0
176
     0
 90
        2
176
     1
  1
strokes_ogs.tif
176
     1
290
     0
176
     1
 40
1.0
176
     1
 40
1.0
176
     1
  0
VISUALSTYLE
  5
3A
102
{ACAD_REACTORS
330
2A
102
}
330
2A
100
AcDbVisualStyle
  2
ColorChange
 70
    16
177
     3
291
     1
 70
    58
 90
        2
176
     1
 90
        2
176
     1
 90
        3
176
     1
 90
        0
176
     1
 40
0.6
176
     1
 40
30.0
176
     1
 62
     8
420
  8421504
176
     1
 90
        1
176
     1
 90
        4
176
     1
 62
     7
176
     1
 62
   257
176
     1
 90
        1
176
     1
 90
        1
176
     1
 40
1.0
176
     1
 90
        8
176
     1
 62
     8
420
  8421504
176
     1
 40
1.0
176
     1
 90
        1
176
     1
 90
        6
176
     1
 90
        2
176
     1
 62
     7
176
     1
 90
        5
176
     1
 90
        0
176
     1
 90
        0
176
     1
290
     0
176
     1
 90
        1
176
     1
 40
0.0
176
     1
 90
        0
176
     1
290
     0
176
     1
290
     1
176
     1
290
     1
176
     1
290
     0
176
     1
290
     0
176
     1
290
     0
176
     1
290
     0
176
     1
290
     0
176
     1
290
     0
176
     1
 90
       50
176
     1
 40
0.0
176
     1
 40
1.0
176
     1
 90
        0
176
     1
 62
    18
420
        0
176
     1
 90
       50
176
     1
 90
        3
176
     1
 62
     5
420
      255
176
     1
290
     0
176
     1
 90
       50
176
     1
 90
       50
176
     1
 90
       50
176
     1
290
     0
176
     1
 90
       50
176
     1
 62
   256
176
     0
 40
1.0
176
     0
 90
        2
176
     1
  1
strokes_ogs.tif
176
     1
290
     0
176
     1
 40
1.0
176
     1
 40
1.0
176
     1
  0
VISUALSTYLE
  5
34
102
{ACAD_REACTORS
330
2A
102
}
330
2A
100
AcDbVisualStyle
  2
Conceptual
 70
     9
177
     3
291
     0
 70
    58
 90
        3
176
     1
 90
        2
176
     1
 90
        0
176
     1
 90
        0
176
     1
 40
0.6
176
     1
 40
30.0
176
     1
 62
     7
420
 16777215
176
     1
 90
        2
176
     1
 90
        2
176
     1
 62
     7
176
     1
 62
   257
176
     1
 90
        1
176
     1
 90
        1
176
     1
 40
179.0
176
     1
 90
        8
176
     1
 62
     7
176
     1
 40
1.0
176
     1
 90
        1
176
     1
 90
        6
176
     1
 90
        2
176
     1
 62
     7
176
     1
 90
        3
176
     1
 90
        0
176
     1
 90
        0
176
     1
290
     0
176
     1
 90
        1
176
     1
 40
0.0
176
     1
 90
        0
176
     1
290
     0
176
     1
290
     1
176
     1
290
     1
176
     1
290
     0
176
     1
290
     0
176
     1
290
     0
176
     1
290
     0
176
     1
290
     0
176
     1
290
     0
176
     1
 90
       50
176
     1
 40
0.0
176
     1
 40
1.0
176
     1
 90
        0
176
     1
 62
    18
420
        0
176
     1
 90
       50
176
     1
 90
        3
176
     1
 62
     5
420
      255
176
     1
290
     0
176
     1
 90
       50
176
     1
 90
       50
176
     1
 90
       50
176
     1
290
     0
176
     1
 90
       50
176
     1
 62
   256
176
     0
 40
1.0
176
     0
 90
        2
176
     1
  1
strokes_ogs.tif
176
     1
290
     0
176
     1
 40
1.0
176
     1
 40
1.0
176
     1
  0
VISUALSTYLE
  5
35
102
{ACAD_REACTORS
330
2A
102
}
330
2A
100
AcDbVisualStyle
  2
Dim
 70
    11
177
     3
291
     1
 70
    58
 90
        2
176
     1
 90
        2
176
     1
 90
        0
176
     1
 90
        0
176
     1
 40
0.6
176
     1
 40
30.0
176
     1
 62
     7
420
 16777215
176
     1
 90
        1
176
     1
 90
        4
176
     1
 62
     7
176
     1
 62
   257
176
     1
 90
        1
176
     1
 90
        1
176
     1
 40
1.0
176
     1
 90
        8
176
     1
 62
     7
176
     1
 40
1.0
176
     1
 90
        1
176
     1
 90
        6
176
     1
 90
        2
176
     1
 62
     7
176
     1
 90
        5
176
     1
 90
        0
176
     1
 90
        0
176
     1
290
     0
176
     1
 90
        1
176
     1
 40
-50.0
176
     1
 90
        0
176
     1
290
     0
176
     1
290
     1
176
     1
290
     1
176
     1
290
     0
176
     1
290
     0
176
     1
290
     0
176
     1
290
     0
176
     1
290
     0
176
     1
290
     0
176
     1
 90
       50
176
     1
 40
0.0
176
     1
 40
1.0
176
     1
 90
        0
176
     1
 62
    18
420
        0
176
     1
 90
       50
176
     1
 90
        3
176
     1
 62
     5
420
      255
176
     1
290
     0
176
     1
 90
       50
176
     1
 90
       50
176
     1
 90
       50
176
     1
290
     0
176
     1
 90
       50
176
     1
 62
   256
176
     0
 40
1.0
176
     0
 90
        2
176
     1
  1
strokes_ogs.tif
176
     1
290
     0
176
     1
 40
1.0
176
     1
 40
1.0
176
     1
  0
VISUALSTYLE
  5
3D
102
{ACAD_REACTORS
330
2A
102
}
330
2A
100
AcDbVisualStyle
  2
EdgeColorOff
 70
    22
177
     3
291
     1
 70
    58
 90
        2
176
     0
 90
        2
176
     0
 90
        0
176
     0
 90
        0
176
     0
 40
0.6
176
     0
 40
30.0
176
     0
 62
     7
420
 16777215
176
     0
 90
        1
176
     0
 90
        4
176
     0
 62
     7
176
     0
 62
   257
176
     0
 90
        1
176
     0
 90
        1
176
     0
 40
1.0
176
     0
 90
        8
176
     2
 62
     7
176
     0
 40
1.0
176
     0
 90
        1
176
     0
 90
        6
176
     0
 90
        2
176
     0
 62
     7
176
     0
 90
        5
176
     0
 90
        0
176
     0
 90
        0
176
     0
290
     0
176
     0
 90
        1
176
     0
 40
0.0
176
     0
 90
        0
176
     0
290
     0
176
     0
290
     1
176
     0
290
     1
176
     0
290
     0
176
     0
290
     0
176
     0
290
     0
176
     0
290
     0
176
     0
290
     0
176
     0
290
     0
176
     0
 90
       50
176
     0
 40
0.0
176
     0
 40
1.0
176
     0
 90
        0
176
     0
 62
    18
420
        0
176
     0
 90
       50
176
     0
 90
        3
176
     0
 62
     5
420
      255
176
     0
290
     0
176
     0
 90
       50
176
     0
 90
       50
176
     0
 90
       50
176
     0
290
     0
176
     0
 90
       50
176
     0
 62
   256
176
     0
 40
1.0
176
     0
 90
        2
176
     0
  1
strokes_ogs.tif
176
     0
290
     0
176
     0
 40
1.0
176
     0
 40
1.0
176
     0
  0
VISUALSTYLE
  5
39
102
{ACAD_REACTORS
330
2A
102
}
330
2A
100
AcDbVisualStyle
  2
Facepattern
 70
    15
177
     3
291
     1
 70
    58
 90
        2
176
     1
 90
        2
176
     1
 90
        0
176
     1
 90
        0
176
     1
 40
0.6
176
     1
 40
30.0
176
     1
 62
     7
420
 16777215
176
     1
 90
        1
176
     1
 90
        4
176
     1
 62
     7
176
     1
 62
   257
176
     1
 90
        1
176
     1
 90
        1
176
     1
 40
1.0
176
     1
 90
        8
176
     1
 62
     7
176
     1
 40
1.0
176
     1
 90
        1
176
     1
 90
        6
176
     1
 90
        2
176
     1
 62
     7
176
     1
 90
        5
176
     1
 90
        0
176
     1
 90
        0
176
     1
290
     0
176
     1
 90
        1
176
     1
 40
0.0
176
     1
 90
        0
176
     1
290
     0
176
     1
290
     1
176
     1
290
     1
176
     1
290
     0
176
     1
290
     0
176
     1
290
     0
176
     1
290
     0
176
     1
290
     0
176
     1
290
     0
176
     1
 90
       50
176
     1
 40
0.0
176
     1
 40
1.0
176
     1
 90
        0
176
     1
 62
    18
420
        0
176
     1
 90
       50
176
     1
 90
        3
176
     1
 62
     5
420
      255
176
     1
290
     0
176
     1
 90
       50
176
     1
 90
       50
176
     1
 90
       50
176
     1
290
     0
176
     1
 90
       50
176
     1
 62
   256
176
     0
 40
1.0
176
     0
 90
        2
176
     1
  1
strokes_ogs.tif
176
     1
290
     0
176
     1
 40
1.0
176
     1
 40
1.0
176
     1
  0
VISUALSTYLE
  5
2B
102
{ACAD_REACTORS
330
2A
102
}
330
2A
100
AcDbVisualStyle
  2
Flat
 70
     0
177
     3
291
     1
 70
    58
 90
        2
176
     1
 90
        1
176
     1
 90
        1
176
     1
 90
        2
176
     1
 40
0.6
176
     1
 40
30.0
176
     1
 62
     7
420
 16777215
176
     1
 90
        0
176
     1
 90
        0
176
     1
 62
     7
176
     1
 62
   257
176
     1
 90
        1
176
     1
 90
        1
176
     1
 40
1.0
176
     1
 90
        8
176
     1
 62
     7
176
     1
 40
1.0
176
     1
 90
        1
176
     1
 90
        6
176
     1
 90
        2
176
     1
 62
     7
176
     1
 90
        5
176
     1
 90
        0
176
     1
 90
        0
176
     1
290
     0
176
     1
 90
       13
176
     1
 40
0.0
176
     1
 90
        0
176
     1
290
     0
176
     1
290
     1
176
     1
290
     1
176
     1
290
     0
176
     1
290
     0
176
     1
290
     0
176
     1
290
     0
176
     1
290
     0
176
     1
290
     0
176
     1
 90
       50
176
     1
 40
0.0
176
     1
 40
1.0
176
     1
 90
        0
176
     1
 62
    18
420
        0
176
     1
 90
       50
176
     1
 90
        3
176
     1
 62
     5
420
      255
176
     1
290
     0
176
     1
 90
       50
176
     1
 90
       50
176
     1
 90
       50
176
     1
290
     0
176
     1
 90
       50
176
     1
 62
   256
176
     0
 40
1.0
176
     0
 90
        2
176
     1
  1
strokes_ogs.tif
176
     1
290
     0
176
     1
 40
1.0
176
     1
 40
1.0
176
     1
  0
VISUALSTYLE
  5
2C
102
{ACAD_REACTORS
330
2A
102
}
330
2A
100
AcDbVisualStyle
  2
FlatWithEdges
 70
     1
177
     3
291
     1
 70
    58
 90
        2
176
     1
 90
        1
176
     1
 90
        1
176
     1
 90
        2
176
     1
 40
0.6
176
     1
 40
30.0
176
     1
 62
     7
420
 16777215
176
     1
 90
        1
176
     1
 90
        0
176
     1
 62
     7
176
     1
 62
   257
176
     1
 90
        1
176
     1
 90
        1
176
     1
 40
1.0
176
     1
 90
        0
176
     1
 62
   257
176
     1
 40
1.0
176
     1
 90
        1
176
     1
 90
        6
176
     1
 90
        2
176
     1
 62
     7
176
     1
 90
        5
176
     1
 90
        0
176
     1
 90
        0
176
     1
290
     0
176
     1
 90
       13
176
     1
 40
0.0
176
     1
 90
        0
176
     1
290
     0
176
     1
290
     1
176
     1
290
     1
176
     1
290
     0
176
     1
290
     0
176
     1
290
     0
176
     1
290
     0
176
     1
290
     0
176
     1
290
     0
176
     1
 90
       50
176
     1
 40
0.0
176
     1
 40
1.0
176
     1
 90
        0
176
     1
 62
    18
420
        0
176
     1
 90
       50
176
     1
 90
        3
176
     1
 62
     5
420
      255
176
     1
290
     0
176
     1
 90
       50
176
     1
 90
       50
176
     1
 90
       50
176
     1
290
     0
176
     1
 90
       50
176
     1
 62
   256
176
     0
 40
1.0
176
     0
 90
        2
176
     1
  1
strokes_ogs.tif
176
     1
290
     0
176
     1
 40
1.0
176
     1
 40
1.0
176
     1
  0
VISUALSTYLE
  5
2D
102
{ACAD_REACTORS
330
2A
102
}
330
2A
100
AcDbVisualStyle
  2
Gouraud
 70
     2
177
     3
291
     1
 70
    58
 90
        2
176
     1
 90
        2
176
     1
 90
        1
176
     1
 90
        2
176
     1
 40
0.6
176
     1
 40
30.0
176
     1
 62
     7
420
 16777215
176
     1
 90
        0
176
     1
 90
        0
176
     1
 62
     7
176
     1
 62
   257
176
     1
 90
        1
176
     1
 90
        1
176
     1
 40
1.0
176
     1
 90
        0
176
     1
 62
     7
176
     1
 40
1.0
176
     1
 90
        1
176
     1
 90
        6
176
     1
 90
        2
176
     1
 62
     7
176
     1
 90
        5
176
     1
 90
        0
176
     1
 90
        0
176
     1
290
     0
176
     1
 90
       13
176
     1
 40
0.0
176
     1
 90
        0
176
     1
290
     0
176
     1
290
     1
176
     1
290
     1
176
     1
290
     0
176
     1
290
     0
176
     1
290
     0
176
     1
290
     0
176
     1
290
     0
176
     1
290
     0
176
     1
 90
       50
176
     1
 40
0.0
176
     1
 40
1.0
176
     1
 90
        0
176
     1
 62
    18
420
        0
176
     1
 90
       50
176
     1
 90
        3
176
     1
 62
     5
420
      255
176
     1
290
     0
176
     1
 90
       50
176
     1
 90
       50
176
     1
 90
       50
176
     1
290
     0
176
     1
 90
       50
176
     1
 62
   256
176
     0
 40
1.0
176
     0
 90
        2
176
     1
  1
strokes_ogs.tif
176
     1
290
     0
176
     1
 40
1.0
176
     1
 40
1.0
176
     1
  0
VISUALSTYLE
  5
2E
102
{ACAD_REACTORS
330
2A
102
}
330
2A
100
AcDbVisualStyle
  2
GouraudWithEdges
 70
     3
177
     3
291
     1
 70
    58
 90
        2
176
     1
 90
        2
176
     1
 90
        1
176
     1
 90
        2
176
     1
 40
0.6
176
     1
 40
30.0
176
     1
 62
     7
420
 16777215
176
     1
 90
        1
176
     1
 90
        0
176
     1
 62
     7
176
     1
 62
   257
176
     1
 90
        1
176
     1
 90
        1
176
     1
 40
1.0
176
     1
 90
        0
176
     1
 62
   257
176
     1
 40
1.0
176
     1
 90
        1
176
     1
 90
        6
176
     1
 90
        2
176
     1
 62
     7
176
     1
 90
        5
176
     1
 90
        0
176
     1
 90
        0
176
     1
290
     0
176
     1
 90
       13
176
     1
 40
0.0
176
     1
 90
        0
176
     1
290
     0
176
     1
290
     1
176
     1
290
     1
176
     1
290
     0
176
     1
290
     0
176
     1
290
     0
176
     1
290
     0
176
     1
290
     0
176
     1
290
     0
176
     1
 90
       50
176
     1
 40
0.0
176
     1
 40
1.0
176
     1
 90
        0
176
     1
 62
    18
420
        0
176
     1
 90
       50
176
     1
 90
        3
176
     1
 62
     5
420
      255
176
     1
290
     0
176
     1
 90
       50
176
     1
 90
       50
176
     1
 90
       50
176
     1
290
     0
176
     1
 90
       50
176
     1
 62
   256
176
     0
 40
1.0
176
     0
 90
        2
176
     1
  1
strokes_ogs.tif
176
     1
290
     0
176
     1
 40
1.0
176
     1
 40
1.0
176
     1
  0
VISUALSTYLE
  5
31
102
{ACAD_REACTORS
330
2A
102
}
330
2A
100
AcDbVisualStyle
  2
Hidden
 70
     6
177
     3
291
     0
 70
    58
 90
        1
176
     1
 90
        2
176
     1
 90
        2
176
     1
 90
        0
176
     1
 40
0.6
176
     1
 40
30.0
176
     1
 62
     7
420
 16777215
176
     1
 90
        2
176
     1
 90
        2
176
     1
 62
     7
176
     1
 62
   257
176
     1
 90
        2
176
     1
 90
        1
176
     1
 40
40.0
176
     1
 90
        0
176
     1
 62
   257
176
     1
 40
1.0
176
     1
 90
        1
176
     1
 90
        6
176
     1
 90
        2
176
     1
 62
     7
176
     1
 90
        3
176
     1
 90
        0
176
     1
 90
        0
176
     1
290
     0
176
     1
 90
        1
176
     1
 40
0.0
176
     1
 90
        0
176
     1
290
     0
176
     1
290
     1
176
     1
290
     1
176
     1
290
     0
176
     1
290
     0
176
     1
290
     0
176
     1
290
     0
176
     1
290
     0
176
     1
290
     0
176
     1
 90
       50
176
     1
 40
0.0
176
     1
 40
1.0
176
     1
 90
        0
176
     1
 62
    18
420
        0
176
     1
 90
       50
176
     1
 90
        3
176
     1
 62
     5
420
      255
176
     1
290
     0
176
     1
 90
       50
176
     1
 90
       50
176
     1
 90
       50
176
     1
290
     0
176
     1
 90
       50
176
     1
 62
   256
176
     0
 40
1.0
176
     0
 90
        2
176
     1
  1
strokes_ogs.tif
176
     1
290
     0
176
     1
 40
1.0
176
     1
 40
1.0
176
     1
  0
VISUALSTYLE
  5
3B
102
{ACAD_REACTORS
330
2A
102
}
330
2A
100
AcDbVisualStyle
  2
JitterOff
 70
    20
177
     3
291
     1
 70
    58
 90
        2
176
     0
 90
        2
176
     0
 90
        0
176
     0
 90
        0
176
     0
 40
0.6
176
     0
 40
30.0
176
     0
 62
     7
420
 16777215
176
     0
 90
        1
176
     0
 90
        4
176
     0
 62
     7
176
     0
 62
   257
176
     0
 90
        1
176
     0
 90
        1
176
     0
 40
1.0
176
     0
 90
       10
176
     2
 62
     7
176
     0
 40
1.0
176
     0
 90
        1
176
     0
 90
        6
176
     0
 90
        2
176
     0
 62
     7
176
     0
 90
        5
176
     0
 90
        0
176
     0
 90
        0
176
     0
290
     0
176
     0
 90
        1
176
     0
 40
0.0
176
     0
 90
        0
176
     0
290
     0
176
     0
290
     1
176
     0
290
     1
176
     0
290
     0
176
     0
290
     0
176
     0
290
     0
176
     0
290
     0
176
     0
290
     0
176
     0
290
     0
176
     0
 90
       50
176
     0
 40
0.0
176
     0
 40
1.0
176
     0
 90
        0
176
     0
 62
    18
420
        0
176
     0
 90
       50
176
     0
 90
        3
176
     0
 62
     5
420
      255
176
     0
290
     0
176
     0
 90
       50
176
     0
 90
       50
176
     0
 90
       50
176
     0
290
     0
176
     0
 90
       50
176
     0
 62
   256
176
     0
 40
1.0
176
     0
 90
        2
176
     0
  1
strokes_ogs.tif
176
     0
290
     0
176
     0
 40
1.0
176
     0
 40
1.0
176
     0
  0
VISUALSTYLE
  5
38
102
{ACAD_REACTORS
330
2A
102
}
330
2A
100
AcDbVisualStyle
  2
Linepattern
 70
    14
177
     3
291
     1
 70
    58
 90
        2
176
     1
 90
        2
176
     1
 90
        0
176
     1
 90
        0
176
     1
 40
0.6
176
     1
 40
30.0
176
     1
 62
     7
420
 16777215
176
     1
 90
        1
176
     1
 90
        4
176
     1
 62
     7
176
     1
 62
   257
176
     1
 90
        7
176
     1
 90
        7
176
     1
 40
1.0
176
     1
 90
        8
176
     1
 62
     7
176
     1
 40
1.0
176
     1
 90
        1
176
     1
 90
        6
176
     1
 90
        2
176
     1
 62
     7
176
     1
 90
        5
176
     1
 90
        0
176
     1
 90
        0
176
     1
290
     0
176
     1
 90
        1
176
     1
 40
0.0
176
     1
 90
        0
176
     1
290
     0
176
     1
290
     1
176
     1
290
     1
176
     1
290
     0
176
     1
290
     0
176
     1
290
     0
176
     1
290
     0
176
     1
290
     0
176
     1
290
     0
176
     1
 90
       50
176
     1
 40
0.0
176
     1
 40
1.0
176
     1
 90
        0
176
     1
 62
    18
420
        0
176
     1
 90
       50
176
     1
 90
        3
176
     1
 62
     5
420
      255
176
     1
290
     0
176
     1
 90
       50
176
     1
 90
       50
176
     1
 90
       50
176
     1
290
     0
176
     1
 90
       50
176
     1
 62
   256
176
     0
 40
1.0
176
     0
 90
        2
176
     1
  1
strokes_ogs.tif
176
     1
290
     0
176
     1
 40
1.0
176
     1
 40
1.0
176
     1
  0
VISUALSTYLE
  5
3C
102
{ACAD_REACTORS
330
2A
102
}
330
2A
100
AcDbVisualStyle
  2
OverhangOff
 70
    21
177
     3
291
     1
 70
    58
 90
        2
176
     0
 90
        2
176
     0
 90
        0
176
     0
 90
        0
176
     0
 40
0.6
176
     0
 40
30.0
176
     0
 62
     7
420
 16777215
176
     0
 90
        1
176
     0
 90
        4
176
     0
 62
     7
176
     0
 62
   257
176
     0
 90
        1
176
     0
 90
        1
176
     0
 40
1.0
176
     0
 90
        9
176
     2
 62
     7
176
     0
 40
1.0
176
     0
 90
        1
176
     0
 90
        6
176
     0
 90
        2
176
     0
 62
     7
176
     0
 90
        5
176
     0
 90
        0
176
     0
 90
        0
176
     0
290
     0
176
     0
 90
        1
176
     0
 40
0.0
176
     0
 90
        0
176
     0
290
     0
176
     0
290
     1
176
     0
290
     1
176
     0
290
     0
176
     0
290
     0
176
     0
290
     0
176
     0
290
     0
176
     0
290
     0
176
     0
290
     0
176
     0
 90
       50
176
     0
 40
0.0
176
     0
 40
1.0
176
     0
 90
        0
176
     0
 62
    18
420
        0
176
     0
 90
       50
176
     0
 90
        3
176
     0
 62
     5
420
      255
176
     0
290
     0
176
     0
 90
       50
176
     0
 90
       50
176
     0
 90
       50
176
     0
290
     0
176
     0
 90
       50
176
     0
 62
   256
176
     0
 40
1.0
176
     0
 90
        2
176
     0
  1
strokes_ogs.tif
176
     0
290
     0
176
     0
 40
1.0
176
     0
 40
1.0
176
     0
  0
VISUALSTYLE
  5
33
102
{ACAD_REACTORS
330
2A
102
}
330
2A
100
AcDbVisualStyle
  2
Realistic
 70
     8
177
     3
291
     0
 70
    58
 90
        2
176
     1
 90
        3
176
     1
 90
        0
176
     1
 90
        2
176
     1
 40
0.6
176
     1
 40
30.0
176
     1
 62
     7
420
 16777215
176
     1
 90
        0
176
     1
 90
        0
176
     1
 62
     7
176
     1
 62
   257
176
     1
 90
        1
176
     1
 90
        1
176
     1
 40
1.0
176
     1
 90
        8
176
     1
 62
   257
176
     1
 40
1.0
176
     1
 90
        1
176
     1
 90
        6
176
     1
 90
        2
176
     1
 62
     7
176
     1
 90
        3
176
     1
 90
        0
176
     1
 90
        0
176
     1
290
     0
176
     1
 90
       13
176
     1
 40
0.0
176
     1
 90
        0
176
     1
290
     0
176
     1
290
     1
176
     1
290
     1
176
     1
290
     0
176
     1
290
     0
176
     1
290
     0
176
     1
290
     0
176
     1
290
     0
176
     1
290
     0
176
     1
 90
       50
176
     1
 40
0.0
176
     1
 40
1.0
176
     1
 90
        0
176
     1
 62
    18
420
        0
176
     1
 90
       50
176
     1
 90
        3
176
     1
 62
     5
420
      255
176
     1
290
     0
176
     1
 90
       50
176
     1
 90
       50
176
     1
 90
       50
176
     1
290
     0
176
     1
 90
       50
176
     1
 62
   256
176
     0
 40
1.0
176
     0
 90
        2
176
     1
  1
strokes_ogs.tif
176
     1
290
     0
176
     1
 40
1.0
176
     1
 40
1.0
176
     1
  0
VISUALSTYLE
  5
42
102
{ACAD_REACTORS
330
2A
102
}
330
2A
100
AcDbVisualStyle
  2
Shaded
 70
    27
177
     3
291
     0
 70
    58
 90
        2
176
     1
 90
        2
176
     1
 90
        1
176
     1
 90
        2
176
     1
 40
0.6
176
     1
 40
30.0
176
     1
 62
     7
420
 16777215
176
     1
 90
        0
176
     1
 90
        4
176
     1
 62
     7
176
     1
 62
   257
176
     1
 90
        1
176
     1
 90
        1
176
     1
 40
1.0
176
     1
 90
        8
176
     1
 62
   257
176
     1
 40
1.0
176
     1
 90
        1
176
     1
 90
        6
176
     1
 90
        2
176
     1
 62
     8
420
  7895160
176
     1
 90
        3
176
     1
 90
        0
176
     1
 90
        0
176
     1
290
     0
176
     1
 90
        5
176
     1
 40
0.0
176
     1
 90
        0
176
     1
290
     0
176
     1
290
     1
176
     1
290
     1
176
     1
290
     0
176
     1
290
     0
176
     1
290
     0
176
     1
290
     0
176
     1
290
     0
176
     1
290
     0
176
     1
 90
       50
176
     1
 40
0.0
176
     1
 40
1.0
176
     1
 90
        0
176
     1
 62
    18
420
        0
176
     1
 90
       50
176
     1
 90
        3
176
     1
 62
     5
420
      255
176
     1
290
     0
176
     1
 90
       50
176
     1
 90
       50
176
     1
 90
       50
176
     1
290
     0
176
     1
 90
       50
176
     1
 62
   256
176
     0
 40
1.0
176
     0
 90
        2
176
     1
  1
strokes_ogs.tif
176
     1
290
     0
176
     1
 40
1.0
176
     1
 40
1.0
176
     1
  0
VISUALSTYLE
  5
41
102
{ACAD_REACTORS
330
2A
102
}
330
2A
100
AcDbVisualStyle
  2
Shaded with edges
 70
    26
177
     3
291
     0
 70
    58
 90
        2
176
     1
 90
        2
176
     1
 90
        1
176
     1
 90
        2
176
     1
 40
0.6
176
     1
 40
30.0
176
     1
 62
     7
420
 16777215
176
     1
 90
        1
176
     1
 90
       10
176
     1
 62
     7
176
     1
 62
   257
176
     1
 90
        2
176
     1
 90
        1
176
     1
 40
1.0
176
     1
 90
        8
176
     1
 62
   257
176
     1
 40
1.0
176
     1
 90
        1
176
     1
 90
        6
176
     1
 90
        2
176
     1
 62
     7
176
     1
 90
        3
176
     1
 90
        0
176
     1
 90
        0
176
     1
290
     0
176
     1
 90
        5
176
     1
 40
0.0
176
     1
 90
        0
176
     1
290
     0
176
     1
290
     1
176
     1
290
     1
176
     1
290
     0
176
     1
290
     0
176
     1
290
     0
176
     1
290
     0
176
     1
290
     0
176
     1
290
     0
176
     1
 90
       50
176
     1
 40
0.0
176
     1
 40
1.0
176
     1
 90
        0
176
     1
 62
    18
420
        0
176
     1
 90
       50
176
     1
 90
        3
176
     1
 62
     5
420
      255
176
     1
290
     0
176
     1
 90
       50
176
     1
 90
       50
176
     1
 90
       50
176
     1
290
     0
176
     1
 90
       50
176
     1
 62
   256
176
     0
 40
1.0
176
     0
 90
        2
176
     1
  1
strokes_ogs.tif
176
     1
290
     0
176
     1
 40
1.0
176
     1
 40
1.0
176
     1
  0
VISUALSTYLE
  5
3E
102
{ACAD_REACTORS
330
2A
102
}
330
2A
100
AcDbVisualStyle
  2
Shades of Gray
 70
    23
177
     3
291
     0
 70
    58
 90
        2
176
     1
 90
        2
176
     1
 90
        3
176
     1
 90
        0
176
     1
 40
0.6
176
     1
 40
30.0
176
     1
 62
     7
420
 16777215
176
     1
 90
        2
176
     1
 90
        2
176
     1
 62
     7
176
     1
 62
     7
176
     1
 90
        1
176
     1
 90
        1
176
     1
 40
40.0
176
     1
 90
        8
176
     1
 62
     7
176
     1
 40
1.0
176
     1
 90
        1
176
     1
 90
        6
176
     1
 90
        2
176
     1
 62
     7
176
     1
 90
        3
176
     1
 90
        0
176
     1
 90
        0
176
     1
290
     0
176
     1
 90
        1
176
     1
 40
0.0
176
     1
 90
        0
176
     1
290
     0
176
     1
290
     1
176
     1
290
     1
176
     1
290
     0
176
     1
290
     0
176
     1
290
     0
176
     1
290
     0
176
     1
290
     0
176
     1
290
     0
176
     1
 90
       50
176
     1
 40
0.0
176
     1
 40
1.0
176
     1
 90
        0
176
     1
 62
    18
420
        0
176
     1
 90
       50
176
     1
 90
        3
176
     1
 62
     5
420
      255
176
     1
290
     0
176
     1
 90
       50
176
     1
 90
       50
176
     1
 90
       50
176
     1
290
     0
176
     1
 90
       50
176
     1
 62
   256
176
     0
 40
1.0
176
     0
 90
        2
176
     1
  1
strokes_ogs.tif
176
     1
290
     0
176
     1
 40
1.0
176
     1
 40
1.0
176
     1
  0
VISUALSTYLE
  5
3F
102
{ACAD_REACTORS
330
2A
102
}
330
2A
100
AcDbVisualStyle
  2
Sketchy
 70
    24
177
     3
291
     0
 70
    58
 90
        1
176
     1
 90
        2
176
     1
 90
        2
176
     1
 90
        0
176
     1
 40
0.6
176
     1
 40
30.0
176
     1
 62
     7
420
 16777215
176
     1
 90
        2
176
     1
 90
        2
176
     1
 62
     7
176
     1
 62
     7
176
     1
 90
        1
176
     1
 90
        1
176
     1
 40
40.0
176
     1
 90
       11
176
     1
 62
     7
176
     1
 40
1.0
176
     1
 90
        1
176
     1
 90
        6
176
     1
 90
        2
176
     1
 62
     7
176
     1
 90
        6
176
     1
 90
        0
176
     1
 90
        0
176
     1
290
     0
176
     1
 90
        1
176
     1
 40
0.0
176
     1
 90
        0
176
     1
290
     0
176
     1
290
     1
176
     1
290
     1
176
     1
290
     0
176
     1
290
     0
176
     1
290
     0
176
     1
290
     0
176
     1
290
     0
176
     1
290
     0
176
     1
 90
       50
176
     1
 40
0.0
176
     1
 40
1.0
176
     1
 90
        0
176
     1
 62
    18
420
        0
176
     1
 90
       50
176
     1
 90
        3
176
     1
 62
     5
420
      255
176
     1
290
     0
176
     1
 90
       50
176
     1
 90
       50
176
     1
 90
       50
176
     1
290
     0
176
     1
 90
       50
176
     1
 62
   256
176
     0
 40
1.0
176
     0
 90
        2
176
     1
  1
strokes_ogs.tif
176
     1
290
     0
176
     1
 40
1.0
176
     1
 40
1.0
176
     1
  0
VISUALSTYLE
  5
37
102
{ACAD_REACTORS
330
2A
102
}
330
2A
100
AcDbVisualStyle
  2
Thicken
 70
    13
177
     3
291
     1
 70
    58
 90
        2
176
     1
 90
        2
176
     1
 90
        0
176
     1
 90
        0
176
     1
 40
0.6
176
     1
 40
30.0
176
     1
 62
     7
420
 16777215
176
     1
 90
        1
176
     1
 90
        4
176
     1
 62
     7
176
     1
 62
   257
176
     1
 90
        1
176
     1
 90
        1
176
     1
 40
1.0
176
     1
 90
       12
176
     1
 62
     7
176
     1
 40
1.0
176
     1
 90
        1
176
     1
 90
        6
176
     1
 90
        2
176
     1
 62
     7
176
     1
 90
        5
176
     1
 90
        0
176
     1
 90
        0
176
     1
290
     0
176
     1
 90
        1
176
     1
 40
0.0
176
     1
 90
        0
176
     1
290
     0
176
     1
290
     1
176
     1
290
     1
176
     1
290
     0
176
     1
290
     0
176
     1
290
     0
176
     1
290
     0
176
     1
290
     0
176
     1
290
     0
176
     1
 90
       50
176
     1
 40
0.0
176
     1
 40
1.0
176
     1
 90
        0
176
     1
 62
    18
420
        0
176
     1
 90
       50
176
     1
 90
        3
176
     1
 62
     5
420
      255
176
     1
290
     0
176
     1
 90
       50
176
     1
 90
       50
176
     1
 90
       50
176
     1
290
     0
176
     1
 90
       50
176
     1
 62
   256
176
     0
 40
1.0
176
     0
 90
        2
176
     1
  1
strokes_ogs.tif
176
     1
290
     0
176
     1
 40
1.0
176
     1
 40
1.0
176
     1
  0
VISUALSTYLE
  5
30
102
{ACAD_REACTORS
330
2A
102
}
330
2A
100
AcDbVisualStyle
  2
Wireframe
 70
     5
177
     3
291
     0
 70
    58
 90
        0
176
     1
 90
        2
176
     1
 90
        0
176
     1
 90
        0
176
     1
 40
0.6
176
     1
 40
30.0
176
     1
 62
     7
420
 16777215
176
     1
 90
        1
176
     1
 90
        4
176
     1
 62
     7
176
     1
 62
   257
176
     1
 90
        1
176
     1
 90
        1
176
     1
 40
1.0
176
     1
 90
        0
176
     1
 62
   257
176
     1
 40
1.0
176
     1
 90
        1
176
     1
 90
        6
176
     1
 90
        2
176
     1
 62
     7
176
     1
 90
        3
176
     1
 90
        0
176
     1
 90
        0
176
     1
290
     0
176
     1
 90
        1
176
     1
 40
0.0
176
     1
 90
        0
176
     1
290
     0
176
     1
290
     1
176
     1
290
     1
176
     1
290
     0
176
     1
290
     0
176
     1
290
     0
176
     1
290
     0
176
     1
290
     0
176
     1
290
     0
176
     1
 90
       50
176
     1
 40
0.0
176
     1
 40
1.0
176
     1
 90
        0
176
     1
 62
    18
420
        0
176
     1
 90
       50
176
     1
 90
        3
176
     1
 62
     5
420
      255
176
     1
290
     0
176
     1
 90
       50
176
     1
 90
       50
176
     1
 90
       50
176
     1
290
     0
176
     1
 90
       50
176
     1
 62
   256
176
     0
 40
1.0
176
     0
 90
        2
176
     1
  1
strokes_ogs.tif
176
     1
290
     0
176
     1
 40
1.0
176
     1
 40
1.0
176
     1
  0
VISUALSTYLE
  5
40
102
{ACAD_REACTORS
330
2A
102
}
330
2A
100
AcDbVisualStyle
  2
X-Ray
 70
    25
177
     3
291
     0
 70
    58
 90
        2
176
     1
 90
        2
176
     1
 90
        1
176
     1
 90
        1
176
     1
 40
0.5
176
     1
 40
30.0
176
     1
 62
     7
420
 16777215
176
     1
 90
        1
176
     1
 90
        0
176
     1
 62
     7
176
     1
 62
   257
176
     1
 90
        1
176
     1
 90
        1
176
     1
 40
1.0
176
     1
 90
        8
176
     1
 62
     7
176
     1
 40
1.0
176
     1
 90
        1
176
     1
 90
        6
176
     1
 90
        2
176
     1
 62
     7
176
     1
 90
        3
176
     1
 90
        0
176
     1
 90
        0
176
     1
290
     0
176
     1
 90
       13
176
     1
 40
0.0
176
     1
 90
        0
176
     1
290
     0
176
     1
290
     1
176
     1
290
     1
176
     1
290
     0
176
     1
290
     0
176
     1
290
     0
176
     1
290
     0
176
     1
290
     0
176
     1
290
     0
176
     1
 90
       50
176
     1
 40
0.0
176
     1
 40
1.0
176
     1
 90
        0
176
     1
 62
    18
420
        0
176
     1
 90
       50
176
     1
 90
        3
176
     1
 62
     5
420
      255
176
     1
290
     0
176
     1
 90
       50
176
     1
 90
       50
176
     1
 90
       50
176
     1
290
     0
176
     1
 90
       50
176
     1
 62
   256
176
     0
 40
1.0
176
     0
 90
        2
176
     1
  1
strokes_ogs.tif
176
     1
290
     0
176
     1
 40
1.0
176
     1
 40
1.0
176
     1
  0
DICTIONARYVAR
  5
98
102
{ACAD_REACTORS
330
97
102
}
330
97
100
DictionaryVariables
280
     0
  1
1:1
  0
DICTIONARYVAR
  5
9D
102
{ACAD_REACTORS
330
97
102
}
330
97
100
DictionaryVariables
280
     0
  1
Standard
  0
DICTIONARYVAR
  5
9C
102
{ACAD_REACTORS
330
97
102
}
330
97
100
DictionaryVariables
280
     0
  1
Standard
  0
DICTIONARY
  5
99
330
5A
100
AcDbDictionary
280
     1
281
     1
  3
ACAD_ROUNDTRIP_2008_TABLESTYLE_CELLSTYLEMAP
360
9A
  0
CELLSTYLEMAP
  5
9A
102
{ACAD_REACTORS
330
99
102
}
330
99
100
AcDbCellStyleMap
 90
        3
300
CELLSTYLE
  1
TABLEFORMAT_BEGIN
 90
        5
170
     1
 91
        0
 92
    32768
 62
   257
 93
        1
300
CONTENTFORMAT
  1
CONTENTFORMAT_BEGIN
 90
        0
 91
        0
 92
        4
 93
        0
300

 40
0.0
140
1.0
 94
        5
 62
     0
340
11
144
0.25
309
CONTENTFORMAT_END
171
     1
301
MARGIN
  1
CELLMARGIN_BEGIN
 40
0.06
 40
0.06
 40
0.06
 40
0.06
 40
0.06
 40
0.06
309
CELLMARGIN_END
 94
        6
 95
        1
302
GRIDFORMAT
  1
GRIDFORMAT_BEGIN
 90
        0
 91
        1
 62
     0
 92
       -2
340
14
 93
        0
 40
0.045
309
GRIDFORMAT_END
 95
        2
302
GRIDFORMAT
  1
GRIDFORMAT_BEGIN
 90
        0
 91
        1
 62
     0
 92
       -2
340
14
 93
        0
 40
0.045
309
GRIDFORMAT_END
 95
        4
302
GRIDFORMAT
  1
GRIDFORMAT_BEGIN
 90
        0
 91
        1
 62
     0
 92
       -2
340
14
 93
        0
 40
0.045
309
GRIDFORMAT_END
 95
        8
302
GRIDFORMAT
  1
GRIDFORMAT_BEGIN
 90
        0
 91
        1
 62
     0
 92
       -2
340
14
 93
        0
 40
0.045
309
GRIDFORMAT_END
 95
       16
302
GRIDFORMAT
  1
GRIDFORMAT_BEGIN
 90
        0
 91
        1
 62
     0
 92
       -2
340
14
 93
        0
 40
0.045
309
GRIDFORMAT_END
 95
       32
302
GRIDFORMAT
  1
GRIDFORMAT_BEGIN
 90
        0
 91
        1
 62
     0
 92
       -2
340
14
 93
        0
 40
0.045
309
GRIDFORMAT_END
309
TABLEFORMAT_END
  1
CELLSTYLE_BEGIN
 90
        1
 91
        1
300
_TITLE
309
CELLSTYLE_END
300
CELLSTYLE
  1
TABLEFORMAT_BEGIN
 90
        5
170
     1
 91
        0
 92
        0
 62
   257
 93
        1
300
CONTENTFORMAT
  1
CONTENTFORMAT_BEGIN
 90
        0
 91
        0
 92
        4
 93
        0
300

 40
0.0
140
1.0
 94
        5
 62
     0
340
11
144
0.18
309
CONTENTFORMAT_END
171
     1
301
MARGIN
  1
CELLMARGIN_BEGIN
 40
0.06
 40
0.06
 40
0.06
 40
0.06
 40
0.06
 40
0.06
309
CELLMARGIN_END
 94
        6
 95
        1
302
GRIDFORMAT
  1
GRIDFORMAT_BEGIN
 90
        0
 91
        1
 62
     0
 92
       -2
340
14
 93
        0
 40
0.045
309
GRIDFORMAT_END
 95
        2
302
GRIDFORMAT
  1
GRIDFORMAT_BEGIN
 90
        0
 91
        1
 62
     0
 92
       -2
340
14
 93
        0
 40
0.045
309
GRIDFORMAT_END
 95
        4
302
GRIDFORMAT
  1
GRIDFORMAT_BEGIN
 90
        0
 91
        1
 62
     0
 92
       -2
340
14
 93
        0
 40
0.045
309
GRIDFORMAT_END
 95
        8
302
GRIDFORMAT
  1
GRIDFORMAT_BEGIN
 90
        0
 91
        1
 62
     0
 92
       -2
340
14
 93
        0
 40
0.045
309
GRIDFORMAT_END
 95
       16
302
GRIDFORMAT
  1
GRIDFORMAT_BEGIN
 90
        0
 91
        1
 62
     0
 92
       -2
340
14
 93
        0
 40
0.045
309
GRIDFORMAT_END
 95
       32
302
GRIDFORMAT
  1
GRIDFORMAT_BEGIN
 90
        0
 91
        1
 62
     0
 92
       -2
340
14
 93
        0
 40
0.045
309
GRIDFORMAT_END
309
TABLEFORMAT_END
  1
CELLSTYLE_BEGIN
 90
        2
 91
        1
300
_HEADER
309
CELLSTYLE_END
300
CELLSTYLE
  1
TABLEFORMAT_BEGIN
 90
        5
170
     1
 91
        0
 92
        0
 62
   257
 93
        1
300
CONTENTFORMAT
  1
CONTENTFORMAT_BEGIN
 90
        0
 91
        0
 92
        4
 93
        0
300

 40
0.0
140
1.0
 94
        2
 62
     0
340
11
144
0.18
309
CONTENTFORMAT_END
171
     1
301
MARGIN
  1
CELLMARGIN_BEGIN
 40
0.06
 40
0.06
 40
0.06
 40
0.06
 40
0.06
 40
0.06
309
CELLMARGIN_END
 94
        6
 95
        1
302
GRIDFORMAT
  1
GRIDFORMAT_BEGIN
 90
        0
 91
        1
 62
     0
 92
       -2
340
14
 93
        0
 40
0.045
309
GRIDFORMAT_END
 95
        2
302
GRIDFORMAT
  1
GRIDFORMAT_BEGIN
 90
        0
 91
        1
 62
     0
 92
       -2
340
14
 93
        0
 40
0.045
309
GRIDFORMAT_END
 95
        4
302
GRIDFORMAT
  1
GRIDFORMAT_BEGIN
 90
        0
 91
        1
 62
     0
 92
       -2
340
14
 93
        0
 40
0.045
309
GRIDFORMAT_END
 95
        8
302
GRIDFORMAT
  1
GRIDFORMAT_BEGIN
 90
        0
 91
        1
 62
     0
 92
       -2
340
14
 93
        0
 40
0.045
309
GRIDFORMAT_END
 95
       16
302
GRIDFORMAT
  1
GRIDFORMAT_BEGIN
 90
        0
 91
        1
 62
     0
 92
       -2
340
14
 93
        0
 40
0.045
309
GRIDFORMAT_END
 95
       32
302
GRIDFORMAT
  1
GRIDFORMAT_BEGIN
 90
        0
 91
        1
 62
     0
 92
       -2
340
14
 93
        0
 40
0.045
309
GRIDFORMAT_END
309
TABLEFORMAT_END
  1
CELLSTYLE_BEGIN
 90
        3
 91
        2
300
_DATA
309
CELLSTYLE_END
  0
ENDSEC
  0
EOF
