  0
SECTION
  2
HEADER
  9
$ACADVER
  1
AC1027
  9
$ACADMAINTVER
 70
   105
  9
$DWGCODEPAGE
  3
ANSI_1252
  9
$LASTSAVEDBY
  1
Office Desk
  9
$REQUIREDVERSIONS
160
                 0
  9
$INSBASE
 10
0.0
 20
0.0
 30
0.0
  9
$EXTMIN
 10
193.3246
 20
-189.2716
 30
0.0
  9
$EXTMAX
 10
521.8138
 20
246.196
 30
0.0
  9
$LIMMIN
 10
0.0
 20
0.0
  9
$LIMMAX
 10
12.0
 20
9.0
  9
$ORTHOMODE
 70
     0
  9
$REGENMODE
 70
     1
  9
$FILLMODE
 70
     1
  9
$QTEXTMODE
 70
     0
  9
$MIRRTEXT
 70
     1
  9
$LTSCALE
 40
1.0
  9
$ATTMODE
 70
     1
  9
$TEXTSIZE
 40
0.2
  9
$TRACEWID
 40
0.05
  9
$TEXTSTYLE
  7
Standard
  9
$CLAYER
  8
0
  9
$CELTYPE
  6
ByLayer
  9
$CECOLOR
 62
   256
  9
$CELTSCALE
 40
1.0
  9
$DISPSILH
 70
     0
  9
$DIMSCALE
 40
1.0
  9
$DIMASZ
 40
0.18
  9
$DIMEXO
 40
0.0625
  9
$DIMDLI
 40
0.38
  9
$DIMRND
 40
0.0
  9
$DIMDLE
 40
0.0
  9
$DIMEXE
 40
0.18
  9
$DIMTP
 40
0.0
  9
$DIMTM
 40
0.0
  9
$DIMTXT
 40
0.18
  9
$DIMCEN
 40
0.09
  9
$DIMTSZ
 40
0.0
  9
$DIMTOL
 70
     0
  9
$DIMLIM
 70
     0
  9
$DIMTIH
 70
     1
  9
$DIMTOH
 70
     1
  9
$DIMSE1
 70
     0
  9
$DIMSE2
 70
     0
  9
$DIMTAD
 70
     0
  9
$DIMZIN
 70
     0
  9
$DIMBLK
  1

  9
$DIMASO
 70
     1
  9
$DIMSHO
 70
     1
  9
$DIMPOST
  1

  9
$DIMAPOST
  1

  9
$DIMALT
 70
     0
  9
$DIMALTD
 70
     2
  9
$DIMALTF
 40
25.4
  9
$DIMLFAC
 40
1.0
  9
$DIMTOFL
 70
     0
  9
$DIMTVP
 40
0.0
  9
$DIMTIX
 70
     0
  9
$DIMSOXD
 70
     0
  9
$DIMSAH
 70
     0
  9
$DIMBLK1
  1

  9
$DIMBLK2
  1

  9
$DIMSTYLE
  2
Standard
  9
$DIMCLRD
 70
     0
  9
$DIMCLRE
 70
     0
  9
$DIMCLRT
 70
     0
  9
$DIMTFAC
 40
1.0
  9
$DIMGAP
 40
0.09
  9
$DIMJUST
 70
     0
  9
$DIMSD1
 70
     0
  9
$DIMSD2
 70
     0
  9
$DIMTOLJ
 70
     1
  9
$DIMTZIN
 70
     0
  9
$DIMALTZ
 70
     0
  9
$DIMALTTZ
 70
     0
  9
$DIMUPT
 70
     0
  9
$DIMDEC
 70
     4
  9
$DIMTDEC
 70
     4
  9
$DIMALTU
 70
     2
  9
$DIMALTTD
 70
     2
  9
$DIMTXSTY
  7
Standard
  9
$DIMAUNIT
 70
     0
  9
$DIMADEC
 70
     0
  9
$DIMALTRND
 40
0.0
  9
$DIMAZIN
 70
     0
  9
$DIMDSEP
 70
    46
  9
$DIMATFIT
 70
     3
  9
$DIMFRAC
 70
     0
  9
$DIMLDRBLK
  1

  9
$DIMLUNIT
 70
     2
  9
$DIMLWD
 70
    -2
  9
$DIMLWE
 70
    -2
  9
$DIMTMOVE
 70
     0
  9
$DIMFXL
 40
1.0
  9
$DIMFXLON
 70
     0
  9
$DIMJOGANG
 40
0.7853981633974483
  9
$DIMTFILL
 70
     0
  9
$DIMTFILLCLR
 70
     0
  9
$DIMARCSYM
 70
     0
  9
$DIMLTYPE
  6

  9
$DIMLTEX1
  6

  9
$DIMLTEX2
  6

  9
$DIMTXTDIRECTION
 70
     0
  9
$LUNITS
 70
     2
  9
$LUPREC
 70
     4
  9
$SKETCHINC
 40
0.1
  9
$FILLETRAD
 40
0.0
  9
$AUNITS
 70
     0
  9
$AUPREC
 70
     0
  9
$MENU
  1
.
  9
$ELEVATION
 40
0.0
  9
$PELEVATION
 40
0.0
  9
$THICKNESS
 40
0.0
  9
$LIMCHECK
 70
     0
  9
$CHAMFERA
 40
0.0
  9
$CHAMFERB
 40
0.0
  9
$CHAMFERC
 40
0.0
  9
$CHAMFERD
 40
0.0
  9
$SKPOLY
 70
     0
  9
$TDCREATE
 40
2461015.68860103
  9
$TDUCREATE
 40
2461015.459434364
  9
$TDUPDATE
 40
2461015.688601054
  9
$TDUUPDATE
 40
2461015.459434387
  9
$TDINDWG
 40
0.0000000116
  9
$TDUSRTIMER
 40
0.0000000116
  9
$USRTIMER
 70
     1
  9
$ANGBASE
 50
0.0
  9
$ANGDIR
 70
     0
  9
$PDMODE
 70
     0
  9
$PDSIZE
 40
0.0
  9
$PLINEWID
 40
0.0
  9
$SPLFRAME
 70
     0
  9
$SPLINETYPE
 70
     6
  9
$SPLINESEGS
 70
     8
  9
$HANDSEED
  5
B3
  9
$SURFTAB1
 70
     6
  9
$SURFTAB2
 70
     6
  9
$SURFTYPE
 70
     6
  9
$SURFU
 70
     6
  9
$SURFV
 70
     6
  9
$UCSBASE
  2

  9
$UCSNAME
  2

  9
$UCSORG
 10
0.0
 20
0.0
 30
0.0
  9
$UCSXDIR
 10
1.0
 20
0.0
 30
0.0
  9
$UCSYDIR
 10
0.0
 20
1.0
 30
0.0
  9
$UCSORTHOREF
  2

  9
$UCSORTHOVIEW
 70
     0
  9
$UCSORGTOP
 10
0.0
 20
0.0
 30
0.0
  9
$UCSORGBOTTOM
 10
0.0
 20
0.0
 30
0.0
  9
$UCSORGLEFT
 10
0.0
 20
0.0
 30
0.0
  9
$UCSORGRIGHT
 10
0.0
 20
0.0
 30
0.0
  9
$UCSORGFRONT
 10
0.0
 20
0.0
 30
0.0
  9
$UCSORGBACK
 10
0.0
 20
0.0
 30
0.0
  9
$PUCSBASE
  2

  9
$PUCSNAME
  2

  9
$PUCSORG
 10
0.0
 20
0.0
 30
0.0
  9
$PUCSXDIR
 10
1.0
 20
0.0
 30
0.0
  9
$PUCSYDIR
 10
0.0
 20
1.0
 30
0.0
  9
$PUCSORTHOREF
  2

  9
$PUCSORTHOVIEW
 70
     0
  9
$PUCSORGTOP
 10
0.0
 20
0.0
 30
0.0
  9
$PUCSORGBOTTOM
 10
0.0
 20
0.0
 30
0.0
  9
$PUCSORGLEFT
 10
0.0
 20
0.0
 30
0.0
  9
$PUCSORGRIGHT
 10
0.0
 20
0.0
 30
0.0
  9
$PUCSORGFRONT
 10
0.0
 20
0.0
 30
0.0
  9
$PUCSORGBACK
 10
0.0
 20
0.0
 30
0.0
  9
$USERI1
 70
     0
  9
$USERI2
 70
     0
  9
$USERI3
 70
     0
  9
$USERI4
 70
     0
  9
$USERI5
 70
     0
  9
$USERR1
 40
0.0
  9
$USERR2
 40
0.0
  9
$USERR3
 40
0.0
  9
$USERR4
 40
0.0
  9
$USERR5
 40
0.0
  9
$WORLDVIEW
 70
     1
  9
$SHADEDGE
 70
     3
  9
$SHADEDIF
 70
    70
  9
$TILEMODE
 70
     1
  9
$MAXACTVP
 70
    64
  9
$PINSBASE
 10
0.0
 20
0.0
 30
0.0
  9
$PLIMCHECK
 70
     0
  9
$PEXTMIN
 10
1.000000000000000E+20
 20
1.000000000000000E+20
 30
1.000000000000000E+20
  9
$PEXTMAX
 10
-1.000000000000000E+20
 20
-1.000000000000000E+20
 30
-1.000000000000000E+20
  9
$PLIMMIN
 10
0.0
 20
0.0
  9
$PLIMMAX
 10
12.0
 20
9.0
  9
$UNITMODE
 70
     0
  9
$VISRETAIN
 70
     1
  9
$PLINEGEN
 70
     0
  9
$PSLTSCALE
 70
     1
  9
$TREEDEPTH
 70
  3020
  9
$CMLSTYLE
  2
Standard
  9
$CMLJUST
 70
     0
  9
$CMLSCALE
 40
1.0
  9
$PROXYGRAPHICS
 70
     1
  9
$MEASUREMENT
 70
     0
  9
$CELWEIGHT
370
    -1
  9
$ENDCAPS
280
     0
  9
$JOINSTYLE
280
     0
  9
$LWDISPLAY
290
     0
  9
$INSUNITS
 70
     4
  9
$HYPERLINKBASE
  1

  9
$STYLESHEET
  1

  9
$XEDIT
290
     1
  9
$CEPSNTYPE
380
     0
  9
$PSTYLEMODE
290
     1
  9
$FINGERPRINTGUID
  2
{eefcf5f8-9547-4f27-bce1-7916ce26bb0c}
  9
$VERSIONGUID
  2
{FAEB1C32-E019-11D5-929B-00C0DF256EC4}
  9
$EXTNAMES
290
     1
  9
$PSVPSCALE
 40
0.0
  9
$OLESTARTUP
290
     0
  9
$SORTENTS
280
   127
  9
$INDEXCTL
280
     0
  9
$HIDETEXT
280
     1
  9
$XCLIPFRAME
280
     2
  9
$HALOGAP
280
     0
  9
$OBSCOLOR
 70
   257
  9
$OBSLTYPE
280
     0
  9
$INTERSECTIONDISPLAY
280
     0
  9
$INTERSECTIONCOLOR
 70
   257
  9
$DIMASSOC
280
     2
  9
$PROJECTNAME
  1

  9
$CAMERADISPLAY
290
     0
  9
$LENSLENGTH
 40
50.0
  9
$CAMERAHEIGHT
 40
0.0
  9
$STEPSPERSEC
 40
2.0
  9
$STEPSIZE
 40
6.0
  9
$3DDWFPREC
 40
2.0
  9
$PSOLWIDTH
 40
0.25
  9
$PSOLHEIGHT
 40
4.0
  9
$LOFTANG1
 40
1.570796326794897
  9
$LOFTANG2
 40
1.570796326794897
  9
$LOFTMAG1
 40
0.0
  9
$LOFTMAG2
 40
0.0
  9
$LOFTPARAM
 70
     7
  9
$LOFTNORMALS
280
     1
  9
$LATITUDE
 40
37.795
  9
$LONGITUDE
 40
-122.394
  9
$NORTHDIRECTION
 40
0.0
  9
$TIMEZONE
 70
 -8000
  9
$LIGHTGLYPHDISPLAY
280
     1
  9
$TILEMODELIGHTSYNCH
280
     1
  9
$CMATERIAL
347
44
  9
$SOLIDHIST
280
     0
  9
$SHOWHIST
280
     1
  9
$DWFFRAME
280
     2
  9
$DGNFRAME
280
     2
  9
$REALWORLDSCALE
290
     1
  9
$INTERFERECOLOR
 62
   256
  9
$CSHADOW
280
     0
  9
$SHADOWPLANELOCATION
 40
0.0
  0
ENDSEC
  0
SECTION
  2
CLASSES
  0
CLASS
  1
ACDBDICTIONARYWDFLT
  2
AcDbDictionaryWithDefault
  3
ObjectDBX Classes
 90
        0
 91
        3
280
     0
281
     0
  0
CLASS
  1
VISUALSTYLE
  2
AcDbVisualStyle
  3
ObjectDBX Classes
 90
     4095
 91
        3
280
     0
281
     0
  0
CLASS
  1
MATERIAL
  2
AcDbMaterial
  3
ObjectDBX Classes
 90
     1153
 91
        3
280
     0
281
     0
  0
CLASS
  1
SCALE
  2
AcDbScale
  3
ObjectDBX Classes
 90
     1153
 91
        3
280
     0
281
     0
  0
CLASS
  1
TABLESTYLE
  2
AcDbTableStyle
  3
ObjectDBX Classes
 90
     4095
 91
        3
280
     0
281
     0
  0
CLASS
  1
MLEADERSTYLE
  2
AcDbMLeaderStyle
  3
ACDB_MLEADERSTYLE_CLASS
 90
     4095
 91
        3
280
     0
281
     0
  0
CLASS
  1
SUN
  2
AcDbSun
  3
SCENEOE
 90
     1153
 91
        3
280
     0
281
     0
  0
CLASS
  1
DICTIONARYVAR
  2
AcDbDictionaryVar
  3
ObjectDBX Classes
 90
        0
 91
        3
280
     0
281
     0
  0
CLASS
  1
CELLSTYLEMAP
  2
AcDbCellStyleMap
  3
ObjectDBX Classes
 90
     1152
 91
        3
280
     0
281
     0
  0
ENDSEC
  0
SECTION
  2
TABLES
  0
TABLE
  2
VPORT
  5
8
330
0
100
AcDbSymbolTable
 70
     1
  0
VPORT
  5
29
330
8
100
AcDbSymbolTableRecord
100
AcDbViewportTableRecord
  2
*Active
 70
     0
 10
0.0
 20
0.0
 11
1.0
 21
1.0
 12
10.42990654205607
 22
4.5
 13
0.0
 23
0.0
 14
0.5
 24
0.5
 15
0.5
 25
0.5
 16
0.0
 26
0.0
 36
1.0
 17
0.0
 27
0.0
 37
0.0
 40
9.0
 41
1.972972972850329
 42
50.0
 43
0.0
 44
0.0
 50
0.0
 51
0.0
 71
     0
 72
   100
 73
     1
 74
     3
 75
     0
 76
     0
 77
     0
 78
     0
281
     0
 65
     1
110
0.0
120
0.0
130
0.0
111
1.0
121
0.0
131
0.0
112
0.0
122
1.0
132
0.0
 79
     0
146
0.0
348
2F
 60
     3
 61
     5
292
     1
282
     1
141
0.0
142
0.0
 63
   250
361
5D
  0
ENDTAB
  0
TABLE
  2
LTYPE
  5
5
330
0
100
AcDbSymbolTable
 70
     1
  0
LTYPE
  5
14
330
5
100
AcDbSymbolTableRecord
100
AcDbLinetypeTableRecord
  2
ByBlock
 70
     0
  3

 72
    65
 73
     0
 40
0.0
  0
LTYPE
  5
15
330
5
100
AcDbSymbolTableRecord
100
AcDbLinetypeTableRecord
  2
ByLayer
 70
     0
  3

 72
    65
 73
     0
 40
0.0
  0
LTYPE
  5
16
330
5
100
AcDbSymbolTableRecord
100
AcDbLinetypeTableRecord
  2
Continuous
 70
     0
  3
Solid line
 72
    65
 73
     0
 40
0.0
  0
ENDTAB
  0
TABLE
  2
LAYER
  5
2
330
0
100
AcDbSymbolTable
 70
     2
  0
LAYER
  5
10
330
2
100
AcDbSymbolTableRecord
100
AcDbLayerTableRecord
  2
0
 70
     0
 62
     7
  6
Continuous
370
    -3
390
F
347
46
348
0
  0
LAYER
  5
5F
330
2
100
AcDbSymbolTableRecord
100
AcDbLayerTableRecord
  2
Layer 1
 70
     0
 62
     7
  6
Continuous
370
    -3
390
F
347
46
348
0
  0
ENDTAB
  0
TABLE
  2
STYLE
  5
3
330
0
100
AcDbSymbolTable
 70
     1
  0
STYLE
  5
11
330
3
100
AcDbSymbolTableRecord
100
AcDbTextStyleTableRecord
  2
Standard
 70
     0
 40
0.0
 41
1.0
 50
0.0
 71
     0
 42
0.2
  3
txt
  4

  0
ENDTAB
  0
TABLE
  2
VIEW
  5
6
330
0
100
AcDbSymbolTable
 70
     0
  0
ENDTAB
  0
TABLE
  2
UCS
  5
7
330
0
100
AcDbSymbolTable
 70
     0
  0
ENDTAB
  0
TABLE
  2
APPID
  5
9
330
0
100
AcDbSymbolTable
 70
     2
  0
APPID
  5
12
330
9
100
AcDbSymbolTableRecord
100
AcDbRegAppTableRecord
  2
ACAD
 70
     0
  0
APPID
  5
5E
330
9
100
AcDbSymbolTableRecord
100
AcDbRegAppTableRecord
  2
ODA
 70
     0
  0
ENDTAB
  0
TABLE
  2
DIMSTYLE
  5
A
330
0
100
AcDbSymbolTable
 70
     1
100
AcDbDimStyleTable
  0
DIMSTYLE
105
27
330
A
100
AcDbSymbolTableRecord
100
AcDbDimStyleTableRecord
  2
Standard
 70
     0
178
     0
340
11
  0
ENDTAB
  0
TABLE
  2
BLOCK_RECORD
  5
1
330
0
100
AcDbSymbolTable
 70
     1
  0
BLOCK_RECORD
  5
1F
330
1
100
AcDbSymbolTableRecord
100
AcDbBlockTableRecord
  2
*Model_Space
340
22
 70
     0
280
     1
281
     0
  0
BLOCK_RECORD
  5
1B
330
1
100
AcDbSymbolTableRecord
100
AcDbBlockTableRecord
  2
*Paper_Space
340
1E
 70
     0
280
     1
281
     0
  0
BLOCK_RECORD
  5
23
330
1
100
AcDbSymbolTableRecord
100
AcDbBlockTableRecord
  2
*Paper_Space0
340
26
 70
     0
280
     1
281
     0
  0
ENDTAB
  0
ENDSEC
  0
SECTION
  2
BLOCKS
  0
BLOCK
  5
20
330
1F
100
AcDbEntity
  8
0
100
AcDbBlockBegin
  2
*Model_Space
 70
     0
 10
0.0
 20
0.0
 30
0.0
  3
*Model_Space
  1

  0
ENDBLK
  5
21
330
1F
100
AcDbEntity
  8
0
100
AcDbBlockEnd
  0
BLOCK
  5
1C
330
1B
100
AcDbEntity
 67
     1
  8
0
100
AcDbBlockBegin
  2
*Paper_Space
 70
     0
 10
0.0
 20
0.0
 30
0.0
  3
*Paper_Space
  1

  0
ENDBLK
  5
1D
330
1B
100
AcDbEntity
 67
     1
  8
0
100
AcDbBlockEnd
  0
BLOCK
  5
24
330
23
100
AcDbEntity
  8
0
100
AcDbBlockBegin
  2
*Paper_Space0
 70
     0
 10
0.0
 20
0.0
 30
0.0
  3
*Paper_Space0
  1

  0
ENDBLK
  5
25
330
23
100
AcDbEntity
  8
0
100
AcDbBlockEnd
  0
ENDSEC
  0
SECTION
  2
ENTITIES
  0
LWPOLYLINE
  5
60
330
1F
100
AcDbEntity
  8
Layer 1
 62
   250
370
     9
100
AcDbPolyline
 90
        5
 70
     1
 43
0.0
 10
193.3627
 20
-189.2335
 10
521.7757
 20
-189.2335
 10
521.7757
 20
246.1579
 10
193.3627
 20
246.1579
 10
193.3627
 20
-189.2335
  0
LWPOLYLINE
  5
61
330
1F
100
AcDbEntity
  8
Layer 1
 62
     7
370
    18
100
AcDbPolyline
 90
      194
 70
     1
 43
0.0
 10
300.8264
 20
80.9161
 10
302.5528
 20
80.6621
 10
303.8956
 20
80.4886
 10
304.9878
 20
80.3606
 10
305.9628
 20
80.2426
 10
306.9536
 20
80.0996
 10
308.0935
 20
79.8962
 10
309.5158
 20
79.5973
 10
311.3535
 20
79.1677
 10
313.094
 20
78.696
 10
314.7248
 20
78.1698
 10
316.2194
 20
77.6231
 10
317.5515
 20
77.0899
 10
318.6948
 20
76.6042
 10
319.6229
 20
76.2
 10
320.3096
 20
75.9114
 10
320.7283
 20
75.7723
 10
320.939
 20
76.8943
 10
321.4416
 20
79.7579
 10
322.1566
 20
83.8514
 10
323.0047
 20
88.6632
 10
323.9066
 20
93.6818
 10
324.783
 20
98.3955
 10
325.5545
 20
102.2927
 10
326.1418
 20
104.8618
 10
326.943
 20
107.8168
 10
327.7422
 20
110.7064
 10
328.5568
 20
113.539
 10
329.4043
 20
116.3233
 10
330.302
 20
119.0677
 10
331.2673
 20
121.7809
 10
332.3176
 20
124.4714
 10
333.4703
 20
127.1477
 10
335.0636
 20
130.3802
 10
336.7994
 20
133.378
 10
338.6738
 20
136.1687
 10
340.6825
 20
138.78
 10
342.8214
 20
141.2394
 10
345.0864
 20
143.5747
 10
347.4734
 20
145.8134
 10
349.9783
 20
147.9831
 10
355.698
 20
152.3363
 10
361.3078
 20
155.6906
 10
366.8906
 20
158.0565
 10
372.5296
 20
159.4443
 10
378.3077
 20
159.8646
 10
384.3079
 20
159.3278
 10
390.6132
 20
157.8445
 10
397.3068
 20
155.4251
 10
399.9041
 20
154.1826
 10
402.5336
 20
152.6373
 10
405.1335
 20
150.8589
 10
407.6421
 20
148.9173
 10
409.9975
 20
146.8821
 10
412.138
 20
144.8232
 10
414.0018
 20
142.8104
 10
415.5271
 20
140.9134
 10
417.2567
 20
138.5757
 10
418.5972
 20
136.7631
 10
419.6644
 20
135.2706
 10
420.574
 20
133.8931
 10
421.4419
 20
132.4256
 10
422.3837
 20
130.6631
 10
423.5152
 20
128.4006
 10
424.9522
 20
125.4331
 10
426.2453
 20
122.6105
 10
426.8969
 20
121.073
 10
427.6127
 20
119.15
 10
428.3581
 20
116.9567
 10
429.0985
 20
114.6082
 10
429.7995
 20
112.2196
 10
430.4264
 20
109.9062
 10
430.9446
 20
107.7831
 10
431.3196
 20
105.9654
 10
431.633
 20
104.1968
 10
431.9717
 20
102.2132
 10
432.3151
 20
100.0883
 10
432.6425
 20
97.8962
 10
432.9332
 20
95.7107
 10
433.1664
 20
93.6058
 10
433.3215
 20
91.6554
 10
433.3777
 20
89.9334
 10
433.3497
 20
76.9776
 10
433.3137
 20
63.691
 10
433.2749
 20
50.2649
 10
433.2389
 20
36.8908
 10
433.2108
 20
23.76
 10
433.1961
 20
11.0637
 10
433.2001
 20
-1.0066
 10
433.2282
 20
-12.2596
 10
433.1687
 20
-68.8972
 10
433.1624
 20
-74.846
 10
434.6187
 20
-75.5951
 10
436.6993
 20
-76.0942
 10
439.2152
 20
-76.3784
 10
441.9774
 20
-76.483
 10
444.7968
 20
-76.443
 10
447.4844
 20
-76.2938
 10
449.8511
 20
-76.0705
 10
451.7079
 20
-75.8082
 10
451.7201
 20
-72.8774
 10
451.76
 20
-67.1025
 10
451.8186
 20
-59.3351
 10
451.8865
 20
-50.4269
 10
451.9544
 20
-41.2294
 10
452.0133
 20
-32.5944
 10
452.0537
 20
-25.3734
 10
452.0664
 20
-20.418
 10
452.2251
 20
45.707
 10
452.2824
 20
52.2245
 10
452.3838
 20
58.7044
 10
452.4953
 20
65.1549
 10
452.5833
 20
71.5841
 10
452.6138
 20
78.0002
 10
452.5531
 20
84.4114
 10
452.3674
 20
90.8259
 10
452.0228
 20
97.2518
 10
451.3785
 20
103.3503
 10
450.2848
 20
109.6794
 10
448.7948
 20
116.1096
 10
446.962
 20
122.5117
 10
444.8395
 20
128.7563
 10
442.4807
 20
134.7139
 10
439.9387
 20
140.2552
 10
437.267
 20
145.2509
 10
436.6889
 20
146.2188
 10
436.0985
 20
147.1614
 10
435.4975
 20
148.0871
 10
434.8876
 20
149.0041
 10
434.2706
 20
149.9208
 10
433.6484
 20
150.8453
 10
433.0227
 20
151.786
 10
432.3952
 20
152.7512
 10
427.1397
 20
159.4251
 10
425.972
 20
160.756
 10
424.5484
 20
162.2842
 10
422.9439
 20
163.9268
 10
421.2332
 20
165.6012
 10
419.4913
 20
167.2246
 10
417.7931
 20
168.7143
 10
416.2135
 20
169.9876
 10
414.8275
 20
170.9618
 10
411.6735
 20
172.9617
 10
408.878
 20
174.7173
 10
406.283
 20
176.2654
 10
403.7307
 20
177.6425
 10
401.0629
 20
178.8856
 10
398.122
 20
180.0312
 10
394.7498
 20
181.1162
 10
390.7885
 20
182.1772
 10
385.6684
 20
183.1314
 10
380.4537
 20
183.5313
 10
375.2108
 20
183.4154
 10
370.006
 20
182.8223
 10
364.9057
 20
181.7903
 10
359.9762
 20
180.358
 10
355.2839
 20
178.5639
 10
350.8951
 20
176.4464
 10
350.3867
 20
176.1602
 10
350.1451
 20
176.0279
 10
349.9091
 20
175.9025
 10
338.432
 20
168.1139
 10
336.3349
 20
166.3358
 10
334.0373
 20
164.1985
 10
331.6336
 20
161.7928
 10
329.2181
 20
159.2097
 10
326.8853
 20
156.5398
 10
324.7296
 20
153.8743
 10
322.8454
 20
151.3038
 10
321.3271
 20
148.9192
 10
319.4989
 20
145.7477
 10
317.8377
 20
142.8191
 10
316.3114
 20
140.009
 10
314.888
 20
137.1932
 10
313.5354
 20
134.2474
 10
312.2214
 20
131.0473
 10
310.914
 20
127.4687
 10
309.581
 20
123.3872
 10
308.9032
 20
121.1411
 10
308.2015
 20
118.6931
 10
307.4976
 20
116.1047
 10
306.8131
 20
113.4373
 10
306.1697
 20
110.7526
 10
305.5889
 20
108.1121
 10
305.0924
 20
105.5773
 10
304.7018
 20
103.2097
 10
304.2978
 20
100.7685
 10
303.7365
 20
97.7515
 10
303.0849
 20
94.3971
 10
302.4103
 20
90.9441
 10
301.78
 20
87.6308
 10
301.2611
 20
84.696
 10
300.9208
 20
82.3783
 10
300.8264
 20
80.9161
  0
LWPOLYLINE
  5
62
330
1F
100
AcDbEntity
  8
Layer 1
 62
     7
370
    18
100
AcDbPolyline
 90
       57
 70
     0
 43
0.0
 10
426.8492
 20
-76.036
 10
426.5454
 20
-86.5075
 10
426.39
 20
-97.0641
 10
426.3426
 20
-107.679
 10
426.3627
 20
-118.3253
 10
426.4099
 20
-128.9761
 10
426.4439
 20
-139.6046
 10
426.424
 20
-150.184
 10
426.31
 20
-160.6873
 10
429.1512
 20
-162.4231
 10
433.288
 20
-163.4845
 10
438.2171
 20
-163.9626
 10
443.435
 20
-163.9485
 10
448.4382
 20
-163.5332
 10
452.7235
 20
-162.8077
 10
455.7872
 20
-161.8632
 10
457.1261
 20
-160.7906
 10
457.1977
 20
-159.479
 10
457.1884
 20
-156.7052
 10
457.132
 20
-152.8854
 10
457.0625
 20
-148.4357
 10
457.0135
 20
-143.7723
 10
457.019
 20
-139.3115
 10
457.1127
 20
-135.4692
 10
457.3285
 20
-132.6617
 10
457.4106
 20
-132.1033
 10
457.4856
 20
-131.7196
 10
457.5631
 20
-131.4581
 10
457.6527
 20
-131.266
 10
457.764
 20
-131.0908
 10
457.9068
 20
-130.8799
 10
458.0906
 20
-130.5806
 10
458.325
 20
-130.1403
 10
457.0882
 20
-127.9743
 10
455.9973
 20
-126.0111
 10
455.0879
 20
-124.1149
 10
454.3955
 20
-122.1499
 10
453.9555
 20
-119.9804
 10
453.8033
 20
-117.4705
 10
453.9745
 20
-114.4846
 10
454.5045
 20
-110.8868
 10
454.9431
 20
-109.0138
 10
455.5794
 20
-107.0727
 10
456.3904
 20
-105.1235
 10
457.3532
 20
-103.226
 10
458.4446
 20
-101.4403
 10
459.6418
 20
-99.8264
 10
460.9218
 20
-98.4442
 10
462.2616
 20
-97.3537
 10
462.7464
 20
-97.0486
 10
463.0828
 20
-96.8745
 10
463.3037
 20
-96.7819
 10
463.4425
 20
-96.7213
 10
463.5322
 20
-96.6431
 10
463.6059
 20
-96.4979
 10
463.6969
 20
-96.2361
 10
463.8382
 20
-95.8084
  0
LWPOLYLINE
  5
63
330
1F
100
AcDbEntity
  8
Layer 1
 62
     7
370
    18
100
AcDbPolyline
 90
       10
 70
     0
 43
0.0
 10
463.0535
 20
-95.5571
 10
462.2501
 20
-95.4834
 10
461.5143
 20
-95.4348
 10
460.8347
 20
-95.3777
 10
460.1999
 20
-95.2786
 10
459.5984
 20
-95.1039
 10
459.0189
 20
-94.8202
 10
458.4499
 20
-94.3939
 10
457.8801
 20
-93.7914
 10
457.8877
 20
-76.132
  0
LWPOLYLINE
  5
64
330
1F
100
AcDbEntity
  8
Layer 1
 62
     7
370
    18
100
AcDbPolyline
 90
      129
 70
     0
 43
0.0
 10
315.9507
 20
5.1549
 10
316.7109
 20
8.9767
 10
317.3183
 20
14.4881
 10
317.7888
 20
21.1528
 10
318.1386
 20
28.4345
 10
318.3836
 20
35.797
 10
318.5398
 20
42.704
 10
318.6232
 20
48.6193
 10
318.65
 20
53.0066
 10
318.6672
 20
54.6425
 10
318.7119
 20
56.1891
 10
318.7788
 20
57.6722
 10
318.863
 20
59.1176
 10
318.9592
 20
60.5512
 10
319.0623
 20
61.9988
 10
319.1673
 20
63.4862
 10
319.2689
 20
65.0394
 10
319.4532
 20
67.1382
 10
319.6893
 20
68.9586
 10
319.9169
 20
70.5225
 10
320.0754
 20
71.8517
 10
320.1045
 20
72.9681
 10
319.9439
 20
73.8934
 10
319.533
 20
74.6497
 10
318.8115
 20
75.2586
 10
317.335
 20
75.9929
 10
315.2228
 20
76.8212
 10
312.673
 20
77.6644
 10
309.8838
 20
78.4432
 10
307.0534
 20
79.0784
 10
304.3799
 20
79.4908
 10
302.0614
 20
79.601
 10
300.2961
 20
79.3298
 10
300.0268
 20
78.4054
 10
299.6766
 20
77.3631
 10
299.2888
 20
76.2357
 10
298.9065
 20
75.0564
 10
298.5726
 20
73.8582
 10
298.3304
 20
72.6741
 10
298.223
 20
71.5373
 10
298.2934
 20
70.4807
 10
299.6912
 20
70.2856
 10
300.7813
 20
69.6967
 10
301.5718
 20
68.7878
 10
302.071
 20
67.6326
 10
302.2867
 20
66.3047
 10
302.2273
 20
64.8778
 10
301.9006
 20
63.4257
 10
301.315
 20
62.0221
 10
300.929
 20
61.3576
 10
300.4342
 20
60.6388
 10
299.8469
 20
59.917
 10
299.1837
 20
59.2433
 10
298.4609
 20
58.669
 10
297.6951
 20
58.2454
 10
296.9027
 20
58.0236
 10
296.1001
 20
58.0549
 10
295.5554
 20
58.1998
 10
295.2732
 20
58.3302
 10
295.1664
 20
58.4509
 10
295.1479
 20
58.5668
 10
295.1306
 20
58.6828
 10
295.0273
 20
58.8037
 10
294.7508
 20
58.9343
 10
294.214
 20
59.0795
 10
294.0535
 20
58.6123
 10
293.8312
 20
57.9475
 10
293.5713
 20
57.1551
 10
293.298
 20
56.3054
 10
293.0354
 20
55.4686
 10
292.8076
 20
54.7147
 10
292.6388
 20
54.1139
 10
292.5532
 20
53.7365
 10
293.9367
 20
54.4671
 10
295.1079
 20
54.5336
 10
296.0665
 20
54.0571
 10
296.8123
 20
53.1591
 10
297.345
 20
51.9608
 10
297.6642
 20
50.5836
 10
297.7696
 20
49.1487
 10
297.661
 20
47.7774
 10
297.5522
 20
47.2679
 10
297.388
 20
46.675
 10
297.1831
 20
46.0236
 10
296.9525
 20
45.3388
 10
296.7107
 20
44.6456
 10
296.4726
 20
43.969
 10
296.2528
 20
43.3342
 10
296.0662
 20
42.766
 10
295.5841
 20
41.2366
 10
294.9674
 20
39.3029
 10
294.2593
 20
37.1168
 10
293.503
 20
34.8306
 10
292.7419
 20
32.5962
 10
292.0191
 20
30.566
 10
291.378
 20
28.8919
 10
290.8617
 20
27.7261
 10
290.5853
 20
27.2348
 10
290.2708
 20
26.7701
 10
289.9186
 20
26.3343
 10
289.5291
 20
25.9295
 10
289.1025
 20
25.5581
 10
288.6394
 20
25.2222
 10
288.14
 20
24.9241
 10
287.6047
 20
24.6659
 10
286.6742
 20
24.3294
 10
285.9417
 20
24.1943
 10
285.3629
 20
24.2272
 10
284.8937
 20
24.3949
 10
284.4898
 20
24.664
 10
284.107
 20
25.0011
 10
283.7011
 20
25.3729
 10
283.2278
 20
25.7462
 10
282.8611
 20
24.8987
 10
282.4968
 20
23.8536
 10
282.1392
 20
22.6699
 10
281.7928
 20
21.4067
 10
281.462
 20
20.1233
 10
281.1511
 20
18.8788
 10
280.8647
 20
17.7323
 10
280.6071
 20
16.7429
 10
280.5209
 20
16.4224
 10
280.4439
 20
16.1279
 10
280.3764
 20
15.858
 10
280.3187
 20
15.6115
 10
280.2713
 20
15.387
 10
280.2345
 20
15.1834
 10
280.2086
 20
14.9994
 10
280.1941
 20
14.8337
  0
LWPOLYLINE
  5
65
330
1F
100
AcDbEntity
  8
Layer 1
 62
     7
370
    18
100
AcDbPolyline
 90
       33
 70
     1
 43
0.0
 10
483.3461
 20
-103.8514
 10
480.2328
 20
-105.5023
 10
477.7365
 20
-108.1681
 10
475.8616
 20
-111.5794
 10
474.6124
 20
-115.4668
 10
473.9935
 20
-119.561
 10
474.0091
 20
-123.5925
 10
474.6637
 20
-127.2921
 10
475.9617
 20
-130.3903
 10
476.8608
 20
-131.7059
 10
477.9251
 20
-132.8939
 10
479.1308
 20
-133.8673
 10
480.4543
 20
-134.5395
 10
481.8716
 20
-134.8235
 10
483.3592
 20
-134.6328
 10
484.8933
 20
-133.8803
 10
486.4501
 20
-132.4795
 10
488.4277
 20
-129.933
 10
490.0407
 20
-127.1591
 10
491.2593
 20
-124.2055
 10
492.0535
 20
-121.1202
 10
492.3937
 20
-117.9511
 10
492.2498
 20
-114.7459
 10
491.5921
 20
-111.5527
 10
490.3908
 20
-108.4192
 10
489.8215
 20
-107.2857
 10
489.2119
 20
-106.2318
 10
488.5375
 20
-105.298
 10
487.7743
 20
-104.5249
 10
486.8978
 20
-103.9532
 10
485.8838
 20
-103.6233
 10
484.708
 20
-103.5758
 10
483.3461
 20
-103.8514
  0
LWPOLYLINE
  5
66
330
1F
100
AcDbEntity
  8
Layer 1
 62
     7
370
    18
100
AcDbPolyline
 90
       58
 70
     1
 43
0.0
 10
470.4716
 20
-128.9773
 10
470.087
 20
-127.8217
 10
469.7658
 20
-126.6297
 10
469.5069
 20
-125.4068
 10
469.3096
 20
-124.1582
 10
469.1728
 20
-122.8895
 10
469.0959
 20
-121.6058
 10
469.0777
 20
-120.3127
 10
469.1175
 20
-119.0154
 10
469.1182
 20
-118.9917
 10
469.439
 20
-115.4577
 10
470.1231
 20
-112.1394
 10
471.1329
 20
-109.0955
 10
472.4307
 20
-106.3847
 10
473.9789
 20
-104.0659
 10
475.7399
 20
-102.1978
 10
477.6758
 20
-100.8392
 10
479.7491
 20
-100.0488
 10
479.0935
 20
-99.9728
 10
478.307
 20
-99.9781
 10
477.418
 20
-100.0353
 10
476.455
 20
-100.1151
 10
475.4465
 20
-100.1881
 10
474.421
 20
-100.225
 10
473.4069
 20
-100.1965
 10
472.4328
 20
-100.0731
 10
472.2296
 20
-99.5868
 10
472.0818
 20
-99.1902
 10
471.9535
 20
-98.8696
 10
471.8089
 20
-98.6115
 10
471.6122
 20
-98.4022
 10
471.3276
 20
-98.2282
 10
470.9194
 20
-98.0758
 10
470.3517
 20
-97.9315
 10
466.7106
 20
-98.1186
 10
463.3031
 20
-100.0655
 10
460.3919
 20
-103.4306
 10
458.2398
 20
-107.8727
 10
457.1096
 20
-113.0502
 10
457.264
 20
-118.6218
 10
458.9658
 20
-124.246
 10
462.4777
 20
-129.5816
 10
463.4795
 20
-130.5119
 10
464.8084
 20
-131.4614
 10
466.3615
 20
-132.386
 10
468.0358
 20
-133.2417
 10
469.7283
 20
-133.9845
 10
471.336
 20
-134.5703
 10
472.756
 20
-134.9551
 10
473.8853
 20
-135.0949
 10
473.3661
 20
-134.4851
 10
472.8712
 20
-133.827
 10
472.4016
 20
-133.1228
 10
471.9583
 20
-132.3744
 10
471.5426
 20
-131.5836
 10
471.1555
 20
-130.7526
 10
470.7981
 20
-129.8831
 10
470.4716
 20
-128.9773
  0
LWPOLYLINE
  5
67
330
1F
100
AcDbEntity
  8
Layer 1
 62
     7
370
    18
100
AcDbPolyline
 90
       52
 70
     0
 43
0.0
 10
479.3242
 20
-100.1572
 10
479.3902
 20
-100.157
 10
479.4083
 20
-99.365
 10
479.3933
 20
-98.4754
 10
479.3562
 20
-97.5092
 10
479.3079
 20
-96.4871
 10
479.2593
 20
-95.43
 10
479.2214
 20
-94.3587
 10
479.205
 20
-93.2942
 10
479.2211
 20
-92.2572
 10
480.366
 20
-68.0209
 10
480.4026
 20
-66.1828
 10
480.4302
 20
-64.1463
 10
480.4652
 20
-61.9845
 10
480.5239
 20
-59.7703
 10
480.6226
 20
-57.5768
 10
480.7777
 20
-55.4772
 10
481.0056
 20
-53.5443
 10
481.3225
 20
-51.8514
 10
481.5348
 20
-51.0338
 10
481.7494
 20
-50.2331
 10
481.9154
 20
-49.466
 10
481.982
 20
-48.7492
 10
481.8985
 20
-48.0996
 10
481.614
 20
-47.5338
 10
481.0778
 20
-47.0687
 10
480.2391
 20
-46.721
 10
479.3552
 20
-46.5143
 10
478.5206
 20
-46.4037
 10
477.7272
 20
-46.3842
 10
476.9674
 20
-46.451
 10
476.2332
 20
-46.599
 10
475.5167
 20
-46.8233
 10
474.8102
 20
-47.1191
 10
474.1056
 20
-47.4812
 10
474.0974
 20
-48.1744
 10
474.1545
 20
-48.8514
 10
474.2591
 20
-49.5201
 10
474.3935
 20
-50.1879
 10
474.5398
 20
-50.8625
 10
474.6804
 20
-51.5515
 10
474.7976
 20
-52.2625
 10
474.8736
 20
-53.0032
 10
474.9065
 20
-56.4224
 10
474.7555
 20
-61.8295
 10
474.479
 20
-68.5845
 10
474.1354
 20
-76.0476
 10
473.7829
 20
-83.579
 10
473.48
 20
-90.5388
 10
473.2849
 20
-96.2872
 10
473.2561
 20
-100.1843
 10
475.6787
 20
-100.1735
  0
LWPOLYLINE
  5
68
330
1F
100
AcDbEntity
  8
Layer 1
 62
     7
370
    18
100
AcDbPolyline
 90
       41
 70
     1
 43
0.0
 10
285.4567
 20
27.7916
 10
286.8038
 20
28.0345
 10
287.9578
 20
28.6422
 10
288.9349
 20
29.5579
 10
289.7511
 20
30.7247
 10
290.4226
 20
32.0859
 10
290.9656
 20
33.5846
 10
291.3961
 20
35.1639
 10
291.7304
 20
36.7671
 10
291.9774
 20
38.0262
 10
292.3309
 20
39.8471
 10
292.7089
 20
42.0283
 10
293.0293
 20
44.3688
 10
293.2101
 20
46.6673
 10
293.1693
 20
48.7226
 10
292.8248
 20
50.3333
 10
292.0946
 20
51.2984
 10
291.8436
 20
51.385
 10
291.5835
 20
51.3642
 10
291.3215
 20
51.2586
 10
291.0646
 20
51.0905
 10
290.8199
 20
50.8826
 10
290.5945
 20
50.6572
 10
290.3955
 20
50.4368
 10
290.23
 20
50.2439
 10
289.7393
 20
49.4962
 10
289.3924
 20
48.6095
 10
289.1429
 20
47.5851
 10
288.9445
 20
46.4241
 10
288.7508
 20
45.1276
 10
288.5155
 20
43.6967
 10
288.1921
 20
42.1327
 10
287.7344
 20
40.4365
 10
287.1782
 20
38.913
 10
286.4736
 20
37.2735
 10
285.7337
 20
35.5679
 10
285.0714
 20
33.846
 10
284.5996
 20
32.1576
 10
284.4312
 20
30.5525
 10
284.6793
 20
29.0806
 10
285.4567
 20
27.7916
  0
LWPOLYLINE
  5
69
330
1F
100
AcDbEntity
  8
Layer 1
 62
     7
370
    18
100
AcDbPolyline
 90
       33
 70
     0
 43
0.0
 10
433.1629
 20
-74.3152
 10
431.7921
 20
-74.4708
 10
430.5607
 20
-74.6465
 10
429.4822
 20
-74.8405
 10
428.5699
 20
-75.0511
 10
427.8371
 20
-75.2764
 10
427.2972
 20
-75.5146
 10
426.9634
 20
-75.7639
 10
426.8492
 20
-76.0224
 10
427.1647
 20
-76.4497
 10
428.0696
 20
-76.8477
 10
429.5014
 20
-77.208
 10
431.3977
 20
-77.5218
 10
433.696
 20
-77.7808
 10
436.3339
 20
-77.9764
 10
439.249
 20
-78.1
 10
442.3788
 20
-78.1431
 10
445.5085
 20
-78.1
 10
448.4236
 20
-77.9764
 10
451.0615
 20
-77.7808
 10
453.3598
 20
-77.5218
 10
455.2561
 20
-77.208
 10
456.688
 20
-76.8477
 10
457.5929
 20
-76.4497
 10
457.9084
 20
-76.0224
 10
457.7965
 20
-75.7665
 10
457.4694
 20
-75.5197
 10
456.94
 20
-75.2836
 10
456.2213
 20
-75.0601
 10
455.3262
 20
-74.8509
 10
454.2677
 20
-74.6579
 10
453.0585
 20
-74.4827
 10
451.7118
 20
-74.3271
  0
LWPOLYLINE
  5
6A
330
1F
100
AcDbEntity
  8
Layer 1
 62
     7
370
    18
100
AcDbPolyline
 90
        9
 70
     0
 43
0.0
 10
292.8251
 20
53.9272
 10
292.7676
 20
53.8847
 10
292.6071
 20
53.7512
 10
292.3615
 20
53.5176
 10
292.0486
 20
53.1751
 10
291.6863
 20
52.7145
 10
291.2925
 20
52.1269
 10
290.8851
 20
51.4033
 10
290.4819
 20
50.5347
  0
LWPOLYLINE
  5
6B
330
1F
100
AcDbEntity
  8
Layer 1
 62
     7
370
    18
100
AcDbPolyline
 90
        9
 70
     0
 43
0.0
 10
284.4818
 20
31.4409
 10
284.4094
 20
31.2706
 10
284.2223
 20
30.8063
 10
283.9658
 20
30.1175
 10
283.6852
 20
29.274
 10
283.4258
 20
28.3454
 10
283.2329
 20
27.4015
 10
283.1518
 20
26.5119
 10
283.2278
 20
25.7462
  0
LWPOLYLINE
  5
6C
330
1F
100
AcDbEntity
  8
Layer 1
 62
     7
370
    18
100
AcDbPolyline
 90
       33
 70
     1
 43
0.0
 10
297.2934
 20
70.8469
 10
296.6146
 20
70.723
 10
295.955
 20
70.3677
 10
295.3306
 20
69.8055
 10
294.7574
 20
69.0609
 10
294.2516
 20
68.1585
 10
293.8291
 20
67.1227
 10
293.5062
 20
65.9781
 10
293.2987
 20
64.7492
 10
293.2253
 20
63.5203
 10
293.2867
 20
62.3756
 10
293.4724
 20
61.3398
 10
293.772
 20
60.4374
 10
294.1751
 20
59.6928
 10
294.6711
 20
59.1306
 10
295.2496
 20
58.7753
 10
295.9001
 20
58.6514
 10
296.5788
 20
58.7753
 10
297.2384
 20
59.1306
 10
297.8628
 20
59.6928
 10
298.436
 20
60.4374
 10
298.9418
 20
61.3398
 10
299.3643
 20
62.3756
 10
299.6873
 20
63.5203
 10
299.8948
 20
64.7492
 10
299.9681
 20
65.9781
 10
299.9067
 20
67.1227
 10
299.721
 20
68.1585
 10
299.4214
 20
69.0609
 10
299.0183
 20
69.8055
 10
298.5224
 20
70.3677
 10
297.9439
 20
70.723
 10
297.2934
 20
70.8469
  0
LWPOLYLINE
  5
6D
330
1F
100
AcDbEntity
  8
Layer 1
 62
     7
370
    18
100
AcDbPolyline
 90
       33
 70
     1
 43
0.0
 10
481.371
 20
-99.8628
 10
483.6921
 20
-100.2514
 10
485.8277
 20
-101.366
 10
487.7339
 20
-103.1297
 10
489.3668
 20
-105.4655
 10
490.6824
 20
-108.2965
 10
491.637
 20
-111.5458
 10
492.1866
 20
-115.1365
 10
492.2873
 20
-118.9917
 10
491.9173
 20
-122.8468
 10
491.1169
 20
-126.4374
 10
489.9353
 20
-129.6867
 10
488.4218
 20
-132.5178
 10
486.6257
 20
-134.8536
 10
484.5963
 20
-136.6172
 10
482.3828
 20
-137.7319
 10
480.0345
 20
-138.1205
 10
477.7134
 20
-137.7319
 10
475.5778
 20
-136.6172
 10
473.6716
 20
-134.8536
 10
472.0387
 20
-132.5178
 10
470.7231
 20
-129.6867
 10
469.7685
 20
-126.4374
 10
469.2189
 20
-122.8468
 10
469.1182
 20
-118.9917
 10
469.4882
 20
-115.1365
 10
470.2886
 20
-111.5458
 10
471.4702
 20
-108.2965
 10
472.9837
 20
-105.4655
 10
474.7798
 20
-103.1297
 10
476.8092
 20
-101.366
 10
479.0227
 20
-100.2514
 10
481.371
 20
-99.8628
  0
LWPOLYLINE
  5
6E
330
1F
100
AcDbEntity
  8
Layer 1
 62
     7
370
    18
100
AcDbPolyline
 90
        2
 70
     0
 43
0.0
 10
463.0535
 20
-95.5571
 10
470.9849
 20
-98.0961
  0
LWPOLYLINE
  5
6F
330
1F
100
AcDbEntity
  8
Layer 1
 62
     7
370
    18
100
AcDbPolyline
 90
        2
 70
     0
 43
0.0
 10
458.325
 20
-130.1403
 10
465.2648
 20
-131.7491
  0
LWPOLYLINE
  5
70
330
1F
100
AcDbEntity
  8
Layer 1
 62
     7
370
    18
100
AcDbPolyline
 90
       33
 70
     0
 43
0.0
 10
426.3161
 20
-160.3222
 10
425.7608
 20
-160.5241
 10
425.2708
 20
-160.7337
 10
424.8488
 20
-160.9505
 10
424.4974
 20
-161.1739
 10
424.2194
 20
-161.4033
 10
424.0175
 20
-161.6383
 10
423.8943
 20
-161.8782
 10
423.8527
 20
-162.1225
 10
424.2155
 20
-162.8379
 10
425.2561
 20
-163.5043
 10
426.9025
 20
-164.1074
 10
429.0832
 20
-164.6328
 10
431.7261
 20
-165.0663
 10
434.7596
 20
-165.3937
 10
438.1117
 20
-165.6006
 10
441.7108
 20
-165.6727
 10
445.3098
 20
-165.6006
 10
448.662
 20
-165.3937
 10
451.6954
 20
-165.0663
 10
454.3384
 20
-164.6328
 10
456.519
 20
-164.1074
 10
458.1654
 20
-163.5043
 10
459.206
 20
-162.8379
 10
459.5688
 20
-162.1225
 10
459.5284
 20
-161.8817
 10
459.4088
 20
-161.6452
 10
459.2126
 20
-161.4136
 10
458.9425
 20
-161.1873
 10
458.6009
 20
-160.9668
 10
458.1906
 20
-160.7527
 10
457.7141
 20
-160.5455
 10
457.174
 20
-160.3457
  0
LWPOLYLINE
  5
71
330
1F
100
AcDbEntity
  8
Layer 1
 62
     7
370
    18
100
AcDbPolyline
 90
       17
 70
     0
 43
0.0
 10
423.8527
 20
-168.5303
 10
424.2155
 20
-169.2457
 10
425.2561
 20
-169.912
 10
426.9025
 20
-170.5151
 10
429.0832
 20
-171.0405
 10
431.7261
 20
-171.4741
 10
434.7596
 20
-171.8014
 10
438.1117
 20
-172.0084
 10
441.7108
 20
-172.0805
 10
445.3098
 20
-172.0084
 10
448.662
 20
-171.8014
 10
451.6954
 20
-171.4741
 10
454.3384
 20
-171.0405
 10
456.519
 20
-170.5151
 10
458.1654
 20
-169.912
 10
459.206
 20
-169.2457
 10
459.5688
 20
-168.5303
  0
LWPOLYLINE
  5
72
330
1F
100
AcDbEntity
  8
Layer 1
 62
     7
370
    18
100
AcDbPolyline
 90
        2
 70
     0
 43
0.0
 10
423.8527
 20
-162.1225
 10
423.8527
 20
-168.5303
  0
LWPOLYLINE
  5
73
330
1F
100
AcDbEntity
  8
Layer 1
 62
     7
370
    18
100
AcDbPolyline
 90
        2
 70
     0
 43
0.0
 10
459.5688
 20
-162.1225
 10
459.5688
 20
-168.5303
  0
LWPOLYLINE
  5
74
330
1F
100
AcDbEntity
  8
Layer 1
 62
     7
370
    18
100
AcDbPolyline
 90
       21
 70
     1
 43
0.0
 10
280.1931
 20
14.834
 10
315.9666
 20
5.2374
 10
315.5384
 20
2.9952
 10
315.4139
 20
2.5551
 10
315.223
 20
2.1645
 10
314.9754
 20
1.8306
 10
314.6806
 20
1.5605
 10
314.348
 20
1.3613
 10
313.9872
 20
1.2401
 10
313.6077
 20
1.204
 10
313.219
 20
1.2602
 10
281.2285
 20
9.8419
 10
280.8572
 20
9.9896
 10
280.5278
 20
10.2158
 10
280.2461
 20
10.5093
 10
280.0182
 20
10.8588
 10
279.8502
 20
11.2531
 10
279.7479
 20
11.6808
 10
279.7175
 20
12.1307
 10
279.7649
 20
12.5915
 10
280.1931
 20
14.834
  0
LWPOLYLINE
  5
75
330
1F
100
AcDbEntity
  8
Layer 1
 62
     7
370
    18
100
AcDbPolyline
 90
       21
 70
     1
 43
0.0
 10
286.9652
 20
8.2218
 10
306.3863
 20
3.0117
 10
306.0864
 20
1.4398
 10
305.999
 20
1.1313
 10
305.8651
 20
0.8575
 10
305.6915
 20
0.6235
 10
305.4848
 20
0.4342
 10
305.2517
 20
0.2946
 10
304.9988
 20
0.2096
 10
304.7327
 20
0.1843
 10
304.4602
 20
0.2237
 10
287.6911
 20
4.7222
 10
287.4308
 20
4.8257
 10
287.1999
 20
4.9843
 10
287.0024
 20
5.19
 10
286.8427
 20
5.4351
 10
286.7249
 20
5.7115
 10
286.6532
 20
6.0113
 10
286.6319
 20
6.3268
 10
286.6652
 20
6.6499
 10
286.9652
 20
8.2218
  0
LWPOLYLINE
  5
76
330
1F
100
AcDbEntity
  8
Layer 1
 62
     7
370
    35
100
AcDbPolyline
 90
        2
 70
     0
 43
0.0
 10
438.6297
 20
-172.0801
 10
247.8761
 20
-172.0801
  0
LWPOLYLINE
  5
77
330
1F
100
AcDbEntity
  8
Layer 1
 62
     7
370
    35
100
AcDbPolyline
 90
        2
 70
     0
 43
0.0
 10
373.3939
 20
183.5485
 10
247.8761
 20
183.5485
  0
LWPOLYLINE
  5
78
330
1F
100
AcDbEntity
  8
Layer 1
 62
     7
370
    35
100
AcDbPolyline
 90
        4
 70
     1
 43
0.0
 10
249.2873
 20
-167.375
 10
250.548
 20
-172.0801
 10
251.8087
 20
-167.375
 10
249.2873
 20
-167.375
  0
LWPOLYLINE
  5
79
330
1F
100
AcDbEntity
  8
Layer 1
 62
     7
370
    35
100
AcDbPolyline
 90
        2
 70
     0
 43
0.0
 10
250.548
 20
-8.3394
 10
250.548
 20
-172.0801
  0
LWPOLYLINE
  5
7A
330
1F
100
AcDbEntity
  8
Layer 1
 62
     7
370
    35
100
AcDbPolyline
 90
        4
 70
     1
 43
0.0
 10
249.2872
 20
178.8434
 10
250.548
 20
183.5485
 10
251.8087
 20
178.8434
 10
249.2872
 20
178.8434
  0
LWPOLYLINE
  5
7B
330
1F
100
AcDbEntity
  8
Layer 1
 62
     7
370
    35
100
AcDbPolyline
 90
        2
 70
     0
 43
0.0
 10
250.548
 20
183.5485
 10
250.548
 20
20.1058
  0
LWPOLYLINE
  5
7C
330
1F
100
AcDbEntity
  8
Layer 1
 62
     7
370
     9
100
AcDbPolyline
 90
        4
 70
     1
 43
0.0
 10
233.4879
 20
-11.9822
 10
238.381
 20
-11.9822
 10
238.381
 20
-15.8192
 10
233.4879
 20
-11.9822
  0
LWPOLYLINE
  5
7D
330
1F
100
AcDbEntity
  8
Layer 1
 62
     7
370
     9
100
AcDbPolyline
 90
       11
 70
     1
 43
0.0
 10
239.2773
 20
-10.9046
 10
239.2773
 20
-9.6354
 10
238.381
 20
-9.6354
 10
238.381
 20
-10.9046
 10
232.5418
 20
-10.9194
 10
232.5418
 20
-12.3657
 10
239.2773
 20
-17.6493
 10
239.2773
 20
-11.9822
 10
241.008
 20
-11.9822
 10
241.008
 20
-10.9046
 10
239.2773
 20
-10.9046
  0
LWPOLYLINE
  5
7E
330
1F
100
AcDbEntity
  8
Layer 1
 62
     7
370
     9
100
AcDbPolyline
 90
       84
 70
     1
 43
0.0
 10
233.5253
 20
-4.005
 10
233.623
 20
-3.8346
 10
233.7339
 20
-3.6757
 10
233.8581
 20
-3.5283
 10
233.9954
 20
-3.3924
 10
234.146
 20
-3.2681
 10
234.3098
 20
-3.1553
 10
234.4868
 20
-3.0541
 10
234.677
 20
-2.9645
 10
234.9294
 20
-2.8641
 10
235.1856
 20
-2.7772
 10
235.4454
 20
-2.7036
 10
235.7089
 20
-2.6434
 10
235.9761
 20
-2.5966
 10
236.247
 20
-2.5631
 10
236.5216
 20
-2.5431
 10
236.7998
 20
-2.5364
 10
237.416
 20
-2.5807
 10
237.7507
 20
-2.6319
 10
238.067
 20
-2.6988
 10
238.3647
 20
-2.7814
 10
238.644
 20
-2.8796
 10
238.9047
 20
-2.9935
 10
239.147
 20
-3.1231
 10
239.3708
 20
-3.2684
 10
239.5762
 20
-3.4293
 10
239.7308
 20
-3.5762
 10
239.8649
 20
-3.7309
 10
239.9783
 20
-3.8935
 10
240.0711
 20
-4.0639
 10
240.1433
 20
-4.2422
 10
240.1949
 20
-4.4283
 10
240.2259
 20
-4.6223
 10
240.2362
 20
-4.8241
 10
240.226
 20
-5.0492
 10
240.1953
 20
-5.2634
 10
240.1442
 20
-5.4669
 10
240.0727
 20
-5.6596
 10
239.9808
 20
-5.8414
 10
239.8685
 20
-6.0124
 10
239.7357
 20
-6.1726
 10
239.5826
 20
-6.3219
 10
239.4315
 20
-6.4455
 10
239.2712
 20
-6.5581
 10
239.1015
 20
-6.6596
 10
238.9226
 20
-6.75
 10
238.7378
 20
-6.8297
 10
238.5506
 20
-6.8994
 10
238.3611
 20
-6.9588
 10
238.1693
 20
-7.0082
 10
237.4224
 20
-7.1338
 10
236.5902
 20
-7.1706
 10
236.3411
 20
-7.1605
 10
236.0639
 20
-7.1301
 10
235.7584
 20
-7.0793
 10
235.4242
 20
-7.0082
 10
235.2346
 20
-6.9593
 10
235.0459
 20
-6.9012
 10
234.8579
 20
-6.8338
 10
234.6709
 20
-6.7572
 10
234.4888
 20
-6.6701
 10
234.316
 20
-6.571
 10
234.1526
 20
-6.4598
 10
233.9985
 20
-6.3367
 10
233.8564
 20
-6.2011
 10
233.7292
 20
-6.0526
 10
233.6168
 20
-5.8911
 10
233.5192
 20
-5.7167
 10
233.4769
 20
-5.6243
 10
233.4403
 20
-5.5277
 10
233.4093
 20
-5.4269
 10
233.3839
 20
-5.322
 10
233.3642
 20
-5.2129
 10
233.3501
 20
-5.0997
 10
233.3416
 20
-4.9824
 10
233.3388
 20
-4.8609
 10
233.3417
 20
-4.7394
 10
233.3504
 20
-4.622
 10
233.365
 20
-4.5088
 10
233.3853
 20
-4.3997
 10
233.4115
 20
-4.2948
 10
233.4436
 20
-4.194
 10
233.4815
 20
-4.0974
 10
233.5253
 20
-4.005
  0
LWPOLYLINE
  5
7F
330
1F
100
AcDbEntity
  8
Layer 1
 62
     7
370
     9
100
AcDbPolyline
 90
       65
 70
     1
 43
0.0
 10
241.12
 20
-4.8094
 10
241.097
 20
-4.3785
 10
241.0278
 20
-3.975
 10
240.9125
 20
-3.599
 10
240.7512
 20
-3.2504
 10
240.5437
 20
-2.9293
 10
240.2901
 20
-2.6356
 10
239.9904
 20
-2.3694
 10
239.6445
 20
-2.1306
 10
239.3428
 20
-1.9628
 10
239.0244
 20
-1.8174
 10
238.6893
 20
-1.6944
 10
238.3374
 20
-1.5937
 10
237.9688
 20
-1.5155
 10
237.5834
 20
-1.4596
 10
237.1813
 20
-1.4261
 10
236.7624
 20
-1.4149
 10
236.3435
 20
-1.4261
 10
235.9414
 20
-1.4596
 10
235.556
 20
-1.5155
 10
235.1874
 20
-1.5937
 10
234.8355
 20
-1.6944
 10
234.5004
 20
-1.8174
 10
234.182
 20
-1.9628
 10
233.8803
 20
-2.1306
 10
233.5344
 20
-2.3694
 10
233.2347
 20
-2.6356
 10
232.9811
 20
-2.9293
 10
232.7736
 20
-3.2504
 10
232.6123
 20
-3.599
 10
232.497
 20
-3.975
 10
232.4278
 20
-4.3785
 10
232.4048
 20
-4.8094
 10
232.4278
 20
-5.2402
 10
232.497
 20
-5.6435
 10
232.6123
 20
-6.0194
 10
232.7736
 20
-6.368
 10
232.9811
 20
-6.6891
 10
233.2347
 20
-6.9828
 10
233.5344
 20
-7.249
 10
233.8803
 20
-7.4878
 10
234.182
 20
-7.6556
 10
234.5004
 20
-7.801
 10
234.8355
 20
-7.924
 10
235.1874
 20
-8.0247
 10
235.556
 20
-8.1029
 10
235.9414
 20
-8.1588
 10
236.3435
 20
-8.1923
 10
236.7624
 20
-8.2035
 10
237.1813
 20
-8.1923
 10
237.5834
 20
-8.1588
 10
237.9688
 20
-8.1029
 10
238.3374
 20
-8.0247
 10
238.6893
 20
-7.924
 10
239.0244
 20
-7.801
 10
239.3428
 20
-7.6556
 10
239.6445
 20
-7.4878
 10
239.9904
 20
-7.249
 10
240.2901
 20
-6.9828
 10
240.5437
 20
-6.6891
 10
240.7512
 20
-6.368
 10
240.9125
 20
-6.0194
 10
241.0278
 20
-5.6435
 10
241.097
 20
-5.2402
 10
241.12
 20
-4.8094
  0
LWPOLYLINE
  5
80
330
1F
100
AcDbEntity
  8
Layer 1
 62
     7
370
     9
100
AcDbPolyline
 90
       84
 70
     1
 43
0.0
 10
233.5253
 20
4.2598
 10
233.623
 20
4.4303
 10
233.7339
 20
4.5892
 10
233.8581
 20
4.7366
 10
233.9954
 20
4.8725
 10
234.146
 20
4.9968
 10
234.3098
 20
5.1095
 10
234.4868
 20
5.2107
 10
234.677
 20
5.3003
 10
234.9294
 20
5.4007
 10
235.1856
 20
5.4877
 10
235.4454
 20
5.5613
 10
235.7089
 20
5.6215
 10
235.9761
 20
5.6683
 10
236.247
 20
5.7017
 10
236.5216
 20
5.7217
 10
236.7998
 20
5.7284
 10
237.416
 20
5.6842
 10
237.7507
 20
5.633
 10
238.067
 20
5.5661
 10
238.3647
 20
5.4835
 10
238.644
 20
5.3853
 10
238.9047
 20
5.2714
 10
239.147
 20
5.1417
 10
239.3708
 20
4.9965
 10
239.5762
 20
4.8355
 10
239.7308
 20
4.6886
 10
239.8649
 20
4.5339
 10
239.9783
 20
4.3713
 10
240.0711
 20
4.2009
 10
240.1433
 20
4.0226
 10
240.1949
 20
3.8365
 10
240.2259
 20
3.6425
 10
240.2362
 20
3.4407
 10
240.226
 20
3.2156
 10
240.1953
 20
3.0014
 10
240.1442
 20
2.7979
 10
240.0727
 20
2.6053
 10
239.9808
 20
2.4234
 10
239.8685
 20
2.2524
 10
239.7357
 20
2.0922
 10
239.5826
 20
1.9429
 10
239.4315
 20
1.8193
 10
239.2712
 20
1.7067
 10
239.1015
 20
1.6052
 10
238.9226
 20
1.5148
 10
238.7378
 20
1.4351
 10
238.5506
 20
1.3655
 10
238.3611
 20
1.306
 10
238.1693
 20
1.2567
 10
237.4224
 20
1.131
 10
236.5902
 20
1.0943
 10
236.3411
 20
1.1044
 10
236.0639
 20
1.1349
 10
235.7584
 20
1.1856
 10
235.4242
 20
1.2567
 10
235.2346
 20
1.3056
 10
235.0459
 20
1.3636
 10
234.8579
 20
1.431
 10
234.6709
 20
1.5076
 10
234.4888
 20
1.5947
 10
234.316
 20
1.6939
 10
234.1526
 20
1.8051
 10
233.9985
 20
1.9282
 10
233.8564
 20
2.0637
 10
233.7292
 20
2.2123
 10
233.6168
 20
2.3737
 10
233.5192
 20
2.5482
 10
233.4769
 20
2.6406
 10
233.4403
 20
2.7372
 10
233.4093
 20
2.8379
 10
233.3839
 20
2.9428
 10
233.3642
 20
3.0519
 10
233.3501
 20
3.1651
 10
233.3416
 20
3.2825
 10
233.3388
 20
3.404
 10
233.3417
 20
3.5255
 10
233.3504
 20
3.6428
 10
233.365
 20
3.756
 10
233.3853
 20
3.8651
 10
233.4115
 20
3.97
 10
233.4436
 20
4.0708
 10
233.4815
 20
4.1674
 10
233.5253
 20
4.2598
  0
LWPOLYLINE
  5
81
330
1F
100
AcDbEntity
  8
Layer 1
 62
     7
370
     9
100
AcDbPolyline
 90
       65
 70
     1
 43
0.0
 10
241.12
 20
3.4555
 10
241.097
 20
3.8864
 10
241.0278
 20
4.2898
 10
240.9125
 20
4.6658
 10
240.7512
 20
5.0144
 10
240.5437
 20
5.3355
 10
240.2901
 20
5.6292
 10
239.9904
 20
5.8954
 10
239.6445
 20
6.1342
 10
239.3428
 20
6.302
 10
239.0244
 20
6.4474
 10
238.6893
 20
6.5705
 10
238.3374
 20
6.6711
 10
237.9688
 20
6.7494
 10
237.5834
 20
6.8053
 10
237.1813
 20
6.8388
 10
236.7624
 20
6.85
 10
236.3435
 20
6.8388
 10
235.9414
 20
6.8053
 10
235.556
 20
6.7494
 10
235.1874
 20
6.6711
 10
234.8355
 20
6.5705
 10
234.5004
 20
6.4474
 10
234.182
 20
6.302
 10
233.8803
 20
6.1342
 10
233.5344
 20
5.8954
 10
233.2347
 20
5.6292
 10
232.9811
 20
5.3355
 10
232.7736
 20
5.0144
 10
232.6123
 20
4.6658
 10
232.497
 20
4.2898
 10
232.4278
 20
3.8864
 10
232.4048
 20
3.4555
 10
232.4278
 20
3.0247
 10
232.497
 20
2.6214
 10
232.6123
 20
2.2454
 10
232.7736
 20
1.8969
 10
232.9811
 20
1.5758
 10
233.2347
 20
1.2821
 10
233.5344
 20
1.0159
 10
233.8803
 20
0.7771
 10
234.182
 20
0.6093
 10
234.5004
 20
0.4639
 10
234.8355
 20
0.3408
 10
235.1874
 20
0.2402
 10
235.556
 20
0.1619
 10
235.9414
 20
0.106
 10
236.3435
 20
0.0725
 10
236.7624
 20
0.0613
 10
237.1813
 20
0.0725
 10
237.5834
 20
0.106
 10
237.9688
 20
0.1619
 10
238.3374
 20
0.2402
 10
238.6893
 20
0.3408
 10
239.0244
 20
0.4639
 10
239.3428
 20
0.6093
 10
239.6445
 20
0.7771
 10
239.9904
 20
1.0159
 10
240.2901
 20
1.2821
 10
240.5437
 20
1.5758
 10
240.7512
 20
1.8969
 10
240.9125
 20
2.2454
 10
241.0278
 20
2.6214
 10
241.097
 20
3.0247
 10
241.12
 20
3.4555
  0
LWPOLYLINE
  5
82
330
1F
100
AcDbEntity
  8
Layer 1
 62
     7
370
     9
100
AcDbPolyline
 90
      155
 70
     1
 43
0.0
 10
240.9831
 20
20.9152
 10
240.9831
 20
21.9485
 10
237.5591
 20
21.9485
 10
237.3319
 20
21.9401
 10
237.1153
 20
21.9148
 10
236.9094
 20
21.8727
 10
236.7143
 20
21.8138
 10
236.5298
 20
21.738
 10
236.356
 20
21.6455
 10
236.1929
 20
21.5361
 10
236.0405
 20
21.4099
 10
235.9676
 20
21.3394
 10
235.8984
 20
21.2645
 10
235.8329
 20
21.1853
 10
235.7712
 20
21.1017
 10
235.7131
 20
21.0137
 10
235.6586
 20
20.9213
 10
235.6079
 20
20.8245
 10
235.5609
 20
20.7233
 10
235.5186
 20
20.6158
 10
235.4819
 20
20.5001
 10
235.4509
 20
20.376
 10
235.4255
 20
20.2437
 10
235.4058
 20
20.103
 10
235.3917
 20
19.954
 10
235.3832
 20
19.7968
 10
235.3804
 20
19.6312
 10
235.3853
 20
19.4642
 10
235.3999
 20
19.3024
 10
235.4242
 20
19.1459
 10
235.4583
 20
18.9948
 10
235.5021
 20
18.8489
 10
235.5556
 20
18.7083
 10
235.6188
 20
18.5731
 10
235.6918
 20
18.4431
 10
235.7646
 20
18.3303
 10
235.8427
 20
18.2227
 10
235.9262
 20
18.1201
 10
236.015
 20
18.0226
 10
236.109
 20
17.9301
 10
236.2083
 20
17.8427
 10
236.3127
 20
17.7603
 10
236.4222
 20
17.683
 10
236.0405
 20
17.4101
 10
235.9676
 20
17.3396
 10
235.8984
 20
17.2647
 10
235.8329
 20
17.1855
 10
235.7712
 20
17.102
 10
235.7131
 20
17.014
 10
235.6586
 20
16.9217
 10
235.6079
 20
16.825
 10
235.5609
 20
16.7239
 10
235.5186
 20
16.6164
 10
235.4819
 20
16.5007
 10
235.4509
 20
16.3766
 10
235.4255
 20
16.2443
 10
235.4058
 20
16.1036
 10
235.3917
 20
15.9547
 10
235.3832
 20
15.7974
 10
235.3804
 20
15.6319
 10
235.3853
 20
15.4647
 10
235.3999
 20
15.3029
 10
235.4242
 20
15.1464
 10
235.4583
 20
14.9952
 10
235.5021
 20
14.8494
 10
235.5556
 20
14.7089
 10
235.6188
 20
14.5736
 10
235.6918
 20
14.4437
 10
235.761
 20
14.3362
 10
235.8349
 20
14.2334
 10
235.9136
 20
14.1351
 10
235.997
 20
14.0414
 10
236.0852
 20
13.9524
 10
236.1782
 20
13.868
 10
236.2759
 20
13.7883
 10
236.3785
 20
13.7132
 10
235.505
 20
13.7132
 10
235.505
 20
12.6798
 10
240.9831
 20
12.6798
 10
240.9831
 20
13.7132
 10
238.1796
 20
13.7132
 10
238.0163
 20
13.7371
 10
237.8594
 20
13.7685
 10
237.7088
 20
13.8072
 10
237.5645
 20
13.8533
 10
237.4264
 20
13.9067
 10
237.2944
 20
13.9676
 10
237.1686
 20
14.0358
 10
237.0488
 20
14.1114
 10
236.9636
 20
14.1731
 10
236.8823
 20
14.2397
 10
236.8049
 20
14.3115
 10
236.7313
 20
14.3883
 10
236.6616
 20
14.4701
 10
236.5959
 20
14.557
 10
236.534
 20
14.649
 10
236.476
 20
14.7461
 10
236.4235
 20
14.8467
 10
236.3779
 20
14.9491
 10
236.3394
 20
15.0533
 10
236.3079
 20
15.1594
 10
236.2833
 20
15.2673
 10
236.2658
 20
15.3771
 10
236.2553
 20
15.4888
 10
236.2518
 20
15.6023
 10
236.2592
 20
15.8163
 10
236.2814
 20
16.0007
 10
236.2981
 20
16.0818
 10
236.3185
 20
16.1556
 10
236.3425
 20
16.222
 10
236.3703
 20
16.281
 10
236.4631
 20
16.4298
 10
236.5719
 20
16.5587
 10
236.6965
 20
16.6678
 10
236.8371
 20
16.7571
 10
236.9937
 20
16.8265
 10
237.1662
 20
16.8761
 10
237.3547
 20
16.9059
 10
237.5591
 20
16.9158
 10
240.9831
 20
16.9158
 10
240.9831
 20
17.9487
 10
237.5591
 20
17.9487
 10
237.3495
 20
17.9415
 10
237.0488
 20
18.1111
 10
236.9636
 20
18.1727
 10
236.8823
 20
18.2393
 10
236.8049
 20
18.3111
 10
236.7313
 20
18.3879
 10
236.6616
 20
18.4698
 10
236.5959
 20
18.5568
 10
236.534
 20
18.6488
 10
236.476
 20
18.7459
 10
236.4235
 20
18.8463
 10
236.3779
 20
18.9487
 10
236.3394
 20
19.0529
 10
236.3079
 20
19.159
 10
236.2833
 20
19.2669
 10
236.2658
 20
19.3767
 10
236.2553
 20
19.4883
 10
236.2518
 20
19.6017
 10
236.2592
 20
19.8157
 10
236.2814
 20
20.0002
 10
236.2981
 20
20.0814
 10
236.3185
 20
20.1553
 10
236.3425
 20
20.2217
 10
236.3703
 20
20.2808
 10
236.4631
 20
20.4295
 10
236.5719
 20
20.5584
 10
236.6965
 20
20.6674
 10
236.8371
 20
20.7566
 10
236.9937
 20
20.826
 10
237.1662
 20
20.8756
 10
237.3547
 20
20.9053
 10
237.5591
 20
20.9152
 10
240.9831
 20
20.9152
  0
LWPOLYLINE
  5
83
330
1F
100
AcDbEntity
  8
Layer 1
 62
     7
370
     9
100
AcDbPolyline
 90
      155
 70
     1
 43
0.0
 10
240.9831
 20
32.1759
 10
240.9831
 20
33.2093
 10
237.5591
 20
33.2093
 10
237.3319
 20
33.2009
 10
237.1153
 20
33.1756
 10
236.9094
 20
33.1335
 10
236.7143
 20
33.0746
 10
236.5298
 20
32.9988
 10
236.356
 20
32.9063
 10
236.1929
 20
32.7969
 10
236.0405
 20
32.6707
 10
235.9676
 20
32.6002
 10
235.8984
 20
32.5253
 10
235.8329
 20
32.4461
 10
235.7712
 20
32.3625
 10
235.7131
 20
32.2744
 10
235.6586
 20
32.182
 10
235.6079
 20
32.0852
 10
235.5609
 20
31.984
 10
235.5186
 20
31.8766
 10
235.4819
 20
31.7608
 10
235.4509
 20
31.6368
 10
235.4255
 20
31.5045
 10
235.4058
 20
31.3638
 10
235.3917
 20
31.2148
 10
235.3832
 20
31.0576
 10
235.3804
 20
30.892
 10
235.3853
 20
30.7249
 10
235.3999
 20
30.5632
 10
235.4242
 20
30.4067
 10
235.4583
 20
30.2555
 10
235.5021
 20
30.1097
 10
235.5556
 20
29.9691
 10
235.6188
 20
29.8339
 10
235.6918
 20
29.7039
 10
235.7646
 20
29.5911
 10
235.8427
 20
29.4835
 10
235.9262
 20
29.3809
 10
236.015
 20
29.2834
 10
236.109
 20
29.1909
 10
236.2083
 20
29.1035
 10
236.3127
 20
29.0211
 10
236.4222
 20
28.9438
 10
236.0405
 20
28.6709
 10
235.9676
 20
28.6004
 10
235.8984
 20
28.5255
 10
235.8329
 20
28.4463
 10
235.7712
 20
28.3628
 10
235.7131
 20
28.2748
 10
235.6586
 20
28.1825
 10
235.6079
 20
28.0858
 10
235.5609
 20
27.9847
 10
235.5186
 20
27.8772
 10
235.4819
 20
27.7615
 10
235.4509
 20
27.6374
 10
235.4255
 20
27.5051
 10
235.4058
 20
27.3644
 10
235.3917
 20
27.2154
 10
235.3832
 20
27.0582
 10
235.3804
 20
26.8926
 10
235.3853
 20
26.7254
 10
235.3999
 20
26.5636
 10
235.4242
 20
26.4072
 10
235.4583
 20
26.256
 10
235.5021
 20
26.1102
 10
235.5556
 20
25.9697
 10
235.6188
 20
25.8344
 10
235.6918
 20
25.7045
 10
235.761
 20
25.597
 10
235.8349
 20
25.4942
 10
235.9136
 20
25.3959
 10
235.997
 20
25.3022
 10
236.0852
 20
25.2132
 10
236.1782
 20
25.1288
 10
236.2759
 20
25.0491
 10
236.3785
 20
24.974
 10
235.505
 20
24.974
 10
235.505
 20
23.9406
 10
240.9831
 20
23.9406
 10
240.9831
 20
24.974
 10
238.1796
 20
24.974
 10
238.0163
 20
24.9979
 10
237.8594
 20
25.0293
 10
237.7088
 20
25.068
 10
237.5645
 20
25.1141
 10
237.4264
 20
25.1675
 10
237.2944
 20
25.2284
 10
237.1686
 20
25.2966
 10
237.0488
 20
25.3722
 10
236.9636
 20
25.4339
 10
236.8823
 20
25.5005
 10
236.8049
 20
25.5723
 10
236.7313
 20
25.6491
 10
236.6616
 20
25.7309
 10
236.5959
 20
25.8178
 10
236.534
 20
25.9098
 10
236.476
 20
26.0069
 10
236.4235
 20
26.1075
 10
236.3779
 20
26.2098
 10
236.3394
 20
26.3141
 10
236.3079
 20
26.4202
 10
236.2833
 20
26.5281
 10
236.2658
 20
26.6379
 10
236.2553
 20
26.7496
 10
236.2518
 20
26.8631
 10
236.2592
 20
27.0771
 10
236.2814
 20
27.2615
 10
236.2981
 20
27.3426
 10
236.3185
 20
27.4164
 10
236.3425
 20
27.4828
 10
236.3703
 20
27.5418
 10
236.4631
 20
27.6906
 10
236.5719
 20
27.8195
 10
236.6965
 20
27.9286
 10
236.8371
 20
28.0179
 10
236.9937
 20
28.0873
 10
237.1662
 20
28.1369
 10
237.3547
 20
28.1667
 10
237.5591
 20
28.1766
 10
240.9831
 20
28.1766
 10
240.9831
 20
29.2095
 10
237.5591
 20
29.2095
 10
237.3495
 20
29.2023
 10
237.0488
 20
29.3719
 10
236.9636
 20
29.4335
 10
236.8823
 20
29.5001
 10
236.8049
 20
29.5719
 10
236.7313
 20
29.6487
 10
236.6616
 20
29.7306
 10
236.5959
 20
29.8176
 10
236.534
 20
29.9096
 10
236.476
 20
30.0067
 10
236.4235
 20
30.1071
 10
236.3779
 20
30.2095
 10
236.3394
 20
30.3136
 10
236.3079
 20
30.4197
 10
236.2833
 20
30.5276
 10
236.2658
 20
30.6374
 10
236.2553
 20
30.749
 10
236.2518
 20
30.8625
 10
236.2592
 20
31.0765
 10
236.2814
 20
31.261
 10
236.2981
 20
31.3422
 10
236.3185
 20
31.416
 10
236.3425
 20
31.4825
 10
236.3703
 20
31.5415
 10
236.4631
 20
31.6902
 10
236.5719
 20
31.8191
 10
236.6965
 20
31.9282
 10
236.8371
 20
32.0174
 10
236.9937
 20
32.0867
 10
237.1662
 20
32.1363
 10
237.3547
 20
32.166
 10
237.5591
 20
32.1759
 10
240.9831
 20
32.1759
  0
LWPOLYLINE
  5
84
330
1F
100
AcDbEntity
  8
Layer 1
 62
     7
370
    35
100
AcDbPolyline
 90
        2
 70
     0
 43
0.0
 10
442.0511
 20
-1.9734
 10
442.0511
 20
-13.8062
  0
LWPOLYLINE
  5
85
330
1F
100
AcDbEntity
  8
Layer 1
 62
     7
370
    35
100
AcDbPolyline
 90
        2
 70
     0
 43
0.0
 10
295.659
 20
14.3153
 10
295.659
 20
-13.8062
  0
LWPOLYLINE
  5
86
330
1F
100
AcDbEntity
  8
Layer 1
 62
     7
370
    35
100
AcDbPolyline
 90
        4
 70
     1
 43
0.0
 10
437.3513
 20
-11.8981
 10
442.0511
 20
-10.6389
 10
437.3513
 20
-9.3796
 10
437.3513
 20
-11.8981
  0
LWPOLYLINE
  5
87
330
1F
100
AcDbEntity
  8
Layer 1
 62
     7
370
    35
100
AcDbPolyline
 90
        2
 70
     0
 43
0.0
 10
381.3246
 20
-10.6389
 10
442.0511
 20
-10.6389
  0
LWPOLYLINE
  5
88
330
1F
100
AcDbEntity
  8
Layer 1
 62
     7
370
    35
100
AcDbPolyline
 90
        4
 70
     1
 43
0.0
 10
300.3587
 20
-11.8981
 10
295.659
 20
-10.6389
 10
300.3587
 20
-9.3796
 10
300.3587
 20
-11.8981
  0
LWPOLYLINE
  5
89
330
1F
100
AcDbEntity
  8
Layer 1
 62
     7
370
    35
100
AcDbPolyline
 90
        2
 70
     0
 43
0.0
 10
295.659
 20
-10.6389
 10
357.3377
 20
-10.6389
  0
LWPOLYLINE
  5
8A
330
1F
100
AcDbEntity
  8
Layer 1
 62
     7
370
     9
100
AcDbPolyline
 90
       87
 70
     1
 43
0.0
 10
347.2971
 20
-2.4183
 10
353.2609
 20
-2.4183
 10
353.2609
 20
-1.3853
 10
349.4014
 20
-1.3853
 10
352.3521
 20
2.083
 10
352.5446
 20
2.3328
 10
352.7115
 20
2.595
 10
352.8527
 20
2.8696
 10
352.9683
 20
3.1567
 10
353.0581
 20
3.4563
 10
353.1223
 20
3.7683
 10
353.1609
 20
4.0928
 10
353.1737
 20
4.4298
 10
353.1606
 20
4.7743
 10
353.1212
 20
5.105
 10
353.0556
 20
5.4218
 10
352.9637
 20
5.7249
 10
352.8455
 20
6.014
 10
352.701
 20
6.2893
 10
352.5303
 20
6.5508
 10
352.3333
 20
6.7985
 10
352.1145
 20
7.0285
 10
351.886
 20
7.2279
 10
351.6477
 20
7.3965
 10
351.3996
 20
7.5346
 10
351.1418
 20
7.6419
 10
350.8743
 20
7.7186
 10
350.5971
 20
7.7647
 10
350.3101
 20
7.78
 10
350.0122
 20
7.7638
 10
349.7254
 20
7.7154
 10
349.4497
 20
7.6346
 10
349.185
 20
7.5216
 10
348.9315
 20
7.3763
 10
348.689
 20
7.1987
 10
348.4575
 20
6.9888
 10
348.2372
 20
6.7466
 10
348.0411
 20
6.4862
 10
347.8727
 20
6.2122
 10
347.7322
 20
5.9246
 10
347.6195
 20
5.6234
 10
347.5345
 20
5.3085
 10
347.4774
 20
4.98
 10
347.4481
 20
4.6378
 10
347.4466
 20
4.2821
 10
348.3307
 20
4.2821
 10
348.3233
 20
4.5128
 10
348.3369
 20
4.7382
 10
348.3715
 20
4.9583
 10
348.4271
 20
5.1732
 10
348.5038
 20
5.3827
 10
348.6014
 20
5.5869
 10
348.7201
 20
5.7858
 10
348.8598
 20
5.9794
 10
349.0092
 20
6.1523
 10
349.1663
 20
6.3021
 10
349.3313
 20
6.4289
 10
349.504
 20
6.5327
 10
349.6845
 20
6.6134
 10
349.8728
 20
6.671
 10
350.0689
 20
6.7056
 10
350.2728
 20
6.7171
 10
350.4729
 20
6.7067
 10
350.6654
 20
6.6756
 10
350.8503
 20
6.6238
 10
351.0277
 20
6.5512
 10
351.1974
 20
6.4579
 10
351.3596
 20
6.3438
 10
351.5141
 20
6.2089
 10
351.6611
 20
6.0532
 10
351.7967
 20
5.8811
 10
351.9143
 20
5.7007
 10
352.0138
 20
5.5121
 10
352.0952
 20
5.3152
 10
352.1586
 20
5.1099
 10
352.2038
 20
4.8964
 10
352.2309
 20
4.6746
 10
352.24
 20
4.4445
 10
352.2312
 20
4.2093
 10
352.205
 20
3.9834
 10
352.1612
 20
3.7666
 10
352.0999
 20
3.5591
 10
352.0211
 20
3.3608
 10
351.9248
 20
3.1716
 10
351.811
 20
2.9918
 10
351.6797
 20
2.8211
 10
347.2971
 20
-2.4183
  0
LWPOLYLINE
  5
8B
330
1F
100
AcDbEntity
  8
Layer 1
 62
     7
370
     9
100
AcDbPolyline
 90
       87
 70
     1
 43
0.0
 10
354.9539
 20
-2.4183
 10
360.9176
 20
-2.4183
 10
360.9176
 20
-1.3853
 10
357.0581
 20
-1.3853
 10
360.0089
 20
2.083
 10
360.2014
 20
2.3328
 10
360.3683
 20
2.595
 10
360.5095
 20
2.8696
 10
360.6251
 20
3.1567
 10
360.7149
 20
3.4563
 10
360.7791
 20
3.7683
 10
360.8177
 20
4.0928
 10
360.8305
 20
4.4298
 10
360.8174
 20
4.7743
 10
360.778
 20
5.105
 10
360.7123
 20
5.4218
 10
360.6204
 20
5.7249
 10
360.5022
 20
6.014
 10
360.3577
 20
6.2893
 10
360.187
 20
6.5508
 10
359.99
 20
6.7985
 10
359.7712
 20
7.0285
 10
359.5427
 20
7.2279
 10
359.3044
 20
7.3965
 10
359.0564
 20
7.5346
 10
358.7986
 20
7.6419
 10
358.5311
 20
7.7186
 10
358.2539
 20
7.7647
 10
357.9669
 20
7.78
 10
357.669
 20
7.7638
 10
357.3822
 20
7.7154
 10
357.1065
 20
7.6346
 10
356.8418
 20
7.5216
 10
356.5882
 20
7.3763
 10
356.3457
 20
7.1987
 10
356.1143
 20
6.9888
 10
355.8939
 20
6.7466
 10
355.6978
 20
6.4862
 10
355.5294
 20
6.2122
 10
355.3889
 20
5.9246
 10
355.2762
 20
5.6234
 10
355.1912
 20
5.3085
 10
355.1341
 20
4.98
 10
355.1048
 20
4.6378
 10
355.1033
 20
4.2821
 10
355.9875
 20
4.2821
 10
355.9801
 20
4.5128
 10
355.9937
 20
4.7382
 10
356.0283
 20
4.9583
 10
356.0839
 20
5.1732
 10
356.1606
 20
5.3827
 10
356.2582
 20
5.5869
 10
356.3769
 20
5.7858
 10
356.5166
 20
5.9794
 10
356.6659
 20
6.1523
 10
356.8231
 20
6.3021
 10
356.988
 20
6.4289
 10
357.1607
 20
6.5327
 10
357.3412
 20
6.6134
 10
357.5296
 20
6.671
 10
357.7256
 20
6.7056
 10
357.9295
 20
6.7171
 10
358.1296
 20
6.7067
 10
358.3221
 20
6.6756
 10
358.5071
 20
6.6238
 10
358.6844
 20
6.5512
 10
358.8542
 20
6.4579
 10
359.0163
 20
6.3438
 10
359.1709
 20
6.2089
 10
359.3179
 20
6.0532
 10
359.4535
 20
5.8811
 10
359.5711
 20
5.7007
 10
359.6706
 20
5.5121
 10
359.752
 20
5.3152
 10
359.8153
 20
5.1099
 10
359.8606
 20
4.8964
 10
359.8877
 20
4.6746
 10
359.8968
 20
4.4445
 10
359.888
 20
4.2093
 10
359.8618
 20
3.9834
 10
359.818
 20
3.7666
 10
359.7567
 20
3.5591
 10
359.6779
 20
3.3608
 10
359.5816
 20
3.1716
 10
359.4677
 20
2.9918
 10
359.3364
 20
2.8211
 10
354.9539
 20
-2.4183
  0
LWPOLYLINE
  5
8C
330
1F
100
AcDbEntity
  8
Layer 1
 62
     7
370
     9
100
AcDbPolyline
 90
       86
 70
     1
 43
0.0
 10
365.9909
 20
6.4518
 10
366.1347
 20
6.3359
 10
366.2687
 20
6.2044
 10
366.393
 20
6.0572
 10
366.5076
 20
5.8944
 10
366.6125
 20
5.7159
 10
366.7076
 20
5.5218
 10
366.793
 20
5.312
 10
366.8686
 20
5.0865
 10
366.9533
 20
4.7873
 10
367.0267
 20
4.4837
 10
367.0888
 20
4.1757
 10
367.1395
 20
3.8633
 10
367.179
 20
3.5465
 10
367.2072
 20
3.2254
 10
367.2242
 20
2.8999
 10
367.2298
 20
2.5701
 10
367.1924
 20
1.8396
 10
367.1492
 20
1.4428
 10
367.0928
 20
1.0679
 10
367.0232
 20
0.715
 10
366.9403
 20
0.384
 10
366.8442
 20
0.0749
 10
366.7348
 20
-0.2123
 10
366.6123
 20
-0.4777
 10
366.4765
 20
-0.7211
 10
366.3526
 20
-0.9044
 10
366.2221
 20
-1.0633
 10
366.0849
 20
-1.1977
 10
365.9412
 20
-1.3077
 10
365.7908
 20
-1.3933
 10
365.6338
 20
-1.4545
 10
365.4702
 20
-1.4912
 10
365.2999
 20
-1.5034
 10
365.11
 20
-1.4913
 10
364.9293
 20
-1.4549
 10
364.7576
 20
-1.3944
 10
364.5951
 20
-1.3096
 10
364.4417
 20
-1.2006
 10
364.2974
 20
-1.0675
 10
364.1623
 20
-0.9101
 10
364.0363
 20
-0.7286
 10
363.9321
 20
-0.5495
 10
363.8371
 20
-0.3594
 10
363.7515
 20
-0.1583
 10
363.6752
 20
0.0538
 10
363.6079
 20
0.2729
 10
363.5492
 20
0.4947
 10
363.499
 20
0.7193
 10
363.4574
 20
0.9467
 10
363.3514
 20
1.832
 10
363.3205
 20
2.8185
 10
363.329
 20
3.1138
 10
363.3547
 20
3.4424
 10
363.3975
 20
3.8047
 10
363.4574
 20
4.2008
 10
363.4986
 20
4.4255
 10
363.5477
 20
4.6492
 10
363.6045
 20
4.872
 10
363.6691
 20
5.0937
 10
363.7426
 20
5.3096
 10
363.8263
 20
5.5144
 10
363.92
 20
5.7081
 10
364.0239
 20
5.8908
 10
364.1383
 20
6.0592
 10
364.2635
 20
6.21
 10
364.3303
 20
6.2788
 10
364.3997
 20
6.3433
 10
364.472
 20
6.4033
 10
364.5469
 20
6.459
 10
364.6249
 20
6.5091
 10
364.7064
 20
6.5525
 10
364.7914
 20
6.5893
 10
364.8799
 20
6.6193
 10
364.9719
 20
6.6427
 10
365.0674
 20
6.6594
 10
365.1664
 20
6.6695
 10
365.2689
 20
6.6728
 10
365.3714
 20
6.6694
 10
365.4704
 20
6.659
 10
365.5659
 20
6.6418
 10
365.6579
 20
6.6177
 10
365.7464
 20
6.5866
 10
365.8314
 20
6.5486
 10
365.9129
 20
6.5037
 10
365.9909
 20
6.4518
  0
LWPOLYLINE
  5
8D
330
1F
100
AcDbEntity
  8
Layer 1
 62
     7
370
     9
100
AcDbPolyline
 90
       65
 70
     1
 43
0.0
 10
365.3123
 20
-2.5512
 10
365.6758
 20
-2.5239
 10
366.0162
 20
-2.4419
 10
366.3334
 20
-2.3053
 10
366.6274
 20
-2.114
 10
366.8983
 20
-1.868
 10
367.1461
 20
-1.5674
 10
367.3707
 20
-1.2121
 10
367.5721
 20
-0.8021
 10
367.7137
 20
-0.4445
 10
367.8363
 20
-0.0671
 10
367.9401
 20
0.3302
 10
368.025
 20
0.7474
 10
368.091
 20
1.1844
 10
368.1382
 20
1.6412
 10
368.1665
 20
2.1179
 10
368.1759
 20
2.6144
 10
368.1665
 20
3.1109
 10
368.1382
 20
3.5876
 10
368.091
 20
4.0444
 10
368.025
 20
4.4814
 10
367.9401
 20
4.8986
 10
367.8363
 20
5.2959
 10
367.7137
 20
5.6733
 10
367.5721
 20
6.0309
 10
367.3707
 20
6.4409
 10
367.1461
 20
6.7962
 10
366.8983
 20
7.0968
 10
366.6274
 20
7.3428
 10
366.3334
 20
7.5341
 10
366.0162
 20
7.6707
 10
365.6758
 20
7.7527
 10
365.3123
 20
7.78
 10
364.9489
 20
7.7527
 10
364.6086
 20
7.6707
 10
364.2915
 20
7.5341
 10
363.9975
 20
7.3428
 10
363.7266
 20
7.0968
 10
363.4789
 20
6.7962
 10
363.2543
 20
6.4409
 10
363.0529
 20
6.0309
 10
362.9113
 20
5.6733
 10
362.7886
 20
5.2959
 10
362.6848
 20
4.8986
 10
362.5999
 20
4.4814
 10
362.5339
 20
4.0444
 10
362.4867
 20
3.5876
 10
362.4584
 20
3.1109
 10
362.449
 20
2.6144
 10
362.4584
 20
2.1179
 10
362.4867
 20
1.6412
 10
362.5339
 20
1.1844
 10
362.5999
 20
0.7474
 10
362.6848
 20
0.3302
 10
362.7886
 20
-0.0671
 10
362.9113
 20
-0.4445
 10
363.0529
 20
-0.8021
 10
363.2543
 20
-1.2121
 10
363.4789
 20
-1.5674
 10
363.7266
 20
-1.868
 10
363.9975
 20
-2.114
 10
364.2915
 20
-2.3053
 10
364.6086
 20
-2.4419
 10
364.9489
 20
-2.5239
 10
365.3123
 20
-2.5512
  0
LWPOLYLINE
  5
8E
330
1F
100
AcDbEntity
  8
Layer 1
 62
     7
370
     9
100
AcDbPolyline
 90
      159
 70
     1
 43
0.0
 10
380.0412
 20
-2.3888
 10
380.9129
 20
-2.3888
 10
380.9129
 20
1.67
 10
380.9058
 20
1.9394
 10
380.8845
 20
2.1961
 10
380.849
 20
2.4401
 10
380.7993
 20
2.6715
 10
380.7353
 20
2.8902
 10
380.6572
 20
3.0962
 10
380.565
 20
3.2896
 10
380.4585
 20
3.4702
 10
380.399
 20
3.5566
 10
380.3359
 20
3.6386
 10
380.269
 20
3.7162
 10
380.1985
 20
3.7894
 10
380.1243
 20
3.8583
 10
380.0463
 20
3.9228
 10
379.9647
 20
3.9829
 10
379.8793
 20
4.0387
 10
379.7886
 20
4.0888
 10
379.691
 20
4.1323
 10
379.5863
 20
4.169
 10
379.4747
 20
4.1991
 10
379.356
 20
4.2225
 10
379.2303
 20
4.2392
 10
379.0977
 20
4.2493
 10
378.958
 20
4.2526
 10
378.8171
 20
4.2468
 10
378.6807
 20
4.2295
 10
378.5487
 20
4.2007
 10
378.4212
 20
4.1603
 10
378.2981
 20
4.1084
 10
378.1795
 20
4.045
 10
378.0654
 20
3.9701
 10
377.9557
 20
3.8836
 10
377.8606
 20
3.7973
 10
377.7697
 20
3.7047
 10
377.6832
 20
3.6057
 10
377.601
 20
3.5004
 10
377.523
 20
3.3889
 10
377.4493
 20
3.2713
 10
377.3798
 20
3.1475
 10
377.3146
 20
3.0177
 10
377.0843
 20
3.4702
 10
377.0248
 20
3.5566
 10
376.9617
 20
3.6386
 10
376.8949
 20
3.7162
 10
376.8244
 20
3.7894
 10
376.7502
 20
3.8583
 10
376.6723
 20
3.9228
 10
376.5907
 20
3.9829
 10
376.5054
 20
4.0387
 10
376.4148
 20
4.0888
 10
376.3172
 20
4.1323
 10
376.2125
 20
4.169
 10
376.1009
 20
4.1991
 10
375.9822
 20
4.2225
 10
375.8565
 20
4.2392
 10
375.7239
 20
4.2493
 10
375.5842
 20
4.2526
 10
375.4432
 20
4.2468
 10
375.3067
 20
4.2295
 10
375.1747
 20
4.2007
 10
375.0472
 20
4.1603
 10
374.9241
 20
4.1084
 10
374.8056
 20
4.045
 10
374.6915
 20
3.9701
 10
374.5819
 20
3.8836
 10
374.4912
 20
3.8015
 10
374.4045
 20
3.7139
 10
374.3216
 20
3.6207
 10
374.2426
 20
3.5218
 10
374.1674
 20
3.4172
 10
374.0962
 20
3.307
 10
374.029
 20
3.1911
 10
373.9656
 20
3.0695
 10
373.9656
 20
4.105
 10
373.0939
 20
4.105
 10
373.0939
 20
-2.3888
 10
373.9656
 20
-2.3888
 10
373.9656
 20
0.9344
 10
373.9858
 20
1.128
 10
374.0123
 20
1.314
 10
374.0449
 20
1.4925
 10
374.0838
 20
1.6636
 10
374.1289
 20
1.8274
 10
374.1803
 20
1.9838
 10
374.2378
 20
2.1329
 10
374.3015
 20
2.2749
 10
374.3535
 20
2.3759
 10
374.4098
 20
2.4723
 10
374.4703
 20
2.5641
 10
374.5351
 20
2.6513
 10
374.6042
 20
2.7338
 10
374.6775
 20
2.8118
 10
374.7551
 20
2.8852
 10
374.837
 20
2.9539
 10
374.9218
 20
3.0162
 10
375.0082
 20
3.0702
 10
375.0961
 20
3.1158
 10
375.1856
 20
3.1532
 10
375.2767
 20
3.1823
 10
375.3693
 20
3.203
 10
375.4635
 20
3.2155
 10
375.5593
 20
3.2196
 10
375.6527
 20
3.2174
 10
375.7398
 20
3.2108
 10
375.8207
 20
3.1999
 10
375.8954
 20
3.1845
 10
375.9638
 20
3.1648
 10
376.026
 20
3.1406
 10
376.082
 20
3.1121
 10
376.1318
 20
3.0792
 10
376.2573
 20
2.9692
 10
376.366
 20
2.8403
 10
376.4581
 20
2.6925
 10
376.5334
 20
2.5258
 10
376.592
 20
2.3403
 10
376.6338
 20
2.1358
 10
376.6589
 20
1.9123
 10
376.6673
 20
1.67
 10
376.6673
 20
-2.3888
 10
377.5387
 20
-2.3888
 10
377.5387
 20
1.67
 10
377.5326
 20
1.9184
 10
377.6757
 20
2.2749
 10
377.7276
 20
2.3759
 10
377.7838
 20
2.4723
 10
377.8443
 20
2.5641
 10
377.9091
 20
2.6513
 10
377.9782
 20
2.7338
 10
378.0516
 20
2.8118
 10
378.1293
 20
2.8852
 10
378.2112
 20
2.9539
 10
378.2959
 20
3.0162
 10
378.3822
 20
3.0702
 10
378.4701
 20
3.1158
 10
378.5596
 20
3.1532
 10
378.6507
 20
3.1823
 10
378.7433
 20
3.203
 10
378.8374
 20
3.2155
 10
378.9331
 20
3.2196
 10
379.0265
 20
3.2174
 10
379.1136
 20
3.2108
 10
379.1946
 20
3.1999
 10
379.2693
 20
3.1845
 10
379.3378
 20
3.1648
 10
379.4001
 20
3.1406
 10
379.4562
 20
3.1121
 10
379.506
 20
3.0792
 10
379.6315
 20
2.9692
 10
379.7402
 20
2.8403
 10
379.8322
 20
2.6925
 10
379.9074
 20
2.5258
 10
379.966
 20
2.3403
 10
380.0078
 20
2.1358
 10
380.0328
 20
1.9123
 10
380.0412
 20
1.67
 10
380.0412
 20
-2.3888
  0
LWPOLYLINE
  5
8F
330
1F
100
AcDbEntity
  8
Layer 1
 62
     7
370
     9
100
AcDbPolyline
 90
      159
 70
     1
 43
0.0
 10
389.5406
 20
-2.3888
 10
390.4124
 20
-2.3888
 10
390.4124
 20
1.67
 10
390.4053
 20
1.9394
 10
390.384
 20
2.1961
 10
390.3485
 20
2.4401
 10
390.2988
 20
2.6715
 10
390.2348
 20
2.8902
 10
390.1567
 20
3.0962
 10
390.0645
 20
3.2896
 10
389.958
 20
3.4702
 10
389.8985
 20
3.5566
 10
389.8354
 20
3.6386
 10
389.7685
 20
3.7162
 10
389.698
 20
3.7894
 10
389.6238
 20
3.8583
 10
389.5458
 20
3.9228
 10
389.4642
 20
3.9829
 10
389.3788
 20
4.0387
 10
389.2881
 20
4.0888
 10
389.1905
 20
4.1323
 10
389.0858
 20
4.169
 10
388.9742
 20
4.1991
 10
388.8555
 20
4.2225
 10
388.7298
 20
4.2392
 10
388.5972
 20
4.2493
 10
388.4575
 20
4.2526
 10
388.3166
 20
4.2468
 10
388.1801
 20
4.2295
 10
388.0481
 20
4.2007
 10
387.9206
 20
4.1603
 10
387.7975
 20
4.1084
 10
387.6789
 20
4.045
 10
387.5648
 20
3.9701
 10
387.4552
 20
3.8836
 10
387.3601
 20
3.7973
 10
387.2692
 20
3.7047
 10
387.1827
 20
3.6057
 10
387.1004
 20
3.5004
 10
387.0224
 20
3.3889
 10
386.9487
 20
3.2713
 10
386.8792
 20
3.1475
 10
386.814
 20
3.0177
 10
386.5838
 20
3.4702
 10
386.5243
 20
3.5566
 10
386.4612
 20
3.6386
 10
386.3944
 20
3.7162
 10
386.3239
 20
3.7894
 10
386.2497
 20
3.8583
 10
386.1718
 20
3.9228
 10
386.0902
 20
3.9829
 10
386.0049
 20
4.0387
 10
385.9143
 20
4.0888
 10
385.8167
 20
4.1323
 10
385.712
 20
4.169
 10
385.6004
 20
4.1991
 10
385.4817
 20
4.2225
 10
385.356
 20
4.2392
 10
385.2234
 20
4.2493
 10
385.0837
 20
4.2526
 10
384.9427
 20
4.2468
 10
384.8062
 20
4.2295
 10
384.6742
 20
4.2007
 10
384.5467
 20
4.1603
 10
384.4236
 20
4.1084
 10
384.3051
 20
4.045
 10
384.191
 20
3.9701
 10
384.0814
 20
3.8836
 10
383.9907
 20
3.8015
 10
383.9039
 20
3.7139
 10
383.821
 20
3.6207
 10
383.742
 20
3.5218
 10
383.6669
 20
3.4172
 10
383.5957
 20
3.307
 10
383.5285
 20
3.1911
 10
383.4651
 20
3.0695
 10
383.4651
 20
4.105
 10
382.5934
 20
4.105
 10
382.5934
 20
-2.3888
 10
383.4651
 20
-2.3888
 10
383.4651
 20
0.9344
 10
383.4853
 20
1.128
 10
383.5117
 20
1.314
 10
383.5444
 20
1.4925
 10
383.5833
 20
1.6636
 10
383.6284
 20
1.8274
 10
383.6797
 20
1.9838
 10
383.7372
 20
2.1329
 10
383.801
 20
2.2749
 10
383.853
 20
2.3759
 10
383.9093
 20
2.4723
 10
383.9698
 20
2.5641
 10
384.0346
 20
2.6513
 10
384.1037
 20
2.7338
 10
384.177
 20
2.8118
 10
384.2546
 20
2.8852
 10
384.3365
 20
2.9539
 10
384.4213
 20
3.0162
 10
384.5077
 20
3.0702
 10
384.5956
 20
3.1158
 10
384.6851
 20
3.1532
 10
384.7762
 20
3.1823
 10
384.8688
 20
3.203
 10
384.963
 20
3.2155
 10
385.0588
 20
3.2196
 10
385.1521
 20
3.2174
 10
385.2393
 20
3.2108
 10
385.3201
 20
3.1999
 10
385.3948
 20
3.1845
 10
385.4633
 20
3.1648
 10
385.5255
 20
3.1406
 10
385.5815
 20
3.1121
 10
385.6313
 20
3.0792
 10
385.7568
 20
2.9692
 10
385.8655
 20
2.8403
 10
385.9576
 20
2.6925
 10
386.0329
 20
2.5258
 10
386.0915
 20
2.3403
 10
386.1333
 20
2.1358
 10
386.1584
 20
1.9123
 10
386.1668
 20
1.67
 10
386.1668
 20
-2.3888
 10
387.0382
 20
-2.3888
 10
387.0382
 20
1.67
 10
387.0321
 20
1.9184
 10
387.1752
 20
2.2749
 10
387.2271
 20
2.3759
 10
387.2833
 20
2.4723
 10
387.3438
 20
2.5641
 10
387.4086
 20
2.6513
 10
387.4777
 20
2.7338
 10
387.5511
 20
2.8118
 10
387.6288
 20
2.8852
 10
387.7107
 20
2.9539
 10
387.7954
 20
3.0162
 10
387.8817
 20
3.0702
 10
387.9696
 20
3.1158
 10
388.0591
 20
3.1532
 10
388.1502
 20
3.1823
 10
388.2428
 20
3.203
 10
388.3369
 20
3.2155
 10
388.4326
 20
3.2196
 10
388.526
 20
3.2174
 10
388.6131
 20
3.2108
 10
388.6941
 20
3.1999
 10
388.7688
 20
3.1845
 10
388.8373
 20
3.1648
 10
388.8996
 20
3.1406
 10
388.9557
 20
3.1121
 10
389.0055
 20
3.0792
 10
389.131
 20
2.9692
 10
389.2397
 20
2.8403
 10
389.3316
 20
2.6925
 10
389.4069
 20
2.5258
 10
389.4654
 20
2.3403
 10
389.5072
 20
2.1358
 10
389.5322
 20
1.9123
 10
389.5406
 20
1.67
 10
389.5406
 20
-2.3888
  0
LWPOLYLINE
  5
90
330
1F
100
AcDbEntity
  8
Layer 1
 62
     7
370
    35
100
AcDbPolyline
 90
        2
 70
     0
 43
0.0
 10
444.0174
 20
-172.0803
 10
287.8899
 20
-172.0803
  0
LWPOLYLINE
  5
91
330
1F
100
AcDbEntity
  8
Layer 1
 62
     7
370
    35
100
AcDbPolyline
 90
        2
 70
     0
 43
0.0
 10
295.0993
 20
2.6137
 10
287.8899
 20
2.6137
  0
LWPOLYLINE
  5
92
330
1F
100
AcDbEntity
  8
Layer 1
 62
     7
370
    35
100
AcDbPolyline
 90
        4
 70
     1
 43
0.0
 10
289.3011
 20
-167.3752
 10
290.5618
 20
-172.0803
 10
291.8225
 20
-167.3752
 10
289.3011
 20
-167.3752
  0
LWPOLYLINE
  5
93
330
1F
100
AcDbEntity
  8
Layer 1
 62
     7
370
    35
100
AcDbPolyline
 90
        2
 70
     0
 43
0.0
 10
290.5618
 20
-98.2064
 10
290.5618
 20
-172.0803
  0
LWPOLYLINE
  5
94
330
1F
100
AcDbEntity
  8
Layer 1
 62
     7
370
    35
100
AcDbPolyline
 90
        4
 70
     1
 43
0.0
 10
289.301
 20
-2.0913
 10
290.5618
 20
2.6137
 10
291.8225
 20
-2.0913
 10
289.301
 20
-2.0913
  0
LWPOLYLINE
  5
95
330
1F
100
AcDbEntity
  8
Layer 1
 62
     7
370
    35
100
AcDbPolyline
 90
        2
 70
     0
 43
0.0
 10
290.5618
 20
2.6137
 10
290.5618
 20
-70.1461
  0
LWPOLYLINE
  5
96
330
1F
100
AcDbEntity
  8
Layer 1
 62
     7
370
     9
100
AcDbPolyline
 90
       87
 70
     1
 43
0.0
 10
283.9625
 20
-109.8826
 10
283.9625
 20
-102.8131
 10
283.0911
 20
-102.8131
 10
283.0911
 20
-107.3882
 10
280.1653
 20
-103.8903
 10
279.9546
 20
-103.6621
 10
279.7333
 20
-103.4643
 10
279.5016
 20
-103.2969
 10
279.2595
 20
-103.1599
 10
279.0068
 20
-103.0534
 10
278.7436
 20
-102.9773
 10
278.4698
 20
-102.9316
 10
278.1856
 20
-102.9164
 10
277.8949
 20
-102.932
 10
277.616
 20
-102.9787
 10
277.3487
 20
-103.0565
 10
277.093
 20
-103.1654
 10
276.8491
 20
-103.3055
 10
276.6168
 20
-103.4768
 10
276.3962
 20
-103.6792
 10
276.1873
 20
-103.9127
 10
275.9933
 20
-104.172
 10
275.8251
 20
-104.4429
 10
275.6828
 20
-104.7254
 10
275.5663
 20
-105.0194
 10
275.4758
 20
-105.325
 10
275.4111
 20
-105.6421
 10
275.3722
 20
-105.9708
 10
275.3593
 20
-106.3109
 10
275.3729
 20
-106.664
 10
275.4138
 20
-107.004
 10
275.4819
 20
-107.3309
 10
275.5773
 20
-107.6446
 10
275.6999
 20
-107.9452
 10
275.8497
 20
-108.2327
 10
276.0268
 20
-108.507
 10
276.2311
 20
-108.7682
 10
276.4508
 20
-109.0007
 10
276.6819
 20
-109.2003
 10
276.9245
 20
-109.3669
 10
277.1787
 20
-109.5005
 10
277.4443
 20
-109.6012
 10
277.7214
 20
-109.6689
 10
278.01
 20
-109.7036
 10
278.3101
 20
-109.7054
 10
278.3101
 20
-108.6573
 10
278.1155
 20
-108.6661
 10
277.9253
 20
-108.65
 10
277.7396
 20
-108.6089
 10
277.5584
 20
-108.543
 10
277.3817
 20
-108.4522
 10
277.2094
 20
-108.3364
 10
277.0416
 20
-108.1957
 10
276.8783
 20
-108.0301
 10
276.7324
 20
-107.8531
 10
276.606
 20
-107.6668
 10
276.4991
 20
-107.4713
 10
276.4116
 20
-107.2665
 10
276.3435
 20
-107.0525
 10
276.2949
 20
-106.8293
 10
276.2657
 20
-106.5969
 10
276.256
 20
-106.3552
 10
276.2647
 20
-106.118
 10
276.291
 20
-105.8898
 10
276.3347
 20
-105.6706
 10
276.3959
 20
-105.4603
 10
276.4746
 20
-105.2591
 10
276.5709
 20
-105.0669
 10
276.6847
 20
-104.8836
 10
276.816
 20
-104.7094
 10
276.9612
 20
-104.5486
 10
277.1134
 20
-104.4093
 10
277.2725
 20
-104.2914
 10
277.4386
 20
-104.1949
 10
277.6118
 20
-104.1198
 10
277.7919
 20
-104.0661
 10
277.979
 20
-104.0339
 10
278.1731
 20
-104.0232
 10
278.3715
 20
-104.0336
 10
278.5621
 20
-104.0647
 10
278.745
 20
-104.1166
 10
278.92
 20
-104.1893
 10
279.0873
 20
-104.2827
 10
279.2469
 20
-104.3969
 10
279.3986
 20
-104.5318
 10
279.5426
 20
-104.6875
 10
283.9625
 20
-109.8826
  0
LWPOLYLINE
  5
97
330
1F
100
AcDbEntity
  8
Layer 1
 62
     7
370
     9
100
AcDbPolyline
 90
       84
 70
     1
 43
0.0
 10
276.4798
 20
-96.7992
 10
276.5775
 20
-96.6288
 10
276.6885
 20
-96.4699
 10
276.8126
 20
-96.3225
 10
276.95
 20
-96.1866
 10
277.1006
 20
-96.0623
 10
277.2644
 20
-95.9495
 10
277.4414
 20
-95.8483
 10
277.6316
 20
-95.7587
 10
277.884
 20
-95.6583
 10
278.1402
 20
-95.5714
 10
278.4
 20
-95.4978
 10
278.6635
 20
-95.4376
 10
278.9307
 20
-95.3908
 10
279.2015
 20
-95.3573
 10
279.4761
 20
-95.3373
 10
279.7543
 20
-95.3306
 10
280.3706
 20
-95.3749
 10
280.7053
 20
-95.4261
 10
281.0216
 20
-95.493
 10
281.3193
 20
-95.5756
 10
281.5985
 20
-95.6738
 10
281.8593
 20
-95.7877
 10
282.1015
 20
-95.9173
 10
282.3253
 20
-96.0626
 10
282.5307
 20
-96.2235
 10
282.6853
 20
-96.3704
 10
282.8194
 20
-96.5251
 10
282.9328
 20
-96.6877
 10
283.0256
 20
-96.8581
 10
283.0978
 20
-97.0364
 10
283.1494
 20
-97.2225
 10
283.1804
 20
-97.4165
 10
283.1907
 20
-97.6183
 10
283.1805
 20
-97.8434
 10
283.1498
 20
-98.0576
 10
283.0988
 20
-98.2611
 10
283.0273
 20
-98.4538
 10
282.9353
 20
-98.6356
 10
282.823
 20
-98.8066
 10
282.6902
 20
-98.9668
 10
282.5371
 20
-99.1161
 10
282.386
 20
-99.2397
 10
282.2257
 20
-99.3523
 10
282.056
 20
-99.4538
 10
281.8771
 20
-99.5442
 10
281.6923
 20
-99.6239
 10
281.5052
 20
-99.6936
 10
281.3157
 20
-99.753
 10
281.1239
 20
-99.8024
 10
280.377
 20
-99.928
 10
279.5448
 20
-99.9648
 10
279.2957
 20
-99.9547
 10
279.0185
 20
-99.9243
 10
278.7129
 20
-99.8735
 10
278.3787
 20
-99.8024
 10
278.1891
 20
-99.7535
 10
278.0004
 20
-99.6954
 10
277.8125
 20
-99.628
 10
277.6255
 20
-99.5514
 10
277.4434
 20
-99.4643
 10
277.2706
 20
-99.3652
 10
277.1071
 20
-99.254
 10
276.953
 20
-99.1309
 10
276.811
 20
-98.9953
 10
276.6838
 20
-98.8468
 10
276.5713
 20
-98.6853
 10
276.4737
 20
-98.5109
 10
276.4314
 20
-98.4185
 10
276.3948
 20
-98.3219
 10
276.3638
 20
-98.2211
 10
276.3384
 20
-98.1162
 10
276.3187
 20
-98.0071
 10
276.3046
 20
-97.8939
 10
276.2961
 20
-97.7766
 10
276.2933
 20
-97.6551
 10
276.2962
 20
-97.5336
 10
276.3049
 20
-97.4162
 10
276.3195
 20
-97.303
 10
276.3399
 20
-97.1939
 10
276.3661
 20
-97.089
 10
276.3981
 20
-96.9882
 10
276.436
 20
-96.8916
 10
276.4798
 20
-96.7992
  0
LWPOLYLINE
  5
98
330
1F
100
AcDbEntity
  8
Layer 1
 62
     7
370
     9
100
AcDbPolyline
 90
       65
 70
     1
 43
0.0
 10
284.0746
 20
-97.6036
 10
284.0516
 20
-97.1727
 10
283.9824
 20
-96.7693
 10
283.8671
 20
-96.3933
 10
283.7058
 20
-96.0447
 10
283.4983
 20
-95.7235
 10
283.2447
 20
-95.4298
 10
282.945
 20
-95.1636
 10
282.5991
 20
-94.9248
 10
282.2974
 20
-94.757
 10
281.979
 20
-94.6116
 10
281.6439
 20
-94.4886
 10
281.292
 20
-94.3879
 10
280.9234
 20
-94.3097
 10
280.538
 20
-94.2538
 10
280.1359
 20
-94.2203
 10
279.717
 20
-94.2091
 10
279.2981
 20
-94.2203
 10
278.896
 20
-94.2538
 10
278.5106
 20
-94.3097
 10
278.142
 20
-94.3879
 10
277.7901
 20
-94.4886
 10
277.455
 20
-94.6116
 10
277.1366
 20
-94.757
 10
276.8349
 20
-94.9248
 10
276.489
 20
-95.1636
 10
276.1893
 20
-95.4298
 10
275.9357
 20
-95.7235
 10
275.7282
 20
-96.0447
 10
275.5668
 20
-96.3933
 10
275.4515
 20
-96.7693
 10
275.3824
 20
-97.1727
 10
275.3593
 20
-97.6036
 10
275.3824
 20
-98.0344
 10
275.4515
 20
-98.4377
 10
275.5668
 20
-98.8137
 10
275.7282
 20
-99.1622
 10
275.9357
 20
-99.4833
 10
276.1893
 20
-99.777
 10
276.489
 20
-100.0432
 10
276.8349
 20
-100.282
 10
277.1366
 20
-100.4498
 10
277.455
 20
-100.5952
 10
277.7901
 20
-100.7182
 10
278.142
 20
-100.8189
 10
278.5106
 20
-100.8971
 10
278.896
 20
-100.953
 10
279.2981
 20
-100.9865
 10
279.717
 20
-100.9977
 10
280.1359
 20
-100.9865
 10
280.538
 20
-100.953
 10
280.9234
 20
-100.8971
 10
281.292
 20
-100.8189
 10
281.6439
 20
-100.7182
 10
281.979
 20
-100.5952
 10
282.2974
 20
-100.4498
 10
282.5991
 20
-100.282
 10
282.945
 20
-100.0432
 10
283.2447
 20
-99.777
 10
283.4983
 20
-99.4833
 10
283.7058
 20
-99.1622
 10
283.8671
 20
-98.8137
 10
283.9824
 20
-98.4377
 10
284.0516
 20
-98.0344
 10
284.0746
 20
-97.6036
  0
LWPOLYLINE
  5
99
330
1F
100
AcDbEntity
  8
Layer 1
 62
     7
370
     9
100
AcDbPolyline
 90
       84
 70
     1
 43
0.0
 10
276.4798
 20
-88.5344
 10
276.5775
 20
-88.3639
 10
276.6885
 20
-88.205
 10
276.8126
 20
-88.0576
 10
276.95
 20
-87.9218
 10
277.1006
 20
-87.7974
 10
277.2644
 20
-87.6847
 10
277.4414
 20
-87.5835
 10
277.6316
 20
-87.4939
 10
277.884
 20
-87.3935
 10
278.1402
 20
-87.3065
 10
278.4
 20
-87.2329
 10
278.6635
 20
-87.1728
 10
278.9307
 20
-87.1259
 10
279.2015
 20
-87.0925
 10
279.4761
 20
-87.0725
 10
279.7543
 20
-87.0658
 10
280.3706
 20
-87.1101
 10
280.7053
 20
-87.1613
 10
281.0216
 20
-87.2281
 10
281.3193
 20
-87.3107
 10
281.5985
 20
-87.4089
 10
281.8593
 20
-87.5229
 10
282.1015
 20
-87.6525
 10
282.3253
 20
-87.7977
 10
282.5307
 20
-87.9587
 10
282.6853
 20
-88.1056
 10
282.8194
 20
-88.2603
 10
282.9328
 20
-88.4229
 10
283.0256
 20
-88.5933
 10
283.0978
 20
-88.7716
 10
283.1494
 20
-88.9577
 10
283.1804
 20
-89.1517
 10
283.1907
 20
-89.3535
 10
283.1805
 20
-89.5786
 10
283.1498
 20
-89.7928
 10
283.0988
 20
-89.9963
 10
283.0273
 20
-90.189
 10
282.9353
 20
-90.3708
 10
282.823
 20
-90.5418
 10
282.6902
 20
-90.702
 10
282.5371
 20
-90.8513
 10
282.386
 20
-90.9749
 10
282.2257
 20
-91.0875
 10
282.056
 20
-91.189
 10
281.8771
 20
-91.2794
 10
281.6923
 20
-91.3591
 10
281.5052
 20
-91.4287
 10
281.3157
 20
-91.4882
 10
281.1239
 20
-91.5375
 10
280.377
 20
-91.6632
 10
279.5448
 20
-91.6999
 10
279.2957
 20
-91.6898
 10
279.0185
 20
-91.6594
 10
278.7129
 20
-91.6086
 10
278.3787
 20
-91.5375
 10
278.1891
 20
-91.4887
 10
278.0004
 20
-91.4306
 10
277.8125
 20
-91.3632
 10
277.6255
 20
-91.2866
 10
277.4434
 20
-91.1995
 10
277.2706
 20
-91.1003
 10
277.1071
 20
-90.9891
 10
276.953
 20
-90.866
 10
276.811
 20
-90.7305
 10
276.6838
 20
-90.582
 10
276.5713
 20
-90.4205
 10
276.4737
 20
-90.246
 10
276.4314
 20
-90.1536
 10
276.3948
 20
-90.057
 10
276.3638
 20
-89.9563
 10
276.3384
 20
-89.8514
 10
276.3187
 20
-89.7423
 10
276.3046
 20
-89.6291
 10
276.2961
 20
-89.5117
 10
276.2933
 20
-89.3902
 10
276.2962
 20
-89.2687
 10
276.3049
 20
-89.1514
 10
276.3195
 20
-89.0382
 10
276.3399
 20
-88.9291
 10
276.3661
 20
-88.8242
 10
276.3981
 20
-88.7234
 10
276.436
 20
-88.6268
 10
276.4798
 20
-88.5344
  0
LWPOLYLINE
  5
9A
330
1F
100
AcDbEntity
  8
Layer 1
 62
     7
370
     9
100
AcDbPolyline
 90
       65
 70
     1
 43
0.0
 10
284.0746
 20
-89.3387
 10
284.0516
 20
-88.9078
 10
283.9824
 20
-88.5044
 10
283.8671
 20
-88.1284
 10
283.7058
 20
-87.7798
 10
283.4983
 20
-87.4587
 10
283.2447
 20
-87.165
 10
282.945
 20
-86.8988
 10
282.5991
 20
-86.66
 10
282.2974
 20
-86.4922
 10
281.979
 20
-86.3468
 10
281.6439
 20
-86.2237
 10
281.292
 20
-86.1231
 10
280.9234
 20
-86.0448
 10
280.538
 20
-85.9889
 10
280.1359
 20
-85.9554
 10
279.717
 20
-85.9442
 10
279.2981
 20
-85.9554
 10
278.896
 20
-85.9889
 10
278.5106
 20
-86.0448
 10
278.142
 20
-86.1231
 10
277.7901
 20
-86.2237
 10
277.455
 20
-86.3468
 10
277.1366
 20
-86.4922
 10
276.8349
 20
-86.66
 10
276.489
 20
-86.8988
 10
276.1893
 20
-87.165
 10
275.9357
 20
-87.4587
 10
275.7282
 20
-87.7798
 10
275.5668
 20
-88.1284
 10
275.4515
 20
-88.5044
 10
275.3824
 20
-88.9078
 10
275.3593
 20
-89.3387
 10
275.3824
 20
-89.7695
 10
275.4515
 20
-90.1728
 10
275.5668
 20
-90.5488
 10
275.7282
 20
-90.8973
 10
275.9357
 20
-91.2184
 10
276.1893
 20
-91.5121
 10
276.489
 20
-91.7783
 10
276.8349
 20
-92.0171
 10
277.1366
 20
-92.1849
 10
277.455
 20
-92.3303
 10
277.7901
 20
-92.4534
 10
278.142
 20
-92.554
 10
278.5106
 20
-92.6323
 10
278.896
 20
-92.6882
 10
279.2981
 20
-92.7217
 10
279.717
 20
-92.7329
 10
280.1359
 20
-92.7217
 10
280.538
 20
-92.6882
 10
280.9234
 20
-92.6323
 10
281.292
 20
-92.554
 10
281.6439
 20
-92.4534
 10
281.979
 20
-92.3303
 10
282.2974
 20
-92.1849
 10
282.5991
 20
-92.0171
 10
282.945
 20
-91.7783
 10
283.2447
 20
-91.5121
 10
283.4983
 20
-91.2184
 10
283.7058
 20
-90.8973
 10
283.8671
 20
-90.5488
 10
283.9824
 20
-90.1728
 10
284.0516
 20
-89.7695
 10
284.0746
 20
-89.3387
  0
LWPOLYLINE
  5
9B
330
1F
100
AcDbEntity
  8
Layer 1
 62
     7
370
     9
100
AcDbPolyline
 90
      155
 70
     1
 43
0.0
 10
283.9376
 20
-71.879
 10
283.9376
 20
-70.8457
 10
280.5137
 20
-70.8457
 10
280.2864
 20
-70.8541
 10
280.0699
 20
-70.8794
 10
279.864
 20
-70.9215
 10
279.6688
 20
-70.9804
 10
279.4843
 20
-71.0562
 10
279.3105
 20
-71.1487
 10
279.1474
 20
-71.2581
 10
278.995
 20
-71.3843
 10
278.9221
 20
-71.4548
 10
278.853
 20
-71.5297
 10
278.7875
 20
-71.6089
 10
278.7257
 20
-71.6925
 10
278.6676
 20
-71.7805
 10
278.6132
 20
-71.8729
 10
278.5625
 20
-71.9697
 10
278.5154
 20
-72.0709
 10
278.4731
 20
-72.1784
 10
278.4365
 20
-72.2941
 10
278.4055
 20
-72.4182
 10
278.3801
 20
-72.5505
 10
278.3604
 20
-72.6912
 10
278.3463
 20
-72.8402
 10
278.3378
 20
-72.9974
 10
278.335
 20
-73.163
 10
278.3399
 20
-73.33
 10
278.3545
 20
-73.4918
 10
278.3788
 20
-73.6483
 10
278.4129
 20
-73.7994
 10
278.4567
 20
-73.9453
 10
278.5102
 20
-74.0859
 10
278.5734
 20
-74.2211
 10
278.6463
 20
-74.3511
 10
278.7191
 20
-74.4639
 10
278.7972
 20
-74.5715
 10
278.8807
 20
-74.6741
 10
278.9695
 20
-74.7717
 10
279.0636
 20
-74.8641
 10
279.1628
 20
-74.9515
 10
279.2673
 20
-75.0339
 10
279.3768
 20
-75.1112
 10
278.995
 20
-75.3841
 10
278.9221
 20
-75.4546
 10
278.853
 20
-75.5295
 10
278.7875
 20
-75.6087
 10
278.7257
 20
-75.6923
 10
278.6676
 20
-75.7802
 10
278.6132
 20
-75.8725
 10
278.5625
 20
-75.9692
 10
278.5154
 20
-76.0703
 10
278.4731
 20
-76.1778
 10
278.4365
 20
-76.2935
 10
278.4055
 20
-76.4176
 10
278.3801
 20
-76.5499
 10
278.3604
 20
-76.6906
 10
278.3463
 20
-76.8395
 10
278.3378
 20
-76.9968
 10
278.335
 20
-77.1623
 10
278.3399
 20
-77.3295
 10
278.3545
 20
-77.4913
 10
278.3788
 20
-77.6478
 10
278.4129
 20
-77.799
 10
278.4567
 20
-77.9448
 10
278.5102
 20
-78.0853
 10
278.5734
 20
-78.2206
 10
278.6463
 20
-78.3505
 10
278.7155
 20
-78.458
 10
278.7894
 20
-78.5608
 10
278.8681
 20
-78.6591
 10
278.9515
 20
-78.7528
 10
279.0397
 20
-78.8418
 10
279.1327
 20
-78.9262
 10
279.2305
 20
-79.0059
 10
279.3331
 20
-79.081
 10
278.4595
 20
-79.081
 10
278.4595
 20
-80.1144
 10
283.9376
 20
-80.1144
 10
283.9376
 20
-79.081
 10
281.1342
 20
-79.081
 10
280.9709
 20
-79.0571
 10
280.8139
 20
-79.0257
 10
280.6633
 20
-78.987
 10
280.519
 20
-78.9409
 10
280.3809
 20
-78.8875
 10
280.249
 20
-78.8266
 10
280.1232
 20
-78.7584
 10
280.0034
 20
-78.6828
 10
279.9182
 20
-78.6211
 10
279.8369
 20
-78.5545
 10
279.7594
 20
-78.4827
 10
279.6859
 20
-78.406
 10
279.6162
 20
-78.3241
 10
279.5504
 20
-78.2372
 10
279.4886
 20
-78.1452
 10
279.4306
 20
-78.0481
 10
279.378
 20
-77.9475
 10
279.3325
 20
-77.8451
 10
279.294
 20
-77.7409
 10
279.2624
 20
-77.6348
 10
279.2379
 20
-77.5269
 10
279.2204
 20
-77.4171
 10
279.2099
 20
-77.3054
 10
279.2064
 20
-77.1919
 10
279.2138
 20
-76.9779
 10
279.236
 20
-76.7935
 10
279.2527
 20
-76.7124
 10
279.2731
 20
-76.6386
 10
279.2971
 20
-76.5722
 10
279.3249
 20
-76.5132
 10
279.4177
 20
-76.3644
 10
279.5264
 20
-76.2355
 10
279.6511
 20
-76.1264
 10
279.7917
 20
-76.0371
 10
279.9482
 20
-75.9677
 10
280.1208
 20
-75.9181
 10
280.3092
 20
-75.8883
 10
280.5137
 20
-75.8784
 10
283.9376
 20
-75.8784
 10
283.9376
 20
-74.8455
 10
280.5137
 20
-74.8455
 10
280.3041
 20
-74.8527
 10
280.0034
 20
-74.6831
 10
279.9182
 20
-74.6215
 10
279.8369
 20
-74.5549
 10
279.7594
 20
-74.4831
 10
279.6859
 20
-74.4063
 10
279.6162
 20
-74.3244
 10
279.5504
 20
-74.2374
 10
279.4886
 20
-74.1454
 10
279.4306
 20
-74.0483
 10
279.378
 20
-73.9479
 10
279.3325
 20
-73.8455
 10
279.294
 20
-73.7413
 10
279.2624
 20
-73.6353
 10
279.2379
 20
-73.5273
 10
279.2204
 20
-73.4175
 10
279.2099
 20
-73.3059
 10
279.2064
 20
-73.1925
 10
279.2138
 20
-72.9785
 10
279.236
 20
-72.794
 10
279.2527
 20
-72.7128
 10
279.2731
 20
-72.6389
 10
279.2971
 20
-72.5725
 10
279.3249
 20
-72.5134
 10
279.4177
 20
-72.3647
 10
279.5264
 20
-72.2358
 10
279.6511
 20
-72.1268
 10
279.7917
 20
-72.0376
 10
279.9482
 20
-71.9682
 10
280.1208
 20
-71.9186
 10
280.3092
 20
-71.8889
 10
280.5137
 20
-71.879
 10
283.9376
 20
-71.879
  0
LWPOLYLINE
  5
9C
330
1F
100
AcDbEntity
  8
Layer 1
 62
     7
370
     9
100
AcDbPolyline
 90
      155
 70
     1
 43
0.0
 10
283.9376
 20
-60.6183
 10
283.9376
 20
-59.5849
 10
280.5137
 20
-59.5849
 10
280.2864
 20
-59.5933
 10
280.0699
 20
-59.6186
 10
279.864
 20
-59.6607
 10
279.6688
 20
-59.7196
 10
279.4843
 20
-59.7954
 10
279.3105
 20
-59.8879
 10
279.1474
 20
-59.9973
 10
278.995
 20
-60.1235
 10
278.9221
 20
-60.194
 10
278.853
 20
-60.2689
 10
278.7875
 20
-60.3481
 10
278.7257
 20
-60.4318
 10
278.6676
 20
-60.5198
 10
278.6132
 20
-60.6122
 10
278.5625
 20
-60.709
 10
278.5154
 20
-60.8102
 10
278.4731
 20
-60.9176
 10
278.4365
 20
-61.0334
 10
278.4055
 20
-61.1574
 10
278.3801
 20
-61.2898
 10
278.3604
 20
-61.4304
 10
278.3463
 20
-61.5794
 10
278.3378
 20
-61.7366
 10
278.335
 20
-61.9022
 10
278.3399
 20
-62.0693
 10
278.3545
 20
-62.231
 10
278.3788
 20
-62.3875
 10
278.4129
 20
-62.5387
 10
278.4567
 20
-62.6845
 10
278.5102
 20
-62.8251
 10
278.5734
 20
-62.9603
 10
278.6463
 20
-63.0903
 10
278.7191
 20
-63.2031
 10
278.7972
 20
-63.3107
 10
278.8807
 20
-63.4133
 10
278.9695
 20
-63.5109
 10
279.0636
 20
-63.6033
 10
279.1628
 20
-63.6907
 10
279.2673
 20
-63.7731
 10
279.3768
 20
-63.8504
 10
278.995
 20
-64.1233
 10
278.9221
 20
-64.1938
 10
278.853
 20
-64.2687
 10
278.7875
 20
-64.3479
 10
278.7257
 20
-64.4315
 10
278.6676
 20
-64.5194
 10
278.6132
 20
-64.6117
 10
278.5625
 20
-64.7084
 10
278.5154
 20
-64.8095
 10
278.4731
 20
-64.917
 10
278.4365
 20
-65.0327
 10
278.4055
 20
-65.1568
 10
278.3801
 20
-65.2891
 10
278.3604
 20
-65.4298
 10
278.3463
 20
-65.5788
 10
278.3378
 20
-65.736
 10
278.335
 20
-65.9016
 10
278.3399
 20
-66.0688
 10
278.3545
 20
-66.2306
 10
278.3788
 20
-66.387
 10
278.4129
 20
-66.5382
 10
278.4567
 20
-66.684
 10
278.5102
 20
-66.8245
 10
278.5734
 20
-66.9598
 10
278.6463
 20
-67.0897
 10
278.7155
 20
-67.1972
 10
278.7894
 20
-67.3
 10
278.8681
 20
-67.3983
 10
278.9515
 20
-67.492
 10
279.0397
 20
-67.581
 10
279.1327
 20
-67.6654
 10
279.2305
 20
-67.7451
 10
279.3331
 20
-67.8202
 10
278.4595
 20
-67.8202
 10
278.4595
 20
-68.8536
 10
283.9376
 20
-68.8536
 10
283.9376
 20
-67.8202
 10
281.1342
 20
-67.8202
 10
280.9709
 20
-67.7963
 10
280.8139
 20
-67.7649
 10
280.6633
 20
-67.7262
 10
280.519
 20
-67.6801
 10
280.3809
 20
-67.6267
 10
280.249
 20
-67.5658
 10
280.1232
 20
-67.4976
 10
280.0034
 20
-67.422
 10
279.9182
 20
-67.3603
 10
279.8369
 20
-67.2937
 10
279.7594
 20
-67.2219
 10
279.6859
 20
-67.1452
 10
279.6162
 20
-67.0633
 10
279.5504
 20
-66.9764
 10
279.4886
 20
-66.8844
 10
279.4306
 20
-66.7873
 10
279.378
 20
-66.6867
 10
279.3325
 20
-66.5844
 10
279.294
 20
-66.4801
 10
279.2624
 20
-66.3741
 10
279.2379
 20
-66.2661
 10
279.2204
 20
-66.1563
 10
279.2099
 20
-66.0446
 10
279.2064
 20
-65.9311
 10
279.2138
 20
-65.7171
 10
279.236
 20
-65.5327
 10
279.2527
 20
-65.4516
 10
279.2731
 20
-65.3778
 10
279.2971
 20
-65.3114
 10
279.3249
 20
-65.2524
 10
279.4177
 20
-65.1036
 10
279.5264
 20
-64.9747
 10
279.6511
 20
-64.8656
 10
279.7917
 20
-64.7763
 10
279.9482
 20
-64.7069
 10
280.1208
 20
-64.6573
 10
280.3092
 20
-64.6275
 10
280.5137
 20
-64.6176
 10
283.9376
 20
-64.6176
 10
283.9376
 20
-63.5847
 10
280.5137
 20
-63.5847
 10
280.3041
 20
-63.5919
 10
280.0034
 20
-63.4223
 10
279.9182
 20
-63.3607
 10
279.8369
 20
-63.2941
 10
279.7594
 20
-63.2223
 10
279.6859
 20
-63.1455
 10
279.6162
 20
-63.0636
 10
279.5504
 20
-62.9766
 10
279.4886
 20
-62.8846
 10
279.4306
 20
-62.7875
 10
279.378
 20
-62.6871
 10
279.3325
 20
-62.5847
 10
279.294
 20
-62.4806
 10
279.2624
 20
-62.3745
 10
279.2379
 20
-62.2666
 10
279.2204
 20
-62.1568
 10
279.2099
 20
-62.0452
 10
279.2064
 20
-61.9317
 10
279.2138
 20
-61.7177
 10
279.236
 20
-61.5332
 10
279.2527
 20
-61.452
 10
279.2731
 20
-61.3782
 10
279.2971
 20
-61.3117
 10
279.3249
 20
-61.2527
 10
279.4177
 20
-61.104
 10
279.5264
 20
-60.9751
 10
279.6511
 20
-60.866
 10
279.7917
 20
-60.7768
 10
279.9482
 20
-60.7075
 10
280.1208
 20
-60.6579
 10
280.3092
 20
-60.6282
 10
280.5137
 20
-60.6183
 10
283.9376
 20
-60.6183
  0
LWPOLYLINE
  5
9D
330
1F
100
AcDbEntity
  8
Layer 1
 62
     7
370
    35
100
AcDbPolyline
 90
        2
 70
     0
 43
0.0
 10
452.1898
 20
25.0206
 10
452.1898
 20
217.5653
  0
LWPOLYLINE
  5
9E
330
1F
100
AcDbEntity
  8
Layer 1
 62
     7
370
    35
100
AcDbPolyline
 90
        2
 70
     0
 43
0.0
 10
279.7176
 20
13.8838
 10
279.7176
 20
217.5653
  0
LWPOLYLINE
  5
9F
330
1F
100
AcDbEntity
  8
Layer 1
 62
     7
370
    35
100
AcDbPolyline
 90
        4
 70
     1
 43
0.0
 10
447.49
 20
213.1387
 10
452.1898
 20
214.398
 10
447.49
 20
215.6572
 10
447.49
 20
213.1387
  0
LWPOLYLINE
  5
A0
330
1F
100
AcDbEntity
  8
Layer 1
 62
     7
370
    35
100
AcDbPolyline
 90
        2
 70
     0
 43
0.0
 10
378.2541
 20
214.398
 10
452.1898
 20
214.398
  0
LWPOLYLINE
  5
A1
330
1F
100
AcDbEntity
  8
Layer 1
 62
     7
370
    35
100
AcDbPolyline
 90
        4
 70
     1
 43
0.0
 10
284.4173
 20
213.1387
 10
279.7176
 20
214.398
 10
284.4173
 20
215.6572
 10
284.4173
 20
213.1387
  0
LWPOLYLINE
  5
A2
330
1F
100
AcDbEntity
  8
Layer 1
 62
     7
370
    35
100
AcDbPolyline
 90
        2
 70
     0
 43
0.0
 10
279.7176
 20
214.398
 10
354.5926
 20
214.398
  0
LWPOLYLINE
  5
A3
330
1F
100
AcDbEntity
  8
Layer 1
 62
     7
370
     9
100
AcDbPolyline
 90
       87
 70
     1
 43
0.0
 10
345.8784
 20
217.7211
 10
351.8422
 20
217.7211
 10
351.8422
 20
218.7541
 10
347.9826
 20
218.7541
 10
350.9334
 20
222.2224
 10
351.1259
 20
222.4722
 10
351.2928
 20
222.7344
 10
351.434
 20
223.0091
 10
351.5496
 20
223.2962
 10
351.6394
 20
223.5958
 10
351.7036
 20
223.9078
 10
351.7422
 20
224.2322
 10
351.755
 20
224.5692
 10
351.7419
 20
224.9137
 10
351.7025
 20
225.2444
 10
351.6368
 20
225.5613
 10
351.5449
 20
225.8643
 10
351.4267
 20
226.1535
 10
351.2823
 20
226.4288
 10
351.1116
 20
226.6903
 10
350.9146
 20
226.938
 10
350.6958
 20
227.168
 10
350.4673
 20
227.3673
 10
350.229
 20
227.536
 10
349.9809
 20
227.674
 10
349.7231
 20
227.7814
 10
349.4556
 20
227.8581
 10
349.1784
 20
227.9041
 10
348.8914
 20
227.9194
 10
348.5935
 20
227.9033
 10
348.3067
 20
227.8548
 10
348.031
 20
227.7741
 10
347.7663
 20
227.6611
 10
347.5127
 20
227.5157
 10
347.2702
 20
227.3381
 10
347.0388
 20
227.1283
 10
346.8184
 20
226.8861
 10
346.6223
 20
226.6257
 10
346.454
 20
226.3517
 10
346.3134
 20
226.0641
 10
346.2007
 20
225.7628
 10
346.1157
 20
225.4479
 10
346.0586
 20
225.1194
 10
346.0293
 20
224.7773
 10
346.0278
 20
224.4216
 10
346.912
 20
224.4216
 10
346.9046
 20
224.6523
 10
346.9182
 20
224.8777
 10
346.9528
 20
225.0978
 10
347.0084
 20
225.3126
 10
347.0851
 20
225.5222
 10
347.1827
 20
225.7264
 10
347.3014
 20
225.9253
 10
347.4411
 20
226.1189
 10
347.5905
 20
226.2918
 10
347.7476
 20
226.4416
 10
347.9125
 20
226.5684
 10
348.0853
 20
226.6722
 10
348.2658
 20
226.7529
 10
348.4541
 20
226.8105
 10
348.6501
 20
226.8451
 10
348.854
 20
226.8566
 10
349.0541
 20
226.8462
 10
349.2466
 20
226.8151
 10
349.4316
 20
226.7633
 10
349.6089
 20
226.6907
 10
349.7787
 20
226.5974
 10
349.9408
 20
226.4832
 10
350.0954
 20
226.3484
 10
350.2424
 20
226.1927
 10
350.378
 20
226.0206
 10
350.4956
 20
225.8402
 10
350.5951
 20
225.6516
 10
350.6765
 20
225.4547
 10
350.7398
 20
225.2494
 10
350.7851
 20
225.0359
 10
350.8122
 20
224.8141
 10
350.8213
 20
224.584
 10
350.8125
 20
224.3488
 10
350.7863
 20
224.1228
 10
350.7425
 20
223.9061
 10
350.6812
 20
223.6985
 10
350.6024
 20
223.5002
 10
350.5061
 20
223.3111
 10
350.3922
 20
223.1312
 10
350.2609
 20
222.9605
 10
345.8784
 20
217.7211
  0
LWPOLYLINE
  5
A4
330
1F
100
AcDbEntity
  8
Layer 1
 62
     7
370
     9
100
AcDbPolyline
 90
       69
 70
     1
 43
0.0
 10
355.9568
 20
223.1967
 10
356.1554
 20
223.1858
 10
356.3466
 20
223.1533
 10
356.5304
 20
223.0991
 10
356.7069
 20
223.0232
 10
356.876
 20
222.9256
 10
357.0376
 20
222.8063
 10
357.1919
 20
222.6654
 10
357.3388
 20
222.5029
 10
357.4716
 20
222.3272
 10
357.5867
 20
222.1432
 10
357.684
 20
221.9508
 10
357.7637
 20
221.7503
 10
357.8256
 20
221.5413
 10
357.8698
 20
221.3241
 10
357.8964
 20
221.0986
 10
357.9052
 20
220.8647
 10
357.8963
 20
220.6361
 10
357.8694
 20
220.4154
 10
357.8247
 20
220.2026
 10
357.7621
 20
219.9976
 10
357.6816
 20
219.8004
 10
357.5832
 20
219.6111
 10
357.4669
 20
219.4296
 10
357.3327
 20
219.256
 10
357.1885
 20
219.1003
 10
357.0362
 20
218.9654
 10
356.8757
 20
218.8512
 10
356.707
 20
218.7578
 10
356.5302
 20
218.6851
 10
356.3452
 20
218.6332
 10
356.152
 20
218.6021
 10
355.9507
 20
218.5917
 10
355.7532
 20
218.6024
 10
355.5623
 20
218.6346
 10
355.3781
 20
218.6883
 10
355.2005
 20
218.7634
 10
355.0295
 20
218.86
 10
354.8652
 20
218.978
 10
354.7074
 20
219.1174
 10
354.5563
 20
219.2783
 10
354.4191
 20
219.4523
 10
354.3002
 20
219.6348
 10
354.1996
 20
219.8258
 10
354.1173
 20
220.0253
 10
354.0533
 20
220.2334
 10
354.0076
 20
220.45
 10
353.9801
 20
220.6752
 10
353.971
 20
220.909
 10
353.9801
 20
221.1416
 10
354.0076
 20
221.3651
 10
354.0533
 20
221.5797
 10
354.1173
 20
221.7853
 10
354.1996
 20
221.9819
 10
354.3002
 20
222.1695
 10
354.4191
 20
222.3481
 10
354.5563
 20
222.5177
 10
354.6986
 20
222.6648
 10
354.8519
 20
222.7963
 10
355.0161
 20
222.912
 10
355.1911
 20
223.012
 10
355.2821
 20
223.0553
 10
355.3744
 20
223.0928
 10
355.4681
 20
223.1246
 10
355.5632
 20
223.1506
 10
355.6595
 20
223.1707
 10
355.7573
 20
223.1852
 10
355.8563
 20
223.1938
 10
355.9568
 20
223.1967
  0
LWPOLYLINE
  5
A5
330
1F
100
AcDbEntity
  8
Layer 1
 62
     7
370
     9
100
AcDbPolyline
 90
       69
 70
     1
 43
0.0
 10
358.7894
 20
220.9385
 10
358.7758
 20
221.2939
 10
358.7349
 20
221.6331
 10
358.6668
 20
221.9562
 10
358.5714
 20
222.2631
 10
358.4488
 20
222.5539
 10
358.299
 20
222.8286
 10
358.122
 20
223.0871
 10
357.9177
 20
223.3296
 10
357.7089
 20
223.5338
 10
357.4855
 20
223.7128
 10
357.2475
 20
223.8667
 10
356.9949
 20
223.9955
 10
356.7277
 20
224.0991
 10
356.4459
 20
224.1776
 10
356.1496
 20
224.231
 10
355.8386
 20
224.2592
 10
355.5896
 20
224.0673
 10
358.1792
 20
227.7571
 10
357.0338
 20
227.7571
 10
353.7219
 20
223.0196
 10
353.5731
 20
222.7889
 10
353.4442
 20
222.5487
 10
353.3351
 20
222.299
 10
353.2458
 20
222.0399
 10
353.1764
 20
221.7713
 10
353.1268
 20
221.4933
 10
353.097
 20
221.2059
 10
353.0871
 20
220.909
 10
353.1001
 20
220.567
 10
353.1392
 20
220.2381
 10
353.2044
 20
219.9223
 10
353.2956
 20
219.6196
 10
353.4129
 20
219.3301
 10
353.5563
 20
219.0537
 10
353.7257
 20
218.7904
 10
353.9212
 20
218.5403
 10
354.1366
 20
218.3103
 10
354.3625
 20
218.1109
 10
354.5988
 20
217.9422
 10
354.8457
 20
217.8042
 10
355.103
 20
217.6968
 10
355.3709
 20
217.6201
 10
355.6493
 20
217.5741
 10
355.9383
 20
217.5588
 10
356.2312
 20
217.574
 10
356.5125
 20
217.6197
 10
356.7821
 20
217.6958
 10
357.0401
 20
217.8024
 10
357.2863
 20
217.9394
 10
357.5209
 20
218.1068
 10
357.7438
 20
218.3047
 10
357.955
 20
218.5331
 10
358.049
 20
218.6497
 10
358.1379
 20
218.771
 10
358.2217
 20
218.8968
 10
358.3006
 20
219.0273
 10
358.3743
 20
219.1624
 10
358.443
 20
219.3021
 10
358.5066
 20
219.4465
 10
358.5652
 20
219.5955
 10
358.6178
 20
219.7488
 10
358.6633
 20
219.9063
 10
358.7018
 20
220.068
 10
358.7334
 20
220.2338
 10
358.7579
 20
220.4038
 10
358.7754
 20
220.5779
 10
358.7859
 20
220.7561
 10
358.7894
 20
220.9385
  0
LWPOLYLINE
  5
A6
330
1F
100
AcDbEntity
  8
Layer 1
 62
     7
370
     9
100
AcDbPolyline
 90
       86
 70
     1
 43
0.0
 10
363.2898
 20
226.5912
 10
363.4336
 20
226.4754
 10
363.5676
 20
226.3439
 10
363.6919
 20
226.1967
 10
363.8066
 20
226.0339
 10
363.9114
 20
225.8554
 10
364.0066
 20
225.6612
 10
364.092
 20
225.4514
 10
364.1676
 20
225.2259
 10
364.2523
 20
224.9267
 10
364.3256
 20
224.6231
 10
364.3877
 20
224.3151
 10
364.4385
 20
224.0027
 10
364.4779
 20
223.686
 10
364.5061
 20
223.3649
 10
364.5231
 20
223.0394
 10
364.5287
 20
222.7096
 10
364.4913
 20
221.979
 10
364.4481
 20
221.5822
 10
364.3917
 20
221.2074
 10
364.3221
 20
220.8545
 10
364.2392
 20
220.5235
 10
364.1431
 20
220.2144
 10
364.0337
 20
219.9272
 10
363.9112
 20
219.6618
 10
363.7754
 20
219.4184
 10
363.6515
 20
219.2351
 10
363.521
 20
219.0762
 10
363.3838
 20
218.9418
 10
363.2401
 20
218.8317
 10
363.0897
 20
218.7461
 10
362.9327
 20
218.6849
 10
362.7691
 20
218.6482
 10
362.5988
 20
218.636
 10
362.4089
 20
218.6481
 10
362.2282
 20
218.6845
 10
362.0565
 20
218.745
 10
361.894
 20
218.8298
 10
361.7406
 20
218.9388
 10
361.5964
 20
219.0719
 10
361.4613
 20
219.2293
 10
361.3353
 20
219.4108
 10
361.231
 20
219.5899
 10
361.136
 20
219.78
 10
361.0504
 20
219.9811
 10
360.9741
 20
220.1932
 10
360.9069
 20
220.4123
 10
360.8482
 20
220.6341
 10
360.798
 20
220.8588
 10
360.7564
 20
221.0861
 10
360.6504
 20
221.9715
 10
360.6194
 20
222.958
 10
360.6279
 20
223.2533
 10
360.6536
 20
223.5819
 10
360.6964
 20
223.9441
 10
360.7564
 20
224.3402
 10
360.7976
 20
224.5649
 10
360.8466
 20
224.7887
 10
360.9034
 20
225.0114
 10
360.9681
 20
225.2331
 10
361.0415
 20
225.449
 10
361.1252
 20
225.6539
 10
361.2189
 20
225.8476
 10
361.3228
 20
226.0303
 10
361.4372
 20
226.1987
 10
361.5624
 20
226.3495
 10
361.6292
 20
226.4183
 10
361.6986
 20
226.4827
 10
361.7709
 20
226.5428
 10
361.8458
 20
226.5984
 10
361.9238
 20
226.6485
 10
362.0053
 20
226.692
 10
362.0903
 20
226.7287
 10
362.1788
 20
226.7588
 10
362.2708
 20
226.7822
 10
362.3663
 20
226.7989
 10
362.4653
 20
226.809
 10
362.5678
 20
226.8123
 10
362.6703
 20
226.8089
 10
362.7693
 20
226.7985
 10
362.8648
 20
226.7813
 10
362.9568
 20
226.7571
 10
363.0453
 20
226.7261
 10
363.1303
 20
226.6881
 10
363.2118
 20
226.6431
 10
363.2898
 20
226.5912
  0
LWPOLYLINE
  5
A7
330
1F
100
AcDbEntity
  8
Layer 1
 62
     7
370
     9
100
AcDbPolyline
 90
       65
 70
     1
 43
0.0
 10
362.6112
 20
217.5883
 10
362.9747
 20
217.6156
 10
363.3151
 20
217.6976
 10
363.6323
 20
217.8342
 10
363.9263
 20
218.0255
 10
364.1972
 20
218.2715
 10
364.445
 20
218.5721
 10
364.6696
 20
218.9274
 10
364.871
 20
219.3374
 10
365.0126
 20
219.695
 10
365.1352
 20
220.0724
 10
365.239
 20
220.4697
 10
365.3239
 20
220.8868
 10
365.3899
 20
221.3238
 10
365.4371
 20
221.7807
 10
365.4654
 20
222.2574
 10
365.4748
 20
222.7539
 10
365.4654
 20
223.2504
 10
365.4371
 20
223.7271
 10
365.3899
 20
224.1839
 10
365.3239
 20
224.6209
 10
365.239
 20
225.038
 10
365.1352
 20
225.4353
 10
365.0126
 20
225.8127
 10
364.871
 20
226.1703
 10
364.6696
 20
226.5803
 10
364.445
 20
226.9356
 10
364.1972
 20
227.2362
 10
363.9263
 20
227.4822
 10
363.6323
 20
227.6735
 10
363.3151
 20
227.8101
 10
362.9747
 20
227.8921
 10
362.6112
 20
227.9194
 10
362.2478
 20
227.8921
 10
361.9076
 20
227.8101
 10
361.5904
 20
227.6735
 10
361.2964
 20
227.4822
 10
361.0256
 20
227.2362
 10
360.7778
 20
226.9356
 10
360.5532
 20
226.5803
 10
360.3518
 20
226.1703
 10
360.2102
 20
225.8127
 10
360.0875
 20
225.4353
 10
359.9837
 20
225.038
 10
359.8989
 20
224.6209
 10
359.8328
 20
224.1839
 10
359.7857
 20
223.7271
 10
359.7574
 20
223.2504
 10
359.748
 20
222.7539
 10
359.7574
 20
222.2574
 10
359.7857
 20
221.7807
 10
359.8328
 20
221.3238
 10
359.8989
 20
220.8868
 10
359.9837
 20
220.4697
 10
360.0875
 20
220.0724
 10
360.2102
 20
219.695
 10
360.3518
 20
219.3374
 10
360.5532
 20
218.9274
 10
360.7778
 20
218.5721
 10
361.0256
 20
218.2715
 10
361.2964
 20
218.0255
 10
361.5904
 20
217.8342
 10
361.9076
 20
217.6976
 10
362.2478
 20
217.6156
 10
362.6112
 20
217.5883
  0
LWPOLYLINE
  5
A8
330
1F
100
AcDbEntity
  8
Layer 1
 62
     7
370
     9
100
AcDbPolyline
 90
      159
 70
     1
 43
0.0
 10
377.3401
 20
217.7507
 10
378.2118
 20
217.7507
 10
378.2118
 20
221.8095
 10
378.2047
 20
222.0789
 10
378.1834
 20
222.3356
 10
378.1479
 20
222.5796
 10
378.0982
 20
222.811
 10
378.0342
 20
223.0297
 10
377.9561
 20
223.2357
 10
377.8639
 20
223.4291
 10
377.7574
 20
223.6097
 10
377.6979
 20
223.6961
 10
377.6348
 20
223.7781
 10
377.5679
 20
223.8557
 10
377.4974
 20
223.9289
 10
377.4232
 20
223.9978
 10
377.3452
 20
224.0623
 10
377.2636
 20
224.1224
 10
377.1782
 20
224.1782
 10
377.0876
 20
224.2283
 10
376.9899
 20
224.2718
 10
376.8853
 20
224.3085
 10
376.7736
 20
224.3386
 10
376.655
 20
224.362
 10
376.5293
 20
224.3787
 10
376.3967
 20
224.3888
 10
376.257
 20
224.3921
 10
376.1161
 20
224.3863
 10
375.9796
 20
224.369
 10
375.8476
 20
224.3402
 10
375.7201
 20
224.2998
 10
375.597
 20
224.2478
 10
375.4784
 20
224.1844
 10
375.3643
 20
224.1095
 10
375.2547
 20
224.023
 10
375.1596
 20
223.9368
 10
375.0687
 20
223.8441
 10
374.9822
 20
223.7451
 10
374.8999
 20
223.6399
 10
374.8219
 20
223.5284
 10
374.7482
 20
223.4107
 10
374.6787
 20
223.2869
 10
374.6135
 20
223.1571
 10
374.3832
 20
223.6097
 10
374.3238
 20
223.6961
 10
374.2606
 20
223.7781
 10
374.1938
 20
223.8557
 10
374.1233
 20
223.9289
 10
374.0491
 20
223.9978
 10
373.9712
 20
224.0623
 10
373.8896
 20
224.1224
 10
373.8043
 20
224.1782
 10
373.7137
 20
224.2283
 10
373.6161
 20
224.2718
 10
373.5114
 20
224.3085
 10
373.3998
 20
224.3386
 10
373.2811
 20
224.362
 10
373.1554
 20
224.3787
 10
373.0228
 20
224.3888
 10
372.8831
 20
224.3921
 10
372.7421
 20
224.3863
 10
372.6056
 20
224.369
 10
372.4736
 20
224.3402
 10
372.3461
 20
224.2998
 10
372.223
 20
224.2478
 10
372.1045
 20
224.1844
 10
371.9904
 20
224.1095
 10
371.8808
 20
224.023
 10
371.7901
 20
223.941
 10
371.7034
 20
223.8533
 10
371.6205
 20
223.7601
 10
371.5415
 20
223.6612
 10
371.4664
 20
223.5567
 10
371.3952
 20
223.4465
 10
371.3279
 20
223.3306
 10
371.2645
 20
223.209
 10
371.2645
 20
224.2445
 10
370.3928
 20
224.2445
 10
370.3928
 20
217.7507
 10
371.2645
 20
217.7507
 10
371.2645
 20
221.0739
 10
371.2847
 20
221.2675
 10
371.3112
 20
221.4535
 10
371.3438
 20
221.632
 10
371.3827
 20
221.8031
 10
371.4279
 20
221.9668
 10
371.4792
 20
222.1232
 10
371.5367
 20
222.2724
 10
371.6005
 20
222.4143
 10
371.6525
 20
222.5153
 10
371.7088
 20
222.6117
 10
371.7693
 20
222.7035
 10
371.834
 20
222.7907
 10
371.9031
 20
222.8733
 10
371.9764
 20
222.9513
 10
372.054
 20
223.0246
 10
372.1359
 20
223.0934
 10
372.2207
 20
223.1557
 10
372.3071
 20
223.2096
 10
372.3951
 20
223.2553
 10
372.4846
 20
223.2927
 10
372.5756
 20
223.3217
 10
372.6682
 20
223.3425
 10
372.7624
 20
223.3549
 10
372.8582
 20
223.3591
 10
372.9516
 20
223.3569
 10
373.0387
 20
223.3503
 10
373.1196
 20
223.3394
 10
373.1943
 20
223.324
 10
373.2627
 20
223.3043
 10
373.3249
 20
223.2801
 10
373.3809
 20
223.2516
 10
373.4307
 20
223.2187
 10
373.5562
 20
223.1087
 10
373.6649
 20
222.9798
 10
373.757
 20
222.832
 10
373.8323
 20
222.6653
 10
373.8909
 20
222.4798
 10
373.9327
 20
222.2753
 10
373.9578
 20
222.0518
 10
373.9662
 20
221.8095
 10
373.9662
 20
217.7507
 10
374.8376
 20
217.7507
 10
374.8376
 20
221.8095
 10
374.8316
 20
222.0579
 10
374.9746
 20
222.4143
 10
375.0265
 20
222.5153
 10
375.0827
 20
222.6117
 10
375.1432
 20
222.7035
 10
375.208
 20
222.7907
 10
375.2771
 20
222.8733
 10
375.3505
 20
222.9513
 10
375.4282
 20
223.0246
 10
375.5101
 20
223.0934
 10
375.5948
 20
223.1557
 10
375.6811
 20
223.2096
 10
375.7691
 20
223.2553
 10
375.8585
 20
223.2927
 10
375.9496
 20
223.3217
 10
376.0422
 20
223.3425
 10
376.1364
 20
223.3549
 10
376.2321
 20
223.3591
 10
376.3255
 20
223.3569
 10
376.4126
 20
223.3503
 10
376.4935
 20
223.3394
 10
376.5683
 20
223.324
 10
376.6368
 20
223.3043
 10
376.699
 20
223.2801
 10
376.7551
 20
223.2516
 10
376.8049
 20
223.2187
 10
376.9304
 20
223.1087
 10
377.0391
 20
222.9798
 10
377.1311
 20
222.832
 10
377.2063
 20
222.6653
 10
377.2649
 20
222.4798
 10
377.3067
 20
222.2753
 10
377.3317
 20
222.0518
 10
377.3401
 20
221.8095
 10
377.3401
 20
217.7507
  0
LWPOLYLINE
  5
A9
330
1F
100
AcDbEntity
  8
Layer 1
 62
     7
370
     9
100
AcDbPolyline
 90
      159
 70
     1
 43
0.0
 10
386.8396
 20
217.7507
 10
387.7113
 20
217.7507
 10
387.7113
 20
221.8095
 10
387.7042
 20
222.0789
 10
387.6829
 20
222.3356
 10
387.6474
 20
222.5796
 10
387.5977
 20
222.811
 10
387.5337
 20
223.0297
 10
387.4556
 20
223.2357
 10
387.3634
 20
223.4291
 10
387.2569
 20
223.6097
 10
387.1974
 20
223.6961
 10
387.1343
 20
223.7781
 10
387.0674
 20
223.8557
 10
386.9969
 20
223.9289
 10
386.9227
 20
223.9978
 10
386.8447
 20
224.0623
 10
386.7631
 20
224.1224
 10
386.6777
 20
224.1782
 10
386.587
 20
224.2283
 10
386.4894
 20
224.2718
 10
386.3847
 20
224.3085
 10
386.2731
 20
224.3386
 10
386.1544
 20
224.362
 10
386.0288
 20
224.3787
 10
385.8961
 20
224.3888
 10
385.7565
 20
224.3921
 10
385.6156
 20
224.3863
 10
385.4791
 20
224.369
 10
385.3471
 20
224.3402
 10
385.2196
 20
224.2998
 10
385.0965
 20
224.2478
 10
384.9779
 20
224.1844
 10
384.8638
 20
224.1095
 10
384.7541
 20
224.023
 10
384.659
 20
223.9368
 10
384.5682
 20
223.8441
 10
384.4817
 20
223.7451
 10
384.3994
 20
223.6399
 10
384.3214
 20
223.5284
 10
384.2477
 20
223.4107
 10
384.1782
 20
223.2869
 10
384.113
 20
223.1571
 10
383.8827
 20
223.6097
 10
383.8233
 20
223.6961
 10
383.7601
 20
223.7781
 10
383.6933
 20
223.8557
 10
383.6228
 20
223.9289
 10
383.5486
 20
223.9978
 10
383.4707
 20
224.0623
 10
383.3891
 20
224.1224
 10
383.3038
 20
224.1782
 10
383.2132
 20
224.2283
 10
383.1156
 20
224.2718
 10
383.0109
 20
224.3085
 10
382.8993
 20
224.3386
 10
382.7806
 20
224.362
 10
382.6549
 20
224.3787
 10
382.5223
 20
224.3888
 10
382.3826
 20
224.3921
 10
382.2416
 20
224.3863
 10
382.1051
 20
224.369
 10
381.9731
 20
224.3402
 10
381.8456
 20
224.2998
 10
381.7225
 20
224.2478
 10
381.604
 20
224.1844
 10
381.4899
 20
224.1095
 10
381.3803
 20
224.023
 10
381.2896
 20
223.941
 10
381.2029
 20
223.8533
 10
381.12
 20
223.7601
 10
381.041
 20
223.6612
 10
380.9658
 20
223.5567
 10
380.8946
 20
223.4465
 10
380.8274
 20
223.3306
 10
380.764
 20
223.209
 10
380.764
 20
224.2445
 10
379.8923
 20
224.2445
 10
379.8923
 20
217.7507
 10
380.764
 20
217.7507
 10
380.764
 20
221.0739
 10
380.7842
 20
221.2675
 10
380.8107
 20
221.4535
 10
380.8433
 20
221.632
 10
380.8822
 20
221.8031
 10
380.9274
 20
221.9668
 10
380.9787
 20
222.1232
 10
381.0362
 20
222.2724
 10
381.1
 20
222.4143
 10
381.152
 20
222.5153
 10
381.2083
 20
222.6117
 10
381.2688
 20
222.7035
 10
381.3335
 20
222.7907
 10
381.4026
 20
222.8733
 10
381.4759
 20
222.9513
 10
381.5535
 20
223.0246
 10
381.6354
 20
223.0934
 10
381.7202
 20
223.1557
 10
381.8066
 20
223.2096
 10
381.8945
 20
223.2553
 10
381.984
 20
223.2927
 10
382.0751
 20
223.3217
 10
382.1677
 20
223.3425
 10
382.2619
 20
223.3549
 10
382.3577
 20
223.3591
 10
382.4511
 20
223.3569
 10
382.5382
 20
223.3503
 10
382.6191
 20
223.3394
 10
382.6938
 20
223.324
 10
382.7622
 20
223.3043
 10
382.8244
 20
223.2801
 10
382.8804
 20
223.2516
 10
382.9302
 20
223.2187
 10
383.0557
 20
223.1087
 10
383.1644
 20
222.9798
 10
383.2565
 20
222.832
 10
383.3318
 20
222.6653
 10
383.3904
 20
222.4798
 10
383.4322
 20
222.2753
 10
383.4573
 20
222.0518
 10
383.4657
 20
221.8095
 10
383.4657
 20
217.7507
 10
384.3371
 20
217.7507
 10
384.3371
 20
221.8095
 10
384.331
 20
222.0579
 10
384.4741
 20
222.4143
 10
384.526
 20
222.5153
 10
384.5822
 20
222.6117
 10
384.6427
 20
222.7035
 10
384.7075
 20
222.7907
 10
384.7766
 20
222.8733
 10
384.85
 20
222.9513
 10
384.9277
 20
223.0246
 10
385.0096
 20
223.0934
 10
385.0943
 20
223.1557
 10
385.1806
 20
223.2096
 10
385.2686
 20
223.2553
 10
385.358
 20
223.2927
 10
385.4491
 20
223.3217
 10
385.5417
 20
223.3425
 10
385.6359
 20
223.3549
 10
385.7316
 20
223.3591
 10
385.825
 20
223.3569
 10
385.9121
 20
223.3503
 10
385.993
 20
223.3394
 10
386.0678
 20
223.324
 10
386.1363
 20
223.3043
 10
386.1985
 20
223.2801
 10
386.2546
 20
223.2516
 10
386.3044
 20
223.2187
 10
386.4299
 20
223.1087
 10
386.5386
 20
222.9798
 10
386.6306
 20
222.832
 10
386.7058
 20
222.6653
 10
386.7644
 20
222.4798
 10
386.8062
 20
222.2753
 10
386.8312
 20
222.0518
 10
386.8396
 20
221.8095
 10
386.8396
 20
217.7507
  0
ENDSEC
  0
SECTION
  2
OBJECTS
  0
DICTIONARY
  5
C
330
0
100
AcDbDictionary
281
     1
  3
ACAD_DETAILVIEWSTYLE
350
B1
  3
ACAD_GROUP
350
D
  3
ACAD_LAYOUT
350
1A
  3
ACAD_MATERIAL
350
43
  3
ACAD_MLEADERSTYLE
350
5B
  3
ACAD_MLINESTYLE
350
17
  3
ACAD_PLOTSETTINGS
350
19
  3
ACAD_PLOTSTYLENAME
350
E
  3
ACAD_SCALELIST
350
47
  3
ACAD_SECTIONVIEWSTYLE
350
B2
  3
ACAD_TABLESTYLE
350
59
  3
ACAD_VISUALSTYLE
350
2A
  3
ACDB_RECOMPOSE_DATA
350
AE
  3
AcDbVariableDictionary
350
AA
  0
SUN
  5
5D
330
29
100
AcDbSun
 90
        1
290
     0
 63
     7
421
 16777215
 40
1.0
291
     1
 91
  2455826
 92
 54000000
292
     0
 70
     2
 71
   256
280
     1
  0
DICTIONARY
  5
B1
102
{ACAD_REACTORS
330
C
102
}
330
C
100
AcDbDictionary
281
     1
  0
DICTIONARY
  5
D
102
{ACAD_REACTORS
330
C
102
}
330
C
100
AcDbDictionary
281
     1
  0
DICTIONARY
  5
1A
102
{ACAD_REACTORS
330
C
102
}
330
C
100
AcDbDictionary
281
     1
  3
Layout1
350
1E
  3
Layout2
350
26
  3
Model
350
22
  0
DICTIONARY
  5
43
102
{ACAD_REACTORS
330
C
102
}
330
C
100
AcDbDictionary
281
     1
  3
ByBlock
350
45
  3
ByLayer
350
44
  3
Global
350
46
  0
DICTIONARY
  5
5B
102
{ACAD_REACTORS
330
C
102
}
330
C
100
AcDbDictionary
281
     1
  3
Standard
350
5C
  0
DICTIONARY
  5
17
102
{ACAD_REACTORS
330
C
102
}
330
C
100
AcDbDictionary
281
     1
  3
Standard
350
18
  0
DICTIONARY
  5
19
102
{ACAD_REACTORS
330
C
102
}
330
C
100
AcDbDictionary
281
     1
  0
ACDBDICTIONARYWDFLT
  5
E
102
{ACAD_REACTORS
330
C
102
}
330
C
100
AcDbDictionary
281
     1
  3
Normal
350
F
100
AcDbDictionaryWithDefault
340
F
  0
DICTIONARY
  5
47
102
{ACAD_REACTORS
330
C
102
}
330
C
100
AcDbDictionary
281
     1
  3
A0
350
48
  3
A1
350
49
  3
A2
350
4A
  3
A3
350
4B
  3
A4
350
4C
  3
A5
350
4D
  3
A6
350
4E
  3
A7
350
4F
  3
A8
350
50
  3
A9
350
51
  3
B1
350
52
  3
B2
350
53
  3
B3
350
54
  3
B4
350
55
  3
B5
350
56
  3
B6
350
57
  3
B7
350
58
  0
DICTIONARY
  5
B2
102
{ACAD_REACTORS
330
C
102
}
330
C
100
AcDbDictionary
281
     1
  0
DICTIONARY
  5
59
102
{ACAD_REACTORS
330
C
102
}
330
C
100
AcDbDictionary
281
     1
  3
Standard
350
5A
  0
DICTIONARY
  5
2A
102
{ACAD_REACTORS
330
C
102
}
330
C
100
AcDbDictionary
281
     1
  3
2dWireframe
350
2F
  3
Basic
350
32
  3
Brighten
350
36
  3
ColorChange
350
3A
  3
Conceptual
350
34
  3
Dim
350
35
  3
EdgeColorOff
350
3D
  3
Facepattern
350
39
  3
Flat
350
2B
  3
FlatWithEdges
350
2C
  3
Gouraud
350
2D
  3
GouraudWithEdges
350
2E
  3
Hidden
350
31
  3
JitterOff
350
3B
  3
Linepattern
350
38
  3
OverhangOff
350
3C
  3
Realistic
350
33
  3
Shaded
350
42
  3
Shaded with edges
350
41
  3
Shades of Gray
350
3E
  3
Sketchy
350
3F
  3
Thicken
350
37
  3
Wireframe
350
30
  3
X-Ray
350
40
  0
XRECORD
  5
AE
102
{ACAD_REACTORS
330
C
102
}
330
C
100
AcDbXrecord
280
     1
 90
        1
330
5A
  0
DICTIONARY
  5
AA
102
{ACAD_REACTORS
330
C
102
}
330
C
100
AcDbDictionary
281
     1
  3
CANNOSCALE
350
AB
  3
CMLEADERSTYLE
350
B0
  3
CTABLESTYLE
350
AF
  0
LAYOUT
  5
1E
102
{ACAD_REACTORS
330
1A
102
}
330
1A
100
AcDbPlotSettings
  1

  2
none_device
  4

  6

 40
0.0
 41
0.0
 42
0.0
 43
0.0
 44
0.0
 45
0.0
 46
0.0
 47
0.0
 48
0.0
 49
0.0
140
0.0
141
0.0
142
1.0
143
1.0
 70
   688
 72
     0
 73
     0
 74
     5
  7

 75
    16
 76
     0
 77
     2
 78
   300
147
1.0
148
0.0
149
0.0
100
AcDbLayout
  1
Layout1
 70
     1
 71
     1
 10
0.0
 20
0.0
 11
12.0
 21
9.0
 12
0.0
 22
0.0
 32
0.0
 14
1.000000000000000E+20
 24
1.000000000000000E+20
 34
1.000000000000000E+20
 15
-1.000000000000000E+20
 25
-1.000000000000000E+20
 35
-1.000000000000000E+20
146
0.0
 13
0.0
 23
0.0
 33
0.0
 16
1.0
 26
0.0
 36
0.0
 17
0.0
 27
1.0
 37
0.0
 76
     0
330
1B
  0
LAYOUT
  5
26
102
{ACAD_REACTORS
330
1A
102
}
330
1A
100
AcDbPlotSettings
  1

  2
none_device
  4

  6

 40
0.0
 41
0.0
 42
0.0
 43
0.0
 44
0.0
 45
0.0
 46
0.0
 47
0.0
 48
0.0
 49
0.0
140
0.0
141
0.0
142
1.0
143
1.0
 70
   688
 72
     0
 73
     0
 74
     5
  7

 75
    16
 76
     0
 77
     2
 78
   300
147
1.0
148
0.0
149
0.0
100
AcDbLayout
  1
Layout2
 70
     1
 71
     2
 10
0.0
 20
0.0
 11
0.0
 21
0.0
 12
0.0
 22
0.0
 32
0.0
 14
0.0
 24
0.0
 34
0.0
 15
0.0
 25
0.0
 35
0.0
146
0.0
 13
0.0
 23
0.0
 33
0.0
 16
1.0
 26
0.0
 36
0.0
 17
0.0
 27
1.0
 37
0.0
 76
     0
330
23
  0
LAYOUT
  5
22
102
{ACAD_REACTORS
330
1A
102
}
330
1A
100
AcDbPlotSettings
  1

  2
none_device
  4
Letter_(8.50_x_11.00_Inches)
  6

 40
6.35
 41
6.35
 42
6.35000508
 43
6.35000508
 44
215.9
 45
279.4
 46
0.0
 47
0.0
 48
0.0
 49
0.0
140
0.0
141
0.0
142
1.0
143
1.0
 70
  1712
 72
     0
 73
     0
 74
     0
  7

 75
     0
 76
     0
 77
     2
 78
   300
147
1.0
148
0.0
149
0.0
100
AcDbLayout
  1
Model
 70
     1
 71
     0
 10
0.0
 20
0.0
 11
12.0
 21
9.0
 12
0.0
 22
0.0
 32
0.0
 14
193.3246
 24
-189.2716
 34
0.0
 15
521.8138
 25
246.196
 35
0.0
146
0.0
 13
0.0
 23
0.0
 33
0.0
 16
1.0
 26
0.0
 36
0.0
 17
0.0
 27
1.0
 37
0.0
 76
     0
330
1F
331
29
  0
MATERIAL
  5
45
102
{ACAD_REACTORS
330
43
102
}
330
43
100
AcDbMaterial
  1
ByBlock
 72
     1
 94
      127
  0
MATERIAL
  5
44
102
{ACAD_REACTORS
330
43
102
}
330
43
100
AcDbMaterial
  1
ByLayer
 72
     1
 94
      127
  0
MATERIAL
  5
46
102
{ACAD_REACTORS
330
43
102
}
330
43
100
AcDbMaterial
  1
Global
 72
     1
 94
      127
  0
MLEADERSTYLE
  5
5C
102
{ACAD_REACTORS
330
5B
102
}
330
5B
100
AcDbMLeaderStyle
179
     2
170
     2
171
     1
172
     0
 90
        2
 40
0.0
 41
0.0
173
     1
 91
-1056964608
340
14
 92
       -2
290
     1
 42
0.09
291
     1
 43
0.36
  3
Standard
341
0
 44
0.18
300

342
11
174
     1
178
     6
175
     1
176
     0
 93
-1056964608
 45
0.18
292
     0
297
     0
 46
0.18
343
0
 94
-1056964608
 47
1.0
 49
1.0
140
1.0
293
     1
141
0.0
294
     1
177
     0
142
1.0
295
     0
296
     0
143
0.125
271
     0
272
     9
273
     9
298
     0
  0
MLINESTYLE
  5
18
102
{ACAD_REACTORS
330
17
102
}
330
17
100
AcDbMlineStyle
  2
Standard
 70
     0
  3

 62
   256
 51
90.0
 52
90.0
 71
     2
 49
0.5
 62
   256
  6
BYLAYER
 49
-0.5
 62
   256
  6
BYLAYER
  0
ACDBPLACEHOLDER
  5
F
102
{ACAD_REACTORS
330
E
102
}
330
E
  0
SCALE
  5
48
102
{ACAD_REACTORS
330
47
102
}
330
47
100
AcDbScale
 70
     0
300
1:1
140
1.0
141
1.0
290
     1
  0
SCALE
  5
49
102
{ACAD_REACTORS
330
47
102
}
330
47
100
AcDbScale
 70
     0
300
1/128" = 1'-0"
140
0.0078125
141
12.0
290
     0
  0
SCALE
  5
4A
102
{ACAD_REACTORS
330
47
102
}
330
47
100
AcDbScale
 70
     0
300
1/64" = 1'-0"
140
0.015625
141
12.0
290
     0
  0
SCALE
  5
4B
102
{ACAD_REACTORS
330
47
102
}
330
47
100
AcDbScale
 70
     0
300
1/32" = 1'-0"
140
0.03125
141
12.0
290
     0
  0
SCALE
  5
4C
102
{ACAD_REACTORS
330
47
102
}
330
47
100
AcDbScale
 70
     0
300
1/16" = 1'-0"
140
0.0625
141
12.0
290
     0
  0
SCALE
  5
4D
102
{ACAD_REACTORS
330
47
102
}
330
47
100
AcDbScale
 70
     0
300
3/32" = 1'-0"
140
0.09375
141
12.0
290
     0
  0
SCALE
  5
4E
102
{ACAD_REACTORS
330
47
102
}
330
47
100
AcDbScale
 70
     0
300
1/8" = 1'-0"
140
0.125
141
12.0
290
     0
  0
SCALE
  5
4F
102
{ACAD_REACTORS
330
47
102
}
330
47
100
AcDbScale
 70
     0
300
3/16" = 1'-0"
140
0.1875
141
12.0
290
     0
  0
SCALE
  5
50
102
{ACAD_REACTORS
330
47
102
}
330
47
100
AcDbScale
 70
     0
300
1/4" = 1'-0"
140
0.25
141
12.0
290
     0
  0
SCALE
  5
51
102
{ACAD_REACTORS
330
47
102
}
330
47
100
AcDbScale
 70
     0
300
3/8" = 1'-0"
140
0.375
141
12.0
290
     0
  0
SCALE
  5
52
102
{ACAD_REACTORS
330
47
102
}
330
47
100
AcDbScale
 70
     0
300
1/2" = 1'-0"
140
0.5
141
12.0
290
     0
  0
SCALE
  5
53
102
{ACAD_REACTORS
330
47
102
}
330
47
100
AcDbScale
 70
     0
300
3/4" = 1'-0"
140
0.75
141
12.0
290
     0
  0
SCALE
  5
54
102
{ACAD_REACTORS
330
47
102
}
330
47
100
AcDbScale
 70
     0
300
1" = 1'-0"
140
1.0
141
12.0
290
     0
  0
SCALE
  5
55
102
{ACAD_REACTORS
330
47
102
}
330
47
100
AcDbScale
 70
     0
300
1-1/2" = 1'-0"
140
1.5
141
12.0
290
     0
  0
SCALE
  5
56
102
{ACAD_REACTORS
330
47
102
}
330
47
100
AcDbScale
 70
     0
300
3" = 1'-0"
140
3.0
141
12.0
290
     0
  0
SCALE
  5
57
102
{ACAD_REACTORS
330
47
102
}
330
47
100
AcDbScale
 70
     0
300
6" = 1'-0"
140
6.0
141
12.0
290
     0
  0
SCALE
  5
58
102
{ACAD_REACTORS
330
47
102
}
330
47
100
AcDbScale
 70
     0
300
1'-0" = 1'-0"
140
12.0
141
12.0
290
     0
  0
TABLESTYLE
  5
5A
102
{ACAD_REACTORS
330
59
102
}
102
{ACAD_XDICTIONARY
360
AC
102
}
330
59
100
AcDbTableStyle
  3
Standard
 70
     0
 71
     0
 40
0.06
 41
0.06
280
     0
281
     0
  7
Standard
140
0.18
170
     2
 62
     0
 63
   257
283
     0
 90
        4
 91
        0
  1

274
    -2
284
     1
 64
     0
275
    -2
285
     1
 65
     0
276
    -2
286
     1
 66
     0
277
    -2
287
     1
 67
     0
278
    -2
288
     1
 68
     0
279
    -2
289
     1
 69
     0
  7
Standard
140
0.25
170
     5
 62
     0
 63
   257
283
     0
 90
        4
 91
        0
  1

274
    -2
284
     1
 64
     0
275
    -2
285
     1
 65
     0
276
    -2
286
     1
 66
     0
277
    -2
287
     1
 67
     0
278
    -2
288
     1
 68
     0
279
    -2
289
     1
 69
     0
  7
Standard
140
0.18
170
     5
 62
     0
 63
   257
283
     0
 90
        4
 91
        0
  1

274
    -2
284
     1
 64
     0
275
    -2
285
     1
 65
     0
276
    -2
286
     1
 66
     0
277
    -2
287
     1
 67
     0
278
    -2
288
     1
 68
     0
279
    -2
289
     1
 69
     0
  0
VISUALSTYLE
  5
2F
102
{ACAD_REACTORS
330
2A
102
}
330
2A
100
AcDbVisualStyle
  2
2dWireframe
 70
     4
177
     3
291
     0
 70
    58
 90
        0
176
     1
 90
        2
176
     1
 90
        0
176
     1
 90
        0
176
     1
 40
0.6
176
     1
 40
30.0
176
     1
 62
     7
420
 16777215
176
     1
 90
        1
176
     1
 90
        4
176
     1
 62
     7
176
     1
 62
   257
176
     1
 90
        1
176
     1
 90
        1
176
     1
 40
1.0
176
     1
 90
        0
176
     1
 62
   257
176
     1
 40
1.0
176
     1
 90
        1
176
     1
 90
        6
176
     1
 90
        2
176
     1
 62
     7
176
     1
 90
        5
176
     1
 90
        0
176
     1
 90
        0
176
     1
290
     0
176
     1
 90
        1
176
     1
 40
0.0
176
     1
 90
        0
176
     1
290
     1
176
     1
290
     1
176
     1
290
     0
176
     1
290
     0
176
     1
290
     0
176
     1
290
     0
176
     1
290
     0
176
     1
290
     0
176
     1
290
     0
176
     1
 90
       50
176
     1
 40
0.0
176
     1
 40
1.0
176
     1
 90
        0
176
     1
 62
    18
420
        0
176
     1
 90
       50
176
     1
 90
        3
176
     1
 62
     5
420
      255
176
     1
290
     0
176
     1
 90
       50
176
     1
 90
       50
176
     1
 90
       50
176
     1
290
     0
176
     1
 90
       50
176
     1
 62
   256
176
     0
 40
1.0
176
     0
 90
        2
176
     1
  1
strokes_ogs.tif
176
     1
290
     0
176
     1
 40
1.0
176
     1
 40
1.0
176
     1
  0
VISUALSTYLE
  5
32
102
{ACAD_REACTORS
330
2A
102
}
330
2A
100
AcDbVisualStyle
  2
Basic
 70
     7
177
     3
291
     1
 70
    58
 90
        1
176
     1
 90
        0
176
     1
 90
        1
176
     1
 90
        0
176
     1
 40
0.6
176
     1
 40
30.0
176
     1
 62
     7
420
 16777215
176
     1
 90
        0
176
     1
 90
        4
176
     1
 62
     7
176
     1
 62
   257
176
     1
 90
        1
176
     1
 90
        1
176
     1
 40
1.0
176
     1
 90
        8
176
     1
 62
     7
176
     1
 40
1.0
176
     1
 90
        1
176
     1
 90
        6
176
     1
 90
        2
176
     1
 62
     7
176
     1
 90
        5
176
     1
 90
        0
176
     1
 90
        0
176
     1
290
     0
176
     1
 90
        1
176
     1
 40
0.0
176
     1
 90
        0
176
     1
290
     0
176
     1
290
     1
176
     1
290
     1
176
     1
290
     0
176
     1
290
     0
176
     1
290
     0
176
     1
290
     0
176
     1
290
     0
176
     1
290
     0
176
     1
 90
       50
176
     1
 40
0.0
176
     1
 40
1.0
176
     1
 90
        0
176
     1
 62
    18
420
        0
176
     1
 90
       50
176
     1
 90
        3
176
     1
 62
     5
420
      255
176
     1
290
     0
176
     1
 90
       50
176
     1
 90
       50
176
     1
 90
       50
176
     1
290
     0
176
     1
 90
       50
176
     1
 62
   256
176
     0
 40
1.0
176
     0
 90
        2
176
     1
  1
strokes_ogs.tif
176
     1
290
     0
176
     1
 40
1.0
176
     1
 40
1.0
176
     1
  0
VISUALSTYLE
  5
36
102
{ACAD_REACTORS
330
2A
102
}
330
2A
100
AcDbVisualStyle
  2
Brighten
 70
    12
177
     3
291
     1
 70
    58
 90
        2
176
     1
 90
        2
176
     1
 90
        0
176
     1
 90
        0
176
     1
 40
0.6
176
     1
 40
30.0
176
     1
 62
     7
420
 16777215
176
     1
 90
        1
176
     1
 90
        4
176
     1
 62
     7
176
     1
 62
   257
176
     1
 90
        1
176
     1
 90
        1
176
     1
 40
1.0
176
     1
 90
        8
176
     1
 62
     7
176
     1
 40
1.0
176
     1
 90
        1
176
     1
 90
        6
176
     1
 90
        2
176
     1
 62
     7
176
     1
 90
        5
176
     1
 90
        0
176
     1
 90
        0
176
     1
290
     0
176
     1
 90
        1
176
     1
 40
50.0
176
     1
 90
        0
176
     1
290
     0
176
     1
290
     1
176
     1
290
     1
176
     1
290
     0
176
     1
290
     0
176
     1
290
     0
176
     1
290
     0
176
     1
290
     0
176
     1
290
     0
176
     1
 90
       50
176
     1
 40
0.0
176
     1
 40
1.0
176
     1
 90
        0
176
     1
 62
    18
420
        0
176
     1
 90
       50
176
     1
 90
        3
176
     1
 62
     5
420
      255
176
     1
290
     0
176
     1
 90
       50
176
     1
 90
       50
176
     1
 90
       50
176
     1
290
     0
176
     1
 90
       50
176
     1
 62
   256
176
     0
 40
1.0
176
     0
 90
        2
176
     1
  1
strokes_ogs.tif
176
     1
290
     0
176
     1
 40
1.0
176
     1
 40
1.0
176
     1
  0
VISUALSTYLE
  5
3A
102
{ACAD_REACTORS
330
2A
102
}
330
2A
100
AcDbVisualStyle
  2
ColorChange
 70
    16
177
     3
291
     1
 70
    58
 90
        2
176
     1
 90
        2
176
     1
 90
        3
176
     1
 90
        0
176
     1
 40
0.6
176
     1
 40
30.0
176
     1
 62
     8
420
  8421504
176
     1
 90
        1
176
     1
 90
        4
176
     1
 62
     7
176
     1
 62
   257
176
     1
 90
        1
176
     1
 90
        1
176
     1
 40
1.0
176
     1
 90
        8
176
     1
 62
     8
420
  8421504
176
     1
 40
1.0
176
     1
 90
        1
176
     1
 90
        6
176
     1
 90
        2
176
     1
 62
     7
176
     1
 90
        5
176
     1
 90
        0
176
     1
 90
        0
176
     1
290
     0
176
     1
 90
        1
176
     1
 40
0.0
176
     1
 90
        0
176
     1
290
     0
176
     1
290
     1
176
     1
290
     1
176
     1
290
     0
176
     1
290
     0
176
     1
290
     0
176
     1
290
     0
176
     1
290
     0
176
     1
290
     0
176
     1
 90
       50
176
     1
 40
0.0
176
     1
 40
1.0
176
     1
 90
        0
176
     1
 62
    18
420
        0
176
     1
 90
       50
176
     1
 90
        3
176
     1
 62
     5
420
      255
176
     1
290
     0
176
     1
 90
       50
176
     1
 90
       50
176
     1
 90
       50
176
     1
290
     0
176
     1
 90
       50
176
     1
 62
   256
176
     0
 40
1.0
176
     0
 90
        2
176
     1
  1
strokes_ogs.tif
176
     1
290
     0
176
     1
 40
1.0
176
     1
 40
1.0
176
     1
  0
VISUALSTYLE
  5
34
102
{ACAD_REACTORS
330
2A
102
}
330
2A
100
AcDbVisualStyle
  2
Conceptual
 70
     9
177
     3
291
     0
 70
    58
 90
        3
176
     1
 90
        2
176
     1
 90
        0
176
     1
 90
        0
176
     1
 40
0.6
176
     1
 40
30.0
176
     1
 62
     7
420
 16777215
176
     1
 90
        2
176
     1
 90
        2
176
     1
 62
     7
176
     1
 62
   257
176
     1
 90
        1
176
     1
 90
        1
176
     1
 40
179.0
176
     1
 90
        8
176
     1
 62
     7
176
     1
 40
1.0
176
     1
 90
        1
176
     1
 90
        6
176
     1
 90
        2
176
     1
 62
     7
176
     1
 90
        3
176
     1
 90
        0
176
     1
 90
        0
176
     1
290
     0
176
     1
 90
        1
176
     1
 40
0.0
176
     1
 90
        0
176
     1
290
     0
176
     1
290
     1
176
     1
290
     1
176
     1
290
     0
176
     1
290
     0
176
     1
290
     0
176
     1
290
     0
176
     1
290
     0
176
     1
290
     0
176
     1
 90
       50
176
     1
 40
0.0
176
     1
 40
1.0
176
     1
 90
        0
176
     1
 62
    18
420
        0
176
     1
 90
       50
176
     1
 90
        3
176
     1
 62
     5
420
      255
176
     1
290
     0
176
     1
 90
       50
176
     1
 90
       50
176
     1
 90
       50
176
     1
290
     0
176
     1
 90
       50
176
     1
 62
   256
176
     0
 40
1.0
176
     0
 90
        2
176
     1
  1
strokes_ogs.tif
176
     1
290
     0
176
     1
 40
1.0
176
     1
 40
1.0
176
     1
  0
VISUALSTYLE
  5
35
102
{ACAD_REACTORS
330
2A
102
}
330
2A
100
AcDbVisualStyle
  2
Dim
 70
    11
177
     3
291
     1
 70
    58
 90
        2
176
     1
 90
        2
176
     1
 90
        0
176
     1
 90
        0
176
     1
 40
0.6
176
     1
 40
30.0
176
     1
 62
     7
420
 16777215
176
     1
 90
        1
176
     1
 90
        4
176
     1
 62
     7
176
     1
 62
   257
176
     1
 90
        1
176
     1
 90
        1
176
     1
 40
1.0
176
     1
 90
        8
176
     1
 62
     7
176
     1
 40
1.0
176
     1
 90
        1
176
     1
 90
        6
176
     1
 90
        2
176
     1
 62
     7
176
     1
 90
        5
176
     1
 90
        0
176
     1
 90
        0
176
     1
290
     0
176
     1
 90
        1
176
     1
 40
-50.0
176
     1
 90
        0
176
     1
290
     0
176
     1
290
     1
176
     1
290
     1
176
     1
290
     0
176
     1
290
     0
176
     1
290
     0
176
     1
290
     0
176
     1
290
     0
176
     1
290
     0
176
     1
 90
       50
176
     1
 40
0.0
176
     1
 40
1.0
176
     1
 90
        0
176
     1
 62
    18
420
        0
176
     1
 90
       50
176
     1
 90
        3
176
     1
 62
     5
420
      255
176
     1
290
     0
176
     1
 90
       50
176
     1
 90
       50
176
     1
 90
       50
176
     1
290
     0
176
     1
 90
       50
176
     1
 62
   256
176
     0
 40
1.0
176
     0
 90
        2
176
     1
  1
strokes_ogs.tif
176
     1
290
     0
176
     1
 40
1.0
176
     1
 40
1.0
176
     1
  0
VISUALSTYLE
  5
3D
102
{ACAD_REACTORS
330
2A
102
}
330
2A
100
AcDbVisualStyle
  2
EdgeColorOff
 70
    22
177
     3
291
     1
 70
    58
 90
        2
176
     0
 90
        2
176
     0
 90
        0
176
     0
 90
        0
176
     0
 40
0.6
176
     0
 40
30.0
176
     0
 62
     7
420
 16777215
176
     0
 90
        1
176
     0
 90
        4
176
     0
 62
     7
176
     0
 62
   257
176
     0
 90
        1
176
     0
 90
        1
176
     0
 40
1.0
176
     0
 90
        8
176
     2
 62
     7
176
     0
 40
1.0
176
     0
 90
        1
176
     0
 90
        6
176
     0
 90
        2
176
     0
 62
     7
176
     0
 90
        5
176
     0
 90
        0
176
     0
 90
        0
176
     0
290
     0
176
     0
 90
        1
176
     0
 40
0.0
176
     0
 90
        0
176
     0
290
     0
176
     0
290
     1
176
     0
290
     1
176
     0
290
     0
176
     0
290
     0
176
     0
290
     0
176
     0
290
     0
176
     0
290
     0
176
     0
290
     0
176
     0
 90
       50
176
     0
 40
0.0
176
     0
 40
1.0
176
     0
 90
        0
176
     0
 62
    18
420
        0
176
     0
 90
       50
176
     0
 90
        3
176
     0
 62
     5
420
      255
176
     0
290
     0
176
     0
 90
       50
176
     0
 90
       50
176
     0
 90
       50
176
     0
290
     0
176
     0
 90
       50
176
     0
 62
   256
176
     0
 40
1.0
176
     0
 90
        2
176
     0
  1
strokes_ogs.tif
176
     0
290
     0
176
     0
 40
1.0
176
     0
 40
1.0
176
     0
  0
VISUALSTYLE
  5
39
102
{ACAD_REACTORS
330
2A
102
}
330
2A
100
AcDbVisualStyle
  2
Facepattern
 70
    15
177
     3
291
     1
 70
    58
 90
        2
176
     1
 90
        2
176
     1
 90
        0
176
     1
 90
        0
176
     1
 40
0.6
176
     1
 40
30.0
176
     1
 62
     7
420
 16777215
176
     1
 90
        1
176
     1
 90
        4
176
     1
 62
     7
176
     1
 62
   257
176
     1
 90
        1
176
     1
 90
        1
176
     1
 40
1.0
176
     1
 90
        8
176
     1
 62
     7
176
     1
 40
1.0
176
     1
 90
        1
176
     1
 90
        6
176
     1
 90
        2
176
     1
 62
     7
176
     1
 90
        5
176
     1
 90
        0
176
     1
 90
        0
176
     1
290
     0
176
     1
 90
        1
176
     1
 40
0.0
176
     1
 90
        0
176
     1
290
     0
176
     1
290
     1
176
     1
290
     1
176
     1
290
     0
176
     1
290
     0
176
     1
290
     0
176
     1
290
     0
176
     1
290
     0
176
     1
290
     0
176
     1
 90
       50
176
     1
 40
0.0
176
     1
 40
1.0
176
     1
 90
        0
176
     1
 62
    18
420
        0
176
     1
 90
       50
176
     1
 90
        3
176
     1
 62
     5
420
      255
176
     1
290
     0
176
     1
 90
       50
176
     1
 90
       50
176
     1
 90
       50
176
     1
290
     0
176
     1
 90
       50
176
     1
 62
   256
176
     0
 40
1.0
176
     0
 90
        2
176
     1
  1
strokes_ogs.tif
176
     1
290
     0
176
     1
 40
1.0
176
     1
 40
1.0
176
     1
  0
VISUALSTYLE
  5
2B
102
{ACAD_REACTORS
330
2A
102
}
330
2A
100
AcDbVisualStyle
  2
Flat
 70
     0
177
     3
291
     1
 70
    58
 90
        2
176
     1
 90
        1
176
     1
 90
        1
176
     1
 90
        2
176
     1
 40
0.6
176
     1
 40
30.0
176
     1
 62
     7
420
 16777215
176
     1
 90
        0
176
     1
 90
        0
176
     1
 62
     7
176
     1
 62
   257
176
     1
 90
        1
176
     1
 90
        1
176
     1
 40
1.0
176
     1
 90
        8
176
     1
 62
     7
176
     1
 40
1.0
176
     1
 90
        1
176
     1
 90
        6
176
     1
 90
        2
176
     1
 62
     7
176
     1
 90
        5
176
     1
 90
        0
176
     1
 90
        0
176
     1
290
     0
176
     1
 90
       13
176
     1
 40
0.0
176
     1
 90
        0
176
     1
290
     0
176
     1
290
     1
176
     1
290
     1
176
     1
290
     0
176
     1
290
     0
176
     1
290
     0
176
     1
290
     0
176
     1
290
     0
176
     1
290
     0
176
     1
 90
       50
176
     1
 40
0.0
176
     1
 40
1.0
176
     1
 90
        0
176
     1
 62
    18
420
        0
176
     1
 90
       50
176
     1
 90
        3
176
     1
 62
     5
420
      255
176
     1
290
     0
176
     1
 90
       50
176
     1
 90
       50
176
     1
 90
       50
176
     1
290
     0
176
     1
 90
       50
176
     1
 62
   256
176
     0
 40
1.0
176
     0
 90
        2
176
     1
  1
strokes_ogs.tif
176
     1
290
     0
176
     1
 40
1.0
176
     1
 40
1.0
176
     1
  0
VISUALSTYLE
  5
2C
102
{ACAD_REACTORS
330
2A
102
}
330
2A
100
AcDbVisualStyle
  2
FlatWithEdges
 70
     1
177
     3
291
     1
 70
    58
 90
        2
176
     1
 90
        1
176
     1
 90
        1
176
     1
 90
        2
176
     1
 40
0.6
176
     1
 40
30.0
176
     1
 62
     7
420
 16777215
176
     1
 90
        1
176
     1
 90
        0
176
     1
 62
     7
176
     1
 62
   257
176
     1
 90
        1
176
     1
 90
        1
176
     1
 40
1.0
176
     1
 90
        0
176
     1
 62
   257
176
     1
 40
1.0
176
     1
 90
        1
176
     1
 90
        6
176
     1
 90
        2
176
     1
 62
     7
176
     1
 90
        5
176
     1
 90
        0
176
     1
 90
        0
176
     1
290
     0
176
     1
 90
       13
176
     1
 40
0.0
176
     1
 90
        0
176
     1
290
     0
176
     1
290
     1
176
     1
290
     1
176
     1
290
     0
176
     1
290
     0
176
     1
290
     0
176
     1
290
     0
176
     1
290
     0
176
     1
290
     0
176
     1
 90
       50
176
     1
 40
0.0
176
     1
 40
1.0
176
     1
 90
        0
176
     1
 62
    18
420
        0
176
     1
 90
       50
176
     1
 90
        3
176
     1
 62
     5
420
      255
176
     1
290
     0
176
     1
 90
       50
176
     1
 90
       50
176
     1
 90
       50
176
     1
290
     0
176
     1
 90
       50
176
     1
 62
   256
176
     0
 40
1.0
176
     0
 90
        2
176
     1
  1
strokes_ogs.tif
176
     1
290
     0
176
     1
 40
1.0
176
     1
 40
1.0
176
     1
  0
VISUALSTYLE
  5
2D
102
{ACAD_REACTORS
330
2A
102
}
330
2A
100
AcDbVisualStyle
  2
Gouraud
 70
     2
177
     3
291
     1
 70
    58
 90
        2
176
     1
 90
        2
176
     1
 90
        1
176
     1
 90
        2
176
     1
 40
0.6
176
     1
 40
30.0
176
     1
 62
     7
420
 16777215
176
     1
 90
        0
176
     1
 90
        0
176
     1
 62
     7
176
     1
 62
   257
176
     1
 90
        1
176
     1
 90
        1
176
     1
 40
1.0
176
     1
 90
        0
176
     1
 62
     7
176
     1
 40
1.0
176
     1
 90
        1
176
     1
 90
        6
176
     1
 90
        2
176
     1
 62
     7
176
     1
 90
        5
176
     1
 90
        0
176
     1
 90
        0
176
     1
290
     0
176
     1
 90
       13
176
     1
 40
0.0
176
     1
 90
        0
176
     1
290
     0
176
     1
290
     1
176
     1
290
     1
176
     1
290
     0
176
     1
290
     0
176
     1
290
     0
176
     1
290
     0
176
     1
290
     0
176
     1
290
     0
176
     1
 90
       50
176
     1
 40
0.0
176
     1
 40
1.0
176
     1
 90
        0
176
     1
 62
    18
420
        0
176
     1
 90
       50
176
     1
 90
        3
176
     1
 62
     5
420
      255
176
     1
290
     0
176
     1
 90
       50
176
     1
 90
       50
176
     1
 90
       50
176
     1
290
     0
176
     1
 90
       50
176
     1
 62
   256
176
     0
 40
1.0
176
     0
 90
        2
176
     1
  1
strokes_ogs.tif
176
     1
290
     0
176
     1
 40
1.0
176
     1
 40
1.0
176
     1
  0
VISUALSTYLE
  5
2E
102
{ACAD_REACTORS
330
2A
102
}
330
2A
100
AcDbVisualStyle
  2
GouraudWithEdges
 70
     3
177
     3
291
     1
 70
    58
 90
        2
176
     1
 90
        2
176
     1
 90
        1
176
     1
 90
        2
176
     1
 40
0.6
176
     1
 40
30.0
176
     1
 62
     7
420
 16777215
176
     1
 90
        1
176
     1
 90
        0
176
     1
 62
     7
176
     1
 62
   257
176
     1
 90
        1
176
     1
 90
        1
176
     1
 40
1.0
176
     1
 90
        0
176
     1
 62
   257
176
     1
 40
1.0
176
     1
 90
        1
176
     1
 90
        6
176
     1
 90
        2
176
     1
 62
     7
176
     1
 90
        5
176
     1
 90
        0
176
     1
 90
        0
176
     1
290
     0
176
     1
 90
       13
176
     1
 40
0.0
176
     1
 90
        0
176
     1
290
     0
176
     1
290
     1
176
     1
290
     1
176
     1
290
     0
176
     1
290
     0
176
     1
290
     0
176
     1
290
     0
176
     1
290
     0
176
     1
290
     0
176
     1
 90
       50
176
     1
 40
0.0
176
     1
 40
1.0
176
     1
 90
        0
176
     1
 62
    18
420
        0
176
     1
 90
       50
176
     1
 90
        3
176
     1
 62
     5
420
      255
176
     1
290
     0
176
     1
 90
       50
176
     1
 90
       50
176
     1
 90
       50
176
     1
290
     0
176
     1
 90
       50
176
     1
 62
   256
176
     0
 40
1.0
176
     0
 90
        2
176
     1
  1
strokes_ogs.tif
176
     1
290
     0
176
     1
 40
1.0
176
     1
 40
1.0
176
     1
  0
VISUALSTYLE
  5
31
102
{ACAD_REACTORS
330
2A
102
}
330
2A
100
AcDbVisualStyle
  2
Hidden
 70
     6
177
     3
291
     0
 70
    58
 90
        1
176
     1
 90
        2
176
     1
 90
        2
176
     1
 90
        0
176
     1
 40
0.6
176
     1
 40
30.0
176
     1
 62
     7
420
 16777215
176
     1
 90
        2
176
     1
 90
        2
176
     1
 62
     7
176
     1
 62
   257
176
     1
 90
        2
176
     1
 90
        1
176
     1
 40
40.0
176
     1
 90
        0
176
     1
 62
   257
176
     1
 40
1.0
176
     1
 90
        1
176
     1
 90
        6
176
     1
 90
        2
176
     1
 62
     7
176
     1
 90
        3
176
     1
 90
        0
176
     1
 90
        0
176
     1
290
     0
176
     1
 90
        1
176
     1
 40
0.0
176
     1
 90
        0
176
     1
290
     0
176
     1
290
     1
176
     1
290
     1
176
     1
290
     0
176
     1
290
     0
176
     1
290
     0
176
     1
290
     0
176
     1
290
     0
176
     1
290
     0
176
     1
 90
       50
176
     1
 40
0.0
176
     1
 40
1.0
176
     1
 90
        0
176
     1
 62
    18
420
        0
176
     1
 90
       50
176
     1
 90
        3
176
     1
 62
     5
420
      255
176
     1
290
     0
176
     1
 90
       50
176
     1
 90
       50
176
     1
 90
       50
176
     1
290
     0
176
     1
 90
       50
176
     1
 62
   256
176
     0
 40
1.0
176
     0
 90
        2
176
     1
  1
strokes_ogs.tif
176
     1
290
     0
176
     1
 40
1.0
176
     1
 40
1.0
176
     1
  0
VISUALSTYLE
  5
3B
102
{ACAD_REACTORS
330
2A
102
}
330
2A
100
AcDbVisualStyle
  2
JitterOff
 70
    20
177
     3
291
     1
 70
    58
 90
        2
176
     0
 90
        2
176
     0
 90
        0
176
     0
 90
        0
176
     0
 40
0.6
176
     0
 40
30.0
176
     0
 62
     7
420
 16777215
176
     0
 90
        1
176
     0
 90
        4
176
     0
 62
     7
176
     0
 62
   257
176
     0
 90
        1
176
     0
 90
        1
176
     0
 40
1.0
176
     0
 90
       10
176
     2
 62
     7
176
     0
 40
1.0
176
     0
 90
        1
176
     0
 90
        6
176
     0
 90
        2
176
     0
 62
     7
176
     0
 90
        5
176
     0
 90
        0
176
     0
 90
        0
176
     0
290
     0
176
     0
 90
        1
176
     0
 40
0.0
176
     0
 90
        0
176
     0
290
     0
176
     0
290
     1
176
     0
290
     1
176
     0
290
     0
176
     0
290
     0
176
     0
290
     0
176
     0
290
     0
176
     0
290
     0
176
     0
290
     0
176
     0
 90
       50
176
     0
 40
0.0
176
     0
 40
1.0
176
     0
 90
        0
176
     0
 62
    18
420
        0
176
     0
 90
       50
176
     0
 90
        3
176
     0
 62
     5
420
      255
176
     0
290
     0
176
     0
 90
       50
176
     0
 90
       50
176
     0
 90
       50
176
     0
290
     0
176
     0
 90
       50
176
     0
 62
   256
176
     0
 40
1.0
176
     0
 90
        2
176
     0
  1
strokes_ogs.tif
176
     0
290
     0
176
     0
 40
1.0
176
     0
 40
1.0
176
     0
  0
VISUALSTYLE
  5
38
102
{ACAD_REACTORS
330
2A
102
}
330
2A
100
AcDbVisualStyle
  2
Linepattern
 70
    14
177
     3
291
     1
 70
    58
 90
        2
176
     1
 90
        2
176
     1
 90
        0
176
     1
 90
        0
176
     1
 40
0.6
176
     1
 40
30.0
176
     1
 62
     7
420
 16777215
176
     1
 90
        1
176
     1
 90
        4
176
     1
 62
     7
176
     1
 62
   257
176
     1
 90
        7
176
     1
 90
        7
176
     1
 40
1.0
176
     1
 90
        8
176
     1
 62
     7
176
     1
 40
1.0
176
     1
 90
        1
176
     1
 90
        6
176
     1
 90
        2
176
     1
 62
     7
176
     1
 90
        5
176
     1
 90
        0
176
     1
 90
        0
176
     1
290
     0
176
     1
 90
        1
176
     1
 40
0.0
176
     1
 90
        0
176
     1
290
     0
176
     1
290
     1
176
     1
290
     1
176
     1
290
     0
176
     1
290
     0
176
     1
290
     0
176
     1
290
     0
176
     1
290
     0
176
     1
290
     0
176
     1
 90
       50
176
     1
 40
0.0
176
     1
 40
1.0
176
     1
 90
        0
176
     1
 62
    18
420
        0
176
     1
 90
       50
176
     1
 90
        3
176
     1
 62
     5
420
      255
176
     1
290
     0
176
     1
 90
       50
176
     1
 90
       50
176
     1
 90
       50
176
     1
290
     0
176
     1
 90
       50
176
     1
 62
   256
176
     0
 40
1.0
176
     0
 90
        2
176
     1
  1
strokes_ogs.tif
176
     1
290
     0
176
     1
 40
1.0
176
     1
 40
1.0
176
     1
  0
VISUALSTYLE
  5
3C
102
{ACAD_REACTORS
330
2A
102
}
330
2A
100
AcDbVisualStyle
  2
OverhangOff
 70
    21
177
     3
291
     1
 70
    58
 90
        2
176
     0
 90
        2
176
     0
 90
        0
176
     0
 90
        0
176
     0
 40
0.6
176
     0
 40
30.0
176
     0
 62
     7
420
 16777215
176
     0
 90
        1
176
     0
 90
        4
176
     0
 62
     7
176
     0
 62
   257
176
     0
 90
        1
176
     0
 90
        1
176
     0
 40
1.0
176
     0
 90
        9
176
     2
 62
     7
176
     0
 40
1.0
176
     0
 90
        1
176
     0
 90
        6
176
     0
 90
        2
176
     0
 62
     7
176
     0
 90
        5
176
     0
 90
        0
176
     0
 90
        0
176
     0
290
     0
176
     0
 90
        1
176
     0
 40
0.0
176
     0
 90
        0
176
     0
290
     0
176
     0
290
     1
176
     0
290
     1
176
     0
290
     0
176
     0
290
     0
176
     0
290
     0
176
     0
290
     0
176
     0
290
     0
176
     0
290
     0
176
     0
 90
       50
176
     0
 40
0.0
176
     0
 40
1.0
176
     0
 90
        0
176
     0
 62
    18
420
        0
176
     0
 90
       50
176
     0
 90
        3
176
     0
 62
     5
420
      255
176
     0
290
     0
176
     0
 90
       50
176
     0
 90
       50
176
     0
 90
       50
176
     0
290
     0
176
     0
 90
       50
176
     0
 62
   256
176
     0
 40
1.0
176
     0
 90
        2
176
     0
  1
strokes_ogs.tif
176
     0
290
     0
176
     0
 40
1.0
176
     0
 40
1.0
176
     0
  0
VISUALSTYLE
  5
33
102
{ACAD_REACTORS
330
2A
102
}
330
2A
100
AcDbVisualStyle
  2
Realistic
 70
     8
177
     3
291
     0
 70
    58
 90
        2
176
     1
 90
        3
176
     1
 90
        0
176
     1
 90
        2
176
     1
 40
0.6
176
     1
 40
30.0
176
     1
 62
     7
420
 16777215
176
     1
 90
        0
176
     1
 90
        0
176
     1
 62
     7
176
     1
 62
   257
176
     1
 90
        1
176
     1
 90
        1
176
     1
 40
1.0
176
     1
 90
        8
176
     1
 62
   257
176
     1
 40
1.0
176
     1
 90
        1
176
     1
 90
        6
176
     1
 90
        2
176
     1
 62
     7
176
     1
 90
        3
176
     1
 90
        0
176
     1
 90
        0
176
     1
290
     0
176
     1
 90
       13
176
     1
 40
0.0
176
     1
 90
        0
176
     1
290
     0
176
     1
290
     1
176
     1
290
     1
176
     1
290
     0
176
     1
290
     0
176
     1
290
     0
176
     1
290
     0
176
     1
290
     0
176
     1
290
     0
176
     1
 90
       50
176
     1
 40
0.0
176
     1
 40
1.0
176
     1
 90
        0
176
     1
 62
    18
420
        0
176
     1
 90
       50
176
     1
 90
        3
176
     1
 62
     5
420
      255
176
     1
290
     0
176
     1
 90
       50
176
     1
 90
       50
176
     1
 90
       50
176
     1
290
     0
176
     1
 90
       50
176
     1
 62
   256
176
     0
 40
1.0
176
     0
 90
        2
176
     1
  1
strokes_ogs.tif
176
     1
290
     0
176
     1
 40
1.0
176
     1
 40
1.0
176
     1
  0
VISUALSTYLE
  5
42
102
{ACAD_REACTORS
330
2A
102
}
330
2A
100
AcDbVisualStyle
  2
Shaded
 70
    27
177
     3
291
     0
 70
    58
 90
        2
176
     1
 90
        2
176
     1
 90
        1
176
     1
 90
        2
176
     1
 40
0.6
176
     1
 40
30.0
176
     1
 62
     7
420
 16777215
176
     1
 90
        0
176
     1
 90
        4
176
     1
 62
     7
176
     1
 62
   257
176
     1
 90
        1
176
     1
 90
        1
176
     1
 40
1.0
176
     1
 90
        8
176
     1
 62
   257
176
     1
 40
1.0
176
     1
 90
        1
176
     1
 90
        6
176
     1
 90
        2
176
     1
 62
     8
420
  7895160
176
     1
 90
        3
176
     1
 90
        0
176
     1
 90
        0
176
     1
290
     0
176
     1
 90
        5
176
     1
 40
0.0
176
     1
 90
        0
176
     1
290
     0
176
     1
290
     1
176
     1
290
     1
176
     1
290
     0
176
     1
290
     0
176
     1
290
     0
176
     1
290
     0
176
     1
290
     0
176
     1
290
     0
176
     1
 90
       50
176
     1
 40
0.0
176
     1
 40
1.0
176
     1
 90
        0
176
     1
 62
    18
420
        0
176
     1
 90
       50
176
     1
 90
        3
176
     1
 62
     5
420
      255
176
     1
290
     0
176
     1
 90
       50
176
     1
 90
       50
176
     1
 90
       50
176
     1
290
     0
176
     1
 90
       50
176
     1
 62
   256
176
     0
 40
1.0
176
     0
 90
        2
176
     1
  1
strokes_ogs.tif
176
     1
290
     0
176
     1
 40
1.0
176
     1
 40
1.0
176
     1
  0
VISUALSTYLE
  5
41
102
{ACAD_REACTORS
330
2A
102
}
330
2A
100
AcDbVisualStyle
  2
Shaded with edges
 70
    26
177
     3
291
     0
 70
    58
 90
        2
176
     1
 90
        2
176
     1
 90
        1
176
     1
 90
        2
176
     1
 40
0.6
176
     1
 40
30.0
176
     1
 62
     7
420
 16777215
176
     1
 90
        1
176
     1
 90
       10
176
     1
 62
     7
176
     1
 62
   257
176
     1
 90
        2
176
     1
 90
        1
176
     1
 40
1.0
176
     1
 90
        8
176
     1
 62
   257
176
     1
 40
1.0
176
     1
 90
        1
176
     1
 90
        6
176
     1
 90
        2
176
     1
 62
     7
176
     1
 90
        3
176
     1
 90
        0
176
     1
 90
        0
176
     1
290
     0
176
     1
 90
        5
176
     1
 40
0.0
176
     1
 90
        0
176
     1
290
     0
176
     1
290
     1
176
     1
290
     1
176
     1
290
     0
176
     1
290
     0
176
     1
290
     0
176
     1
290
     0
176
     1
290
     0
176
     1
290
     0
176
     1
 90
       50
176
     1
 40
0.0
176
     1
 40
1.0
176
     1
 90
        0
176
     1
 62
    18
420
        0
176
     1
 90
       50
176
     1
 90
        3
176
     1
 62
     5
420
      255
176
     1
290
     0
176
     1
 90
       50
176
     1
 90
       50
176
     1
 90
       50
176
     1
290
     0
176
     1
 90
       50
176
     1
 62
   256
176
     0
 40
1.0
176
     0
 90
        2
176
     1
  1
strokes_ogs.tif
176
     1
290
     0
176
     1
 40
1.0
176
     1
 40
1.0
176
     1
  0
VISUALSTYLE
  5
3E
102
{ACAD_REACTORS
330
2A
102
}
330
2A
100
AcDbVisualStyle
  2
Shades of Gray
 70
    23
177
     3
291
     0
 70
    58
 90
        2
176
     1
 90
        2
176
     1
 90
        3
176
     1
 90
        0
176
     1
 40
0.6
176
     1
 40
30.0
176
     1
 62
     7
420
 16777215
176
     1
 90
        2
176
     1
 90
        2
176
     1
 62
     7
176
     1
 62
     7
176
     1
 90
        1
176
     1
 90
        1
176
     1
 40
40.0
176
     1
 90
        8
176
     1
 62
     7
176
     1
 40
1.0
176
     1
 90
        1
176
     1
 90
        6
176
     1
 90
        2
176
     1
 62
     7
176
     1
 90
        3
176
     1
 90
        0
176
     1
 90
        0
176
     1
290
     0
176
     1
 90
        1
176
     1
 40
0.0
176
     1
 90
        0
176
     1
290
     0
176
     1
290
     1
176
     1
290
     1
176
     1
290
     0
176
     1
290
     0
176
     1
290
     0
176
     1
290
     0
176
     1
290
     0
176
     1
290
     0
176
     1
 90
       50
176
     1
 40
0.0
176
     1
 40
1.0
176
     1
 90
        0
176
     1
 62
    18
420
        0
176
     1
 90
       50
176
     1
 90
        3
176
     1
 62
     5
420
      255
176
     1
290
     0
176
     1
 90
       50
176
     1
 90
       50
176
     1
 90
       50
176
     1
290
     0
176
     1
 90
       50
176
     1
 62
   256
176
     0
 40
1.0
176
     0
 90
        2
176
     1
  1
strokes_ogs.tif
176
     1
290
     0
176
     1
 40
1.0
176
     1
 40
1.0
176
     1
  0
VISUALSTYLE
  5
3F
102
{ACAD_REACTORS
330
2A
102
}
330
2A
100
AcDbVisualStyle
  2
Sketchy
 70
    24
177
     3
291
     0
 70
    58
 90
        1
176
     1
 90
        2
176
     1
 90
        2
176
     1
 90
        0
176
     1
 40
0.6
176
     1
 40
30.0
176
     1
 62
     7
420
 16777215
176
     1
 90
        2
176
     1
 90
        2
176
     1
 62
     7
176
     1
 62
     7
176
     1
 90
        1
176
     1
 90
        1
176
     1
 40
40.0
176
     1
 90
       11
176
     1
 62
     7
176
     1
 40
1.0
176
     1
 90
        1
176
     1
 90
        6
176
     1
 90
        2
176
     1
 62
     7
176
     1
 90
        6
176
     1
 90
        0
176
     1
 90
        0
176
     1
290
     0
176
     1
 90
        1
176
     1
 40
0.0
176
     1
 90
        0
176
     1
290
     0
176
     1
290
     1
176
     1
290
     1
176
     1
290
     0
176
     1
290
     0
176
     1
290
     0
176
     1
290
     0
176
     1
290
     0
176
     1
290
     0
176
     1
 90
       50
176
     1
 40
0.0
176
     1
 40
1.0
176
     1
 90
        0
176
     1
 62
    18
420
        0
176
     1
 90
       50
176
     1
 90
        3
176
     1
 62
     5
420
      255
176
     1
290
     0
176
     1
 90
       50
176
     1
 90
       50
176
     1
 90
       50
176
     1
290
     0
176
     1
 90
       50
176
     1
 62
   256
176
     0
 40
1.0
176
     0
 90
        2
176
     1
  1
strokes_ogs.tif
176
     1
290
     0
176
     1
 40
1.0
176
     1
 40
1.0
176
     1
  0
VISUALSTYLE
  5
37
102
{ACAD_REACTORS
330
2A
102
}
330
2A
100
AcDbVisualStyle
  2
Thicken
 70
    13
177
     3
291
     1
 70
    58
 90
        2
176
     1
 90
        2
176
     1
 90
        0
176
     1
 90
        0
176
     1
 40
0.6
176
     1
 40
30.0
176
     1
 62
     7
420
 16777215
176
     1
 90
        1
176
     1
 90
        4
176
     1
 62
     7
176
     1
 62
   257
176
     1
 90
        1
176
     1
 90
        1
176
     1
 40
1.0
176
     1
 90
       12
176
     1
 62
     7
176
     1
 40
1.0
176
     1
 90
        1
176
     1
 90
        6
176
     1
 90
        2
176
     1
 62
     7
176
     1
 90
        5
176
     1
 90
        0
176
     1
 90
        0
176
     1
290
     0
176
     1
 90
        1
176
     1
 40
0.0
176
     1
 90
        0
176
     1
290
     0
176
     1
290
     1
176
     1
290
     1
176
     1
290
     0
176
     1
290
     0
176
     1
290
     0
176
     1
290
     0
176
     1
290
     0
176
     1
290
     0
176
     1
 90
       50
176
     1
 40
0.0
176
     1
 40
1.0
176
     1
 90
        0
176
     1
 62
    18
420
        0
176
     1
 90
       50
176
     1
 90
        3
176
     1
 62
     5
420
      255
176
     1
290
     0
176
     1
 90
       50
176
     1
 90
       50
176
     1
 90
       50
176
     1
290
     0
176
     1
 90
       50
176
     1
 62
   256
176
     0
 40
1.0
176
     0
 90
        2
176
     1
  1
strokes_ogs.tif
176
     1
290
     0
176
     1
 40
1.0
176
     1
 40
1.0
176
     1
  0
VISUALSTYLE
  5
30
102
{ACAD_REACTORS
330
2A
102
}
330
2A
100
AcDbVisualStyle
  2
Wireframe
 70
     5
177
     3
291
     0
 70
    58
 90
        0
176
     1
 90
        2
176
     1
 90
        0
176
     1
 90
        0
176
     1
 40
0.6
176
     1
 40
30.0
176
     1
 62
     7
420
 16777215
176
     1
 90
        1
176
     1
 90
        4
176
     1
 62
     7
176
     1
 62
   257
176
     1
 90
        1
176
     1
 90
        1
176
     1
 40
1.0
176
     1
 90
        0
176
     1
 62
   257
176
     1
 40
1.0
176
     1
 90
        1
176
     1
 90
        6
176
     1
 90
        2
176
     1
 62
     7
176
     1
 90
        3
176
     1
 90
        0
176
     1
 90
        0
176
     1
290
     0
176
     1
 90
        1
176
     1
 40
0.0
176
     1
 90
        0
176
     1
290
     0
176
     1
290
     1
176
     1
290
     1
176
     1
290
     0
176
     1
290
     0
176
     1
290
     0
176
     1
290
     0
176
     1
290
     0
176
     1
290
     0
176
     1
 90
       50
176
     1
 40
0.0
176
     1
 40
1.0
176
     1
 90
        0
176
     1
 62
    18
420
        0
176
     1
 90
       50
176
     1
 90
        3
176
     1
 62
     5
420
      255
176
     1
290
     0
176
     1
 90
       50
176
     1
 90
       50
176
     1
 90
       50
176
     1
290
     0
176
     1
 90
       50
176
     1
 62
   256
176
     0
 40
1.0
176
     0
 90
        2
176
     1
  1
strokes_ogs.tif
176
     1
290
     0
176
     1
 40
1.0
176
     1
 40
1.0
176
     1
  0
VISUALSTYLE
  5
40
102
{ACAD_REACTORS
330
2A
102
}
330
2A
100
AcDbVisualStyle
  2
X-Ray
 70
    25
177
     3
291
     0
 70
    58
 90
        2
176
     1
 90
        2
176
     1
 90
        1
176
     1
 90
        1
176
     1
 40
0.5
176
     1
 40
30.0
176
     1
 62
     7
420
 16777215
176
     1
 90
        1
176
     1
 90
        0
176
     1
 62
     7
176
     1
 62
   257
176
     1
 90
        1
176
     1
 90
        1
176
     1
 40
1.0
176
     1
 90
        8
176
     1
 62
     7
176
     1
 40
1.0
176
     1
 90
        1
176
     1
 90
        6
176
     1
 90
        2
176
     1
 62
     7
176
     1
 90
        3
176
     1
 90
        0
176
     1
 90
        0
176
     1
290
     0
176
     1
 90
       13
176
     1
 40
0.0
176
     1
 90
        0
176
     1
290
     0
176
     1
290
     1
176
     1
290
     1
176
     1
290
     0
176
     1
290
     0
176
     1
290
     0
176
     1
290
     0
176
     1
290
     0
176
     1
290
     0
176
     1
 90
       50
176
     1
 40
0.0
176
     1
 40
1.0
176
     1
 90
        0
176
     1
 62
    18
420
        0
176
     1
 90
       50
176
     1
 90
        3
176
     1
 62
     5
420
      255
176
     1
290
     0
176
     1
 90
       50
176
     1
 90
       50
176
     1
 90
       50
176
     1
290
     0
176
     1
 90
       50
176
     1
 62
   256
176
     0
 40
1.0
176
     0
 90
        2
176
     1
  1
strokes_ogs.tif
176
     1
290
     0
176
     1
 40
1.0
176
     1
 40
1.0
176
     1
  0
DICTIONARYVAR
  5
AB
102
{ACAD_REACTORS
330
AA
102
}
330
AA
100
DictionaryVariables
280
     0
  1
1:1
  0
DICTIONARYVAR
  5
B0
102
{ACAD_REACTORS
330
AA
102
}
330
AA
100
DictionaryVariables
280
     0
  1
Standard
  0
DICTIONARYVAR
  5
AF
102
{ACAD_REACTORS
330
AA
102
}
330
AA
100
DictionaryVariables
280
     0
  1
Standard
  0
DICTIONARY
  5
AC
330
5A
100
AcDbDictionary
280
     1
281
     1
  3
ACAD_ROUNDTRIP_2008_TABLESTYLE_CELLSTYLEMAP
360
AD
  0
CELLSTYLEMAP
  5
AD
102
{ACAD_REACTORS
330
AC
102
}
330
AC
100
AcDbCellStyleMap
 90
        3
300
CELLSTYLE
  1
TABLEFORMAT_BEGIN
 90
        5
170
     1
 91
        0
 92
    32768
 62
   257
 93
        1
300
CONTENTFORMAT
  1
CONTENTFORMAT_BEGIN
 90
        0
 91
        0
 92
        4
 93
        0
300

 40
0.0
140
1.0
 94
        5
 62
     0
340
11
144
0.25
309
CONTENTFORMAT_END
171
     1
301
MARGIN
  1
CELLMARGIN_BEGIN
 40
0.06
 40
0.06
 40
0.06
 40
0.06
 40
0.06
 40
0.06
309
CELLMARGIN_END
 94
        6
 95
        1
302
GRIDFORMAT
  1
GRIDFORMAT_BEGIN
 90
        0
 91
        1
 62
     0
 92
       -2
340
14
 93
        0
 40
0.045
309
GRIDFORMAT_END
 95
        2
302
GRIDFORMAT
  1
GRIDFORMAT_BEGIN
 90
        0
 91
        1
 62
     0
 92
       -2
340
14
 93
        0
 40
0.045
309
GRIDFORMAT_END
 95
        4
302
GRIDFORMAT
  1
GRIDFORMAT_BEGIN
 90
        0
 91
        1
 62
     0
 92
       -2
340
14
 93
        0
 40
0.045
309
GRIDFORMAT_END
 95
        8
302
GRIDFORMAT
  1
GRIDFORMAT_BEGIN
 90
        0
 91
        1
 62
     0
 92
       -2
340
14
 93
        0
 40
0.045
309
GRIDFORMAT_END
 95
       16
302
GRIDFORMAT
  1
GRIDFORMAT_BEGIN
 90
        0
 91
        1
 62
     0
 92
       -2
340
14
 93
        0
 40
0.045
309
GRIDFORMAT_END
 95
       32
302
GRIDFORMAT
  1
GRIDFORMAT_BEGIN
 90
        0
 91
        1
 62
     0
 92
       -2
340
14
 93
        0
 40
0.045
309
GRIDFORMAT_END
309
TABLEFORMAT_END
  1
CELLSTYLE_BEGIN
 90
        1
 91
        1
300
_TITLE
309
CELLSTYLE_END
300
CELLSTYLE
  1
TABLEFORMAT_BEGIN
 90
        5
170
     1
 91
        0
 92
        0
 62
   257
 93
        1
300
CONTENTFORMAT
  1
CONTENTFORMAT_BEGIN
 90
        0
 91
        0
 92
        4
 93
        0
300

 40
0.0
140
1.0
 94
        5
 62
     0
340
11
144
0.18
309
CONTENTFORMAT_END
171
     1
301
MARGIN
  1
CELLMARGIN_BEGIN
 40
0.06
 40
0.06
 40
0.06
 40
0.06
 40
0.06
 40
0.06
309
CELLMARGIN_END
 94
        6
 95
        1
302
GRIDFORMAT
  1
GRIDFORMAT_BEGIN
 90
        0
 91
        1
 62
     0
 92
       -2
340
14
 93
        0
 40
0.045
309
GRIDFORMAT_END
 95
        2
302
GRIDFORMAT
  1
GRIDFORMAT_BEGIN
 90
        0
 91
        1
 62
     0
 92
       -2
340
14
 93
        0
 40
0.045
309
GRIDFORMAT_END
 95
        4
302
GRIDFORMAT
  1
GRIDFORMAT_BEGIN
 90
        0
 91
        1
 62
     0
 92
       -2
340
14
 93
        0
 40
0.045
309
GRIDFORMAT_END
 95
        8
302
GRIDFORMAT
  1
GRIDFORMAT_BEGIN
 90
        0
 91
        1
 62
     0
 92
       -2
340
14
 93
        0
 40
0.045
309
GRIDFORMAT_END
 95
       16
302
GRIDFORMAT
  1
GRIDFORMAT_BEGIN
 90
        0
 91
        1
 62
     0
 92
       -2
340
14
 93
        0
 40
0.045
309
GRIDFORMAT_END
 95
       32
302
GRIDFORMAT
  1
GRIDFORMAT_BEGIN
 90
        0
 91
        1
 62
     0
 92
       -2
340
14
 93
        0
 40
0.045
309
GRIDFORMAT_END
309
TABLEFORMAT_END
  1
CELLSTYLE_BEGIN
 90
        2
 91
        1
300
_HEADER
309
CELLSTYLE_END
300
CELLSTYLE
  1
TABLEFORMAT_BEGIN
 90
        5
170
     1
 91
        0
 92
        0
 62
   257
 93
        1
300
CONTENTFORMAT
  1
CONTENTFORMAT_BEGIN
 90
        0
 91
        0
 92
        4
 93
        0
300

 40
0.0
140
1.0
 94
        2
 62
     0
340
11
144
0.18
309
CONTENTFORMAT_END
171
     1
301
MARGIN
  1
CELLMARGIN_BEGIN
 40
0.06
 40
0.06
 40
0.06
 40
0.06
 40
0.06
 40
0.06
309
CELLMARGIN_END
 94
        6
 95
        1
302
GRIDFORMAT
  1
GRIDFORMAT_BEGIN
 90
        0
 91
        1
 62
     0
 92
       -2
340
14
 93
        0
 40
0.045
309
GRIDFORMAT_END
 95
        2
302
GRIDFORMAT
  1
GRIDFORMAT_BEGIN
 90
        0
 91
        1
 62
     0
 92
       -2
340
14
 93
        0
 40
0.045
309
GRIDFORMAT_END
 95
        4
302
GRIDFORMAT
  1
GRIDFORMAT_BEGIN
 90
        0
 91
        1
 62
     0
 92
       -2
340
14
 93
        0
 40
0.045
309
GRIDFORMAT_END
 95
        8
302
GRIDFORMAT
  1
GRIDFORMAT_BEGIN
 90
        0
 91
        1
 62
     0
 92
       -2
340
14
 93
        0
 40
0.045
309
GRIDFORMAT_END
 95
       16
302
GRIDFORMAT
  1
GRIDFORMAT_BEGIN
 90
        0
 91
        1
 62
     0
 92
       -2
340
14
 93
        0
 40
0.045
309
GRIDFORMAT_END
 95
       32
302
GRIDFORMAT
  1
GRIDFORMAT_BEGIN
 90
        0
 91
        1
 62
     0
 92
       -2
340
14
 93
        0
 40
0.045
309
GRIDFORMAT_END
309
TABLEFORMAT_END
  1
CELLSTYLE_BEGIN
 90
        3
 91
        2
300
_DATA
309
CELLSTYLE_END
  0
ENDSEC
  0
EOF
