  0
SECTION
  2
HEADER
  9
$ACADVER
  1
AC1027
  9
$ACADMAINTVER
 70
   105
  9
$DWGCODEPAGE
  3
ANSI_1252
  9
$LASTSAVEDBY
  1
Office Desk
  9
$REQUIREDVERSIONS
160
                 0
  9
$INSBASE
 10
0.0
 20
0.0
 30
0.0
  9
$EXTMIN
 10
-475.09
 20
-203.7743
 30
0.0
  9
$EXTMAX
 10
-186.6614
 20
218.9495
 30
0.0
  9
$LIMMIN
 10
0.0
 20
0.0
  9
$LIMMAX
 10
12.0
 20
9.0
  9
$ORTHOMODE
 70
     0
  9
$REGENMODE
 70
     1
  9
$FILLMODE
 70
     1
  9
$QTEXTMODE
 70
     0
  9
$MIRRTEXT
 70
     1
  9
$LTSCALE
 40
1.0
  9
$ATTMODE
 70
     1
  9
$TEXTSIZE
 40
0.2
  9
$TRACEWID
 40
0.05
  9
$TEXTSTYLE
  7
Standard
  9
$CLAYER
  8
0
  9
$CELTYPE
  6
ByLayer
  9
$CECOLOR
 62
   256
  9
$CELTSCALE
 40
1.0
  9
$DISPSILH
 70
     0
  9
$DIMSCALE
 40
1.0
  9
$DIMASZ
 40
0.18
  9
$DIMEXO
 40
0.0625
  9
$DIMDLI
 40
0.38
  9
$DIMRND
 40
0.0
  9
$DIMDLE
 40
0.0
  9
$DIMEXE
 40
0.18
  9
$DIMTP
 40
0.0
  9
$DIMTM
 40
0.0
  9
$DIMTXT
 40
0.18
  9
$DIMCEN
 40
0.09
  9
$DIMTSZ
 40
0.0
  9
$DIMTOL
 70
     0
  9
$DIMLIM
 70
     0
  9
$DIMTIH
 70
     1
  9
$DIMTOH
 70
     1
  9
$DIMSE1
 70
     0
  9
$DIMSE2
 70
     0
  9
$DIMTAD
 70
     0
  9
$DIMZIN
 70
     0
  9
$DIMBLK
  1

  9
$DIMASO
 70
     1
  9
$DIMSHO
 70
     1
  9
$DIMPOST
  1

  9
$DIMAPOST
  1

  9
$DIMALT
 70
     0
  9
$DIMALTD
 70
     2
  9
$DIMALTF
 40
25.4
  9
$DIMLFAC
 40
1.0
  9
$DIMTOFL
 70
     0
  9
$DIMTVP
 40
0.0
  9
$DIMTIX
 70
     0
  9
$DIMSOXD
 70
     0
  9
$DIMSAH
 70
     0
  9
$DIMBLK1
  1

  9
$DIMBLK2
  1

  9
$DIMSTYLE
  2
Standard
  9
$DIMCLRD
 70
     0
  9
$DIMCLRE
 70
     0
  9
$DIMCLRT
 70
     0
  9
$DIMTFAC
 40
1.0
  9
$DIMGAP
 40
0.09
  9
$DIMJUST
 70
     0
  9
$DIMSD1
 70
     0
  9
$DIMSD2
 70
     0
  9
$DIMTOLJ
 70
     1
  9
$DIMTZIN
 70
     0
  9
$DIMALTZ
 70
     0
  9
$DIMALTTZ
 70
     0
  9
$DIMUPT
 70
     0
  9
$DIMDEC
 70
     4
  9
$DIMTDEC
 70
     4
  9
$DIMALTU
 70
     2
  9
$DIMALTTD
 70
     2
  9
$DIMTXSTY
  7
Standard
  9
$DIMAUNIT
 70
     0
  9
$DIMADEC
 70
     0
  9
$DIMALTRND
 40
0.0
  9
$DIMAZIN
 70
     0
  9
$DIMDSEP
 70
    46
  9
$DIMATFIT
 70
     3
  9
$DIMFRAC
 70
     0
  9
$DIMLDRBLK
  1

  9
$DIMLUNIT
 70
     2
  9
$DIMLWD
 70
    -2
  9
$DIMLWE
 70
    -2
  9
$DIMTMOVE
 70
     0
  9
$DIMFXL
 40
1.0
  9
$DIMFXLON
 70
     0
  9
$DIMJOGANG
 40
0.7853981633974483
  9
$DIMTFILL
 70
     0
  9
$DIMTFILLCLR
 70
     0
  9
$DIMARCSYM
 70
     0
  9
$DIMLTYPE
  6

  9
$DIMLTEX1
  6

  9
$DIMLTEX2
  6

  9
$DIMTXTDIRECTION
 70
     0
  9
$LUNITS
 70
     2
  9
$LUPREC
 70
     4
  9
$SKETCHINC
 40
0.1
  9
$FILLETRAD
 40
0.0
  9
$AUNITS
 70
     0
  9
$AUPREC
 70
     0
  9
$MENU
  1
.
  9
$ELEVATION
 40
0.0
  9
$PELEVATION
 40
0.0
  9
$THICKNESS
 40
0.0
  9
$LIMCHECK
 70
     0
  9
$CHAMFERA
 40
0.0
  9
$CHAMFERB
 40
0.0
  9
$CHAMFERC
 40
0.0
  9
$CHAMFERD
 40
0.0
  9
$SKPOLY
 70
     0
  9
$TDCREATE
 40
2461015.687174375
  9
$TDUCREATE
 40
2461015.458007708
  9
$TDUPDATE
 40
2461015.687174375
  9
$TDUUPDATE
 40
2461015.458007708
  9
$TDINDWG
 40
0.0000000116
  9
$TDUSRTIMER
 40
0.0000000116
  9
$USRTIMER
 70
     1
  9
$ANGBASE
 50
0.0
  9
$ANGDIR
 70
     0
  9
$PDMODE
 70
     0
  9
$PDSIZE
 40
0.0
  9
$PLINEWID
 40
0.0
  9
$SPLFRAME
 70
     0
  9
$SPLINETYPE
 70
     6
  9
$SPLINESEGS
 70
     8
  9
$HANDSEED
  5
175
  9
$SURFTAB1
 70
     6
  9
$SURFTAB2
 70
     6
  9
$SURFTYPE
 70
     6
  9
$SURFU
 70
     6
  9
$SURFV
 70
     6
  9
$UCSBASE
  2

  9
$UCSNAME
  2

  9
$UCSORG
 10
0.0
 20
0.0
 30
0.0
  9
$UCSXDIR
 10
1.0
 20
0.0
 30
0.0
  9
$UCSYDIR
 10
0.0
 20
1.0
 30
0.0
  9
$UCSORTHOREF
  2

  9
$UCSORTHOVIEW
 70
     0
  9
$UCSORGTOP
 10
0.0
 20
0.0
 30
0.0
  9
$UCSORGBOTTOM
 10
0.0
 20
0.0
 30
0.0
  9
$UCSORGLEFT
 10
0.0
 20
0.0
 30
0.0
  9
$UCSORGRIGHT
 10
0.0
 20
0.0
 30
0.0
  9
$UCSORGFRONT
 10
0.0
 20
0.0
 30
0.0
  9
$UCSORGBACK
 10
0.0
 20
0.0
 30
0.0
  9
$PUCSBASE
  2

  9
$PUCSNAME
  2

  9
$PUCSORG
 10
0.0
 20
0.0
 30
0.0
  9
$PUCSXDIR
 10
1.0
 20
0.0
 30
0.0
  9
$PUCSYDIR
 10
0.0
 20
1.0
 30
0.0
  9
$PUCSORTHOREF
  2

  9
$PUCSORTHOVIEW
 70
     0
  9
$PUCSORGTOP
 10
0.0
 20
0.0
 30
0.0
  9
$PUCSORGBOTTOM
 10
0.0
 20
0.0
 30
0.0
  9
$PUCSORGLEFT
 10
0.0
 20
0.0
 30
0.0
  9
$PUCSORGRIGHT
 10
0.0
 20
0.0
 30
0.0
  9
$PUCSORGFRONT
 10
0.0
 20
0.0
 30
0.0
  9
$PUCSORGBACK
 10
0.0
 20
0.0
 30
0.0
  9
$USERI1
 70
     0
  9
$USERI2
 70
     0
  9
$USERI3
 70
     0
  9
$USERI4
 70
     0
  9
$USERI5
 70
     0
  9
$USERR1
 40
0.0
  9
$USERR2
 40
0.0
  9
$USERR3
 40
0.0
  9
$USERR4
 40
0.0
  9
$USERR5
 40
0.0
  9
$WORLDVIEW
 70
     1
  9
$SHADEDGE
 70
     3
  9
$SHADEDIF
 70
    70
  9
$TILEMODE
 70
     1
  9
$MAXACTVP
 70
    64
  9
$PINSBASE
 10
0.0
 20
0.0
 30
0.0
  9
$PLIMCHECK
 70
     0
  9
$PEXTMIN
 10
1.000000000000000E+20
 20
1.000000000000000E+20
 30
1.000000000000000E+20
  9
$PEXTMAX
 10
-1.000000000000000E+20
 20
-1.000000000000000E+20
 30
-1.000000000000000E+20
  9
$PLIMMIN
 10
0.0
 20
0.0
  9
$PLIMMAX
 10
12.0
 20
9.0
  9
$UNITMODE
 70
     0
  9
$VISRETAIN
 70
     1
  9
$PLINEGEN
 70
     0
  9
$PSLTSCALE
 70
     1
  9
$TREEDEPTH
 70
  3020
  9
$CMLSTYLE
  2
Standard
  9
$CMLJUST
 70
     0
  9
$CMLSCALE
 40
1.0
  9
$PROXYGRAPHICS
 70
     1
  9
$MEASUREMENT
 70
     0
  9
$CELWEIGHT
370
    -1
  9
$ENDCAPS
280
     0
  9
$JOINSTYLE
280
     0
  9
$LWDISPLAY
290
     0
  9
$INSUNITS
 70
     4
  9
$HYPERLINKBASE
  1

  9
$STYLESHEET
  1

  9
$XEDIT
290
     1
  9
$CEPSNTYPE
380
     0
  9
$PSTYLEMODE
290
     1
  9
$FINGERPRINTGUID
  2
{f4e20312-cacf-4a8e-a79d-c346e4a8bfd2}
  9
$VERSIONGUID
  2
{FAEB1C32-E019-11D5-929B-00C0DF256EC4}
  9
$EXTNAMES
290
     1
  9
$PSVPSCALE
 40
0.0
  9
$OLESTARTUP
290
     0
  9
$SORTENTS
280
   127
  9
$INDEXCTL
280
     0
  9
$HIDETEXT
280
     1
  9
$XCLIPFRAME
280
     2
  9
$HALOGAP
280
     0
  9
$OBSCOLOR
 70
   257
  9
$OBSLTYPE
280
     0
  9
$INTERSECTIONDISPLAY
280
     0
  9
$INTERSECTIONCOLOR
 70
   257
  9
$DIMASSOC
280
     2
  9
$PROJECTNAME
  1

  9
$CAMERADISPLAY
290
     0
  9
$LENSLENGTH
 40
50.0
  9
$CAMERAHEIGHT
 40
0.0
  9
$STEPSPERSEC
 40
2.0
  9
$STEPSIZE
 40
6.0
  9
$3DDWFPREC
 40
2.0
  9
$PSOLWIDTH
 40
0.25
  9
$PSOLHEIGHT
 40
4.0
  9
$LOFTANG1
 40
1.570796326794897
  9
$LOFTANG2
 40
1.570796326794897
  9
$LOFTMAG1
 40
0.0
  9
$LOFTMAG2
 40
0.0
  9
$LOFTPARAM
 70
     7
  9
$LOFTNORMALS
280
     1
  9
$LATITUDE
 40
37.795
  9
$LONGITUDE
 40
-122.394
  9
$NORTHDIRECTION
 40
0.0
  9
$TIMEZONE
 70
 -8000
  9
$LIGHTGLYPHDISPLAY
280
     1
  9
$TILEMODELIGHTSYNCH
280
     1
  9
$CMATERIAL
347
44
  9
$SOLIDHIST
280
     0
  9
$SHOWHIST
280
     1
  9
$DWFFRAME
280
     2
  9
$DGNFRAME
280
     2
  9
$REALWORLDSCALE
290
     1
  9
$INTERFERECOLOR
 62
   256
  9
$CSHADOW
280
     0
  9
$SHADOWPLANELOCATION
 40
0.0
  0
ENDSEC
  0
SECTION
  2
CLASSES
  0
CLASS
  1
ACDBDICTIONARYWDFLT
  2
AcDbDictionaryWithDefault
  3
ObjectDBX Classes
 90
        0
 91
        3
280
     0
281
     0
  0
CLASS
  1
VISUALSTYLE
  2
AcDbVisualStyle
  3
ObjectDBX Classes
 90
     4095
 91
        3
280
     0
281
     0
  0
CLASS
  1
MATERIAL
  2
AcDbMaterial
  3
ObjectDBX Classes
 90
     1153
 91
        3
280
     0
281
     0
  0
CLASS
  1
SCALE
  2
AcDbScale
  3
ObjectDBX Classes
 90
     1153
 91
        3
280
     0
281
     0
  0
CLASS
  1
TABLESTYLE
  2
AcDbTableStyle
  3
ObjectDBX Classes
 90
     4095
 91
        3
280
     0
281
     0
  0
CLASS
  1
MLEADERSTYLE
  2
AcDbMLeaderStyle
  3
ACDB_MLEADERSTYLE_CLASS
 90
     4095
 91
        3
280
     0
281
     0
  0
CLASS
  1
SUN
  2
AcDbSun
  3
SCENEOE
 90
     1153
 91
        3
280
     0
281
     0
  0
CLASS
  1
DICTIONARYVAR
  2
AcDbDictionaryVar
  3
ObjectDBX Classes
 90
        0
 91
        3
280
     0
281
     0
  0
CLASS
  1
CELLSTYLEMAP
  2
AcDbCellStyleMap
  3
ObjectDBX Classes
 90
     1152
 91
        3
280
     0
281
     0
  0
ENDSEC
  0
SECTION
  2
TABLES
  0
TABLE
  2
VPORT
  5
8
330
0
100
AcDbSymbolTable
 70
     1
  0
VPORT
  5
29
330
8
100
AcDbSymbolTableRecord
100
AcDbViewportTableRecord
  2
*Active
 70
     0
 10
0.0
 20
0.0
 11
1.0
 21
1.0
 12
10.42990654205607
 22
4.5
 13
0.0
 23
0.0
 14
0.5
 24
0.5
 15
0.5
 25
0.5
 16
0.0
 26
0.0
 36
1.0
 17
0.0
 27
0.0
 37
0.0
 40
9.0
 41
1.972972972850329
 42
50.0
 43
0.0
 44
0.0
 50
0.0
 51
0.0
 71
     0
 72
   100
 73
     1
 74
     3
 75
     0
 76
     0
 77
     0
 78
     0
281
     0
 65
     1
110
0.0
120
0.0
130
0.0
111
1.0
121
0.0
131
0.0
112
0.0
122
1.0
132
0.0
 79
     0
146
0.0
348
2F
 60
     3
 61
     5
292
     1
282
     1
141
0.0
142
0.0
 63
   250
361
5D
  0
ENDTAB
  0
TABLE
  2
LTYPE
  5
5
330
0
100
AcDbSymbolTable
 70
     1
  0
LTYPE
  5
14
330
5
100
AcDbSymbolTableRecord
100
AcDbLinetypeTableRecord
  2
ByBlock
 70
     0
  3

 72
    65
 73
     0
 40
0.0
  0
LTYPE
  5
15
330
5
100
AcDbSymbolTableRecord
100
AcDbLinetypeTableRecord
  2
ByLayer
 70
     0
  3

 72
    65
 73
     0
 40
0.0
  0
LTYPE
  5
16
330
5
100
AcDbSymbolTableRecord
100
AcDbLinetypeTableRecord
  2
Continuous
 70
     0
  3
Solid line
 72
    65
 73
     0
 40
0.0
  0
ENDTAB
  0
TABLE
  2
LAYER
  5
2
330
0
100
AcDbSymbolTable
 70
     2
  0
LAYER
  5
10
330
2
100
AcDbSymbolTableRecord
100
AcDbLayerTableRecord
  2
0
 70
     0
 62
     7
  6
Continuous
370
    -3
390
F
347
46
348
0
  0
LAYER
  5
5F
330
2
100
AcDbSymbolTableRecord
100
AcDbLayerTableRecord
  2
Layer 1
 70
     0
 62
     7
  6
Continuous
370
    -3
390
F
347
46
348
0
  0
ENDTAB
  0
TABLE
  2
STYLE
  5
3
330
0
100
AcDbSymbolTable
 70
     1
  0
STYLE
  5
11
330
3
100
AcDbSymbolTableRecord
100
AcDbTextStyleTableRecord
  2
Standard
 70
     0
 40
0.0
 41
1.0
 50
0.0
 71
     0
 42
0.2
  3
txt
  4

  0
ENDTAB
  0
TABLE
  2
VIEW
  5
6
330
0
100
AcDbSymbolTable
 70
     0
  0
ENDTAB
  0
TABLE
  2
UCS
  5
7
330
0
100
AcDbSymbolTable
 70
     0
  0
ENDTAB
  0
TABLE
  2
APPID
  5
9
330
0
100
AcDbSymbolTable
 70
     2
  0
APPID
  5
12
330
9
100
AcDbSymbolTableRecord
100
AcDbRegAppTableRecord
  2
ACAD
 70
     0
  0
APPID
  5
5E
330
9
100
AcDbSymbolTableRecord
100
AcDbRegAppTableRecord
  2
ODA
 70
     0
  0
ENDTAB
  0
TABLE
  2
DIMSTYLE
  5
A
330
0
100
AcDbSymbolTable
 70
     1
100
AcDbDimStyleTable
  0
DIMSTYLE
105
27
330
A
100
AcDbSymbolTableRecord
100
AcDbDimStyleTableRecord
  2
Standard
 70
     0
178
     0
340
11
  0
ENDTAB
  0
TABLE
  2
BLOCK_RECORD
  5
1
330
0
100
AcDbSymbolTable
 70
     1
  0
BLOCK_RECORD
  5
1F
330
1
100
AcDbSymbolTableRecord
100
AcDbBlockTableRecord
  2
*Model_Space
340
22
 70
     0
280
     1
281
     0
  0
BLOCK_RECORD
  5
1B
330
1
100
AcDbSymbolTableRecord
100
AcDbBlockTableRecord
  2
*Paper_Space
340
1E
 70
     0
280
     1
281
     0
  0
BLOCK_RECORD
  5
23
330
1
100
AcDbSymbolTableRecord
100
AcDbBlockTableRecord
  2
*Paper_Space0
340
26
 70
     0
280
     1
281
     0
  0
ENDTAB
  0
ENDSEC
  0
SECTION
  2
BLOCKS
  0
BLOCK
  5
20
330
1F
100
AcDbEntity
  8
0
100
AcDbBlockBegin
  2
*Model_Space
 70
     0
 10
0.0
 20
0.0
 30
0.0
  3
*Model_Space
  1

  0
ENDBLK
  5
21
330
1F
100
AcDbEntity
  8
0
100
AcDbBlockEnd
  0
BLOCK
  5
1C
330
1B
100
AcDbEntity
 67
     1
  8
0
100
AcDbBlockBegin
  2
*Paper_Space
 70
     0
 10
0.0
 20
0.0
 30
0.0
  3
*Paper_Space
  1

  0
ENDBLK
  5
1D
330
1B
100
AcDbEntity
 67
     1
  8
0
100
AcDbBlockEnd
  0
BLOCK
  5
24
330
23
100
AcDbEntity
  8
0
100
AcDbBlockBegin
  2
*Paper_Space0
 70
     0
 10
0.0
 20
0.0
 30
0.0
  3
*Paper_Space0
  1

  0
ENDBLK
  5
25
330
23
100
AcDbEntity
  8
0
100
AcDbBlockEnd
  0
ENDSEC
  0
SECTION
  2
ENTITIES
  0
LWPOLYLINE
  5
60
330
1F
100
AcDbEntity
  8
Layer 1
 62
   250
370
     9
100
AcDbPolyline
 90
        5
 70
     1
 43
0.0
 10
-475.0519
 20
-203.7362
 10
-186.6995
 20
-203.7362
 10
-186.6995
 20
218.9114
 10
-475.0519
 20
218.9114
 10
-475.0519
 20
-203.7362
  0
LWPOLYLINE
  5
61
330
1F
100
AcDbEntity
  8
Layer 1
 62
     7
370
     9
100
AcDbPolyline
 90
        2
 70
     0
 43
0.0
 10
-377.0705
 20
-75.9328
 10
-377.0705
 20
124.9676
  0
LWPOLYLINE
  5
62
330
1F
100
AcDbEntity
  8
Layer 1
 62
     7
370
     9
100
AcDbPolyline
 90
        2
 70
     0
 43
0.0
 10
-349.4233
 20
-75.9328
 10
-380.2729
 20
-75.9328
  0
LWPOLYLINE
  5
63
330
1F
100
AcDbEntity
  8
Layer 1
 62
     7
370
     9
100
AcDbPolyline
 90
        2
 70
     0
 43
0.0
 10
-349.4233
 20
-83.8165
 10
-380.2729
 20
-83.8165
  0
LWPOLYLINE
  5
64
330
1F
100
AcDbEntity
  8
Layer 1
 62
     7
370
     9
100
AcDbPolyline
 90
       30
 70
     0
 43
0.0
 10
-276.5371
 20
73.8945
 10
-276.6856
 20
74.5986
 10
-276.8659
 20
75.3043
 10
-277.0634
 20
75.983
 10
-277.291
 20
76.651
 10
-277.5405
 20
77.3046
 10
-277.8094
 20
77.9535
 10
-278.0971
 20
78.5706
 10
-278.416
 20
79.1758
 10
-278.7501
 20
79.7536
 10
-279.1038
 20
80.3178
 10
-279.4714
 20
80.8491
 10
-279.8663
 20
81.3613
 10
-280.2667
 20
81.8628
 10
-280.6942
 20
82.3194
 10
-281.1357
 20
82.7573
 10
-281.5858
 20
83.1578
 10
-282.0543
 20
83.5357
 10
-282.534
 20
83.8818
 10
-283.0223
 20
84.1965
 10
-283.5266
 20
84.4866
 10
-284.0395
 20
84.7349
 10
-284.5603
 20
84.9606
 10
-285.0873
 20
85.143
 10
-285.6114
 20
85.2948
 10
-286.1539
 20
85.4244
 10
-286.6941
 20
85.5066
 10
-287.2343
 20
85.5587
 10
-287.783
 20
85.5738
 10
-352.6266
 20
85.5738
  0
LWPOLYLINE
  5
65
330
1F
100
AcDbEntity
  8
Layer 1
 62
     7
370
     9
100
AcDbPolyline
 90
        2
 70
     0
 43
0.0
 10
-289.2142
 20
99.7517
 10
-325.8438
 20
99.7517
  0
LWPOLYLINE
  5
66
330
1F
100
AcDbEntity
  8
Layer 1
 62
     7
370
     9
100
AcDbPolyline
 90
        2
 70
     0
 43
0.0
 10
-332.831
 20
109.213
 10
-352.6266
 20
109.213
  0
LWPOLYLINE
  5
67
330
1F
100
AcDbEntity
  8
Layer 1
 62
     7
370
     9
100
AcDbPolyline
 90
        2
 70
     0
 43
0.0
 10
-380.2729
 20
-75.9328
 10
-380.2729
 20
-83.8165
  0
LWPOLYLINE
  5
68
330
1F
100
AcDbEntity
  8
Layer 1
 62
     7
370
     9
100
AcDbPolyline
 90
        2
 70
     0
 43
0.0
 10
-349.4233
 20
-75.9328
 10
-349.4233
 20
-83.8165
  0
LWPOLYLINE
  5
69
330
1F
100
AcDbEntity
  8
Layer 1
 62
     7
370
     9
100
AcDbPolyline
 90
        2
 70
     0
 43
0.0
 10
-377.0705
 20
124.9645
 10
-352.6266
 20
124.9645
  0
LWPOLYLINE
  5
6A
330
1F
100
AcDbEntity
  8
Layer 1
 62
     7
370
     9
100
AcDbPolyline
 90
        2
 70
     0
 43
0.0
 10
-364.8481
 20
126.935
 10
-352.6266
 20
126.935
  0
LWPOLYLINE
  5
6B
330
1F
100
AcDbEntity
  8
Layer 1
 62
     7
370
     9
100
AcDbPolyline
 90
        5
 70
     0
 43
0.0
 10
-364.8481
 20
126.935
 10
-377.0705
 20
131.37
 10
-377.0705
 20
160.4208
 10
-352.6266
 20
160.4208
 10
-352.6266
 20
126.935
  0
LWPOLYLINE
  5
6C
330
1F
100
AcDbEntity
  8
Layer 1
 62
     7
370
     9
100
AcDbPolyline
 90
       12
 70
     0
 43
0.0
 10
-374.4236
 20
130.4083
 10
-374.6599
 20
129.978
 10
-374.8792
 20
129.5214
 10
-375.0765
 20
129.0648
 10
-375.2547
 20
128.5868
 10
-375.4109
 20
128.0933
 10
-375.5453
 20
127.5886
 10
-375.6634
 20
127.08
 10
-375.7567
 20
126.5607
 10
-375.8331
 20
126.0294
 10
-375.8774
 20
125.4989
 10
-375.9076
 20
124.9645
  0
LWPOLYLINE
  5
6D
330
1F
100
AcDbEntity
  8
Layer 1
 62
     7
370
     9
100
AcDbPolyline
 90
        5
 70
     0
 43
0.0
 10
-353.7895
 20
124.9645
 10
-353.8165
 20
125.458
 10
-353.8579
 20
125.9626
 10
-353.9207
 20
126.4482
 10
-354.0032
 20
126.935
  0
LWPOLYLINE
  5
6E
330
1F
100
AcDbEntity
  8
Layer 1
 62
     7
370
     9
100
AcDbPolyline
 90
        2
 70
     0
 43
0.0
 10
-274.324
 20
62.7222
 10
-276.5371
 20
73.8945
  0
LWPOLYLINE
  5
6F
330
1F
100
AcDbEntity
  8
Layer 1
 62
     7
370
     9
100
AcDbPolyline
 90
        2
 70
     0
 43
0.0
 10
-257.4575
 20
68.8456
 10
-260.2433
 20
82.9234
  0
LWPOLYLINE
  5
70
330
1F
100
AcDbEntity
  8
Layer 1
 62
     7
370
     9
100
AcDbPolyline
 90
        2
 70
     0
 43
0.0
 10
-265.8897
 20
65.7839
 10
-266.3994
 20
68.3337
  0
LWPOLYLINE
  5
71
330
1F
100
AcDbEntity
  8
Layer 1
 62
     7
370
     9
100
AcDbPolyline
 90
        2
 70
     0
 43
0.0
 10
-274.324
 20
62.7222
 10
-257.4575
 20
68.8456
  0
LWPOLYLINE
  5
72
330
1F
100
AcDbEntity
  8
Layer 1
 62
     7
370
     9
100
AcDbPolyline
 90
        2
 70
     0
 43
0.0
 10
-352.6266
 20
-75.9328
 10
-352.6266
 20
85.5738
  0
LWPOLYLINE
  5
73
330
1F
100
AcDbEntity
  8
Layer 1
 62
     7
370
     9
100
AcDbPolyline
 90
       28
 70
     0
 43
0.0
 10
-352.6266
 20
85.5738
 10
-352.9281
 20
86.4198
 10
-353.2079
 20
87.2844
 10
-353.4683
 20
88.1642
 10
-353.7038
 20
89.0507
 10
-353.9154
 20
89.9495
 10
-354.0986
 20
90.8555
 10
-354.2604
 20
91.7798
 10
-354.4034
 20
92.7033
 10
-354.5132
 20
93.6311
 10
-354.6033
 20
94.5661
 10
-354.6614
 20
95.5095
 10
-354.6996
 20
96.448
 10
-354.7213
 20
97.387
 10
-354.6996
 20
98.3383
 10
-354.6614
 20
99.2737
 10
-354.6033
 20
100.2123
 10
-354.5132
 20
101.1508
 10
-354.4034
 20
102.0827
 10
-354.2604
 20
103.0077
 10
-354.0986
 20
103.9264
 10
-353.9154
 20
104.832
 10
-353.7038
 20
105.7265
 10
-353.4683
 20
106.6174
 10
-353.2079
 20
107.5019
 10
-352.9281
 20
108.3622
 10
-352.6266
 20
109.213
 10
-352.6266
 20
124.9645
  0
LWPOLYLINE
  5
74
330
1F
100
AcDbEntity
  8
Layer 1
 62
     7
370
     9
100
AcDbPolyline
 90
        2
 70
     0
 43
0.0
 10
-373.2833
 20
-125.575
 10
-356.4027
 20
-125.575
  0
LWPOLYLINE
  5
75
330
1F
100
AcDbEntity
  8
Layer 1
 62
     7
370
     9
100
AcDbPolyline
 90
        2
 70
     0
 43
0.0
 10
-374.1579
 20
-83.8165
 10
-374.1579
 20
-93.6627
  0
LWPOLYLINE
  5
76
330
1F
100
AcDbEntity
  8
Layer 1
 62
     7
370
     9
100
AcDbPolyline
 90
        3
 70
     0
 43
0.0
 10
-374.1579
 20
-103.1204
 10
-374.1579
 20
-124.3949
 10
-373.2833
 20
-125.575
  0
LWPOLYLINE
  5
77
330
1F
100
AcDbEntity
  8
Layer 1
 62
     7
370
     9
100
AcDbPolyline
 90
        2
 70
     0
 43
0.0
 10
-373.7248
 20
-83.8165
 10
-373.7248
 20
-93.6627
  0
LWPOLYLINE
  5
78
330
1F
100
AcDbEntity
  8
Layer 1
 62
     7
370
     9
100
AcDbPolyline
 90
        2
 70
     0
 43
0.0
 10
-373.7248
 20
-103.1204
 10
-373.7248
 20
-124.9802
  0
LWPOLYLINE
  5
79
330
1F
100
AcDbEntity
  8
Layer 1
 62
     7
370
     9
100
AcDbPolyline
 90
        2
 70
     0
 43
0.0
 10
-355.5304
 20
-83.8165
 10
-355.5304
 20
-93.6627
  0
LWPOLYLINE
  5
7A
330
1F
100
AcDbEntity
  8
Layer 1
 62
     7
370
     9
100
AcDbPolyline
 90
        2
 70
     0
 43
0.0
 10
-355.5304
 20
-103.1204
 10
-355.5304
 20
-124.3949
  0
LWPOLYLINE
  5
7B
330
1F
100
AcDbEntity
  8
Layer 1
 62
     7
370
     9
100
AcDbPolyline
 90
        2
 70
     0
 43
0.0
 10
-353.7895
 20
-83.8165
 10
-353.7895
 20
-91.6922
  0
LWPOLYLINE
  5
7C
330
1F
100
AcDbEntity
  8
Layer 1
 62
     7
370
     9
100
AcDbPolyline
 90
        2
 70
     0
 43
0.0
 10
-356.4027
 20
-125.575
 10
-355.5304
 20
-124.3949
  0
LWPOLYLINE
  5
7D
330
1F
100
AcDbEntity
  8
Layer 1
 62
     7
370
     9
100
AcDbPolyline
 90
        2
 70
     0
 43
0.0
 10
-355.969
 20
-83.8165
 10
-355.969
 20
-93.6627
  0
LWPOLYLINE
  5
7E
330
1F
100
AcDbEntity
  8
Layer 1
 62
     7
370
     9
100
AcDbPolyline
 90
        2
 70
     0
 43
0.0
 10
-355.969
 20
-103.1204
 10
-355.969
 20
-124.9802
  0
LWPOLYLINE
  5
7F
330
1F
100
AcDbEntity
  8
Layer 1
 62
     7
370
     9
100
AcDbPolyline
 90
        2
 70
     0
 43
0.0
 10
-353.7895
 20
-92.6046
 10
-353.1225
 20
-91.6922
  0
LWPOLYLINE
  5
80
330
1F
100
AcDbEntity
  8
Layer 1
 62
     7
370
     9
100
AcDbPolyline
 90
        2
 70
     0
 43
0.0
 10
-353.5423
 20
-93.6627
 10
-352.0864
 20
-91.6922
  0
LWPOLYLINE
  5
81
330
1F
100
AcDbEntity
  8
Layer 1
 62
     7
370
     9
100
AcDbPolyline
 90
        2
 70
     0
 43
0.0
 10
-352.5139
 20
-93.6627
 10
-351.0609
 20
-91.6922
  0
LWPOLYLINE
  5
82
330
1F
100
AcDbEntity
  8
Layer 1
 62
     7
370
     9
100
AcDbPolyline
 90
        2
 70
     0
 43
0.0
 10
-351.4855
 20
-93.6627
 10
-350.8745
 20
-92.8398
  0
LWPOLYLINE
  5
83
330
1F
100
AcDbEntity
  8
Layer 1
 62
     7
370
     9
100
AcDbPolyline
 90
        2
 70
     0
 43
0.0
 10
-353.2329
 20
-93.6627
 10
-353.7895
 20
-92.9173
  0
LWPOLYLINE
  5
84
330
1F
100
AcDbEntity
  8
Layer 1
 62
     7
370
     9
100
AcDbPolyline
 90
        2
 70
     0
 43
0.0
 10
-352.2044
 20
-93.6627
 10
-353.6603
 20
-91.6922
  0
LWPOLYLINE
  5
85
330
1F
100
AcDbEntity
  8
Layer 1
 62
     7
370
     9
100
AcDbPolyline
 90
        2
 70
     0
 43
0.0
 10
-351.176
 20
-93.6627
 10
-352.6319
 20
-91.6922
  0
LWPOLYLINE
  5
86
330
1F
100
AcDbEntity
  8
Layer 1
 62
     7
370
     9
100
AcDbPolyline
 90
        2
 70
     0
 43
0.0
 10
-350.8769
 20
-92.6793
 10
-351.6035
 20
-91.6922
  0
LWPOLYLINE
  5
87
330
1F
100
AcDbEntity
  8
Layer 1
 62
     7
370
     9
100
AcDbPolyline
 90
        2
 70
     0
 43
0.0
 10
-347.7675
 20
-91.6922
 10
-355.5304
 20
-91.6922
  0
LWPOLYLINE
  5
88
330
1F
100
AcDbEntity
  8
Layer 1
 62
     7
370
     9
100
AcDbPolyline
 90
        2
 70
     0
 43
0.0
 10
-350.8769
 20
-93.6627
 10
-353.7895
 20
-93.6627
  0
LWPOLYLINE
  5
89
330
1F
100
AcDbEntity
  8
Layer 1
 62
     7
370
     9
100
AcDbPolyline
 90
        2
 70
     0
 43
0.0
 10
-353.7895
 20
-84.0867
 10
-353.589
 20
-83.8165
  0
LWPOLYLINE
  5
8A
330
1F
100
AcDbEntity
  8
Layer 1
 62
     7
370
     9
100
AcDbPolyline
 90
        2
 70
     0
 43
0.0
 10
-353.7895
 20
-85.4794
 10
-352.5606
 20
-83.8165
  0
LWPOLYLINE
  5
8B
330
1F
100
AcDbEntity
  8
Layer 1
 62
     7
370
     9
100
AcDbPolyline
 90
        2
 70
     0
 43
0.0
 10
-353.7895
 20
-86.871
 10
-351.5321
 20
-83.8165
  0
LWPOLYLINE
  5
8C
330
1F
100
AcDbEntity
  8
Layer 1
 62
     7
370
     9
100
AcDbPolyline
 90
        2
 70
     0
 43
0.0
 10
-353.7895
 20
-88.2622
 10
-350.507
 20
-83.8165
  0
LWPOLYLINE
  5
8D
330
1F
100
AcDbEntity
  8
Layer 1
 62
     7
370
     9
100
AcDbPolyline
 90
        2
 70
     0
 43
0.0
 10
-353.7895
 20
-89.6541
 10
-349.473
 20
-83.8165
  0
LWPOLYLINE
  5
8E
330
1F
100
AcDbEntity
  8
Layer 1
 62
     7
370
     9
100
AcDbPolyline
 90
        2
 70
     0
 43
0.0
 10
-353.7895
 20
-91.0469
 10
-349.1333
 20
-84.7399
  0
LWPOLYLINE
  5
8F
330
1F
100
AcDbEntity
  8
Layer 1
 62
     7
370
     9
100
AcDbPolyline
 90
        2
 70
     0
 43
0.0
 10
-353.2381
 20
-91.6922
 10
-349.1333
 20
-86.1327
  0
LWPOLYLINE
  5
90
330
1F
100
AcDbEntity
  8
Layer 1
 62
     7
370
     9
100
AcDbPolyline
 90
        2
 70
     0
 43
0.0
 10
-352.21
 20
-91.6922
 10
-349.1333
 20
-87.5362
  0
LWPOLYLINE
  5
91
330
1F
100
AcDbEntity
  8
Layer 1
 62
     7
370
     9
100
AcDbPolyline
 90
        2
 70
     0
 43
0.0
 10
-351.1816
 20
-91.6922
 10
-349.1333
 20
-88.923
  0
LWPOLYLINE
  5
92
330
1F
100
AcDbEntity
  8
Layer 1
 62
     7
370
     9
100
AcDbPolyline
 90
        2
 70
     0
 43
0.0
 10
-350.1532
 20
-91.6922
 10
-349.1333
 20
-90.3189
  0
LWPOLYLINE
  5
93
330
1F
100
AcDbEntity
  8
Layer 1
 62
     7
370
     9
100
AcDbPolyline
 90
        2
 70
     0
 43
0.0
 10
-375.9044
 20
-83.8165
 10
-375.9044
 20
-91.6922
  0
LWPOLYLINE
  5
94
330
1F
100
AcDbEntity
  8
Layer 1
 62
     7
370
     9
100
AcDbPolyline
 90
        2
 70
     0
 43
0.0
 10
-379.5407
 20
-91.6922
 10
-380.5635
 20
-90.3189
  0
LWPOLYLINE
  5
95
330
1F
100
AcDbEntity
  8
Layer 1
 62
     7
370
     9
100
AcDbPolyline
 90
        2
 70
     0
 43
0.0
 10
-378.5123
 20
-91.6922
 10
-380.5606
 20
-88.923
  0
LWPOLYLINE
  5
96
330
1F
100
AcDbEntity
  8
Layer 1
 62
     7
370
     9
100
AcDbPolyline
 90
        2
 70
     0
 43
0.0
 10
-377.4839
 20
-91.6922
 10
-380.5635
 20
-87.5362
  0
LWPOLYLINE
  5
97
330
1F
100
AcDbEntity
  8
Layer 1
 62
     7
370
     9
100
AcDbPolyline
 90
        2
 70
     0
 43
0.0
 10
-376.4554
 20
-91.6922
 10
-380.5606
 20
-86.1327
  0
LWPOLYLINE
  5
98
330
1F
100
AcDbEntity
  8
Layer 1
 62
     7
370
     9
100
AcDbPolyline
 90
        2
 70
     0
 43
0.0
 10
-375.9044
 20
-91.0469
 10
-380.5606
 20
-84.7399
  0
LWPOLYLINE
  5
99
330
1F
100
AcDbEntity
  8
Layer 1
 62
     7
370
     9
100
AcDbPolyline
 90
        2
 70
     0
 43
0.0
 10
-375.9044
 20
-89.6541
 10
-380.2153
 20
-83.8165
  0
LWPOLYLINE
  5
9A
330
1F
100
AcDbEntity
  8
Layer 1
 62
     7
370
     9
100
AcDbPolyline
 90
        2
 70
     0
 43
0.0
 10
-375.9044
 20
-88.2622
 10
-379.1869
 20
-83.8165
  0
LWPOLYLINE
  5
9B
330
1F
100
AcDbEntity
  8
Layer 1
 62
     7
370
     9
100
AcDbPolyline
 90
        2
 70
     0
 43
0.0
 10
-375.9044
 20
-86.871
 10
-378.1585
 20
-83.8165
  0
LWPOLYLINE
  5
9C
330
1F
100
AcDbEntity
  8
Layer 1
 62
     7
370
     9
100
AcDbPolyline
 90
        2
 70
     0
 43
0.0
 10
-375.9044
 20
-85.4794
 10
-377.1304
 20
-83.8165
  0
LWPOLYLINE
  5
9D
330
1F
100
AcDbEntity
  8
Layer 1
 62
     7
370
     9
100
AcDbPolyline
 90
        2
 70
     0
 43
0.0
 10
-375.9044
 20
-84.0867
 10
-376.102
 20
-83.8165
  0
LWPOLYLINE
  5
9E
330
1F
100
AcDbEntity
  8
Layer 1
 62
     7
370
     9
100
AcDbPolyline
 90
        2
 70
     0
 43
0.0
 10
-353.7895
 20
-91.6922
 10
-353.7895
 20
-93.6627
  0
LWPOLYLINE
  5
9F
330
1F
100
AcDbEntity
  8
Layer 1
 62
     7
370
     9
100
AcDbPolyline
 90
        2
 70
     0
 43
0.0
 10
-350.8769
 20
-91.6922
 10
-350.8769
 20
-93.6627
  0
LWPOLYLINE
  5
A0
330
1F
100
AcDbEntity
  8
Layer 1
 62
     7
370
     9
100
AcDbPolyline
 90
        2
 70
     0
 43
0.0
 10
-378.2108
 20
-93.6627
 10
-378.8194
 20
-92.8398
  0
LWPOLYLINE
  5
A1
330
1F
100
AcDbEntity
  8
Layer 1
 62
     7
370
     9
100
AcDbPolyline
 90
        2
 70
     0
 43
0.0
 10
-377.1744
 20
-93.6627
 10
-378.6306
 20
-91.6922
  0
LWPOLYLINE
  5
A2
330
1F
100
AcDbEntity
  8
Layer 1
 62
     7
370
     9
100
AcDbPolyline
 90
        2
 70
     0
 43
0.0
 10
-376.1487
 20
-93.6627
 10
-377.6022
 20
-91.6922
  0
LWPOLYLINE
  5
A3
330
1F
100
AcDbEntity
  8
Layer 1
 62
     7
370
     9
100
AcDbPolyline
 90
        2
 70
     0
 43
0.0
 10
-375.9044
 20
-92.6046
 10
-376.5738
 20
-91.6922
  0
LWPOLYLINE
  5
A4
330
1F
100
AcDbEntity
  8
Layer 1
 62
     7
370
     9
100
AcDbPolyline
 90
        2
 70
     0
 43
0.0
 10
-378.817
 20
-92.6793
 10
-378.0925
 20
-91.6922
  0
LWPOLYLINE
  5
A5
330
1F
100
AcDbEntity
  8
Layer 1
 62
     7
370
     9
100
AcDbPolyline
 90
        2
 70
     0
 43
0.0
 10
-378.5123
 20
-93.6627
 10
-377.0564
 20
-91.6922
  0
LWPOLYLINE
  5
A6
330
1F
100
AcDbEntity
  8
Layer 1
 62
     7
370
     9
100
AcDbPolyline
 90
        2
 70
     0
 43
0.0
 10
-377.4839
 20
-93.6627
 10
-376.0303
 20
-91.6922
  0
LWPOLYLINE
  5
A7
330
1F
100
AcDbEntity
  8
Layer 1
 62
     7
370
     9
100
AcDbPolyline
 90
        2
 70
     0
 43
0.0
 10
-376.4554
 20
-93.6627
 10
-375.9044
 20
-92.9173
  0
LWPOLYLINE
  5
A8
330
1F
100
AcDbEntity
  8
Layer 1
 62
     7
370
     9
100
AcDbPolyline
 90
        4
 70
     0
 43
0.0
 10
-378.817
 20
-91.6922
 10
-378.817
 20
-93.6627
 10
-375.9044
 20
-93.6627
 10
-375.9044
 20
-91.6922
  0
LWPOLYLINE
  5
A9
330
1F
100
AcDbEntity
  8
Layer 1
 62
     7
370
     9
100
AcDbPolyline
 90
        2
 70
     0
 43
0.0
 10
-381.9263
 20
-91.6922
 10
-374.1579
 20
-91.6922
  0
LWPOLYLINE
  5
AA
330
1F
100
AcDbEntity
  8
Layer 1
 62
     7
370
     9
100
AcDbPolyline
 90
        3
 70
     0
 43
0.0
 10
-380.5606
 20
-93.6627
 10
-364.8481
 20
-93.6627
 10
-349.1333
 20
-93.6627
  0
LWPOLYLINE
  5
AB
330
1F
100
AcDbEntity
  8
Layer 1
 62
     7
370
     9
100
AcDbPolyline
 90
        5
 70
     0
 43
0.0
 10
-380.5606
 20
-93.6627
 10
-380.5606
 20
-95.6333
 10
-364.8481
 20
-95.6333
 10
-349.1333
 20
-95.6333
 10
-349.1333
 20
-93.6627
  0
LWPOLYLINE
  5
AC
330
1F
100
AcDbEntity
  8
Layer 1
 62
     7
370
     9
100
AcDbPolyline
 90
        2
 70
     0
 43
0.0
 10
-355.5304
 20
-124.8852
 10
-355.5304
 20
-136.1485
  0
LWPOLYLINE
  5
AD
330
1F
100
AcDbEntity
  8
Layer 1
 62
     7
370
     9
100
AcDbPolyline
 90
        2
 70
     0
 43
0.0
 10
-374.1579
 20
-124.8852
 10
-374.1579
 20
-136.1485
  0
LWPOLYLINE
  5
AE
330
1F
100
AcDbEntity
  8
Layer 1
 62
     7
370
     9
100
AcDbPolyline
 90
        2
 70
     0
 43
0.0
 10
-357.8585
 20
-135.1567
 10
-371.8321
 20
-135.1567
  0
LWPOLYLINE
  5
AF
330
1F
100
AcDbEntity
  8
Layer 1
 62
     7
370
     9
100
AcDbPolyline
 90
        2
 70
     0
 43
0.0
 10
-374.1579
 20
-135.1567
 10
-413.5134
 20
-135.1567
  0
LWPOLYLINE
  5
B0
330
1F
100
AcDbEntity
  8
Layer 1
 62
     7
370
    18
100
AcDbPolyline
 90
        4
 70
     1
 43
0.0
 10
-357.8579
 20
-135.6919
 10
-355.5322
 20
-135.1567
 10
-357.8579
 20
-134.6373
 10
-357.8579
 20
-135.6919
  0
LWPOLYLINE
  5
B1
330
1F
100
AcDbEntity
  8
Layer 1
 62
     7
370
     9
100
AcDbPolyline
 90
        4
 70
     1
 43
0.0
 10
-357.8585
 20
-135.6903
 10
-355.5304
 20
-135.1567
 10
-357.8585
 20
-134.6401
 10
-357.8585
 20
-135.6903
  0
LWPOLYLINE
  5
B2
330
1F
100
AcDbEntity
  8
Layer 1
 62
     7
370
     9
100
AcDbPolyline
 90
        4
 70
     1
 43
0.0
 10
-357.8585
 20
-134.6397
 10
-357.8585
 20
-135.6859
 10
-355.5281
 20
-135.159
 10
-357.8585
 20
-134.6397
  0
LWPOLYLINE
  5
B3
330
1F
100
AcDbEntity
  8
Layer 1
 62
     7
370
    18
100
AcDbPolyline
 90
        4
 70
     1
 43
0.0
 10
-374.1588
 20
-135.1567
 10
-371.8307
 20
-135.6919
 10
-371.8307
 20
-134.6373
 10
-374.1588
 20
-135.1567
  0
LWPOLYLINE
  5
B4
330
1F
100
AcDbEntity
  8
Layer 1
 62
     7
370
     9
100
AcDbPolyline
 90
        4
 70
     1
 43
0.0
 10
-374.1593
 20
-135.1586
 10
-371.8312
 20
-135.6923
 10
-371.8312
 20
-134.6381
 10
-374.1593
 20
-135.1586
  0
LWPOLYLINE
  5
B5
330
1F
100
AcDbEntity
  8
Layer 1
 62
     7
100
AcDbPolyline
 90
        4
 70
     1
 43
0.0
 10
-371.8298
 20
-134.6397
 10
-371.8298
 20
-135.6859
 10
-374.1579
 20
-135.159
 10
-371.8298
 20
-134.6397
  0
LWPOLYLINE
  5
B6
330
1F
100
AcDbEntity
  8
Layer 1
 62
     7
100
AcDbPolyline
 90
        3
 70
     1
 43
0.0
 10
-380.2729
 20
-99.105
 10
-380.2729
 20
-103.1208
 10
-380.2729
 20
-99.105
  0
LWPOLYLINE
  5
B7
330
1F
100
AcDbEntity
  8
Layer 1
 62
     7
100
AcDbPolyline
 90
        3
 70
     1
 43
0.0
 10
-380.2729
 20
-112.0992
 10
-380.2729
 20
-112.5705
 10
-380.2729
 20
-112.0992
  0
LWPOLYLINE
  5
B8
330
1F
100
AcDbEntity
  8
Layer 1
 62
     7
100
AcDbPolyline
 90
        3
 70
     1
 43
0.0
 10
-379.1071
 20
-96.4185
 10
-379.1071
 20
-99.105
 10
-379.1071
 20
-96.4185
  0
LWPOLYLINE
  5
B9
330
1F
100
AcDbEntity
  8
Layer 1
 62
     7
100
AcDbPolyline
 90
        3
 70
     1
 43
0.0
 10
-379.1071
 20
-103.1208
 10
-379.1071
 20
-110.9147
 10
-379.1071
 20
-103.1208
  0
LWPOLYLINE
  5
BA
330
1F
100
AcDbEntity
  8
Layer 1
 62
     7
100
AcDbPolyline
 90
        3
 70
     1
 43
0.0
 10
-378.5255
 20
-95.6309
 10
-379.11
 20
-96.4185
 10
-378.5255
 20
-95.6309
  0
LWPOLYLINE
  5
BB
330
1F
100
AcDbEntity
  8
Layer 1
 62
     7
100
AcDbPolyline
 90
        3
 70
     1
 43
0.0
 10
-375.6137
 20
-96.4185
 10
-375.6137
 20
-99.105
 10
-375.6137
 20
-96.4185
  0
LWPOLYLINE
  5
BC
330
1F
100
AcDbEntity
  8
Layer 1
 62
     7
100
AcDbPolyline
 90
        3
 70
     1
 43
0.0
 10
-375.6137
 20
-103.1208
 10
-375.6137
 20
-110.9147
 10
-375.6137
 20
-103.1208
  0
LWPOLYLINE
  5
BD
330
1F
100
AcDbEntity
  8
Layer 1
 62
     7
100
AcDbPolyline
 90
        3
 70
     1
 43
0.0
 10
-374.4509
 20
-112.0992
 10
-374.4509
 20
-112.5705
 10
-374.4509
 20
-112.0992
  0
LWPOLYLINE
  5
BE
330
1F
100
AcDbEntity
  8
Layer 1
 62
     7
100
AcDbPolyline
 90
        3
 70
     1
 43
0.0
 10
-350.2923
 20
-113.7519
 10
-354.3731
 20
-113.7519
 10
-350.2923
 20
-113.7519
  0
LWPOLYLINE
  5
BF
330
1F
100
AcDbEntity
  8
Layer 1
 62
     7
100
AcDbPolyline
 90
        3
 70
     1
 43
0.0
 10
-375.3231
 20
-113.7519
 10
-379.3977
 20
-113.7519
 10
-375.3231
 20
-113.7519
  0
LWPOLYLINE
  5
C0
330
1F
100
AcDbEntity
  8
Layer 1
 62
     7
100
AcDbPolyline
 90
        3
 70
     1
 43
0.0
 10
-349.4233
 20
-112.5705
 10
-355.2398
 20
-112.5705
 10
-349.4233
 20
-112.5705
  0
LWPOLYLINE
  5
C1
330
1F
100
AcDbEntity
  8
Layer 1
 62
     7
100
AcDbPolyline
 90
        3
 70
     1
 43
0.0
 10
-374.4509
 20
-112.5705
 10
-380.2729
 20
-112.5705
 10
-374.4509
 20
-112.5705
  0
LWPOLYLINE
  5
C2
330
1F
100
AcDbEntity
  8
Layer 1
 62
     7
100
AcDbPolyline
 90
        3
 70
     1
 43
0.0
 10
-380.2729
 20
-112.0992
 10
-374.4509
 20
-112.0992
 10
-380.2729
 20
-112.0992
  0
LWPOLYLINE
  5
C3
330
1F
100
AcDbEntity
  8
Layer 1
 62
     7
100
AcDbPolyline
 90
        3
 70
     1
 43
0.0
 10
-355.2398
 20
-112.0992
 10
-349.4233
 20
-112.0992
 10
-355.2398
 20
-112.0992
  0
LWPOLYLINE
  5
C4
330
1F
100
AcDbEntity
  8
Layer 1
 62
     7
100
AcDbPolyline
 90
        3
 70
     1
 43
0.0
 10
-375.3231
 20
-110.9147
 10
-379.3977
 20
-110.9147
 10
-375.3231
 20
-110.9147
  0
LWPOLYLINE
  5
C5
330
1F
100
AcDbEntity
  8
Layer 1
 62
     7
100
AcDbPolyline
 90
        3
 70
     1
 43
0.0
 10
-354.3731
 20
-110.9147
 10
-350.2923
 20
-110.9147
 10
-354.3731
 20
-110.9147
  0
LWPOLYLINE
  5
C6
330
1F
100
AcDbEntity
  8
Layer 1
 62
     7
100
AcDbPolyline
 90
        3
 70
     1
 43
0.0
 10
-376.1974
 20
-95.6309
 10
-375.6137
 20
-96.4185
 10
-376.1974
 20
-95.6309
  0
LWPOLYLINE
  5
C7
330
1F
100
AcDbEntity
  8
Layer 1
 62
     7
100
AcDbPolyline
 90
        3
 70
     1
 43
0.0
 10
-380.2729
 20
-103.1208
 10
-349.4233
 20
-103.1208
 10
-380.2729
 20
-103.1208
  0
LWPOLYLINE
  5
C8
330
1F
100
AcDbEntity
  8
Layer 1
 62
     7
100
AcDbPolyline
 90
        3
 70
     1
 43
0.0
 10
-353.4956
 20
-95.6309
 10
-354.0793
 20
-96.4185
 10
-353.4956
 20
-95.6309
  0
LWPOLYLINE
  5
C9
330
1F
100
AcDbEntity
  8
Layer 1
 62
     7
100
AcDbPolyline
 90
        3
 70
     1
 43
0.0
 10
-380.2729
 20
-99.105
 10
-349.4233
 20
-99.105
 10
-380.2729
 20
-99.105
  0
LWPOLYLINE
  5
CA
330
1F
100
AcDbEntity
  8
Layer 1
 62
     7
100
AcDbPolyline
 90
        3
 70
     1
 43
0.0
 10
-379.1071
 20
-96.4185
 10
-375.6137
 20
-96.4185
 10
-379.1071
 20
-96.4185
  0
LWPOLYLINE
  5
CB
330
1F
100
AcDbEntity
  8
Layer 1
 62
     7
100
AcDbPolyline
 90
        3
 70
     1
 43
0.0
 10
-354.0793
 20
-96.4185
 10
-350.5862
 20
-96.4185
 10
-354.0793
 20
-96.4185
  0
LWPOLYLINE
  5
CC
330
1F
100
AcDbEntity
  8
Layer 1
 62
     7
100
AcDbPolyline
 90
        3
 70
     1
 43
0.0
 10
-378.5255
 20
-95.6309
 10
-376.1974
 20
-95.6309
 10
-378.5255
 20
-95.6309
  0
LWPOLYLINE
  5
CD
330
1F
100
AcDbEntity
  8
Layer 1
 62
     7
100
AcDbPolyline
 90
        3
 70
     1
 43
0.0
 10
-353.4956
 20
-95.6309
 10
-351.1699
 20
-95.6309
 10
-353.4956
 20
-95.6309
  0
LWPOLYLINE
  5
CE
330
1F
100
AcDbEntity
  8
Layer 1
 62
     7
100
AcDbPolyline
 90
        3
 70
     1
 43
0.0
 10
-355.2398
 20
-112.5705
 10
-355.2398
 20
-112.0992
 10
-355.2398
 20
-112.5705
  0
LWPOLYLINE
  5
CF
330
1F
100
AcDbEntity
  8
Layer 1
 62
     7
100
AcDbPolyline
 90
        3
 70
     1
 43
0.0
 10
-354.0793
 20
-110.9147
 10
-354.0793
 20
-103.1208
 10
-354.0793
 20
-110.9147
  0
LWPOLYLINE
  5
D0
330
1F
100
AcDbEntity
  8
Layer 1
 62
     7
100
AcDbPolyline
 90
        3
 70
     1
 43
0.0
 10
-354.0793
 20
-99.105
 10
-354.0793
 20
-96.4185
 10
-354.0793
 20
-99.105
  0
LWPOLYLINE
  5
D1
330
1F
100
AcDbEntity
  8
Layer 1
 62
     7
100
AcDbPolyline
 90
        3
 70
     1
 43
0.0
 10
-350.5862
 20
-110.9147
 10
-350.5862
 20
-103.1208
 10
-350.5862
 20
-110.9147
  0
LWPOLYLINE
  5
D2
330
1F
100
AcDbEntity
  8
Layer 1
 62
     7
100
AcDbPolyline
 90
        3
 70
     1
 43
0.0
 10
-350.5862
 20
-99.105
 10
-350.5862
 20
-96.4185
 10
-350.5862
 20
-99.105
  0
LWPOLYLINE
  5
D3
330
1F
100
AcDbEntity
  8
Layer 1
 62
     7
100
AcDbPolyline
 90
        3
 70
     1
 43
0.0
 10
-351.1699
 20
-95.6309
 10
-350.5886
 20
-96.4185
 10
-351.1699
 20
-95.6309
  0
LWPOLYLINE
  5
D4
330
1F
100
AcDbEntity
  8
Layer 1
 62
     7
100
AcDbPolyline
 90
        3
 70
     1
 43
0.0
 10
-349.4233
 20
-112.5705
 10
-349.4233
 20
-112.0992
 10
-349.4233
 20
-112.5705
  0
LWPOLYLINE
  5
D5
330
1F
100
AcDbEntity
  8
Layer 1
 62
     7
100
AcDbPolyline
 90
        3
 70
     1
 43
0.0
 10
-349.4233
 20
-103.1208
 10
-349.4233
 20
-99.105
 10
-349.4233
 20
-103.1208
  0
LWPOLYLINE
  5
D6
330
1F
100
AcDbEntity
  8
Layer 1
 62
     7
100
AcDbPolyline
 90
       10
 70
     1
 43
0.0
 10
-354.3755
 20
-110.9147
 10
-354.5508
 20
-110.9388
 10
-354.714
 20
-111.0079
 10
-354.8618
 20
-111.1171
 10
-354.9906
 20
-111.2616
 10
-355.0968
 20
-111.4366
 10
-355.177
 20
-111.6372
 10
-355.2277
 20
-111.8586
 10
-355.2454
 20
-112.096
 10
-354.3755
 20
-110.9147
  0
LWPOLYLINE
  5
D7
330
1F
100
AcDbEntity
  8
Layer 1
 62
     7
100
AcDbPolyline
 90
       10
 70
     1
 43
0.0
 10
-349.4286
 20
-112.096
 10
-349.4463
 20
-111.8586
 10
-349.497
 20
-111.6372
 10
-349.5772
 20
-111.4366
 10
-349.6833
 20
-111.2616
 10
-349.812
 20
-111.1171
 10
-349.9596
 20
-111.0079
 10
-350.1226
 20
-110.9388
 10
-350.2976
 20
-110.9147
 10
-349.4286
 20
-112.096
  0
LWPOLYLINE
  5
D8
330
1F
100
AcDbEntity
  8
Layer 1
 62
     7
100
AcDbPolyline
 90
       10
 70
     1
 43
0.0
 10
-355.2454
 20
-112.5673
 10
-355.2278
 20
-112.8043
 10
-355.1773
 20
-113.0252
 10
-355.0974
 20
-113.2252
 10
-354.9914
 20
-113.3995
 10
-354.8628
 20
-113.5434
 10
-354.715
 20
-113.652
 10
-354.5514
 20
-113.7207
 10
-354.3755
 20
-113.7447
 10
-355.2454
 20
-112.5673
  0
LWPOLYLINE
  5
D9
330
1F
100
AcDbEntity
  8
Layer 1
 62
     7
100
AcDbPolyline
 90
       10
 70
     1
 43
0.0
 10
-350.2976
 20
-113.7447
 10
-350.1226
 20
-113.7207
 10
-349.9596
 20
-113.652
 10
-349.812
 20
-113.5434
 10
-349.6833
 20
-113.3995
 10
-349.5772
 20
-113.2252
 10
-349.497
 20
-113.0252
 10
-349.4463
 20
-112.8043
 10
-349.4286
 20
-112.5673
 10
-350.2976
 20
-113.7447
  0
LWPOLYLINE
  5
DA
330
1F
100
AcDbEntity
  8
Layer 1
 62
     7
100
AcDbPolyline
 90
       10
 70
     1
 43
0.0
 10
-374.4541
 20
-112.096
 10
-374.4719
 20
-111.8586
 10
-374.5228
 20
-111.6372
 10
-374.6033
 20
-111.4366
 10
-374.7099
 20
-111.2616
 10
-374.8391
 20
-111.1171
 10
-374.9871
 20
-111.0079
 10
-375.1506
 20
-110.9388
 10
-375.326
 20
-110.9147
 10
-374.4541
 20
-112.096
  0
LWPOLYLINE
  5
DB
330
1F
100
AcDbEntity
  8
Layer 1
 62
     7
100
AcDbPolyline
 90
       10
 70
     1
 43
0.0
 10
-379.403
 20
-110.9147
 10
-379.5784
 20
-110.9388
 10
-379.7417
 20
-111.0079
 10
-379.8894
 20
-111.1171
 10
-380.0182
 20
-111.2616
 10
-380.1244
 20
-111.4366
 10
-380.2046
 20
-111.6372
 10
-380.2552
 20
-111.8586
 10
-380.2729
 20
-112.096
 10
-379.403
 20
-110.9147
  0
LWPOLYLINE
  5
DC
330
1F
100
AcDbEntity
  8
Layer 1
 62
     7
100
AcDbPolyline
 90
       10
 70
     1
 43
0.0
 10
-375.326
 20
-113.7447
 10
-375.1516
 20
-113.7207
 10
-374.9885
 20
-113.652
 10
-374.8405
 20
-113.5434
 10
-374.7112
 20
-113.3995
 10
-374.6042
 20
-113.2252
 10
-374.5233
 20
-113.0252
 10
-374.472
 20
-112.8043
 10
-374.4541
 20
-112.5673
 10
-375.326
 20
-113.7447
  0
LWPOLYLINE
  5
DD
330
1F
100
AcDbEntity
  8
Layer 1
 62
     7
100
AcDbPolyline
 90
       10
 70
     1
 43
0.0
 10
-380.2729
 20
-112.5673
 10
-380.2553
 20
-112.8043
 10
-380.2049
 20
-113.0252
 10
-380.125
 20
-113.2252
 10
-380.019
 20
-113.3995
 10
-379.8905
 20
-113.5434
 10
-379.7426
 20
-113.652
 10
-379.579
 20
-113.7207
 10
-379.403
 20
-113.7447
 10
-380.2729
 20
-112.5673
  0
LWPOLYLINE
  5
DE
330
1F
100
AcDbEntity
  8
Layer 1
 62
     7
100
AcDbPolyline
 90
        3
 70
     1
 43
0.0
 10
-349.0555
 20
-83.8173
 10
-243.5133
 20
-83.8173
 10
-349.0555
 20
-83.8173
  0
LWPOLYLINE
  5
DF
330
1F
100
AcDbEntity
  8
Layer 1
 62
     7
100
AcDbPolyline
 90
        3
 70
     1
 43
0.0
 10
-265.5298
 20
65.7819
 10
-243.5133
 20
65.7819
 10
-265.5298
 20
65.7819
  0
LWPOLYLINE
  5
E0
330
1F
100
AcDbEntity
  8
Layer 1
 62
     7
100
AcDbPolyline
 90
        3
 70
     1
 43
0.0
 10
-244.2425
 20
-80.6662
 10
-244.2425
 20
62.6268
 10
-244.2425
 20
-80.6662
  0
LWPOLYLINE
  5
E1
330
1F
100
AcDbEntity
  8
Layer 1
 62
     7
370
     9
100
AcDbPolyline
 90
        4
 70
     1
 43
0.0
 10
-371.8298
 20
-134.6397
 10
-371.8298
 20
-135.6859
 10
-374.1579
 20
-135.159
 10
-371.8298
 20
-134.6397
  0
LWPOLYLINE
  5
E2
330
1F
100
AcDbEntity
  8
Layer 1
 62
     7
370
     9
100
AcDbPolyline
 90
        2
 70
     0
 43
0.0
 10
-380.2729
 20
-99.105
 10
-380.2729
 20
-103.1208
  0
LWPOLYLINE
  5
E3
330
1F
100
AcDbEntity
  8
Layer 1
 62
     7
370
     9
100
AcDbPolyline
 90
        2
 70
     0
 43
0.0
 10
-380.2729
 20
-112.0992
 10
-380.2729
 20
-112.5705
  0
LWPOLYLINE
  5
E4
330
1F
100
AcDbEntity
  8
Layer 1
 62
     7
370
     9
100
AcDbPolyline
 90
        2
 70
     0
 43
0.0
 10
-379.1071
 20
-96.4185
 10
-379.1071
 20
-99.105
  0
LWPOLYLINE
  5
E5
330
1F
100
AcDbEntity
  8
Layer 1
 62
     7
370
     9
100
AcDbPolyline
 90
        2
 70
     0
 43
0.0
 10
-379.1071
 20
-103.1208
 10
-379.1071
 20
-110.9147
  0
LWPOLYLINE
  5
E6
330
1F
100
AcDbEntity
  8
Layer 1
 62
     7
370
     9
100
AcDbPolyline
 90
        2
 70
     0
 43
0.0
 10
-378.5255
 20
-95.6309
 10
-379.11
 20
-96.4185
  0
LWPOLYLINE
  5
E7
330
1F
100
AcDbEntity
  8
Layer 1
 62
     7
370
     9
100
AcDbPolyline
 90
        2
 70
     0
 43
0.0
 10
-375.6137
 20
-96.4185
 10
-375.6137
 20
-99.105
  0
LWPOLYLINE
  5
E8
330
1F
100
AcDbEntity
  8
Layer 1
 62
     7
370
     9
100
AcDbPolyline
 90
        2
 70
     0
 43
0.0
 10
-375.6137
 20
-103.1208
 10
-375.6137
 20
-110.9147
  0
LWPOLYLINE
  5
E9
330
1F
100
AcDbEntity
  8
Layer 1
 62
     7
370
     9
100
AcDbPolyline
 90
        2
 70
     0
 43
0.0
 10
-374.4509
 20
-112.0992
 10
-374.4509
 20
-112.5705
  0
LWPOLYLINE
  5
EA
330
1F
100
AcDbEntity
  8
Layer 1
 62
     7
370
     9
100
AcDbPolyline
 90
        2
 70
     0
 43
0.0
 10
-350.2923
 20
-113.7519
 10
-354.3731
 20
-113.7519
  0
LWPOLYLINE
  5
EB
330
1F
100
AcDbEntity
  8
Layer 1
 62
     7
370
     9
100
AcDbPolyline
 90
        2
 70
     0
 43
0.0
 10
-375.3231
 20
-113.7519
 10
-379.3977
 20
-113.7519
  0
LWPOLYLINE
  5
EC
330
1F
100
AcDbEntity
  8
Layer 1
 62
     7
370
     9
100
AcDbPolyline
 90
        2
 70
     0
 43
0.0
 10
-349.4233
 20
-112.5705
 10
-355.2398
 20
-112.5705
  0
LWPOLYLINE
  5
ED
330
1F
100
AcDbEntity
  8
Layer 1
 62
     7
370
     9
100
AcDbPolyline
 90
        2
 70
     0
 43
0.0
 10
-374.4509
 20
-112.5705
 10
-380.2729
 20
-112.5705
  0
LWPOLYLINE
  5
EE
330
1F
100
AcDbEntity
  8
Layer 1
 62
     7
370
     9
100
AcDbPolyline
 90
        2
 70
     0
 43
0.0
 10
-380.2729
 20
-112.0992
 10
-374.4509
 20
-112.0992
  0
LWPOLYLINE
  5
EF
330
1F
100
AcDbEntity
  8
Layer 1
 62
     7
370
     9
100
AcDbPolyline
 90
        2
 70
     0
 43
0.0
 10
-355.2398
 20
-112.0992
 10
-349.4233
 20
-112.0992
  0
LWPOLYLINE
  5
F0
330
1F
100
AcDbEntity
  8
Layer 1
 62
     7
370
     9
100
AcDbPolyline
 90
        2
 70
     0
 43
0.0
 10
-375.3231
 20
-110.9147
 10
-379.3977
 20
-110.9147
  0
LWPOLYLINE
  5
F1
330
1F
100
AcDbEntity
  8
Layer 1
 62
     7
370
     9
100
AcDbPolyline
 90
        2
 70
     0
 43
0.0
 10
-354.3731
 20
-110.9147
 10
-350.2923
 20
-110.9147
  0
LWPOLYLINE
  5
F2
330
1F
100
AcDbEntity
  8
Layer 1
 62
     7
370
     9
100
AcDbPolyline
 90
        2
 70
     0
 43
0.0
 10
-376.1974
 20
-95.6309
 10
-375.6137
 20
-96.4185
  0
LWPOLYLINE
  5
F3
330
1F
100
AcDbEntity
  8
Layer 1
 62
     7
370
     9
100
AcDbPolyline
 90
        2
 70
     0
 43
0.0
 10
-380.2729
 20
-103.1208
 10
-349.4233
 20
-103.1208
  0
LWPOLYLINE
  5
F4
330
1F
100
AcDbEntity
  8
Layer 1
 62
     7
370
     9
100
AcDbPolyline
 90
        2
 70
     0
 43
0.0
 10
-353.4956
 20
-95.6309
 10
-354.0793
 20
-96.4185
  0
LWPOLYLINE
  5
F5
330
1F
100
AcDbEntity
  8
Layer 1
 62
     7
370
     9
100
AcDbPolyline
 90
        2
 70
     0
 43
0.0
 10
-380.2729
 20
-99.105
 10
-349.4233
 20
-99.105
  0
LWPOLYLINE
  5
F6
330
1F
100
AcDbEntity
  8
Layer 1
 62
     7
370
     9
100
AcDbPolyline
 90
        2
 70
     0
 43
0.0
 10
-379.1071
 20
-96.4185
 10
-375.6137
 20
-96.4185
  0
LWPOLYLINE
  5
F7
330
1F
100
AcDbEntity
  8
Layer 1
 62
     7
370
     9
100
AcDbPolyline
 90
        2
 70
     0
 43
0.0
 10
-354.0793
 20
-96.4185
 10
-350.5862
 20
-96.4185
  0
LWPOLYLINE
  5
F8
330
1F
100
AcDbEntity
  8
Layer 1
 62
     7
370
     9
100
AcDbPolyline
 90
        2
 70
     0
 43
0.0
 10
-378.5255
 20
-95.6309
 10
-376.1974
 20
-95.6309
  0
LWPOLYLINE
  5
F9
330
1F
100
AcDbEntity
  8
Layer 1
 62
     7
370
     9
100
AcDbPolyline
 90
        2
 70
     0
 43
0.0
 10
-353.4956
 20
-95.6309
 10
-351.1699
 20
-95.6309
  0
LWPOLYLINE
  5
FA
330
1F
100
AcDbEntity
  8
Layer 1
 62
     7
370
     9
100
AcDbPolyline
 90
        2
 70
     0
 43
0.0
 10
-355.2398
 20
-112.5705
 10
-355.2398
 20
-112.0992
  0
LWPOLYLINE
  5
FB
330
1F
100
AcDbEntity
  8
Layer 1
 62
     7
370
     9
100
AcDbPolyline
 90
        2
 70
     0
 43
0.0
 10
-354.0793
 20
-110.9147
 10
-354.0793
 20
-103.1208
  0
LWPOLYLINE
  5
FC
330
1F
100
AcDbEntity
  8
Layer 1
 62
     7
370
     9
100
AcDbPolyline
 90
        2
 70
     0
 43
0.0
 10
-354.0793
 20
-99.105
 10
-354.0793
 20
-96.4185
  0
LWPOLYLINE
  5
FD
330
1F
100
AcDbEntity
  8
Layer 1
 62
     7
370
     9
100
AcDbPolyline
 90
        2
 70
     0
 43
0.0
 10
-350.5862
 20
-110.9147
 10
-350.5862
 20
-103.1208
  0
LWPOLYLINE
  5
FE
330
1F
100
AcDbEntity
  8
Layer 1
 62
     7
370
     9
100
AcDbPolyline
 90
        2
 70
     0
 43
0.0
 10
-350.5862
 20
-99.105
 10
-350.5862
 20
-96.4185
  0
LWPOLYLINE
  5
FF
330
1F
100
AcDbEntity
  8
Layer 1
 62
     7
370
     9
100
AcDbPolyline
 90
        2
 70
     0
 43
0.0
 10
-351.1699
 20
-95.6309
 10
-350.5886
 20
-96.4185
  0
LWPOLYLINE
  5
100
330
1F
100
AcDbEntity
  8
Layer 1
 62
     7
370
     9
100
AcDbPolyline
 90
        2
 70
     0
 43
0.0
 10
-349.4233
 20
-112.5705
 10
-349.4233
 20
-112.0992
  0
LWPOLYLINE
  5
101
330
1F
100
AcDbEntity
  8
Layer 1
 62
     7
370
     9
100
AcDbPolyline
 90
        2
 70
     0
 43
0.0
 10
-349.4233
 20
-103.1208
 10
-349.4233
 20
-99.105
  0
LWPOLYLINE
  5
102
330
1F
100
AcDbEntity
  8
Layer 1
 62
     7
370
     9
100
AcDbPolyline
 90
        9
 70
     0
 43
0.0
 10
-354.3755
 20
-110.9147
 10
-354.5508
 20
-110.9388
 10
-354.714
 20
-111.0079
 10
-354.8618
 20
-111.1171
 10
-354.9906
 20
-111.2616
 10
-355.0968
 20
-111.4366
 10
-355.177
 20
-111.6372
 10
-355.2277
 20
-111.8586
 10
-355.2454
 20
-112.096
  0
LWPOLYLINE
  5
103
330
1F
100
AcDbEntity
  8
Layer 1
 62
     7
370
     9
100
AcDbPolyline
 90
        9
 70
     0
 43
0.0
 10
-349.4286
 20
-112.096
 10
-349.4463
 20
-111.8586
 10
-349.497
 20
-111.6372
 10
-349.5772
 20
-111.4366
 10
-349.6833
 20
-111.2616
 10
-349.812
 20
-111.1171
 10
-349.9596
 20
-111.0079
 10
-350.1226
 20
-110.9388
 10
-350.2976
 20
-110.9147
  0
LWPOLYLINE
  5
104
330
1F
100
AcDbEntity
  8
Layer 1
 62
     7
370
     9
100
AcDbPolyline
 90
        9
 70
     0
 43
0.0
 10
-355.2454
 20
-112.5673
 10
-355.2278
 20
-112.8043
 10
-355.1773
 20
-113.0252
 10
-355.0974
 20
-113.2252
 10
-354.9914
 20
-113.3995
 10
-354.8628
 20
-113.5434
 10
-354.715
 20
-113.652
 10
-354.5514
 20
-113.7207
 10
-354.3755
 20
-113.7447
  0
LWPOLYLINE
  5
105
330
1F
100
AcDbEntity
  8
Layer 1
 62
     7
370
     9
100
AcDbPolyline
 90
        9
 70
     0
 43
0.0
 10
-350.2976
 20
-113.7447
 10
-350.1226
 20
-113.7207
 10
-349.9596
 20
-113.652
 10
-349.812
 20
-113.5434
 10
-349.6833
 20
-113.3995
 10
-349.5772
 20
-113.2252
 10
-349.497
 20
-113.0252
 10
-349.4463
 20
-112.8043
 10
-349.4286
 20
-112.5673
  0
LWPOLYLINE
  5
106
330
1F
100
AcDbEntity
  8
Layer 1
 62
     7
370
     9
100
AcDbPolyline
 90
        9
 70
     0
 43
0.0
 10
-374.4541
 20
-112.096
 10
-374.4719
 20
-111.8586
 10
-374.5228
 20
-111.6372
 10
-374.6033
 20
-111.4366
 10
-374.7099
 20
-111.2616
 10
-374.8391
 20
-111.1171
 10
-374.9871
 20
-111.0079
 10
-375.1506
 20
-110.9388
 10
-375.326
 20
-110.9147
  0
LWPOLYLINE
  5
107
330
1F
100
AcDbEntity
  8
Layer 1
 62
     7
370
     9
100
AcDbPolyline
 90
        9
 70
     0
 43
0.0
 10
-379.403
 20
-110.9147
 10
-379.5784
 20
-110.9388
 10
-379.7417
 20
-111.0079
 10
-379.8894
 20
-111.1171
 10
-380.0182
 20
-111.2616
 10
-380.1244
 20
-111.4366
 10
-380.2046
 20
-111.6372
 10
-380.2552
 20
-111.8586
 10
-380.2729
 20
-112.096
  0
LWPOLYLINE
  5
108
330
1F
100
AcDbEntity
  8
Layer 1
 62
     7
370
     9
100
AcDbPolyline
 90
        9
 70
     0
 43
0.0
 10
-375.326
 20
-113.7447
 10
-375.1516
 20
-113.7207
 10
-374.9885
 20
-113.652
 10
-374.8405
 20
-113.5434
 10
-374.7112
 20
-113.3995
 10
-374.6042
 20
-113.2252
 10
-374.5233
 20
-113.0252
 10
-374.472
 20
-112.8043
 10
-374.4541
 20
-112.5673
  0
LWPOLYLINE
  5
109
330
1F
100
AcDbEntity
  8
Layer 1
 62
     7
370
     9
100
AcDbPolyline
 90
        9
 70
     0
 43
0.0
 10
-380.2729
 20
-112.5673
 10
-380.2553
 20
-112.8043
 10
-380.2049
 20
-113.0252
 10
-380.125
 20
-113.2252
 10
-380.019
 20
-113.3995
 10
-379.8905
 20
-113.5434
 10
-379.7426
 20
-113.652
 10
-379.579
 20
-113.7207
 10
-379.403
 20
-113.7447
  0
LWPOLYLINE
  5
10A
330
1F
100
AcDbEntity
  8
Layer 1
 62
     7
370
     9
100
AcDbPolyline
 90
        2
 70
     0
 43
0.0
 10
-349.0555
 20
-83.8173
 10
-243.5133
 20
-83.8173
  0
LWPOLYLINE
  5
10B
330
1F
100
AcDbEntity
  8
Layer 1
 62
     7
370
     9
100
AcDbPolyline
 90
        2
 70
     0
 43
0.0
 10
-265.5298
 20
65.7819
 10
-243.5133
 20
65.7819
  0
LWPOLYLINE
  5
10C
330
1F
100
AcDbEntity
  8
Layer 1
 62
     7
370
     9
100
AcDbPolyline
 90
        2
 70
     0
 43
0.0
 10
-244.2425
 20
-80.6662
 10
-244.2425
 20
62.6268
  0
LWPOLYLINE
  5
10D
330
1F
100
AcDbEntity
  8
Layer 1
 62
     7
370
    18
100
AcDbPolyline
 90
        4
 70
     1
 43
0.0
 10
-244.6265
 20
-80.6662
 10
-244.2425
 20
-83.8165
 10
-243.8529
 20
-80.6662
 10
-244.6265
 20
-80.6662
  0
LWPOLYLINE
  5
10E
330
1F
100
AcDbEntity
  8
Layer 1
 62
     7
370
     9
100
AcDbPolyline
 90
        4
 70
     1
 43
0.0
 10
-244.6274
 20
-80.6662
 10
-243.8538
 20
-80.6662
 10
-244.241
 20
-83.8173
 10
-244.6274
 20
-80.6662
  0
LWPOLYLINE
  5
10F
330
1F
100
AcDbEntity
  8
Layer 1
 62
     7
370
     9
100
AcDbPolyline
 90
        4
 70
     1
 43
0.0
 10
-244.6274
 20
-80.6662
 10
-243.8538
 20
-80.6662
 10
-244.241
 20
-83.8173
 10
-244.6274
 20
-80.6662
  0
LWPOLYLINE
  5
110
330
1F
100
AcDbEntity
  8
Layer 1
 62
     7
370
    18
100
AcDbPolyline
 90
        4
 70
     1
 43
0.0
 10
-244.6265
 20
62.6328
 10
-243.8529
 20
62.6328
 10
-244.2425
 20
65.7839
 10
-244.6265
 20
62.6328
  0
LWPOLYLINE
  5
111
330
1F
100
AcDbEntity
  8
Layer 1
 62
     7
370
     9
100
AcDbPolyline
 90
        4
 70
     1
 43
0.0
 10
-244.6274
 20
62.6328
 10
-243.8538
 20
62.6328
 10
-244.241
 20
65.7839
 10
-244.6274
 20
62.6328
  0
LWPOLYLINE
  5
112
330
1F
100
AcDbEntity
  8
Layer 1
 62
     7
100
AcDbPolyline
 90
        4
 70
     1
 43
0.0
 10
-244.6274
 20
62.6328
 10
-243.8538
 20
62.6328
 10
-244.241
 20
65.7839
 10
-244.6274
 20
62.6328
  0
LWPOLYLINE
  5
113
330
1F
100
AcDbEntity
  8
Layer 1
 62
     7
100
AcDbPolyline
 90
        3
 70
     1
 43
0.0
 10
-265.8897
 20
65.2903
 10
-265.8897
 20
46.0393
 10
-265.8897
 20
65.2903
  0
LWPOLYLINE
  5
114
330
1F
100
AcDbEntity
  8
Layer 1
 62
     7
100
AcDbPolyline
 90
        3
 70
     1
 43
0.0
 10
-364.849
 20
65.2649
 10
-364.849
 20
46.0393
 10
-364.849
 20
65.2649
  0
LWPOLYLINE
  5
115
330
1F
100
AcDbEntity
  8
Layer 1
 62
     7
100
AcDbPolyline
 90
        3
 70
     1
 43
0.0
 10
-268.2208
 20
47.0227
 10
-362.5177
 20
47.0227
 10
-268.2208
 20
47.0227
  0
LWPOLYLINE
  5
116
330
1F
100
AcDbEntity
  8
Layer 1
 62
     7
370
     9
100
AcDbPolyline
 90
        4
 70
     1
 43
0.0
 10
-244.6274
 20
62.6328
 10
-243.8538
 20
62.6328
 10
-244.241
 20
65.7839
 10
-244.6274
 20
62.6328
  0
LWPOLYLINE
  5
117
330
1F
100
AcDbEntity
  8
Layer 1
 62
     7
370
     9
100
AcDbPolyline
 90
        2
 70
     0
 43
0.0
 10
-265.8897
 20
65.2903
 10
-265.8897
 20
46.0393
  0
LWPOLYLINE
  5
118
330
1F
100
AcDbEntity
  8
Layer 1
 62
     7
370
     9
100
AcDbPolyline
 90
        2
 70
     0
 43
0.0
 10
-364.849
 20
65.2649
 10
-364.849
 20
46.0393
  0
LWPOLYLINE
  5
119
330
1F
100
AcDbEntity
  8
Layer 1
 62
     7
370
     9
100
AcDbPolyline
 90
        2
 70
     0
 43
0.0
 10
-268.2208
 20
47.0227
 10
-362.5177
 20
47.0227
  0
LWPOLYLINE
  5
11A
330
1F
100
AcDbEntity
  8
Layer 1
 62
     7
370
    18
100
AcDbPolyline
 90
        4
 70
     1
 43
0.0
 10
-268.2199
 20
46.4887
 10
-265.8889
 20
47.0227
 10
-268.2199
 20
47.5469
 10
-268.2199
 20
46.4887
  0
LWPOLYLINE
  5
11B
330
1F
100
AcDbEntity
  8
Layer 1
 62
     7
370
     9
100
AcDbPolyline
 90
        4
 70
     1
 43
0.0
 10
-268.2193
 20
47.5473
 10
-268.2193
 20
46.4895
 10
-265.8889
 20
47.0203
 10
-268.2193
 20
47.5473
  0
LWPOLYLINE
  5
11C
330
1F
100
AcDbEntity
  8
Layer 1
 62
     7
370
     9
100
AcDbPolyline
 90
        4
 70
     1
 43
0.0
 10
-268.2193
 20
47.5473
 10
-268.2193
 20
46.4895
 10
-265.8889
 20
47.0203
 10
-268.2193
 20
47.5473
  0
LWPOLYLINE
  5
11D
330
1F
100
AcDbEntity
  8
Layer 1
 62
     7
370
    18
100
AcDbPolyline
 90
        4
 70
     1
 43
0.0
 10
-364.8496
 20
47.0227
 10
-362.5185
 20
46.4887
 10
-362.5185
 20
47.5469
 10
-364.8496
 20
47.0227
  0
LWPOLYLINE
  5
11E
330
1F
100
AcDbEntity
  8
Layer 1
 62
     7
370
     9
100
AcDbPolyline
 90
        4
 70
     1
 43
0.0
 10
-362.5185
 20
47.5473
 10
-362.5185
 20
46.4895
 10
-364.8496
 20
47.0203
 10
-362.5185
 20
47.5473
  0
LWPOLYLINE
  5
11F
330
1F
100
AcDbEntity
  8
Layer 1
 62
     7
100
AcDbPolyline
 90
        4
 70
     1
 43
0.0
 10
-362.5185
 20
47.5473
 10
-362.5185
 20
46.4895
 10
-364.8496
 20
47.0203
 10
-362.5185
 20
47.5473
  0
LWPOLYLINE
  5
120
330
1F
100
AcDbEntity
  8
Layer 1
 62
     7
100
AcDbPolyline
 90
        3
 70
     1
 43
0.0
 10
-377.4357
 20
160.418
 10
-395.4763
 20
160.418
 10
-377.4357
 20
160.418
  0
LWPOLYLINE
  5
121
330
1F
100
AcDbEntity
  8
Layer 1
 62
     7
100
AcDbPolyline
 90
        3
 70
     1
 43
0.0
 10
-380.6358
 20
-83.8173
 10
-395.4763
 20
-83.8173
 10
-380.6358
 20
-83.8173
  0
LWPOLYLINE
  5
122
330
1F
100
AcDbEntity
  8
Layer 1
 62
     7
100
AcDbPolyline
 90
        3
 70
     1
 43
0.0
 10
-394.7438
 20
157.2701
 10
-394.7438
 20
-80.6662
 10
-394.7438
 20
157.2701
  0
LWPOLYLINE
  5
123
330
1F
100
AcDbEntity
  8
Layer 1
 62
     7
370
     9
100
AcDbPolyline
 90
        4
 70
     1
 43
0.0
 10
-362.5185
 20
47.5473
 10
-362.5185
 20
46.4895
 10
-364.8496
 20
47.0203
 10
-362.5185
 20
47.5473
  0
LWPOLYLINE
  5
124
330
1F
100
AcDbEntity
  8
Layer 1
 62
     7
370
     9
100
AcDbPolyline
 90
        2
 70
     0
 43
0.0
 10
-377.4357
 20
160.418
 10
-395.4763
 20
160.418
  0
LWPOLYLINE
  5
125
330
1F
100
AcDbEntity
  8
Layer 1
 62
     7
370
     9
100
AcDbPolyline
 90
        2
 70
     0
 43
0.0
 10
-380.6358
 20
-83.8173
 10
-395.4763
 20
-83.8173
  0
LWPOLYLINE
  5
126
330
1F
100
AcDbEntity
  8
Layer 1
 62
     7
370
     9
100
AcDbPolyline
 90
        2
 70
     0
 43
0.0
 10
-394.7438
 20
157.2701
 10
-394.7438
 20
-80.6662
  0
LWPOLYLINE
  5
127
330
1F
100
AcDbEntity
  8
Layer 1
 62
     7
370
    18
100
AcDbPolyline
 90
        4
 70
     1
 43
0.0
 10
-395.1357
 20
157.2721
 10
-394.3569
 20
157.2721
 10
-394.7438
 20
160.4196
 10
-395.1357
 20
157.2721
  0
LWPOLYLINE
  5
128
330
1F
100
AcDbEntity
  8
Layer 1
 62
     7
370
     9
100
AcDbPolyline
 90
        4
 70
     1
 43
0.0
 10
-395.1349
 20
157.2725
 10
-394.3592
 20
157.2725
 10
-394.7432
 20
160.4208
 10
-395.1349
 20
157.2725
  0
LWPOLYLINE
  5
129
330
1F
100
AcDbEntity
  8
Layer 1
 62
     7
370
     9
100
AcDbPolyline
 90
        4
 70
     1
 43
0.0
 10
-395.1349
 20
157.2725
 10
-394.3592
 20
157.2725
 10
-394.7432
 20
160.4208
 10
-395.1349
 20
157.2725
  0
LWPOLYLINE
  5
12A
330
1F
100
AcDbEntity
  8
Layer 1
 62
     7
370
    18
100
AcDbPolyline
 90
        4
 70
     1
 43
0.0
 10
-395.1357
 20
-80.6662
 10
-394.7438
 20
-83.8165
 10
-394.3569
 20
-80.6662
 10
-395.1357
 20
-80.6662
  0
LWPOLYLINE
  5
12B
330
1F
100
AcDbEntity
  8
Layer 1
 62
     7
370
     9
100
AcDbPolyline
 90
        4
 70
     1
 43
0.0
 10
-395.1349
 20
-80.6662
 10
-394.3592
 20
-80.6662
 10
-394.7432
 20
-83.8173
 10
-395.1349
 20
-80.6662
  0
LWPOLYLINE
  5
12C
330
1F
100
AcDbEntity
  8
Layer 1
 62
     7
100
AcDbPolyline
 90
        4
 70
     1
 43
0.0
 10
-395.1349
 20
-80.6662
 10
-394.3592
 20
-80.6662
 10
-394.7432
 20
-83.8173
 10
-395.1349
 20
-80.6662
  0
LWPOLYLINE
  5
12D
330
1F
100
AcDbEntity
  8
Layer 1
 62
     7
100
AcDbPolyline
 90
        3
 70
     1
 43
0.0
 10
-380.2729
 20
-75.452
 10
-380.2729
 20
-67.9775
 10
-380.2729
 20
-75.452
  0
LWPOLYLINE
  5
12E
330
1F
100
AcDbEntity
  8
Layer 1
 62
     7
100
AcDbPolyline
 90
        3
 70
     1
 43
0.0
 10
-349.4233
 20
-75.452
 10
-349.4233
 20
-67.9775
 10
-349.4233
 20
-75.452
  0
LWPOLYLINE
  5
12F
330
1F
100
AcDbEntity
  8
Layer 1
 62
     7
100
AcDbPolyline
 90
        3
 70
     1
 43
0.0
 10
-377.9418
 20
-68.9678
 10
-351.7514
 20
-68.9678
 10
-377.9418
 20
-68.9678
  0
LWPOLYLINE
  5
130
330
1F
100
AcDbEntity
  8
Layer 1
 62
     7
370
     9
100
AcDbPolyline
 90
        4
 70
     1
 43
0.0
 10
-395.1349
 20
-80.6662
 10
-394.3592
 20
-80.6662
 10
-394.7432
 20
-83.8173
 10
-395.1349
 20
-80.6662
  0
LWPOLYLINE
  5
131
330
1F
100
AcDbEntity
  8
Layer 1
 62
     7
370
     9
100
AcDbPolyline
 90
        2
 70
     0
 43
0.0
 10
-380.2729
 20
-75.452
 10
-380.2729
 20
-67.9775
  0
LWPOLYLINE
  5
132
330
1F
100
AcDbEntity
  8
Layer 1
 62
     7
370
     9
100
AcDbPolyline
 90
        2
 70
     0
 43
0.0
 10
-349.4233
 20
-75.452
 10
-349.4233
 20
-67.9775
  0
LWPOLYLINE
  5
133
330
1F
100
AcDbEntity
  8
Layer 1
 62
     7
370
     9
100
AcDbPolyline
 90
        2
 70
     0
 43
0.0
 10
-377.9418
 20
-68.9678
 10
-351.7514
 20
-68.9678
  0
LWPOLYLINE
  5
134
330
1F
100
AcDbEntity
  8
Layer 1
 62
     7
370
    18
100
AcDbPolyline
 90
        4
 70
     1
 43
0.0
 10
-380.2738
 20
-68.9721
 10
-377.9433
 20
-69.4915
 10
-377.9433
 20
-68.4401
 10
-380.2738
 20
-68.9721
  0
LWPOLYLINE
  5
135
330
1F
100
AcDbEntity
  8
Layer 1
 62
     7
370
     9
100
AcDbPolyline
 90
        4
 70
     1
 43
0.0
 10
-377.9433
 20
-68.4417
 10
-377.9433
 20
-69.4887
 10
-380.2738
 20
-68.9721
 10
-377.9433
 20
-68.4417
  0
LWPOLYLINE
  5
136
330
1F
100
AcDbEntity
  8
Layer 1
 62
     7
370
     9
100
AcDbPolyline
 90
        4
 70
     1
 43
0.0
 10
-377.9433
 20
-68.4417
 10
-377.9433
 20
-69.4887
 10
-380.2738
 20
-68.9721
 10
-377.9433
 20
-68.4417
  0
LWPOLYLINE
  5
137
330
1F
100
AcDbEntity
  8
Layer 1
 62
     7
370
    18
100
AcDbPolyline
 90
        4
 70
     1
 43
0.0
 10
-351.7497
 20
-69.4891
 10
-349.4239
 20
-68.9698
 10
-351.7497
 20
-68.4385
 10
-351.7497
 20
-69.4891
  0
LWPOLYLINE
  5
138
330
1F
100
AcDbEntity
  8
Layer 1
 62
     7
370
     9
100
AcDbPolyline
 90
        4
 70
     1
 43
0.0
 10
-351.7506
 20
-68.4417
 10
-351.7506
 20
-69.4887
 10
-349.4225
 20
-68.9721
 10
-351.7506
 20
-68.4417
  0
LWPOLYLINE
  5
139
330
1F
100
AcDbEntity
  8
Layer 1
 62
     7
100
AcDbPolyline
 90
        4
 70
     1
 43
0.0
 10
-351.7506
 20
-68.4417
 10
-351.7506
 20
-69.4887
 10
-349.4225
 20
-68.9721
 10
-351.7506
 20
-68.4417
  0
LWPOLYLINE
  5
13A
330
1F
100
AcDbEntity
  8
Layer 1
 62
     7
100
AcDbPolyline
 90
       29
 70
     1
 43
0.0
 10
-332.8325
 20
109.2106
 10
-332.8216
 20
108.6606
 10
-332.7829
 20
108.1075
 10
-332.7283
 20
107.5663
 10
-332.6437
 20
107.0286
 10
-332.5418
 20
106.5017
 10
-332.4074
 20
105.9693
 10
-332.265
 20
105.4614
 10
-332.0862
 20
104.9687
 10
-331.8974
 20
104.4827
 10
-331.6805
 20
104.0107
 10
-331.4506
 20
103.5684
 10
-331.1978
 20
103.1309
 10
-330.9298
 20
102.7192
 10
-330.6412
 20
102.3374
 10
-330.3344
 20
101.9619
 10
-330.0188
 20
101.6209
 10
-329.6844
 20
101.309
 10
-329.3362
 20
101.0185
 10
-328.9772
 20
100.7586
 10
-328.6125
 20
100.5298
 10
-328.2365
 20
100.3215
 10
-327.8501
 20
100.1535
 10
-327.4582
 20
100.0132
 10
-327.0571
 20
99.9027
 10
-326.6599
 20
99.8165
 10
-326.251
 20
99.7688
 10
-325.8452
 20
99.7533
 10
-332.8325
 20
109.2106
  0
LWPOLYLINE
  5
13B
330
1F
100
AcDbEntity
  8
Layer 1
 62
     7
100
AcDbPolyline
 90
       52
 70
     1
 43
0.0
 10
-289.2133
 20
99.7493
 10
-288.4127
 20
99.7378
 10
-287.6145
 20
99.6869
 10
-286.8215
 20
99.5979
 10
-286.0265
 20
99.4827
 10
-285.2368
 20
99.3234
 10
-284.447
 20
99.1414
 10
-283.6658
 20
98.9149
 10
-282.8954
 20
98.6542
 10
-282.1274
 20
98.3653
 10
-281.3571
 20
98.0387
 10
-280.6079
 20
97.6898
 10
-279.8592
 20
97.3036
 10
-279.1303
 20
96.8843
 10
-278.3981
 20
96.4313
 10
-277.6853
 20
95.9454
 10
-276.9833
 20
95.4336
 10
-276.2893
 20
94.892
 10
-275.6143
 20
94.3205
 10
-274.9514
 20
93.7154
 10
-274.3038
 20
93.0879
 10
-273.6705
 20
92.4343
 10
-273.0508
 20
91.7401
 10
-272.4478
 20
91.0312
 10
-271.8632
 20
90.2933
 10
-271.2957
 20
89.5315
 10
-270.7447
 20
88.7571
 10
-270.2207
 20
87.9357
 10
-269.7022
 20
87.1084
 10
-269.3951
 20
86.6141
 10
-269.0666
 20
86.1404
 10
-268.729
 20
85.6938
 10
-268.3591
 20
85.2706
 10
-267.9836
 20
84.8772
 10
-267.5887
 20
84.5065
 10
-267.1745
 20
84.1727
 10
-266.7634
 20
83.8528
 10
-266.3295
 20
83.5786
 10
-265.888
 20
83.3263
 10
-265.4388
 20
83.1073
 10
-264.9779
 20
82.9222
 10
-264.5146
 20
82.7692
 10
-264.0458
 20
82.6583
 10
-263.5687
 20
82.5721
 10
-263.0881
 20
82.5212
 10
-262.614
 20
82.5026
 10
-262.1345
 20
82.5212
 10
-261.6572
 20
82.5721
 10
-261.183
 20
82.6583
 10
-260.7113
 20
82.7692
 10
-260.248
 20
82.9222
 10
-289.2133
 20
99.7493
  0
LWPOLYLINE
  5
13C
330
1F
100
AcDbEntity
  8
Layer 1
 62
     7
100
AcDbPolyline
 90
        3
 70
     1
 43
0.0
 10
-265.888
 20
65.7819
 10
-265.888
 20
65.7119
 10
-265.888
 20
65.7819
  0
LWPOLYLINE
  5
13D
330
1F
100
AcDbEntity
  8
Layer 1
 62
     7
100
AcDbPolyline
 90
        3
 70
     1
 43
0.0
 10
-265.888
 20
65.2264
 10
-265.888
 20
16.9749
 10
-265.888
 20
65.2264
  0
LWPOLYLINE
  5
13E
330
1F
100
AcDbEntity
  8
Layer 1
 62
     7
100
AcDbPolyline
 90
        3
 70
     1
 43
0.0
 10
-265.7978
 20
65.3062
 10
-256.5597
 20
18.639
 10
-265.7978
 20
65.3062
  0
LWPOLYLINE
  5
13F
330
1F
100
AcDbEntity
  8
Layer 1
 62
     7
100
AcDbPolyline
 90
        6
 70
     1
 43
0.0
 10
-279.6845
 20
19.0912
 10
-268.2193
 20
18.0704
 10
-267.4434
 20
18.0076
 10
-266.6724
 20
17.9738
 10
-265.888
 20
17.9627
 10
-279.6845
 20
19.0912
  0
LWPOLYLINE
  5
140
330
1F
100
AcDbEntity
  8
Layer 1
 62
     7
100
AcDbPolyline
 90
        7
 70
     1
 43
0.0
 10
-263.5655
 20
18.0676
 10
-262.6498
 20
18.1666
 10
-261.7341
 20
18.2937
 10
-260.824
 20
18.461
 10
-259.9183
 20
18.6565
 10
-259.0111
 20
18.8798
 10
-263.5655
 20
18.0676
  0
LWPOLYLINE
  5
141
330
1F
100
AcDbEntity
  8
Layer 1
 62
     7
370
     9
100
AcDbPolyline
 90
        4
 70
     1
 43
0.0
 10
-351.7506
 20
-68.4417
 10
-351.7506
 20
-69.4887
 10
-349.4225
 20
-68.9721
 10
-351.7506
 20
-68.4417
  0
LWPOLYLINE
  5
142
330
1F
100
AcDbEntity
  8
Layer 1
 62
     7
370
     9
100
AcDbPolyline
 90
       28
 70
     0
 43
0.0
 10
-332.8325
 20
109.2106
 10
-332.8216
 20
108.6606
 10
-332.7829
 20
108.1075
 10
-332.7283
 20
107.5663
 10
-332.6437
 20
107.0286
 10
-332.5418
 20
106.5017
 10
-332.4074
 20
105.9693
 10
-332.265
 20
105.4614
 10
-332.0862
 20
104.9687
 10
-331.8974
 20
104.4827
 10
-331.6805
 20
104.0107
 10
-331.4506
 20
103.5684
 10
-331.1978
 20
103.1309
 10
-330.9298
 20
102.7192
 10
-330.6412
 20
102.3374
 10
-330.3344
 20
101.9619
 10
-330.0188
 20
101.6209
 10
-329.6844
 20
101.309
 10
-329.3362
 20
101.0185
 10
-328.9772
 20
100.7586
 10
-328.6125
 20
100.5298
 10
-328.2365
 20
100.3215
 10
-327.8501
 20
100.1535
 10
-327.4582
 20
100.0132
 10
-327.0571
 20
99.9027
 10
-326.6599
 20
99.8165
 10
-326.251
 20
99.7688
 10
-325.8452
 20
99.7533
  0
LWPOLYLINE
  5
143
330
1F
100
AcDbEntity
  8
Layer 1
 62
     7
370
     9
100
AcDbPolyline
 90
       51
 70
     0
 43
0.0
 10
-289.2133
 20
99.7493
 10
-288.4127
 20
99.7378
 10
-287.6145
 20
99.6869
 10
-286.8215
 20
99.5979
 10
-286.0265
 20
99.4827
 10
-285.2368
 20
99.3234
 10
-284.447
 20
99.1414
 10
-283.6658
 20
98.9149
 10
-282.8954
 20
98.6542
 10
-282.1274
 20
98.3653
 10
-281.3571
 20
98.0387
 10
-280.6079
 20
97.6898
 10
-279.8592
 20
97.3036
 10
-279.1303
 20
96.8843
 10
-278.3981
 20
96.4313
 10
-277.6853
 20
95.9454
 10
-276.9833
 20
95.4336
 10
-276.2893
 20
94.892
 10
-275.6143
 20
94.3205
 10
-274.9514
 20
93.7154
 10
-274.3038
 20
93.0879
 10
-273.6705
 20
92.4343
 10
-273.0508
 20
91.7401
 10
-272.4478
 20
91.0312
 10
-271.8632
 20
90.2933
 10
-271.2957
 20
89.5315
 10
-270.7447
 20
88.7571
 10
-270.2207
 20
87.9357
 10
-269.7022
 20
87.1084
 10
-269.3951
 20
86.6141
 10
-269.0666
 20
86.1404
 10
-268.729
 20
85.6938
 10
-268.3591
 20
85.2706
 10
-267.9836
 20
84.8772
 10
-267.5887
 20
84.5065
 10
-267.1745
 20
84.1727
 10
-266.7634
 20
83.8528
 10
-266.3295
 20
83.5786
 10
-265.888
 20
83.3263
 10
-265.4388
 20
83.1073
 10
-264.9779
 20
82.9222
 10
-264.5146
 20
82.7692
 10
-264.0458
 20
82.6583
 10
-263.5687
 20
82.5721
 10
-263.0881
 20
82.5212
 10
-262.614
 20
82.5026
 10
-262.1345
 20
82.5212
 10
-261.6572
 20
82.5721
 10
-261.183
 20
82.6583
 10
-260.7113
 20
82.7692
 10
-260.248
 20
82.9222
  0
LWPOLYLINE
  5
144
330
1F
100
AcDbEntity
  8
Layer 1
 62
     7
370
     9
100
AcDbPolyline
 90
        2
 70
     0
 43
0.0
 10
-265.888
 20
65.7819
 10
-265.888
 20
65.7119
  0
LWPOLYLINE
  5
145
330
1F
100
AcDbEntity
  8
Layer 1
 62
     7
370
     9
100
AcDbPolyline
 90
        2
 70
     0
 43
0.0
 10
-265.888
 20
65.2264
 10
-265.888
 20
16.9749
  0
LWPOLYLINE
  5
146
330
1F
100
AcDbEntity
  8
Layer 1
 62
     7
370
     9
100
AcDbPolyline
 90
        2
 70
     0
 43
0.0
 10
-265.7978
 20
65.3062
 10
-256.5597
 20
18.639
  0
LWPOLYLINE
  5
147
330
1F
100
AcDbEntity
  8
Layer 1
 62
     7
370
     9
100
AcDbPolyline
 90
        5
 70
     0
 43
0.0
 10
-279.6845
 20
19.0912
 10
-268.2193
 20
18.0704
 10
-267.4434
 20
18.0076
 10
-266.6724
 20
17.9738
 10
-265.888
 20
17.9627
  0
LWPOLYLINE
  5
148
330
1F
100
AcDbEntity
  8
Layer 1
 62
     7
370
     9
100
AcDbPolyline
 90
        6
 70
     0
 43
0.0
 10
-263.5655
 20
18.0676
 10
-262.6498
 20
18.1666
 10
-261.7341
 20
18.2937
 10
-260.824
 20
18.461
 10
-259.9183
 20
18.6565
 10
-259.0111
 20
18.8798
  0
LWPOLYLINE
  5
149
330
1F
100
AcDbEntity
  8
Layer 1
 62
     7
370
    18
100
AcDbPolyline
 90
        4
 70
     1
 43
0.0
 10
-265.8897
 20
17.9647
 10
-263.5561
 20
17.5419
 10
-263.581
 20
18.5917
 10
-265.8897
 20
17.9647
  0
LWPOLYLINE
  5
14A
330
1F
100
AcDbEntity
  8
Layer 1
 62
     7
370
     9
100
AcDbPolyline
 90
        4
 70
     1
 43
0.0
 10
-263.5546
 20
17.5395
 10
-263.5819
 20
18.5941
 10
-265.8912
 20
17.9627
 10
-263.5546
 20
17.5395
  0
LWPOLYLINE
  5
14B
330
1F
100
AcDbEntity
  8
Layer 1
 62
     7
370
     9
100
AcDbPolyline
 90
        4
 70
     1
 43
0.0
 10
-263.5546
 20
17.5395
 10
-263.5819
 20
18.5941
 10
-265.8912
 20
17.9627
 10
-263.5546
 20
17.5395
  0
LWPOLYLINE
  5
14C
330
1F
100
AcDbEntity
  8
Layer 1
 62
     7
370
    18
100
AcDbPolyline
 90
        4
 70
     1
 43
0.0
 10
-259.0983
 20
19.392
 10
-258.9257
 20
18.3704
 10
-256.7432
 20
19.5915
 10
-259.0983
 20
19.392
  0
LWPOLYLINE
  5
14D
330
1F
100
AcDbEntity
  8
Layer 1
 62
     7
370
     9
100
AcDbPolyline
 90
        4
 70
     1
 43
0.0
 10
-259.0983
 20
19.392
 10
-258.9257
 20
18.3708
 10
-256.7456
 20
19.5931
 10
-259.0983
 20
19.392
  0
LWPOLYLINE
  5
14E
330
1F
100
AcDbEntity
  8
Layer 1
 62
     7
370
     9
100
AcDbPolyline
 90
        4
 70
     1
 43
0.0
 10
-259.0983
 20
19.392
 10
-258.9257
 20
18.3708
 10
-256.7456
 20
19.5931
 10
-259.0983
 20
19.392
  0
LWPOLYLINE
  5
14F
330
1F
100
AcDbEntity
  8
Layer 1
 62
     7
370
     9
100
AcDbPolyline
 90
      123
 70
     1
 43
0.0
 10
-401.6154
 20
43.6101
 10
-401.6635
 20
43.7558
 10
-401.716
 20
43.897
 10
-401.7727
 20
44.0338
 10
-401.8338
 20
44.1661
 10
-401.8991
 20
44.294
 10
-401.9687
 20
44.4174
 10
-402.0426
 20
44.5363
 10
-402.1208
 20
44.6508
 10
-402.2975
 20
44.8763
 10
-402.4841
 20
45.0716
 10
-402.6805
 20
45.2369
 10
-402.8869
 20
45.3722
 10
-403.103
 20
45.4774
 10
-403.3291
 20
45.5525
 10
-403.565
 20
45.5976
 10
-403.8108
 20
45.6126
 10
-404.0566
 20
45.5973
 10
-404.293
 20
45.5516
 10
-404.5199
 20
45.4753
 10
-404.7373
 20
45.3686
 10
-404.9451
 20
45.2313
 10
-405.1434
 20
45.0635
 10
-405.3321
 20
44.8653
 10
-405.5113
 20
44.6365
 10
-405.6659
 20
44.4001
 10
-405.802
 20
44.1485
 10
-405.9198
 20
43.8817
 10
-406.0192
 20
43.5998
 10
-406.1002
 20
43.3027
 10
-406.1627
 20
42.9905
 10
-406.2069
 20
42.6631
 10
-406.2327
 20
42.3205
 10
-406.0427
 20
41.893
 10
-408.6965
 20
44.9288
 10
-408.6965
 20
39.7126
 10
-407.9592
 20
39.7126
 10
-407.9592
 20
42.9046
 10
-405.4324
 20
39.969
 10
-404.9798
 20
40.7242
 10
-405.0982
 20
40.8992
 10
-405.2008
 20
41.0823
 10
-405.2876
 20
41.2734
 10
-405.3586
 20
41.4725
 10
-405.4138
 20
41.6796
 10
-405.4533
 20
41.8947
 10
-405.4769
 20
42.1179
 10
-405.4848
 20
42.349
 10
-405.4772
 20
42.5798
 10
-405.4542
 20
42.8019
 10
-405.416
 20
43.0154
 10
-405.3625
 20
43.2201
 10
-405.2936
 20
43.4162
 10
-405.2095
 20
43.6035
 10
-405.11
 20
43.7822
 10
-404.9953
 20
43.9522
 10
-404.8699
 20
44.1075
 10
-404.7384
 20
44.2422
 10
-404.6007
 20
44.3561
 10
-404.457
 20
44.4494
 10
-404.3071
 20
44.522
 10
-404.1511
 20
44.5738
 10
-403.9891
 20
44.6049
 10
-403.8209
 20
44.6153
 10
-403.6567
 20
44.6047
 10
-403.498
 20
44.573
 10
-403.3449
 20
44.52
 10
-403.1974
 20
44.446
 10
-403.0554
 20
44.3507
 10
-402.919
 20
44.2343
 10
-402.7881
 20
44.0967
 10
-402.6628
 20
43.9379
 10
-402.558
 20
43.7781
 10
-402.4643
 20
43.6048
 10
-402.3817
 20
43.4182
 10
-402.3104
 20
43.2182
 10
-402.2795
 20
43.1122
 10
-402.2527
 20
43.0009
 10
-402.2301
 20
42.8842
 10
-402.2116
 20
42.7622
 10
-402.1869
 20
42.5023
 10
-402.1787
 20
42.2209
 10
-402.1832
 20
42.0747
 10
-402.1968
 20
41.9285
 10
-402.2194
 20
41.7824
 10
-402.2511
 20
41.6363
 10
-402.2918
 20
41.4902
 10
-402.3416
 20
41.3441
 10
-402.4004
 20
41.1981
 10
-402.4682
 20
41.052
 10
-402.5438
 20
40.9113
 10
-402.6259
 20
40.7813
 10
-402.7143
 20
40.6619
 10
-402.8091
 20
40.5533
 10
-402.9103
 20
40.4553
 10
-403.0179
 20
40.3679
 10
-403.132
 20
40.2913
 10
-403.2525
 20
40.2253
 10
-403.0101
 20
39.2561
 10
-402.8386
 20
39.3482
 10
-402.6754
 20
39.457
 10
-402.5203
 20
39.5826
 10
-402.3734
 20
39.7248
 10
-402.2347
 20
39.8837
 10
-402.1042
 20
40.0593
 10
-401.9819
 20
40.2516
 10
-401.8679
 20
40.4605
 10
-401.7709
 20
40.6687
 10
-401.6851
 20
40.8865
 10
-401.6104
 20
41.114
 10
-401.547
 20
41.3513
 10
-401.4962
 20
41.6002
 10
-401.4599
 20
41.8625
 10
-401.4382
 20
42.1383
 10
-401.4309
 20
42.4274
 10
-401.4338
 20
42.5753
 10
-401.4425
 20
42.7232
 10
-401.4569
 20
42.8711
 10
-401.4771
 20
43.0189
 10
-401.5031
 20
43.1668
 10
-401.5348
 20
43.3146
 10
-401.5722
 20
43.4624
 10
-401.6154
 20
43.6101
  0
LWPOLYLINE
  5
150
330
1F
100
AcDbEntity
  8
Layer 1
 62
     7
370
     9
100
AcDbPolyline
 90
        7
 70
     1
 43
0.0
 10
-401.5362
 20
48.0498
 10
-401.5362
 20
49.0471
 10
-408.7808
 20
49.0471
 10
-408.5913
 20
46.6527
 10
-407.9487
 20
46.6527
 10
-407.9487
 20
48.0498
 10
-401.5362
 20
48.0498
  0
LWPOLYLINE
  5
151
330
1F
100
AcDbEntity
  8
Layer 1
 62
     7
370
     9
100
AcDbPolyline
 90
       84
 70
     1
 43
0.0
 10
-407.8648
 20
54.7977
 10
-407.7822
 20
54.9624
 10
-407.6883
 20
55.1159
 10
-407.5834
 20
55.2582
 10
-407.4672
 20
55.3894
 10
-407.3399
 20
55.5095
 10
-407.2014
 20
55.6184
 10
-407.0517
 20
55.7162
 10
-406.8908
 20
55.8029
 10
-406.6772
 20
55.8996
 10
-406.4605
 20
55.9835
 10
-406.2407
 20
56.0545
 10
-406.0179
 20
56.1126
 10
-405.7919
 20
56.1578
 10
-405.5629
 20
56.1901
 10
-405.3307
 20
56.2095
 10
-405.0955
 20
56.216
 10
-404.5742
 20
56.1731
 10
-404.2911
 20
56.1237
 10
-404.0237
 20
56.0592
 10
-403.7719
 20
55.9796
 10
-403.5358
 20
55.8847
 10
-403.3152
 20
55.7747
 10
-403.1104
 20
55.6496
 10
-402.9211
 20
55.5093
 10
-402.7475
 20
55.3538
 10
-402.6166
 20
55.2119
 10
-402.5031
 20
55.0624
 10
-402.4071
 20
54.9054
 10
-402.3285
 20
54.7408
 10
-402.2674
 20
54.5687
 10
-402.2237
 20
54.389
 10
-402.1975
 20
54.2018
 10
-402.1888
 20
54.007
 10
-402.1975
 20
53.7895
 10
-402.2234
 20
53.5824
 10
-402.2666
 20
53.3859
 10
-402.3272
 20
53.1998
 10
-402.405
 20
53.0243
 10
-402.5001
 20
52.8592
 10
-402.6124
 20
52.7047
 10
-402.742
 20
52.5606
 10
-402.8697
 20
52.4411
 10
-403.0052
 20
52.3324
 10
-403.1486
 20
52.2344
 10
-403.2999
 20
52.147
 10
-403.4563
 20
52.0699
 10
-403.6145
 20
52.0026
 10
-403.7746
 20
51.9452
 10
-403.9367
 20
51.8975
 10
-404.5688
 20
51.7763
 10
-405.2725
 20
51.7408
 10
-405.4832
 20
51.7506
 10
-405.7177
 20
51.78
 10
-405.9761
 20
51.8289
 10
-406.2587
 20
51.8975
 10
-406.419
 20
51.9448
 10
-406.5787
 20
52.0011
 10
-406.7376
 20
52.0662
 10
-406.8959
 20
52.1401
 10
-407.0499
 20
52.2242
 10
-407.1959
 20
52.3199
 10
-407.3341
 20
52.4272
 10
-407.4643
 20
52.5463
 10
-407.5845
 20
52.6772
 10
-407.6922
 20
52.8206
 10
-407.7873
 20
52.9765
 10
-407.8698
 20
53.1448
 10
-407.9057
 20
53.234
 10
-407.9368
 20
53.3273
 10
-407.9631
 20
53.4246
 10
-407.9846
 20
53.5259
 10
-408.0014
 20
53.6313
 10
-408.0133
 20
53.7407
 10
-408.0205
 20
53.8541
 10
-408.0229
 20
53.9715
 10
-408.0204
 20
54.0888
 10
-408.013
 20
54.202
 10
-408.0006
 20
54.3113
 10
-407.9833
 20
54.4166
 10
-407.9611
 20
54.5179
 10
-407.9339
 20
54.6152
 10
-407.9018
 20
54.7084
 10
-407.8648
 20
54.7977
  0
LWPOLYLINE
  5
152
330
1F
100
AcDbEntity
  8
Layer 1
 62
     7
370
     9
100
AcDbPolyline
 90
       65
 70
     1
 43
0.0
 10
-401.4417
 20
54.0213
 10
-401.4612
 20
54.4373
 10
-401.5197
 20
54.8269
 10
-401.6171
 20
55.1899
 10
-401.7536
 20
55.5265
 10
-401.929
 20
55.8366
 10
-402.1435
 20
56.1202
 10
-402.397
 20
56.3773
 10
-402.6896
 20
56.6079
 10
-402.9447
 20
56.77
 10
-403.2139
 20
56.9104
 10
-403.4974
 20
57.0292
 10
-403.795
 20
57.1264
 10
-404.1067
 20
57.202
 10
-404.4326
 20
57.2559
 10
-404.7726
 20
57.2883
 10
-405.1267
 20
57.2991
 10
-405.481
 20
57.2883
 10
-405.8211
 20
57.2559
 10
-406.1471
 20
57.202
 10
-406.4589
 20
57.1264
 10
-406.7565
 20
57.0292
 10
-407.0399
 20
56.9104
 10
-407.3093
 20
56.77
 10
-407.5645
 20
56.6079
 10
-407.8569
 20
56.3773
 10
-408.1104
 20
56.1202
 10
-408.3248
 20
55.8366
 10
-408.5003
 20
55.5265
 10
-408.6368
 20
55.1899
 10
-408.7343
 20
54.8269
 10
-408.7928
 20
54.4373
 10
-408.8123
 20
54.0213
 10
-408.7928
 20
53.6051
 10
-408.7343
 20
53.2155
 10
-408.6368
 20
52.8523
 10
-408.5003
 20
52.5157
 10
-408.3248
 20
52.2057
 10
-408.1104
 20
51.9221
 10
-407.8569
 20
51.6651
 10
-407.5645
 20
51.4346
 10
-407.3093
 20
51.2726
 10
-407.0399
 20
51.1321
 10
-406.7565
 20
51.0132
 10
-406.4589
 20
50.916
 10
-406.1471
 20
50.8403
 10
-405.8211
 20
50.7862
 10
-405.481
 20
50.7538
 10
-405.1267
 20
50.743
 10
-404.7726
 20
50.7538
 10
-404.4326
 20
50.7862
 10
-404.1067
 20
50.8403
 10
-403.795
 20
50.916
 10
-403.4974
 20
51.0132
 10
-403.2139
 20
51.1321
 10
-402.9447
 20
51.2726
 10
-402.6896
 20
51.4346
 10
-402.397
 20
51.6651
 10
-402.1435
 20
51.9221
 10
-401.929
 20
52.2057
 10
-401.7536
 20
52.5157
 10
-401.6171
 20
52.8523
 10
-401.5197
 20
53.2155
 10
-401.4612
 20
53.6051
 10
-401.4417
 20
54.0213
  0
LWPOLYLINE
  5
153
330
1F
100
AcDbEntity
  8
Layer 1
 62
     7
370
     9
100
AcDbPolyline
 90
        7
 70
     1
 43
0.0
 10
-317.3894
 20
51.0516
 10
-316.6528
 20
51.0516
 10
-316.6528
 20
60.8569
 10
-318.4216
 20
60.6006
 10
-318.4216
 20
59.7309
 10
-317.3894
 20
59.7309
 10
-317.3894
 20
51.0516
  0
LWPOLYLINE
  5
154
330
1F
100
AcDbEntity
  8
Layer 1
 62
     7
370
     9
100
AcDbPolyline
 90
        7
 70
     1
 43
0.0
 10
-314.2624
 20
51.0516
 10
-311.114
 20
60.7001
 10
-315.6104
 20
60.7001
 10
-315.6104
 20
59.7023
 10
-312.2616
 20
59.7023
 10
-315.0836
 20
51.0516
 10
-314.2624
 20
51.0516
  0
LWPOLYLINE
  5
155
330
1F
100
AcDbEntity
  8
Layer 1
 62
     7
370
     9
100
AcDbPolyline
 90
       81
 70
     1
 43
0.0
 10
-307.2127
 20
59.6171
 10
-307.091
 20
59.5053
 10
-306.9776
 20
59.3783
 10
-306.8725
 20
59.2362
 10
-306.7755
 20
59.079
 10
-306.6869
 20
58.9067
 10
-306.6064
 20
58.7192
 10
-306.5342
 20
58.5166
 10
-306.4703
 20
58.2988
 10
-306.3988
 20
58.0098
 10
-306.3368
 20
57.7166
 10
-306.2843
 20
57.4192
 10
-306.2413
 20
57.1175
 10
-306.2079
 20
56.8117
 10
-306.184
 20
56.5017
 10
-306.1697
 20
56.1874
 10
-306.1649
 20
55.869
 10
-306.1967
 20
55.1635
 10
-306.2331
 20
54.7803
 10
-306.2808
 20
54.4183
 10
-306.3397
 20
54.0775
 10
-306.4097
 20
53.7578
 10
-306.491
 20
53.4593
 10
-306.5835
 20
53.1819
 10
-306.6871
 20
52.9257
 10
-306.802
 20
52.6907
 10
-306.9068
 20
52.5136
 10
-307.0173
 20
52.3601
 10
-307.1333
 20
52.2302
 10
-307.2549
 20
52.1239
 10
-307.3821
 20
52.0413
 10
-307.5148
 20
51.9822
 10
-307.6531
 20
51.9468
 10
-307.797
 20
51.935
 10
-307.9577
 20
51.9467
 10
-308.1106
 20
51.9818
 10
-308.2559
 20
52.0402
 10
-308.3933
 20
52.1221
 10
-308.5231
 20
52.2273
 10
-308.645
 20
52.3559
 10
-308.7593
 20
52.5079
 10
-308.8657
 20
52.6833
 10
-308.954
 20
52.8562
 10
-309.0343
 20
53.0397
 10
-309.1066
 20
53.2339
 10
-309.1711
 20
53.4386
 10
-309.2282
 20
53.6503
 10
-309.2779
 20
53.8645
 10
-309.3203
 20
54.0814
 10
-309.3556
 20
54.3008
 10
-309.445
 20
55.1561
 10
-309.4714
 20
56.1085
 10
-309.4641
 20
56.3937
 10
-309.4424
 20
56.7111
 10
-309.4062
 20
57.061
 10
-309.3556
 20
57.4435
 10
-309.1762
 20
58.3057
 10
-309.1141
 20
58.5142
 10
-309.0434
 20
58.712
 10
-308.9641
 20
58.899
 10
-308.8762
 20
59.0753
 10
-308.7796
 20
59.238
 10
-308.6736
 20
59.3836
 10
-308.5585
 20
59.5123
 10
-308.4341
 20
59.624
 10
-308.3682
 20
59.6725
 10
-308.2993
 20
59.7146
 10
-308.2274
 20
59.7501
 10
-308.1525
 20
59.7793
 10
-308.0746
 20
59.8019
 10
-307.9937
 20
59.8181
 10
-307.9099
 20
59.8278
 10
-307.823
 20
59.831
 10
-307.7364
 20
59.8276
 10
-307.6527
 20
59.8176
 10
-307.572
 20
59.8009
 10
-307.4942
 20
59.7775
 10
-307.4194
 20
59.7474
 10
-307.3475
 20
59.7106
 10
-307.2786
 20
59.6672
 10
-307.2127
 20
59.6171
  0
LWPOLYLINE
  5
156
330
1F
100
AcDbEntity
  8
Layer 1
 62
     7
370
     9
100
AcDbPolyline
 90
       65
 70
     1
 43
0.0
 10
-307.7865
 20
50.9234
 10
-307.4791
 20
50.9498
 10
-307.1912
 20
51.029
 10
-306.923
 20
51.1609
 10
-306.6743
 20
51.3456
 10
-306.4452
 20
51.5831
 10
-306.2357
 20
51.8734
 10
-306.0458
 20
52.2165
 10
-305.8755
 20
52.6123
 10
-305.7557
 20
52.9576
 10
-305.6519
 20
53.3221
 10
-305.564
 20
53.7058
 10
-305.4922
 20
54.1086
 10
-305.4364
 20
54.5306
 10
-305.3965
 20
54.9717
 10
-305.3726
 20
55.432
 10
-305.3646
 20
55.9114
 10
-305.3726
 20
56.3909
 10
-305.3965
 20
56.8513
 10
-305.4364
 20
57.2924
 10
-305.4922
 20
57.7144
 10
-305.564
 20
58.1172
 10
-305.6519
 20
58.5008
 10
-305.7557
 20
58.8654
 10
-305.8755
 20
59.2108
 10
-306.0458
 20
59.6067
 10
-306.2357
 20
59.9497
 10
-306.4452
 20
60.24
 10
-306.6743
 20
60.4776
 10
-306.923
 20
60.6623
 10
-307.1912
 20
60.7942
 10
-307.4791
 20
60.8734
 10
-307.7865
 20
60.8998
 10
-308.0939
 20
60.8734
 10
-308.3818
 20
60.7942
 10
-308.65
 20
60.6623
 10
-308.8987
 20
60.4776
 10
-309.1278
 20
60.24
 10
-309.3373
 20
59.9497
 10
-309.5272
 20
59.6067
 10
-309.6975
 20
59.2108
 10
-309.8172
 20
58.8654
 10
-309.921
 20
58.5008
 10
-310.0088
 20
58.1172
 10
-310.0806
 20
57.7144
 10
-310.1365
 20
57.2924
 10
-310.1765
 20
56.8513
 10
-310.2004
 20
56.3909
 10
-310.2084
 20
55.9114
 10
-310.2004
 20
55.432
 10
-310.1765
 20
54.9717
 10
-310.1365
 20
54.5306
 10
-310.0806
 20
54.1086
 10
-310.0088
 20
53.7058
 10
-309.921
 20
53.3221
 10
-309.8172
 20
52.9576
 10
-309.6975
 20
52.6123
 10
-309.5272
 20
52.2165
 10
-309.3373
 20
51.8734
 10
-309.1278
 20
51.5831
 10
-308.8987
 20
51.3456
 10
-308.65
 20
51.1609
 10
-308.3818
 20
51.029
 10
-308.0939
 20
50.9498
 10
-307.7865
 20
50.9234
  0
LWPOLYLINE
  5
157
330
1F
100
AcDbEntity
  8
Layer 1
 62
     7
370
     9
100
AcDbPolyline
 90
        7
 70
     1
 43
0.0
 10
-287.4009
 20
18.7655
 10
-286.6642
 20
18.7655
 10
-286.6642
 20
28.5708
 10
-288.4331
 20
28.3145
 10
-288.4331
 20
27.4449
 10
-287.4009
 20
27.4449
 10
-287.4009
 20
18.7655
  0
LWPOLYLINE
  5
158
330
1F
100
AcDbEntity
  8
Layer 1
 62
     7
370
     9
100
AcDbPolyline
 90
      132
 70
     1
 43
0.0
 10
-284.0528
 20
24.8651
 10
-283.5683
 20
27.4592
 10
-280.9778
 20
27.4592
 10
-280.9778
 20
28.4569
 10
-284.1262
 20
28.4569
 10
-284.9475
 20
24.1099
 10
-284.1472
 20
23.6253
 10
-284.0313
 20
23.7322
 10
-283.9095
 20
23.8248
 10
-283.7819
 20
23.9032
 10
-283.6486
 20
23.9673
 10
-283.5094
 20
24.0172
 10
-283.3645
 20
24.0528
 10
-283.2138
 20
24.0742
 10
-283.0574
 20
24.0813
 10
-282.9001
 20
24.0709
 10
-282.7481
 20
24.0395
 10
-282.6014
 20
23.9872
 10
-282.46
 20
23.914
 10
-282.3238
 20
23.8199
 10
-282.1929
 20
23.7048
 10
-282.0672
 20
23.5688
 10
-281.9467
 20
23.4118
 10
-281.8332
 20
23.2366
 10
-281.7349
 20
23.055
 10
-281.6516
 20
22.8669
 10
-281.5835
 20
22.6724
 10
-281.5305
 20
22.4714
 10
-281.4926
 20
22.264
 10
-281.4699
 20
22.0501
 10
-281.4623
 20
21.8298
 10
-281.47
 20
21.6018
 10
-281.4932
 20
21.383
 10
-281.5319
 20
21.1733
 10
-281.586
 20
20.9728
 10
-281.6556
 20
20.7814
 10
-281.7407
 20
20.5992
 10
-281.8412
 20
20.4261
 10
-281.9572
 20
20.2622
 10
-282.0774
 20
20.12
 10
-282.2061
 20
19.993
 10
-282.3433
 20
19.8812
 10
-282.4891
 20
19.7845
 10
-282.5662
 20
19.7427
 10
-282.6477
 20
19.7066
 10
-282.7334
 20
19.676
 10
-282.8234
 20
19.651
 10
-282.9176
 20
19.6315
 10
-283.0161
 20
19.6176
 10
-283.1189
 20
19.6093
 10
-283.226
 20
19.6065
 10
-283.3353
 20
19.6127
 10
-283.4444
 20
19.6314
 10
-283.5532
 20
19.6626
 10
-283.6619
 20
19.7063
 10
-283.7704
 20
19.7624
 10
-283.8787
 20
19.8309
 10
-283.9868
 20
19.9119
 10
-284.0947
 20
20.0053
 10
-284.1987
 20
20.1089
 10
-284.2949
 20
20.22
 10
-284.3831
 20
20.3387
 10
-284.4634
 20
20.465
 10
-284.5358
 20
20.5989
 10
-284.6003
 20
20.7403
 10
-284.657
 20
20.8893
 10
-284.7058
 20
21.046
 10
-285.4214
 20
20.7325
 10
-285.3511
 20
20.4979
 10
-285.2691
 20
20.275
 10
-285.1755
 20
20.064
 10
-285.0701
 20
19.8648
 10
-284.953
 20
19.6774
 10
-284.8243
 20
19.5018
 10
-284.6839
 20
19.338
 10
-284.5318
 20
19.186
 10
-284.3701
 20
19.0473
 10
-284.2048
 20
18.9272
 10
-284.0359
 20
18.8255
 10
-283.8633
 20
18.7423
 10
-283.6871
 20
18.6776
 10
-283.5072
 20
18.6314
 10
-283.3238
 20
18.6036
 10
-283.1367
 20
18.5944
 10
-282.8874
 20
18.6097
 10
-282.6476
 20
18.6554
 10
-282.4175
 20
18.7317
 10
-282.1969
 20
18.8384
 10
-281.9858
 20
18.9757
 10
-281.7843
 20
19.1435
 10
-281.5923
 20
19.3417
 10
-281.4098
 20
19.5705
 10
-281.2443
 20
19.819
 10
-281.101
 20
20.0797
 10
-280.9797
 20
20.3527
 10
-280.8805
 20
20.6379
 10
-280.8034
 20
20.9353
 10
-280.7483
 20
21.2449
 10
-280.7153
 20
21.5668
 10
-280.7043
 20
21.9008
 10
-280.7152
 20
22.2332
 10
-280.7477
 20
22.5515
 10
-280.802
 20
22.8559
 10
-280.878
 20
23.1462
 10
-280.9757
 20
23.4224
 10
-281.0952
 20
23.6847
 10
-281.2364
 20
23.9329
 10
-281.3993
 20
24.1671
 10
-281.4825
 20
24.2712
 10
-281.569
 20
24.3697
 10
-281.6588
 20
24.4626
 10
-281.7519
 20
24.5501
 10
-281.8483
 20
24.6319
 10
-281.9479
 20
24.7081
 10
-282.051
 20
24.7788
 10
-282.1573
 20
24.8439
 10
-282.2658
 20
24.9023
 10
-282.3752
 20
24.953
 10
-282.4856
 20
24.9958
 10
-282.5969
 20
25.0309
 10
-282.7091
 20
25.0583
 10
-282.8221
 20
25.0778
 10
-282.9359
 20
25.0895
 10
-283.0506
 20
25.0934
 10
-283.1676
 20
25.0898
 10
-283.2869
 20
25.0791
 10
-283.4085
 20
25.0613
 10
-283.5325
 20
25.0364
 10
-283.6589
 20
25.0043
 10
-283.7878
 20
24.965
 10
-283.919
 20
24.9186
 10
-284.0528
 20
24.8651
  0
LWPOLYLINE
  5
159
330
1F
100
AcDbEntity
  8
Layer 1
 62
     7
370
     9
100
AcDbPolyline
 90
       65
 70
     1
 43
0.0
 10
-279.4937
 20
27.2146
 10
-279.4871
 20
27.4104
 10
-279.4674
 20
27.5989
 10
-279.4345
 20
27.7801
 10
-279.3885
 20
27.9541
 10
-279.3294
 20
28.1209
 10
-279.2573
 20
28.2804
 10
-279.1721
 20
28.4329
 10
-279.074
 20
28.5782
 10
-278.9668
 20
28.7101
 10
-278.8543
 20
28.8244
 10
-278.7365
 20
28.9211
 10
-278.6135
 20
29.0002
 10
-278.4852
 20
29.0617
 10
-278.3516
 20
29.1056
 10
-278.2128
 20
29.1319
 10
-278.0686
 20
29.1407
 10
-277.9226
 20
29.1319
 10
-277.7822
 20
29.1056
 10
-277.6473
 20
29.0617
 10
-277.518
 20
29.0002
 10
-277.3943
 20
28.9211
 10
-277.276
 20
28.8244
 10
-277.1632
 20
28.7101
 10
-277.0559
 20
28.5782
 10
-276.9585
 20
28.4329
 10
-276.874
 20
28.2804
 10
-276.8025
 20
28.1209
 10
-276.7439
 20
27.9541
 10
-276.6984
 20
27.7801
 10
-276.6658
 20
27.5989
 10
-276.6463
 20
27.4104
 10
-276.6398
 20
27.2146
 10
-276.6464
 20
27.0179
 10
-276.6661
 20
26.8285
 10
-276.699
 20
26.6465
 10
-276.7449
 20
26.4718
 10
-276.804
 20
26.3044
 10
-276.8761
 20
26.1443
 10
-276.9613
 20
25.9915
 10
-277.0595
 20
25.8461
 10
-277.1668
 20
25.7133
 10
-277.2796
 20
25.5981
 10
-277.3977
 20
25.5006
 10
-277.5212
 20
25.4208
 10
-277.65
 20
25.3587
 10
-277.7842
 20
25.3143
 10
-277.9238
 20
25.2876
 10
-278.0686
 20
25.2787
 10
-278.2128
 20
25.2875
 10
-278.3516
 20
25.3139
 10
-278.4852
 20
25.3579
 10
-278.6135
 20
25.4195
 10
-278.7365
 20
25.4987
 10
-278.8543
 20
25.5954
 10
-278.9668
 20
25.7098
 10
-279.074
 20
25.8417
 10
-279.1721
 20
25.987
 10
-279.2573
 20
26.1397
 10
-279.3294
 20
26.2998
 10
-279.3885
 20
26.4675
 10
-279.4345
 20
26.6428
 10
-279.4674
 20
26.8257
 10
-279.4871
 20
27.0163
 10
-279.4937
 20
27.2146
  0
LWPOLYLINE
  5
15A
330
1F
100
AcDbEntity
  8
Layer 1
 62
     7
370
     9
100
AcDbPolyline
 90
       65
 70
     1
 43
0.0
 10
-278.9355
 20
27.2097
 10
-278.9315
 20
27.09
 10
-278.9197
 20
26.9749
 10
-278.8999
 20
26.8644
 10
-278.8721
 20
26.7585
 10
-278.8363
 20
26.6569
 10
-278.7926
 20
26.5598
 10
-278.7409
 20
26.4671
 10
-278.6811
 20
26.3786
 10
-278.6156
 20
26.2975
 10
-278.5468
 20
26.2274
 10
-278.4746
 20
26.1681
 10
-278.3992
 20
26.1198
 10
-278.3203
 20
26.0822
 10
-278.238
 20
26.0554
 10
-278.1524
 20
26.0393
 10
-278.0632
 20
26.034
 10
-277.9759
 20
26.0393
 10
-277.8917
 20
26.0554
 10
-277.8106
 20
26.0822
 10
-277.7327
 20
26.1198
 10
-277.6579
 20
26.1681
 10
-277.5863
 20
26.2274
 10
-277.5178
 20
26.2975
 10
-277.4524
 20
26.3786
 10
-277.3925
 20
26.4671
 10
-277.3408
 20
26.5598
 10
-277.2971
 20
26.6569
 10
-277.2614
 20
26.7585
 10
-277.2336
 20
26.8644
 10
-277.2139
 20
26.9749
 10
-277.202
 20
27.09
 10
-277.1981
 20
27.2097
 10
-277.202
 20
27.3294
 10
-277.2139
 20
27.4445
 10
-277.2336
 20
27.555
 10
-277.2614
 20
27.6611
 10
-277.2971
 20
27.7627
 10
-277.3408
 20
27.8599
 10
-277.3925
 20
27.9528
 10
-277.4524
 20
28.0414
 10
-277.5178
 20
28.1223
 10
-277.5863
 20
28.1923
 10
-277.6579
 20
28.2514
 10
-277.7327
 20
28.2998
 10
-277.8106
 20
28.3373
 10
-277.8917
 20
28.3641
 10
-277.9759
 20
28.3802
 10
-278.0632
 20
28.3855
 10
-278.1524
 20
28.3802
 10
-278.238
 20
28.3641
 10
-278.3203
 20
28.3373
 10
-278.3992
 20
28.2998
 10
-278.4746
 20
28.2514
 10
-278.5468
 20
28.1923
 10
-278.6156
 20
28.1223
 10
-278.6811
 20
28.0414
 10
-278.7409
 20
27.9528
 10
-278.7926
 20
27.8599
 10
-278.8363
 20
27.7627
 10
-278.8721
 20
27.6611
 10
-278.8999
 20
27.555
 10
-278.9197
 20
27.4445
 10
-278.9315
 20
27.3294
 10
-278.9355
 20
27.2097
  0
LWPOLYLINE
  5
15B
330
1F
100
AcDbEntity
  8
Layer 1
 62
     7
370
     9
100
AcDbPolyline
 90
      136
 70
     1
 43
0.0
 10
-367.3605
 20
-59.1895
 10
-367.365
 20
-58.9347
 10
-367.3786
 20
-58.6835
 10
-367.4012
 20
-58.4359
 10
-367.4328
 20
-58.1919
 10
-367.4735
 20
-57.9514
 10
-367.5233
 20
-57.7144
 10
-367.5821
 20
-57.481
 10
-367.65
 20
-57.2511
 10
-367.7085
 20
-57.0753
 10
-367.771
 20
-56.9041
 10
-367.8374
 20
-56.7377
 10
-367.9078
 20
-56.576
 10
-367.9821
 20
-56.4189
 10
-368.0604
 20
-56.2665
 10
-368.1426
 20
-56.1188
 10
-368.2288
 20
-55.9758
 10
-367.7813
 20
-55.3699
 10
-368.1923
 20
-54.8139
 10
-368.6398
 20
-55.4197
 10
-368.7494
 20
-55.2986
 10
-368.8625
 20
-55.1832
 10
-368.979
 20
-55.0733
 10
-369.099
 20
-54.969
 10
-369.2225
 20
-54.8702
 10
-369.3494
 20
-54.777
 10
-369.4799
 20
-54.6894
 10
-369.6138
 20
-54.6073
 10
-369.7835
 20
-54.5154
 10
-369.9559
 20
-54.4358
 10
-370.1309
 20
-54.3685
 10
-370.3086
 20
-54.3134
 10
-370.4889
 20
-54.2705
 10
-370.6718
 20
-54.2399
 10
-370.8573
 20
-54.2215
 10
-371.0454
 20
-54.2154
 10
-371.2337
 20
-54.2215
 10
-371.4191
 20
-54.2399
 10
-371.6016
 20
-54.2705
 10
-371.7814
 20
-54.3134
 10
-371.9583
 20
-54.3685
 10
-372.1325
 20
-54.4358
 10
-372.3038
 20
-54.5154
 10
-372.4724
 20
-54.6073
 10
-372.637
 20
-54.7096
 10
-372.7963
 20
-54.8206
 10
-372.9504
 20
-54.9403
 10
-373.0991
 20
-55.0687
 10
-373.2425
 20
-55.2058
 10
-373.3807
 20
-55.3516
 10
-373.5137
 20
-55.506
 10
-373.6414
 20
-55.6692
 10
-373.7631
 20
-55.8405
 10
-373.8782
 20
-56.0193
 10
-373.9868
 20
-56.2057
 10
-374.0888
 20
-56.3997
 10
-374.1842
 20
-56.6012
 10
-374.273
 20
-56.8103
 10
-374.3552
 20
-57.0269
 10
-374.4308
 20
-57.2511
 10
-374.4987
 20
-57.481
 10
-374.5576
 20
-57.7144
 10
-374.6074
 20
-57.9514
 10
-374.6482
 20
-58.1919
 10
-374.6798
 20
-58.4359
 10
-374.7025
 20
-58.6835
 10
-374.7161
 20
-58.9347
 10
-374.7206
 20
-59.1895
 10
-374.7161
 20
-59.4442
 10
-374.7025
 20
-59.6953
 10
-374.6798
 20
-59.9429
 10
-374.6482
 20
-60.187
 10
-374.6074
 20
-60.4276
 10
-374.5576
 20
-60.6646
 10
-374.4987
 20
-60.898
 10
-374.4308
 20
-61.1279
 10
-374.3709
 20
-61.308
 10
-374.3066
 20
-61.4832
 10
-374.2381
 20
-61.6537
 10
-374.1654
 20
-61.8195
 10
-374.0884
 20
-61.9805
 10
-374.0073
 20
-62.137
 10
-373.9219
 20
-62.2889
 10
-373.8324
 20
-62.4363
 10
-374.2995
 20
-63.0658
 10
-373.8888
 20
-63.6219
 10
-373.4218
 20
-62.9899
 10
-373.3143
 20
-63.109
 10
-373.2037
 20
-63.2224
 10
-373.0899
 20
-63.3301
 10
-372.9728
 20
-63.4323
 10
-372.8526
 20
-63.5288
 10
-372.7291
 20
-63.6198
 10
-372.6024
 20
-63.7054
 10
-372.4724
 20
-63.7855
 10
-372.3038
 20
-63.8774
 10
-372.1325
 20
-63.957
 10
-371.9583
 20
-64.0244
 10
-371.7814
 20
-64.0795
 10
-371.6016
 20
-64.1224
 10
-371.4191
 20
-64.153
 10
-371.2337
 20
-64.1714
 10
-371.0454
 20
-64.1775
 10
-370.8573
 20
-64.1714
 10
-370.6718
 20
-64.153
 10
-370.4889
 20
-64.1224
 10
-370.3086
 20
-64.0795
 10
-370.1309
 20
-64.0244
 10
-369.9559
 20
-63.957
 10
-369.7835
 20
-63.8774
 10
-369.6138
 20
-63.7855
 10
-369.448
 20
-63.6831
 10
-369.2876
 20
-63.5717
 10
-369.1327
 20
-63.4515
 10
-368.9832
 20
-63.3223
 10
-368.8391
 20
-63.1843
 10
-368.7004
 20
-63.0373
 10
-368.5672
 20
-62.8815
 10
-368.4394
 20
-62.7168
 10
-368.3177
 20
-62.5439
 10
-368.2026
 20
-62.3637
 10
-368.094
 20
-62.1761
 10
-367.9921
 20
-61.9811
 10
-367.8966
 20
-61.7788
 10
-367.8078
 20
-61.5691
 10
-367.7256
 20
-61.3522
 10
-367.65
 20
-61.1279
 10
-367.5821
 20
-60.898
 10
-367.5233
 20
-60.6646
 10
-367.4735
 20
-60.4276
 10
-367.4328
 20
-60.187
 10
-367.4012
 20
-59.9429
 10
-367.3786
 20
-59.6953
 10
-367.365
 20
-59.4442
 10
-367.3605
 20
-59.1895
 10
-367.3605
 20
-59.1895
  0
LWPOLYLINE
  5
15C
330
1F
100
AcDbEntity
  8
Layer 1
 62
     7
370
     9
100
AcDbPolyline
 90
       35
 70
     1
 43
0.0
 10
-372.8989
 20
-62.2844
 10
-368.7556
 20
-56.6857
 10
-368.6013
 20
-56.9595
 10
-368.4676
 20
-57.2444
 10
-368.3545
 20
-57.5405
 10
-368.262
 20
-57.8478
 10
-368.19
 20
-58.1663
 10
-368.1386
 20
-58.496
 10
-368.1078
 20
-58.8371
 10
-368.0975
 20
-59.1895
 10
-368.111
 20
-59.5951
 10
-368.1514
 20
-59.9857
 10
-368.2189
 20
-60.3612
 10
-368.3133
 20
-60.7215
 10
-368.4347
 20
-61.0667
 10
-368.583
 20
-61.3967
 10
-368.7584
 20
-61.7116
 10
-368.9608
 20
-62.0113
 10
-369.1823
 20
-62.2852
 10
-369.415
 20
-62.5225
 10
-369.6588
 20
-62.7234
 10
-369.9138
 20
-62.8878
 10
-370.18
 20
-63.0157
 10
-370.4573
 20
-63.1071
 10
-370.7457
 20
-63.1619
 10
-371.0454
 20
-63.1802
 10
-371.3065
 20
-63.1662
 10
-371.5592
 20
-63.124
 10
-371.8035
 20
-63.0539
 10
-372.0394
 20
-62.9558
 10
-372.2668
 20
-62.8298
 10
-372.4859
 20
-62.6758
 10
-372.6966
 20
-62.494
 10
-372.8989
 20
-62.2844
 10
-372.8989
 20
-62.2844
  0
LWPOLYLINE
  5
15D
330
1F
100
AcDbEntity
  8
Layer 1
 62
     7
370
     9
100
AcDbPolyline
 90
       34
 70
     1
 43
0.0
 10
-373.3114
 20
-61.7308
 10
-373.4688
 20
-61.4543
 10
-373.6052
 20
-61.1662
 10
-373.7206
 20
-60.8663
 10
-373.8152
 20
-60.5546
 10
-373.8887
 20
-60.2311
 10
-373.9412
 20
-59.8958
 10
-373.9728
 20
-59.5486
 10
-373.9833
 20
-59.1895
 10
-373.9698
 20
-58.787
 10
-373.9294
 20
-58.3993
 10
-373.8619
 20
-58.0263
 10
-373.7675
 20
-57.668
 10
-373.6461
 20
-57.3244
 10
-373.4977
 20
-56.9956
 10
-373.3224
 20
-56.6814
 10
-373.12
 20
-56.382
 10
-372.8987
 20
-56.108
 10
-372.6666
 20
-55.8706
 10
-372.4236
 20
-55.6697
 10
-372.1697
 20
-55.5053
 10
-371.9049
 20
-55.3775
 10
-371.6293
 20
-55.2862
 10
-371.3428
 20
-55.2315
 10
-371.0454
 20
-55.2132
 10
-370.7794
 20
-55.2275
 10
-370.5223
 20
-55.2703
 10
-370.274
 20
-55.3416
 10
-370.0345
 20
-55.4415
 10
-369.8038
 20
-55.5701
 10
-369.5819
 20
-55.7273
 10
-369.3688
 20
-55.9131
 10
-369.1644
 20
-56.1276
 10
-373.3114
 20
-61.7308
  0
LWPOLYLINE
  5
15E
330
1F
100
AcDbEntity
  8
Layer 1
 62
     7
370
     9
100
AcDbPolyline
 90
      132
 70
     1
 43
0.0
 10
-365.0016
 20
-57.964
 10
-364.5171
 20
-55.3699
 10
-361.927
 20
-55.3699
 10
-361.927
 20
-54.3721
 10
-365.075
 20
-54.3721
 10
-365.8967
 20
-58.7192
 10
-365.0964
 20
-59.2038
 10
-364.9803
 20
-59.0969
 10
-364.8585
 20
-59.0042
 10
-364.731
 20
-58.9258
 10
-364.5976
 20
-58.8617
 10
-364.4585
 20
-58.8119
 10
-364.3137
 20
-58.7763
 10
-364.163
 20
-58.7549
 10
-364.0066
 20
-58.7478
 10
-363.8493
 20
-58.7582
 10
-363.6973
 20
-58.7896
 10
-363.5505
 20
-58.8419
 10
-363.409
 20
-58.915
 10
-363.2728
 20
-59.0092
 10
-363.1418
 20
-59.1242
 10
-363.016
 20
-59.2603
 10
-362.8955
 20
-59.4173
 10
-362.782
 20
-59.5924
 10
-362.6837
 20
-59.774
 10
-362.6005
 20
-59.9621
 10
-362.5324
 20
-60.1567
 10
-362.4795
 20
-60.3576
 10
-362.4417
 20
-60.5651
 10
-362.419
 20
-60.7789
 10
-362.4114
 20
-60.9992
 10
-362.4191
 20
-61.2272
 10
-362.4423
 20
-61.446
 10
-362.481
 20
-61.6557
 10
-362.5352
 20
-61.8563
 10
-362.6048
 20
-62.0477
 10
-362.6898
 20
-62.2299
 10
-362.7904
 20
-62.403
 10
-362.9064
 20
-62.5669
 10
-363.0264
 20
-62.7091
 10
-363.1551
 20
-62.8361
 10
-363.2923
 20
-62.9479
 10
-363.4379
 20
-63.0446
 10
-363.5151
 20
-63.0864
 10
-363.5965
 20
-63.1225
 10
-363.6823
 20
-63.1531
 10
-363.7724
 20
-63.1782
 10
-363.8667
 20
-63.1976
 10
-363.9653
 20
-63.2115
 10
-364.0681
 20
-63.2198
 10
-364.1752
 20
-63.2226
 10
-364.2844
 20
-63.2164
 10
-364.3934
 20
-63.1977
 10
-364.5022
 20
-63.1665
 10
-364.6109
 20
-63.1228
 10
-364.7195
 20
-63.0667
 10
-364.8278
 20
-62.9982
 10
-364.9359
 20
-62.9172
 10
-365.0439
 20
-62.8237
 10
-365.1478
 20
-62.7201
 10
-365.2439
 20
-62.609
 10
-365.332
 20
-62.4903
 10
-365.4123
 20
-62.364
 10
-365.4847
 20
-62.2302
 10
-365.5493
 20
-62.0888
 10
-365.6059
 20
-61.9397
 10
-365.6546
 20
-61.7831
 10
-366.3703
 20
-62.0966
 10
-366.3
 20
-62.3312
 10
-366.218
 20
-62.5541
 10
-366.1244
 20
-62.7651
 10
-366.0191
 20
-62.9643
 10
-365.9021
 20
-63.1517
 10
-365.7734
 20
-63.3273
 10
-365.6331
 20
-63.4911
 10
-365.481
 20
-63.6431
 10
-365.3192
 20
-63.7818
 10
-365.1539
 20
-63.9019
 10
-364.9849
 20
-64.0036
 10
-364.8123
 20
-64.0868
 10
-364.636
 20
-64.1514
 10
-364.4562
 20
-64.1976
 10
-364.2727
 20
-64.2254
 10
-364.0855
 20
-64.2346
 10
-363.8363
 20
-64.2194
 10
-363.5966
 20
-64.1736
 10
-363.3665
 20
-64.0974
 10
-363.1459
 20
-63.9906
 10
-362.9348
 20
-63.8534
 10
-362.7333
 20
-63.6856
 10
-362.5414
 20
-63.4874
 10
-362.359
 20
-63.2586
 10
-362.1935
 20
-63.0101
 10
-362.0502
 20
-62.7494
 10
-361.9289
 20
-62.4764
 10
-361.8297
 20
-62.1912
 10
-361.7526
 20
-61.8938
 10
-361.6975
 20
-61.5841
 10
-361.6645
 20
-61.2623
 10
-361.6535
 20
-60.9282
 10
-361.6644
 20
-60.5958
 10
-361.6969
 20
-60.2775
 10
-361.7512
 20
-59.9732
 10
-361.8271
 20
-59.6829
 10
-361.9248
 20
-59.4067
 10
-362.0442
 20
-59.1444
 10
-362.1853
 20
-58.8962
 10
-362.3481
 20
-58.662
 10
-362.4313
 20
-58.5579
 10
-362.5179
 20
-58.4594
 10
-362.6077
 20
-58.3665
 10
-362.7008
 20
-58.2791
 10
-362.7972
 20
-58.1972
 10
-362.8969
 20
-58.121
 10
-362.9999
 20
-58.0503
 10
-363.1061
 20
-57.9852
 10
-363.2147
 20
-57.9268
 10
-363.3242
 20
-57.8761
 10
-363.4346
 20
-57.8332
 10
-363.5459
 20
-57.7981
 10
-363.658
 20
-57.7708
 10
-363.7711
 20
-57.7513
 10
-363.885
 20
-57.7396
 10
-363.9997
 20
-57.7357
 10
-364.1166
 20
-57.7393
 10
-364.2359
 20
-57.7499
 10
-364.3575
 20
-57.7678
 10
-364.4815
 20
-57.7927
 10
-364.6079
 20
-57.8248
 10
-364.7367
 20
-57.864
 10
-364.8679
 20
-57.9104
 10
-365.0016
 20
-57.964
  0
LWPOLYLINE
  5
15F
330
1F
100
AcDbEntity
  8
Layer 1
 62
     7
370
     9
100
AcDbPolyline
 90
      129
 70
     1
 43
0.0
 10
-357.3415
 20
-63.9566
 10
-357.2339
 20
-63.8914
 10
-357.1296
 20
-63.8204
 10
-357.0286
 20
-63.7435
 10
-356.9308
 20
-63.6609
 10
-356.8363
 20
-63.5724
 10
-356.7452
 20
-63.4782
 10
-356.6573
 20
-63.3782
 10
-356.5727
 20
-63.2724
 10
-356.4061
 20
-63.0333
 10
-356.2617
 20
-62.7808
 10
-356.1396
 20
-62.5149
 10
-356.0397
 20
-62.2357
 10
-355.962
 20
-61.943
 10
-355.9065
 20
-61.637
 10
-355.8732
 20
-61.3176
 10
-355.8621
 20
-60.9849
 10
-355.8734
 20
-60.6521
 10
-355.9072
 20
-60.3322
 10
-355.9636
 20
-60.0251
 10
-356.0425
 20
-59.7309
 10
-356.1439
 20
-59.4496
 10
-356.2678
 20
-59.1812
 10
-356.4143
 20
-58.9258
 10
-356.5832
 20
-58.6832
 10
-356.758
 20
-58.474
 10
-356.9439
 20
-58.2898
 10
-357.141
 20
-58.1304
 10
-357.3493
 20
-57.9959
 10
-357.5688
 20
-57.8863
 10
-357.7995
 20
-57.8017
 10
-358.0414
 20
-57.7419
 10
-358.2945
 20
-57.7071
 10
-358.6104
 20
-57.964
 10
-356.3672
 20
-54.3721
 10
-360.2211
 20
-54.3721
 10
-360.2211
 20
-55.3699
 10
-357.8629
 20
-55.3699
 10
-360.0319
 20
-58.7902
 10
-359.474
 20
-59.403
 10
-359.3446
 20
-59.2427
 10
-359.2093
 20
-59.1038
 10
-359.0681
 20
-58.9863
 10
-358.9209
 20
-58.8901
 10
-358.7679
 20
-58.8153
 10
-358.6089
 20
-58.7619
 10
-358.444
 20
-58.7299
 10
-358.2732
 20
-58.7192
 10
-358.1027
 20
-58.7296
 10
-357.9387
 20
-58.7606
 10
-357.781
 20
-58.8124
 10
-357.6298
 20
-58.8849
 10
-357.485
 20
-58.978
 10
-357.3466
 20
-59.0919
 10
-357.2146
 20
-59.2265
 10
-357.089
 20
-59.3818
 10
-356.9743
 20
-59.5516
 10
-356.8748
 20
-59.7296
 10
-356.7906
 20
-59.9159
 10
-356.7217
 20
-60.1105
 10
-356.6681
 20
-60.3132
 10
-356.6298
 20
-60.5243
 10
-356.6068
 20
-60.7436
 10
-356.5991
 20
-60.9711
 10
-356.6069
 20
-61.1935
 10
-356.6304
 20
-61.4083
 10
-356.6695
 20
-61.6155
 10
-356.7242
 20
-61.8153
 10
-356.7946
 20
-62.0074
 10
-356.8806
 20
-62.1921
 10
-356.9822
 20
-62.3692
 10
-357.0995
 20
-62.5388
 10
-357.2176
 20
-62.6807
 10
-357.3456
 20
-62.8076
 10
-357.4835
 20
-62.9193
 10
-357.6313
 20
-63.016
 10
-357.7096
 20
-63.0578
 10
-357.7918
 20
-63.0939
 10
-357.8779
 20
-63.1245
 10
-357.968
 20
-63.1496
 10
-358.0621
 20
-63.169
 10
-358.1601
 20
-63.1829
 10
-358.2621
 20
-63.1912
 10
-358.368
 20
-63.194
 10
-358.476
 20
-63.1879
 10
-358.584
 20
-63.1695
 10
-358.692
 20
-63.1389
 10
-358.8
 20
-63.096
 10
-358.9079
 20
-63.0409
 10
-359.0158
 20
-62.9735
 10
-359.1237
 20
-62.8939
 10
-359.2316
 20
-62.8021
 10
-359.3355
 20
-62.6998
 10
-359.4316
 20
-62.5888
 10
-359.5197
 20
-62.4692
 10
-359.6
 20
-62.3409
 10
-359.6724
 20
-62.2039
 10
-359.737
 20
-62.0582
 10
-359.7936
 20
-61.9038
 10
-359.8423
 20
-61.7407
 10
-360.5583
 20
-62.0685
 10
-360.4903
 20
-62.3007
 10
-360.4099
 20
-62.5218
 10
-360.3171
 20
-62.7318
 10
-360.2121
 20
-62.9306
 10
-360.0947
 20
-63.1183
 10
-359.965
 20
-63.2949
 10
-359.8229
 20
-63.4603
 10
-359.6686
 20
-63.6145
 10
-359.5148
 20
-63.7459
 10
-359.3538
 20
-63.8622
 10
-359.1858
 20
-63.9633
 10
-359.0105
 20
-64.0493
 10
-358.9198
 20
-64.086
 10
-358.8267
 20
-64.1179
 10
-358.731
 20
-64.1448
 10
-358.6329
 20
-64.1669
 10
-358.5322
 20
-64.184
 10
-358.429
 20
-64.1963
 10
-358.3234
 20
-64.2036
 10
-358.2153
 20
-64.2061
 10
-358.1061
 20
-64.2022
 10
-357.9968
 20
-64.1905
 10
-357.8876
 20
-64.171
 10
-357.7784
 20
-64.1436
 10
-357.6692
 20
-64.1085
 10
-357.56
 20
-64.0657
 10
-357.4507
 20
-64.015
 10
-357.3415
 20
-63.9566
  0
LWPOLYLINE
  5
160
330
1F
100
AcDbEntity
  8
Layer 1
 62
     7
370
     9
100
AcDbPolyline
 90
       11
 70
     1
 43
0.0
 10
-396.8483
 20
-149.0095
 10
-396.1008
 20
-149.0095
 10
-397.7644
 20
-138.6772
 10
-400.1125
 20
-146.9715
 10
-402.4606
 20
-138.6772
 10
-404.1346
 20
-149.0095
 10
-403.3763
 20
-149.0095
 10
-402.271
 20
-142.1118
 10
-400.1125
 20
-149.5794
 10
-397.9645
 20
-142.1118
 10
-396.8483
 20
-149.0095
  0
LWPOLYLINE
  5
161
330
1F
100
AcDbEntity
  8
Layer 1
 62
     7
370
     9
100
AcDbPolyline
 90
      129
 70
     1
 43
0.0
 10
-392.2419
 20
-148.9025
 10
-392.1342
 20
-148.8373
 10
-392.0299
 20
-148.7663
 10
-391.9289
 20
-148.6895
 10
-391.8312
 20
-148.6069
 10
-391.7368
 20
-148.5185
 10
-391.6457
 20
-148.4244
 10
-391.5579
 20
-148.3245
 10
-391.4734
 20
-148.2188
 10
-391.3068
 20
-147.9796
 10
-391.1623
 20
-147.727
 10
-391.0401
 20
-147.461
 10
-390.94
 20
-147.1818
 10
-390.8622
 20
-146.8891
 10
-390.8066
 20
-146.5832
 10
-390.7732
 20
-146.264
 10
-390.7621
 20
-145.9314
 10
-390.7734
 20
-145.5985
 10
-390.8072
 20
-145.2784
 10
-390.8636
 20
-144.9714
 10
-390.9425
 20
-144.6772
 10
-391.044
 20
-144.396
 10
-391.1679
 20
-144.1276
 10
-391.3145
 20
-143.8722
 10
-391.4835
 20
-143.6297
 10
-391.6583
 20
-143.4203
 10
-391.8443
 20
-143.2359
 10
-392.0414
 20
-143.0765
 10
-392.2498
 20
-142.942
 10
-392.4692
 20
-142.8324
 10
-392.6999
 20
-142.7479
 10
-392.9416
 20
-142.6882
 10
-393.1945
 20
-142.6536
 10
-393.5103
 20
-142.9099
 10
-391.2679
 20
-139.3186
 10
-395.1218
 20
-139.3186
 10
-395.1218
 20
-140.3164
 10
-392.7629
 20
-140.3164
 10
-394.9319
 20
-143.7366
 10
-394.374
 20
-144.3494
 10
-394.2447
 20
-144.1891
 10
-394.1094
 20
-144.0501
 10
-393.9682
 20
-143.9325
 10
-393.8211
 20
-143.8363
 10
-393.668
 20
-143.7614
 10
-393.5091
 20
-143.7079
 10
-393.3442
 20
-143.6758
 10
-393.1735
 20
-143.6651
 10
-393.0029
 20
-143.6755
 10
-392.8388
 20
-143.7065
 10
-392.6811
 20
-143.7583
 10
-392.5298
 20
-143.8308
 10
-392.385
 20
-143.9239
 10
-392.2466
 20
-144.0378
 10
-392.1146
 20
-144.1724
 10
-391.989
 20
-144.3277
 10
-391.8743
 20
-144.4976
 10
-391.7748
 20
-144.6757
 10
-391.6907
 20
-144.8621
 10
-391.6219
 20
-145.0566
 10
-391.5683
 20
-145.2593
 10
-391.5301
 20
-145.4703
 10
-391.5071
 20
-145.6896
 10
-391.4995
 20
-145.9171
 10
-391.5073
 20
-146.1396
 10
-391.5308
 20
-146.3545
 10
-391.5698
 20
-146.5618
 10
-391.6245
 20
-146.7615
 10
-391.6948
 20
-146.9537
 10
-391.7808
 20
-147.1383
 10
-391.8823
 20
-147.3153
 10
-391.9995
 20
-147.4847
 10
-392.1176
 20
-147.6266
 10
-392.2456
 20
-147.7535
 10
-392.3835
 20
-147.8652
 10
-392.5313
 20
-147.9619
 10
-392.6096
 20
-148.0037
 10
-392.6919
 20
-148.0399
 10
-392.7781
 20
-148.0706
 10
-392.8682
 20
-148.0957
 10
-392.9624
 20
-148.1152
 10
-393.0605
 20
-148.1292
 10
-393.1626
 20
-148.1376
 10
-393.2687
 20
-148.1404
 10
-393.3766
 20
-148.1343
 10
-393.4844
 20
-148.1159
 10
-393.5923
 20
-148.0853
 10
-393.7001
 20
-148.0424
 10
-393.808
 20
-147.9873
 10
-393.9158
 20
-147.92
 10
-394.0237
 20
-147.8404
 10
-394.1316
 20
-147.7485
 10
-394.2356
 20
-147.6462
 10
-394.3317
 20
-147.5351
 10
-394.4199
 20
-147.4154
 10
-394.5002
 20
-147.287
 10
-394.5726
 20
-147.15
 10
-394.6371
 20
-147.0042
 10
-394.6938
 20
-146.8497
 10
-394.7426
 20
-146.6866
 10
-395.4586
 20
-147.0144
 10
-395.3906
 20
-147.2466
 10
-395.3102
 20
-147.4677
 10
-395.2174
 20
-147.6777
 10
-395.1123
 20
-147.8765
 10
-394.9948
 20
-148.0642
 10
-394.865
 20
-148.2408
 10
-394.723
 20
-148.4062
 10
-394.5686
 20
-148.5604
 10
-394.4151
 20
-148.6919
 10
-394.2542
 20
-148.8081
 10
-394.086
 20
-148.9092
 10
-393.9105
 20
-148.9952
 10
-393.8198
 20
-149.0319
 10
-393.7267
 20
-149.0638
 10
-393.631
 20
-149.0907
 10
-393.5329
 20
-149.1128
 10
-393.4323
 20
-149.1299
 10
-393.3292
 20
-149.1422
 10
-393.2236
 20
-149.1495
 10
-393.1156
 20
-149.152
 10
-393.0064
 20
-149.1481
 10
-392.8972
 20
-149.1364
 10
-392.788
 20
-149.1169
 10
-392.6788
 20
-149.0896
 10
-392.5695
 20
-149.0545
 10
-392.4603
 20
-149.0116
 10
-392.3511
 20
-148.9609
 10
-392.2419
 20
-148.9025
  0
LWPOLYLINE
  5
162
330
1F
100
AcDbEntity
  8
Layer 1
 62
     7
370
     9
100
AcDbPolyline
 90
       87
 70
     1
 43
0.0
 10
-389.8569
 20
-149.0095
 10
-384.813
 20
-149.0095
 10
-384.813
 20
-148.0117
 10
-388.0772
 20
-148.0117
 10
-385.5819
 20
-144.6629
 10
-385.4191
 20
-144.4218
 10
-385.2779
 20
-144.1686
 10
-385.1585
 20
-143.9034
 10
-385.0607
 20
-143.6261
 10
-384.9846
 20
-143.3369
 10
-384.9303
 20
-143.0355
 10
-384.8977
 20
-142.7221
 10
-384.8868
 20
-142.3967
 10
-384.8979
 20
-142.0641
 10
-384.9312
 20
-141.7449
 10
-384.9868
 20
-141.439
 10
-385.0646
 20
-141.1464
 10
-385.1645
 20
-140.8671
 10
-385.2867
 20
-140.6011
 10
-385.4312
 20
-140.3485
 10
-385.5978
 20
-140.1093
 10
-385.7828
 20
-139.8873
 10
-385.9761
 20
-139.6948
 10
-386.1776
 20
-139.532
 10
-386.3873
 20
-139.3987
 10
-386.6053
 20
-139.2951
 10
-386.8316
 20
-139.221
 10
-387.066
 20
-139.1766
 10
-387.3087
 20
-139.1618
 10
-387.5607
 20
-139.1774
 10
-387.8033
 20
-139.2241
 10
-388.0365
 20
-139.302
 10
-388.2602
 20
-139.4111
 10
-388.4746
 20
-139.5514
 10
-388.6796
 20
-139.7229
 10
-388.8753
 20
-139.9257
 10
-389.0616
 20
-140.1596
 10
-389.2276
 20
-140.4111
 10
-389.37
 20
-140.6758
 10
-389.4889
 20
-140.9535
 10
-389.5843
 20
-141.2444
 10
-389.6562
 20
-141.5484
 10
-389.7045
 20
-141.8656
 10
-389.7293
 20
-142.1958
 10
-389.7306
 20
-142.5392
 10
-388.9828
 20
-142.5392
 10
-388.9891
 20
-142.3164
 10
-388.9776
 20
-142.0987
 10
-388.9484
 20
-141.8862
 10
-388.9014
 20
-141.6788
 10
-388.8366
 20
-141.4765
 10
-388.754
 20
-141.2794
 10
-388.6537
 20
-141.0874
 10
-388.5356
 20
-140.9005
 10
-388.4092
 20
-140.7334
 10
-388.2762
 20
-140.5887
 10
-388.1367
 20
-140.4661
 10
-387.9905
 20
-140.3659
 10
-387.8378
 20
-140.2879
 10
-387.6785
 20
-140.2323
 10
-387.5126
 20
-140.1988
 10
-387.3402
 20
-140.1877
 10
-387.171
 20
-140.1977
 10
-387.0082
 20
-140.2278
 10
-386.8519
 20
-140.2779
 10
-386.7019
 20
-140.3481
 10
-386.5584
 20
-140.4383
 10
-386.4213
 20
-140.5485
 10
-386.2906
 20
-140.6788
 10
-386.1662
 20
-140.8291
 10
-386.0515
 20
-140.9952
 10
-385.952
 20
-141.1694
 10
-385.8679
 20
-141.3516
 10
-385.799
 20
-141.5418
 10
-385.7455
 20
-141.74
 10
-385.7072
 20
-141.9461
 10
-385.6843
 20
-142.1603
 10
-385.6766
 20
-142.3824
 10
-385.684
 20
-142.6096
 10
-385.7062
 20
-142.8278
 10
-385.7432
 20
-143.0372
 10
-385.795
 20
-143.2376
 10
-385.8617
 20
-143.4291
 10
-385.9431
 20
-143.6117
 10
-386.0394
 20
-143.7854
 10
-386.1506
 20
-143.9501
 10
-389.8569
 20
-149.0095
  0
LWPOLYLINE
  5
163
330
1F
100
AcDbEntity
  8
Layer 1
 62
     7
370
     9
100
AcDbPolyline
 90
       13
 70
     1
 43
0.0
 10
-378.7901
 20
-149.0095
 10
-377.8849
 20
-149.0095
 10
-380.4012
 20
-144.164
 10
-377.8849
 20
-139.3186
 10
-378.7901
 20
-139.3186
 10
-380.8542
 20
-143.4512
 10
-382.9179
 20
-139.3186
 10
-383.834
 20
-139.3186
 10
-381.3072
 20
-144.1783
 10
-383.8235
 20
-149.0095
 10
-382.9179
 20
-149.0095
 10
-380.8542
 20
-144.8764
 10
-378.7901
 20
-149.0095
  0
LWPOLYLINE
  5
164
330
1F
100
AcDbEntity
  8
Layer 1
 62
     7
370
     9
100
AcDbPolyline
 90
        7
 70
     1
 43
0.0
 10
-376.1052
 20
-149.0095
 10
-375.3682
 20
-149.0095
 10
-375.3682
 20
-139.2047
 10
-377.1374
 20
-139.461
 10
-377.1374
 20
-140.3302
 10
-376.1052
 20
-140.3302
 10
-376.1052
 20
-149.0095
  0
LWPOLYLINE
  5
165
330
1F
100
AcDbEntity
  8
Layer 1
 62
     7
370
     9
100
AcDbPolyline
 90
       65
 70
     1
 43
0.0
 10
-373.2412
 20
-149.152
 10
-373.1815
 20
-149.1483
 10
-373.1235
 20
-149.1373
 10
-373.0671
 20
-149.1189
 10
-373.0124
 20
-149.0932
 10
-372.9592
 20
-149.0601
 10
-372.9078
 20
-149.0197
 10
-372.8579
 20
-148.9719
 10
-372.8096
 20
-148.9168
 10
-372.7652
 20
-148.8565
 10
-372.7267
 20
-148.7931
 10
-372.6941
 20
-148.7265
 10
-372.6674
 20
-148.6569
 10
-372.6467
 20
-148.5841
 10
-372.6319
 20
-148.5082
 10
-372.623
 20
-148.4292
 10
-372.62
 20
-148.347
 10
-372.6229
 20
-148.2648
 10
-372.6315
 20
-148.1857
 10
-372.6459
 20
-148.1097
 10
-372.6661
 20
-148.0368
 10
-372.692
 20
-147.967
 10
-372.7237
 20
-147.9004
 10
-372.7611
 20
-147.8369
 10
-372.8042
 20
-147.7766
 10
-372.8515
 20
-147.7215
 10
-372.9008
 20
-147.6737
 10
-372.9523
 20
-147.6333
 10
-373.0059
 20
-147.6002
 10
-373.0615
 20
-147.5745
 10
-373.1193
 20
-147.5561
 10
-373.1792
 20
-147.5451
 10
-373.2412
 20
-147.5414
 10
-373.3033
 20
-147.5452
 10
-373.363
 20
-147.5566
 10
-373.4205
 20
-147.5755
 10
-373.4756
 20
-147.6021
 10
-373.5284
 20
-147.6362
 10
-373.5789
 20
-147.6779
 10
-373.627
 20
-147.7272
 10
-373.6728
 20
-147.784
 10
-373.7148
 20
-147.8458
 10
-373.7512
 20
-147.9103
 10
-373.7821
 20
-147.9776
 10
-373.8073
 20
-148.0475
 10
-373.827
 20
-148.1201
 10
-373.841
 20
-148.1954
 10
-373.8495
 20
-148.2733
 10
-373.8523
 20
-148.3539
 10
-373.8494
 20
-148.4343
 10
-373.8407
 20
-148.5119
 10
-373.8262
 20
-148.5866
 10
-373.806
 20
-148.6585
 10
-373.7801
 20
-148.7274
 10
-373.7484
 20
-148.7934
 10
-373.7109
 20
-148.8566
 10
-373.6678
 20
-148.9168
 10
-373.6209
 20
-148.9719
 10
-373.5721
 20
-149.0197
 10
-373.5215
 20
-149.0601
 10
-373.469
 20
-149.0932
 10
-373.4148
 20
-149.1189
 10
-373.3587
 20
-149.1373
 10
-373.3008
 20
-149.1483
 10
-373.2412
 20
-149.152
  0
LWPOLYLINE
  5
166
330
1F
100
AcDbEntity
  8
Layer 1
 62
     7
370
     9
100
AcDbPolyline
 90
      132
 70
     1
 43
0.0
 10
-369.9456
 20
-142.9099
 10
-369.4611
 20
-140.3164
 10
-366.871
 20
-140.3164
 10
-366.871
 20
-139.3186
 10
-370.0194
 20
-139.3186
 10
-370.8407
 20
-143.6651
 10
-370.0404
 20
-144.1497
 10
-369.9243
 20
-144.0428
 10
-369.8025
 20
-143.9502
 10
-369.6748
 20
-143.8718
 10
-369.5414
 20
-143.8077
 10
-369.4023
 20
-143.7578
 10
-369.2574
 20
-143.7222
 10
-369.1067
 20
-143.7008
 10
-368.9503
 20
-143.6937
 10
-368.7932
 20
-143.7042
 10
-368.6413
 20
-143.7356
 10
-368.4946
 20
-143.7879
 10
-368.3531
 20
-143.8612
 10
-368.2168
 20
-143.9554
 10
-368.0858
 20
-144.0706
 10
-367.96
 20
-144.2067
 10
-367.8395
 20
-144.3637
 10
-367.726
 20
-144.5389
 10
-367.6277
 20
-144.7204
 10
-367.5445
 20
-144.9085
 10
-367.4764
 20
-145.103
 10
-367.4235
 20
-145.3039
 10
-367.3857
 20
-145.5113
 10
-367.363
 20
-145.7253
 10
-367.3554
 20
-145.9457
 10
-367.3631
 20
-146.1735
 10
-367.3863
 20
-146.3922
 10
-367.425
 20
-146.6018
 10
-367.4791
 20
-146.8023
 10
-367.5487
 20
-146.9937
 10
-367.6337
 20
-147.176
 10
-367.7341
 20
-147.3492
 10
-367.85
 20
-147.5133
 10
-367.9702
 20
-147.6552
 10
-368.0989
 20
-147.7821
 10
-368.2361
 20
-147.8938
 10
-368.3819
 20
-147.9905
 10
-368.4592
 20
-148.0323
 10
-368.5406
 20
-148.0684
 10
-368.6264
 20
-148.099
 10
-368.7164
 20
-148.1241
 10
-368.8106
 20
-148.1435
 10
-368.9092
 20
-148.1574
 10
-369.012
 20
-148.1657
 10
-369.1192
 20
-148.1685
 10
-369.2283
 20
-148.1623
 10
-369.3373
 20
-148.1436
 10
-369.4461
 20
-148.1125
 10
-369.5548
 20
-148.0689
 10
-369.6633
 20
-148.0129
 10
-369.7716
 20
-147.9443
 10
-369.8798
 20
-147.8633
 10
-369.9879
 20
-147.7697
 10
-370.0918
 20
-147.6661
 10
-370.1879
 20
-147.555
 10
-370.276
 20
-147.4363
 10
-370.3563
 20
-147.3101
 10
-370.4287
 20
-147.1763
 10
-370.4933
 20
-147.0349
 10
-370.5499
 20
-146.886
 10
-370.5986
 20
-146.7295
 10
-371.3143
 20
-147.043
 10
-371.244
 20
-147.2775
 10
-371.162
 20
-147.5002
 10
-371.0683
 20
-147.7111
 10
-370.963
 20
-147.9103
 10
-370.8459
 20
-148.0977
 10
-370.7173
 20
-148.2733
 10
-370.5769
 20
-148.4371
 10
-370.425
 20
-148.589
 10
-370.2632
 20
-148.7277
 10
-370.0978
 20
-148.8478
 10
-369.9288
 20
-148.9495
 10
-369.7561
 20
-149.0327
 10
-369.5799
 20
-149.0974
 10
-369.4
 20
-149.1436
 10
-369.2166
 20
-149.1714
 10
-369.0295
 20
-149.1806
 10
-368.7802
 20
-149.1653
 10
-368.5404
 20
-149.1196
 10
-368.3103
 20
-149.0433
 10
-368.0897
 20
-148.9366
 10
-367.8786
 20
-148.7993
 10
-367.6771
 20
-148.6315
 10
-367.4851
 20
-148.4333
 10
-367.3026
 20
-148.2045
 10
-367.1373
 20
-147.956
 10
-366.9941
 20
-147.6954
 10
-366.8728
 20
-147.4225
 10
-366.7736
 20
-147.1373
 10
-366.6964
 20
-146.84
 10
-366.6412
 20
-146.5303
 10
-366.6081
 20
-146.2084
 10
-366.5971
 20
-145.8742
 10
-366.608
 20
-145.5418
 10
-366.6405
 20
-145.2235
 10
-366.6948
 20
-144.9191
 10
-366.7708
 20
-144.6289
 10
-366.8686
 20
-144.3526
 10
-366.988
 20
-144.0904
 10
-367.1292
 20
-143.8422
 10
-367.2921
 20
-143.608
 10
-367.3754
 20
-143.5039
 10
-367.462
 20
-143.4054
 10
-367.5518
 20
-143.3125
 10
-367.645
 20
-143.2252
 10
-367.7414
 20
-143.1433
 10
-367.8411
 20
-143.0671
 10
-367.9442
 20
-142.9963
 10
-368.0505
 20
-142.9311
 10
-368.1589
 20
-142.8727
 10
-368.2682
 20
-142.8221
 10
-368.3785
 20
-142.7792
 10
-368.4898
 20
-142.7441
 10
-368.6019
 20
-142.7168
 10
-368.7149
 20
-142.6973
 10
-368.8287
 20
-142.6856
 10
-368.9434
 20
-142.6817
 10
-369.0604
 20
-142.6853
 10
-369.1798
 20
-142.696
 10
-369.3015
 20
-142.7139
 10
-369.4255
 20
-142.7389
 10
-369.5519
 20
-142.771
 10
-369.6807
 20
-142.8102
 10
-369.8119
 20
-142.8565
 10
-369.9456
 20
-142.9099
  0
LWPOLYLINE
  5
167
330
1F
100
AcDbEntity
  8
Layer 1
 62
     7
370
     9
100
AcDbPolyline
 90
        7
 70
     1
 43
0.0
 10
-246.4802
 20
-30.6737
 10
-246.4802
 20
-29.6764
 10
-253.7249
 20
-29.6764
 10
-253.5353
 20
-32.0708
 10
-252.8927
 20
-32.0708
 10
-252.8927
 20
-30.6737
 10
-246.4802
 20
-30.6737
  0
LWPOLYLINE
  5
168
330
1F
100
AcDbEntity
  8
Layer 1
 62
     7
370
     9
100
AcDbPolyline
 90
       65
 70
     1
 43
0.0
 10
-249.7338
 20
-25.0656
 10
-249.7415
 20
-25.293
 10
-249.7647
 20
-25.512
 10
-249.8034
 20
-25.7224
 10
-249.8576
 20
-25.9244
 10
-249.9272
 20
-26.118
 10
-250.0122
 20
-26.303
 10
-250.1128
 20
-26.4795
 10
-250.2288
 20
-26.6476
 10
-250.3541
 20
-26.7996
 10
-250.4855
 20
-26.9313
 10
-250.6227
 20
-27.0428
 10
-250.7659
 20
-27.1341
 10
-250.915
 20
-27.205
 10
-251.07
 20
-27.2557
 10
-251.231
 20
-27.2862
 10
-251.3978
 20
-27.2963
 10
-251.5608
 20
-27.2861
 10
-251.7182
 20
-27.2554
 10
-251.8701
 20
-27.2042
 10
-252.0164
 20
-27.1325
 10
-252.1571
 20
-27.0403
 10
-252.2921
 20
-26.9276
 10
-252.4216
 20
-26.7944
 10
-252.5454
 20
-26.6407
 10
-252.6564
 20
-26.4757
 10
-252.7527
 20
-26.3014
 10
-252.8341
 20
-26.1177
 10
-252.9008
 20
-25.9246
 10
-252.9526
 20
-25.7221
 10
-252.9897
 20
-25.5103
 10
-253.0119
 20
-25.2892
 10
-253.0193
 20
-25.0587
 10
-253.0117
 20
-24.8327
 10
-252.9887
 20
-24.6143
 10
-252.9505
 20
-24.4034
 10
-252.897
 20
-24.2001
 10
-252.8281
 20
-24.0044
 10
-252.744
 20
-23.8162
 10
-252.6445
 20
-23.6356
 10
-252.5298
 20
-23.4625
 10
-252.4056
 20
-23.3055
 10
-252.2753
 20
-23.1694
 10
-252.139
 20
-23.0542
 10
-251.9966
 20
-22.96
 10
-251.848
 20
-22.8867
 10
-251.6934
 20
-22.8344
 10
-251.5327
 20
-22.803
 10
-251.3659
 20
-22.7925
 10
-251.2041
 20
-22.8031
 10
-251.0475
 20
-22.8348
 10
-250.8961
 20
-22.8877
 10
-250.75
 20
-22.9618
 10
-250.6092
 20
-23.057
 10
-250.4736
 20
-23.1733
 10
-250.3433
 20
-23.3108
 10
-250.2183
 20
-23.4694
 10
-250.1132
 20
-23.6294
 10
-250.0195
 20
-23.8028
 10
-249.937
 20
-23.9893
 10
-249.8659
 20
-24.1891
 10
-249.8082
 20
-24.3989
 10
-249.7669
 20
-24.615
 10
-249.7421
 20
-24.8372
 10
-249.7338
 20
-25.0656
  0
LWPOLYLINE
  5
169
330
1F
100
AcDbEntity
  8
Layer 1
 62
     7
370
     9
100
AcDbPolyline
 90
       69
 70
     1
 43
0.0
 10
-251.3449
 20
-28.3079
 10
-251.0914
 20
-28.2923
 10
-250.8494
 20
-28.2456
 10
-250.6189
 20
-28.1677
 10
-250.4
 20
-28.0587
 10
-250.1926
 20
-27.9184
 10
-249.9967
 20
-27.747
 10
-249.8123
 20
-27.5444
 10
-249.6394
 20
-27.3106
 10
-249.4937
 20
-27.0715
 10
-249.366
 20
-26.8157
 10
-249.2561
 20
-26.5432
 10
-249.1643
 20
-26.2541
 10
-249.0903
 20
-25.9482
 10
-249.0342
 20
-25.6256
 10
-248.9961
 20
-25.2864
 10
-248.9759
 20
-24.9305
 10
-249.1126
 20
-24.6456
 10
-246.4802
 20
-27.6099
 10
-246.4802
 20
-26.2986
 10
-249.8605
 20
-22.5076
 10
-250.0251
 20
-22.3372
 10
-250.1964
 20
-22.1896
 10
-250.3745
 20
-22.0647
 10
-250.5594
 20
-21.9625
 10
-250.7509
 20
-21.8831
 10
-250.9492
 20
-21.8263
 10
-251.1542
 20
-21.7922
 10
-251.3659
 20
-21.7809
 10
-251.61
 20
-21.7958
 10
-251.8448
 20
-21.8405
 10
-252.0701
 20
-21.9151
 10
-252.2861
 20
-22.0195
 10
-252.4926
 20
-22.1538
 10
-252.6898
 20
-22.3179
 10
-252.8775
 20
-22.5119
 10
-253.0559
 20
-22.7358
 10
-253.2201
 20
-22.9823
 10
-253.3624
 20
-23.2409
 10
-253.4828
 20
-23.5114
 10
-253.5813
 20
-23.794
 10
-253.6579
 20
-24.0886
 10
-253.7125
 20
-24.3952
 10
-253.7454
 20
-24.7138
 10
-253.7563
 20
-25.0444
 10
-253.7454
 20
-25.3797
 10
-253.7129
 20
-25.7017
 10
-253.6586
 20
-26.0103
 10
-253.5826
 20
-26.3056
 10
-253.4849
 20
-26.5875
 10
-253.3654
 20
-26.856
 10
-253.2242
 20
-27.1112
 10
-253.0613
 20
-27.353
 10
-252.978
 20
-27.4606
 10
-252.8914
 20
-27.5625
 10
-252.8016
 20
-27.6585
 10
-252.7085
 20
-27.7487
 10
-252.6121
 20
-27.8331
 10
-252.5124
 20
-27.9117
 10
-252.4093
 20
-27.9845
 10
-252.303
 20
-28.0516
 10
-252.1937
 20
-28.1117
 10
-252.0813
 20
-28.1638
 10
-251.966
 20
-28.2078
 10
-251.8477
 20
-28.2439
 10
-251.7265
 20
-28.2719
 10
-251.6022
 20
-28.2919
 10
-251.475
 20
-28.3039
 10
-251.3449
 20
-28.3079
  0
LWPOLYLINE
  5
16A
330
1F
100
AcDbEntity
  8
Layer 1
 62
     7
370
     9
100
AcDbPolyline
 90
       84
 70
     1
 43
0.0
 10
-252.8088
 20
-16.6288
 10
-252.7262
 20
-16.4641
 10
-252.6323
 20
-16.3106
 10
-252.5274
 20
-16.1683
 10
-252.4112
 20
-16.0371
 10
-252.2839
 20
-15.917
 10
-252.1454
 20
-15.8081
 10
-251.9957
 20
-15.7103
 10
-251.8348
 20
-15.6236
 10
-251.6212
 20
-15.5269
 10
-251.4045
 20
-15.443
 10
-251.1847
 20
-15.372
 10
-250.9619
 20
-15.3139
 10
-250.7359
 20
-15.2687
 10
-250.5069
 20
-15.2364
 10
-250.2748
 20
-15.217
 10
-250.0396
 20
-15.2105
 10
-249.5182
 20
-15.2534
 10
-249.2351
 20
-15.3028
 10
-248.9677
 20
-15.3673
 10
-248.7159
 20
-15.4469
 10
-248.4798
 20
-15.5418
 10
-248.2592
 20
-15.6518
 10
-248.0544
 20
-15.7769
 10
-247.8651
 20
-15.9172
 10
-247.6915
 20
-16.0727
 10
-247.5606
 20
-16.2146
 10
-247.4472
 20
-16.3641
 10
-247.3511
 20
-16.5211
 10
-247.2726
 20
-16.6857
 10
-247.2115
 20
-16.8578
 10
-247.1678
 20
-17.0375
 10
-247.1416
 20
-17.2247
 10
-247.1329
 20
-17.4195
 10
-247.1415
 20
-17.637
 10
-247.1675
 20
-17.8441
 10
-247.2107
 20
-18.0406
 10
-247.2712
 20
-18.2267
 10
-247.349
 20
-18.4022
 10
-247.4441
 20
-18.5673
 10
-247.5564
 20
-18.7218
 10
-247.686
 20
-18.8659
 10
-247.8137
 20
-18.9855
 10
-247.9492
 20
-19.0942
 10
-248.0926
 20
-19.1922
 10
-248.2439
 20
-19.2795
 10
-248.4004
 20
-19.3566
 10
-248.5587
 20
-19.4239
 10
-248.7189
 20
-19.4813
 10
-248.8811
 20
-19.529
 10
-249.5128
 20
-19.6503
 10
-250.2165
 20
-19.6858
 10
-250.4272
 20
-19.676
 10
-250.6617
 20
-19.6466
 10
-250.9201
 20
-19.5976
 10
-251.2027
 20
-19.529
 10
-251.363
 20
-19.4817
 10
-251.5227
 20
-19.4255
 10
-251.6816
 20
-19.3604
 10
-251.8399
 20
-19.2864
 10
-251.9939
 20
-19.2023
 10
-252.1399
 20
-19.1066
 10
-252.2781
 20
-18.9993
 10
-252.4083
 20
-18.8802
 10
-252.5286
 20
-18.7493
 10
-252.6363
 20
-18.6059
 10
-252.7313
 20
-18.4501
 10
-252.8138
 20
-18.2818
 10
-252.8497
 20
-18.1925
 10
-252.8808
 20
-18.0992
 10
-252.9071
 20
-18.0019
 10
-252.9286
 20
-17.9006
 10
-252.9454
 20
-17.7952
 10
-252.9573
 20
-17.6858
 10
-252.9645
 20
-17.5724
 10
-252.9669
 20
-17.455
 10
-252.9644
 20
-17.3378
 10
-252.957
 20
-17.2245
 10
-252.9446
 20
-17.1152
 10
-252.9273
 20
-17.01
 10
-252.9051
 20
-16.9087
 10
-252.8779
 20
-16.8114
 10
-252.8458
 20
-16.7181
 10
-252.8088
 20
-16.6288
  0
LWPOLYLINE
  5
16B
330
1F
100
AcDbEntity
  8
Layer 1
 62
     7
370
     9
100
AcDbPolyline
 90
       65
 70
     1
 43
0.0
 10
-246.3857
 20
-17.4052
 10
-246.4052
 20
-16.9892
 10
-246.4637
 20
-16.5996
 10
-246.5611
 20
-16.2366
 10
-246.6976
 20
-15.9
 10
-246.873
 20
-15.5899
 10
-247.0875
 20
-15.3063
 10
-247.341
 20
-15.0492
 10
-247.6336
 20
-14.8186
 10
-247.8887
 20
-14.6566
 10
-248.158
 20
-14.5162
 10
-248.4414
 20
-14.3974
 10
-248.739
 20
-14.3002
 10
-249.0507
 20
-14.2246
 10
-249.3766
 20
-14.1706
 10
-249.7166
 20
-14.1382
 10
-250.0707
 20
-14.1274
 10
-250.425
 20
-14.1382
 10
-250.7652
 20
-14.1706
 10
-251.0911
 20
-14.2246
 10
-251.4029
 20
-14.3002
 10
-251.7005
 20
-14.3974
 10
-251.984
 20
-14.5162
 10
-252.2533
 20
-14.6566
 10
-252.5085
 20
-14.8186
 10
-252.801
 20
-15.0492
 10
-253.0545
 20
-15.3063
 10
-253.269
 20
-15.5899
 10
-253.4444
 20
-15.9
 10
-253.5809
 20
-16.2366
 10
-253.6783
 20
-16.5996
 10
-253.7368
 20
-16.9892
 10
-253.7563
 20
-17.4052
 10
-253.7368
 20
-17.8214
 10
-253.6783
 20
-18.211
 10
-253.5809
 20
-18.5742
 10
-253.4444
 20
-18.9108
 10
-253.269
 20
-19.2208
 10
-253.0545
 20
-19.5044
 10
-252.801
 20
-19.7614
 10
-252.5085
 20
-19.9919
 10
-252.2533
 20
-20.1539
 10
-251.984
 20
-20.2944
 10
-251.7005
 20
-20.4133
 10
-251.4029
 20
-20.5105
 10
-251.0911
 20
-20.5862
 10
-250.7652
 20
-20.6403
 10
-250.425
 20
-20.6727
 10
-250.0707
 20
-20.6835
 10
-249.7166
 20
-20.6727
 10
-249.3766
 20
-20.6403
 10
-249.0507
 20
-20.5862
 10
-248.739
 20
-20.5105
 10
-248.4414
 20
-20.4133
 10
-248.158
 20
-20.2944
 10
-247.8887
 20
-20.1539
 10
-247.6336
 20
-19.9919
 10
-247.341
 20
-19.7614
 10
-247.0875
 20
-19.5044
 10
-246.873
 20
-19.2208
 10
-246.6976
 20
-18.9108
 10
-246.5611
 20
-18.5742
 10
-246.4637
 20
-18.211
 10
-246.4052
 20
-17.8214
 10
-246.3857
 20
-17.4052
  0
ENDSEC
  0
SECTION
  2
OBJECTS
  0
DICTIONARY
  5
C
330
0
100
AcDbDictionary
281
     1
  3
ACAD_DETAILVIEWSTYLE
350
173
  3
ACAD_GROUP
350
D
  3
ACAD_LAYOUT
350
1A
  3
ACAD_MATERIAL
350
43
  3
ACAD_MLEADERSTYLE
350
5B
  3
ACAD_MLINESTYLE
350
17
  3
ACAD_PLOTSETTINGS
350
19
  3
ACAD_PLOTSTYLENAME
350
E
  3
ACAD_SCALELIST
350
47
  3
ACAD_SECTIONVIEWSTYLE
350
174
  3
ACAD_TABLESTYLE
350
59
  3
ACAD_VISUALSTYLE
350
2A
  3
ACDB_RECOMPOSE_DATA
350
170
  3
AcDbVariableDictionary
350
16C
  0
SUN
  5
5D
330
29
100
AcDbSun
 90
        1
290
     0
 63
     7
421
 16777215
 40
1.0
291
     1
 91
  2455826
 92
 54000000
292
     0
 70
     2
 71
   256
280
     1
  0
DICTIONARY
  5
173
102
{ACAD_REACTORS
330
C
102
}
330
C
100
AcDbDictionary
281
     1
  0
DICTIONARY
  5
D
102
{ACAD_REACTORS
330
C
102
}
330
C
100
AcDbDictionary
281
     1
  0
DICTIONARY
  5
1A
102
{ACAD_REACTORS
330
C
102
}
330
C
100
AcDbDictionary
281
     1
  3
Layout1
350
1E
  3
Layout2
350
26
  3
Model
350
22
  0
DICTIONARY
  5
43
102
{ACAD_REACTORS
330
C
102
}
330
C
100
AcDbDictionary
281
     1
  3
ByBlock
350
45
  3
ByLayer
350
44
  3
Global
350
46
  0
DICTIONARY
  5
5B
102
{ACAD_REACTORS
330
C
102
}
330
C
100
AcDbDictionary
281
     1
  3
Standard
350
5C
  0
DICTIONARY
  5
17
102
{ACAD_REACTORS
330
C
102
}
330
C
100
AcDbDictionary
281
     1
  3
Standard
350
18
  0
DICTIONARY
  5
19
102
{ACAD_REACTORS
330
C
102
}
330
C
100
AcDbDictionary
281
     1
  0
ACDBDICTIONARYWDFLT
  5
E
102
{ACAD_REACTORS
330
C
102
}
330
C
100
AcDbDictionary
281
     1
  3
Normal
350
F
100
AcDbDictionaryWithDefault
340
F
  0
DICTIONARY
  5
47
102
{ACAD_REACTORS
330
C
102
}
330
C
100
AcDbDictionary
281
     1
  3
A0
350
48
  3
A1
350
49
  3
A2
350
4A
  3
A3
350
4B
  3
A4
350
4C
  3
A5
350
4D
  3
A6
350
4E
  3
A7
350
4F
  3
A8
350
50
  3
A9
350
51
  3
B1
350
52
  3
B2
350
53
  3
B3
350
54
  3
B4
350
55
  3
B5
350
56
  3
B6
350
57
  3
B7
350
58
  0
DICTIONARY
  5
174
102
{ACAD_REACTORS
330
C
102
}
330
C
100
AcDbDictionary
281
     1
  0
DICTIONARY
  5
59
102
{ACAD_REACTORS
330
C
102
}
330
C
100
AcDbDictionary
281
     1
  3
Standard
350
5A
  0
DICTIONARY
  5
2A
102
{ACAD_REACTORS
330
C
102
}
330
C
100
AcDbDictionary
281
     1
  3
2dWireframe
350
2F
  3
Basic
350
32
  3
Brighten
350
36
  3
ColorChange
350
3A
  3
Conceptual
350
34
  3
Dim
350
35
  3
EdgeColorOff
350
3D
  3
Facepattern
350
39
  3
Flat
350
2B
  3
FlatWithEdges
350
2C
  3
Gouraud
350
2D
  3
GouraudWithEdges
350
2E
  3
Hidden
350
31
  3
JitterOff
350
3B
  3
Linepattern
350
38
  3
OverhangOff
350
3C
  3
Realistic
350
33
  3
Shaded
350
42
  3
Shaded with edges
350
41
  3
Shades of Gray
350
3E
  3
Sketchy
350
3F
  3
Thicken
350
37
  3
Wireframe
350
30
  3
X-Ray
350
40
  0
XRECORD
  5
170
102
{ACAD_REACTORS
330
C
102
}
330
C
100
AcDbXrecord
280
     1
 90
        1
330
5A
  0
DICTIONARY
  5
16C
102
{ACAD_REACTORS
330
C
102
}
330
C
100
AcDbDictionary
281
     1
  3
CANNOSCALE
350
16D
  3
CMLEADERSTYLE
350
172
  3
CTABLESTYLE
350
171
  0
LAYOUT
  5
1E
102
{ACAD_REACTORS
330
1A
102
}
330
1A
100
AcDbPlotSettings
  1

  2
none_device
  4

  6

 40
0.0
 41
0.0
 42
0.0
 43
0.0
 44
0.0
 45
0.0
 46
0.0
 47
0.0
 48
0.0
 49
0.0
140
0.0
141
0.0
142
1.0
143
1.0
 70
   688
 72
     0
 73
     0
 74
     5
  7

 75
    16
 76
     0
 77
     2
 78
   300
147
1.0
148
0.0
149
0.0
100
AcDbLayout
  1
Layout1
 70
     1
 71
     1
 10
0.0
 20
0.0
 11
12.0
 21
9.0
 12
0.0
 22
0.0
 32
0.0
 14
1.000000000000000E+20
 24
1.000000000000000E+20
 34
1.000000000000000E+20
 15
-1.000000000000000E+20
 25
-1.000000000000000E+20
 35
-1.000000000000000E+20
146
0.0
 13
0.0
 23
0.0
 33
0.0
 16
1.0
 26
0.0
 36
0.0
 17
0.0
 27
1.0
 37
0.0
 76
     0
330
1B
  0
LAYOUT
  5
26
102
{ACAD_REACTORS
330
1A
102
}
330
1A
100
AcDbPlotSettings
  1

  2
none_device
  4

  6

 40
0.0
 41
0.0
 42
0.0
 43
0.0
 44
0.0
 45
0.0
 46
0.0
 47
0.0
 48
0.0
 49
0.0
140
0.0
141
0.0
142
1.0
143
1.0
 70
   688
 72
     0
 73
     0
 74
     5
  7

 75
    16
 76
     0
 77
     2
 78
   300
147
1.0
148
0.0
149
0.0
100
AcDbLayout
  1
Layout2
 70
     1
 71
     2
 10
0.0
 20
0.0
 11
0.0
 21
0.0
 12
0.0
 22
0.0
 32
0.0
 14
0.0
 24
0.0
 34
0.0
 15
0.0
 25
0.0
 35
0.0
146
0.0
 13
0.0
 23
0.0
 33
0.0
 16
1.0
 26
0.0
 36
0.0
 17
0.0
 27
1.0
 37
0.0
 76
     0
330
23
  0
LAYOUT
  5
22
102
{ACAD_REACTORS
330
1A
102
}
330
1A
100
AcDbPlotSettings
  1

  2
none_device
  4
Letter_(8.50_x_11.00_Inches)
  6

 40
6.35
 41
6.35
 42
6.35000508
 43
6.35000508
 44
215.9
 45
279.4
 46
0.0
 47
0.0
 48
0.0
 49
0.0
140
0.0
141
0.0
142
1.0
143
1.0
 70
  1712
 72
     0
 73
     0
 74
     0
  7

 75
     0
 76
     0
 77
     2
 78
   300
147
1.0
148
0.0
149
0.0
100
AcDbLayout
  1
Model
 70
     1
 71
     0
 10
0.0
 20
0.0
 11
12.0
 21
9.0
 12
0.0
 22
0.0
 32
0.0
 14
-475.09
 24
-203.7743
 34
0.0
 15
-186.6614
 25
218.9495
 35
0.0
146
0.0
 13
0.0
 23
0.0
 33
0.0
 16
1.0
 26
0.0
 36
0.0
 17
0.0
 27
1.0
 37
0.0
 76
     0
330
1F
331
29
  0
MATERIAL
  5
45
102
{ACAD_REACTORS
330
43
102
}
330
43
100
AcDbMaterial
  1
ByBlock
 72
     1
 94
      127
  0
MATERIAL
  5
44
102
{ACAD_REACTORS
330
43
102
}
330
43
100
AcDbMaterial
  1
ByLayer
 72
     1
 94
      127
  0
MATERIAL
  5
46
102
{ACAD_REACTORS
330
43
102
}
330
43
100
AcDbMaterial
  1
Global
 72
     1
 94
      127
  0
MLEADERSTYLE
  5
5C
102
{ACAD_REACTORS
330
5B
102
}
330
5B
100
AcDbMLeaderStyle
179
     2
170
     2
171
     1
172
     0
 90
        2
 40
0.0
 41
0.0
173
     1
 91
-1056964608
340
14
 92
       -2
290
     1
 42
0.09
291
     1
 43
0.36
  3
Standard
341
0
 44
0.18
300

342
11
174
     1
178
     6
175
     1
176
     0
 93
-1056964608
 45
0.18
292
     0
297
     0
 46
0.18
343
0
 94
-1056964608
 47
1.0
 49
1.0
140
1.0
293
     1
141
0.0
294
     1
177
     0
142
1.0
295
     0
296
     0
143
0.125
271
     0
272
     9
273
     9
298
     0
  0
MLINESTYLE
  5
18
102
{ACAD_REACTORS
330
17
102
}
330
17
100
AcDbMlineStyle
  2
Standard
 70
     0
  3

 62
   256
 51
90.0
 52
90.0
 71
     2
 49
0.5
 62
   256
  6
BYLAYER
 49
-0.5
 62
   256
  6
BYLAYER
  0
ACDBPLACEHOLDER
  5
F
102
{ACAD_REACTORS
330
E
102
}
330
E
  0
SCALE
  5
48
102
{ACAD_REACTORS
330
47
102
}
330
47
100
AcDbScale
 70
     0
300
1:1
140
1.0
141
1.0
290
     1
  0
SCALE
  5
49
102
{ACAD_REACTORS
330
47
102
}
330
47
100
AcDbScale
 70
     0
300
1/128" = 1'-0"
140
0.0078125
141
12.0
290
     0
  0
SCALE
  5
4A
102
{ACAD_REACTORS
330
47
102
}
330
47
100
AcDbScale
 70
     0
300
1/64" = 1'-0"
140
0.015625
141
12.0
290
     0
  0
SCALE
  5
4B
102
{ACAD_REACTORS
330
47
102
}
330
47
100
AcDbScale
 70
     0
300
1/32" = 1'-0"
140
0.03125
141
12.0
290
     0
  0
SCALE
  5
4C
102
{ACAD_REACTORS
330
47
102
}
330
47
100
AcDbScale
 70
     0
300
1/16" = 1'-0"
140
0.0625
141
12.0
290
     0
  0
SCALE
  5
4D
102
{ACAD_REACTORS
330
47
102
}
330
47
100
AcDbScale
 70
     0
300
3/32" = 1'-0"
140
0.09375
141
12.0
290
     0
  0
SCALE
  5
4E
102
{ACAD_REACTORS
330
47
102
}
330
47
100
AcDbScale
 70
     0
300
1/8" = 1'-0"
140
0.125
141
12.0
290
     0
  0
SCALE
  5
4F
102
{ACAD_REACTORS
330
47
102
}
330
47
100
AcDbScale
 70
     0
300
3/16" = 1'-0"
140
0.1875
141
12.0
290
     0
  0
SCALE
  5
50
102
{ACAD_REACTORS
330
47
102
}
330
47
100
AcDbScale
 70
     0
300
1/4" = 1'-0"
140
0.25
141
12.0
290
     0
  0
SCALE
  5
51
102
{ACAD_REACTORS
330
47
102
}
330
47
100
AcDbScale
 70
     0
300
3/8" = 1'-0"
140
0.375
141
12.0
290
     0
  0
SCALE
  5
52
102
{ACAD_REACTORS
330
47
102
}
330
47
100
AcDbScale
 70
     0
300
1/2" = 1'-0"
140
0.5
141
12.0
290
     0
  0
SCALE
  5
53
102
{ACAD_REACTORS
330
47
102
}
330
47
100
AcDbScale
 70
     0
300
3/4" = 1'-0"
140
0.75
141
12.0
290
     0
  0
SCALE
  5
54
102
{ACAD_REACTORS
330
47
102
}
330
47
100
AcDbScale
 70
     0
300
1" = 1'-0"
140
1.0
141
12.0
290
     0
  0
SCALE
  5
55
102
{ACAD_REACTORS
330
47
102
}
330
47
100
AcDbScale
 70
     0
300
1-1/2" = 1'-0"
140
1.5
141
12.0
290
     0
  0
SCALE
  5
56
102
{ACAD_REACTORS
330
47
102
}
330
47
100
AcDbScale
 70
     0
300
3" = 1'-0"
140
3.0
141
12.0
290
     0
  0
SCALE
  5
57
102
{ACAD_REACTORS
330
47
102
}
330
47
100
AcDbScale
 70
     0
300
6" = 1'-0"
140
6.0
141
12.0
290
     0
  0
SCALE
  5
58
102
{ACAD_REACTORS
330
47
102
}
330
47
100
AcDbScale
 70
     0
300
1'-0" = 1'-0"
140
12.0
141
12.0
290
     0
  0
TABLESTYLE
  5
5A
102
{ACAD_REACTORS
330
59
102
}
102
{ACAD_XDICTIONARY
360
16E
102
}
330
59
100
AcDbTableStyle
  3
Standard
 70
     0
 71
     0
 40
0.06
 41
0.06
280
     0
281
     0
  7
Standard
140
0.18
170
     2
 62
     0
 63
   257
283
     0
 90
        4
 91
        0
  1

274
    -2
284
     1
 64
     0
275
    -2
285
     1
 65
     0
276
    -2
286
     1
 66
     0
277
    -2
287
     1
 67
     0
278
    -2
288
     1
 68
     0
279
    -2
289
     1
 69
     0
  7
Standard
140
0.25
170
     5
 62
     0
 63
   257
283
     0
 90
        4
 91
        0
  1

274
    -2
284
     1
 64
     0
275
    -2
285
     1
 65
     0
276
    -2
286
     1
 66
     0
277
    -2
287
     1
 67
     0
278
    -2
288
     1
 68
     0
279
    -2
289
     1
 69
     0
  7
Standard
140
0.18
170
     5
 62
     0
 63
   257
283
     0
 90
        4
 91
        0
  1

274
    -2
284
     1
 64
     0
275
    -2
285
     1
 65
     0
276
    -2
286
     1
 66
     0
277
    -2
287
     1
 67
     0
278
    -2
288
     1
 68
     0
279
    -2
289
     1
 69
     0
  0
VISUALSTYLE
  5
2F
102
{ACAD_REACTORS
330
2A
102
}
330
2A
100
AcDbVisualStyle
  2
2dWireframe
 70
     4
177
     3
291
     0
 70
    58
 90
        0
176
     1
 90
        2
176
     1
 90
        0
176
     1
 90
        0
176
     1
 40
0.6
176
     1
 40
30.0
176
     1
 62
     7
420
 16777215
176
     1
 90
        1
176
     1
 90
        4
176
     1
 62
     7
176
     1
 62
   257
176
     1
 90
        1
176
     1
 90
        1
176
     1
 40
1.0
176
     1
 90
        0
176
     1
 62
   257
176
     1
 40
1.0
176
     1
 90
        1
176
     1
 90
        6
176
     1
 90
        2
176
     1
 62
     7
176
     1
 90
        5
176
     1
 90
        0
176
     1
 90
        0
176
     1
290
     0
176
     1
 90
        1
176
     1
 40
0.0
176
     1
 90
        0
176
     1
290
     1
176
     1
290
     1
176
     1
290
     0
176
     1
290
     0
176
     1
290
     0
176
     1
290
     0
176
     1
290
     0
176
     1
290
     0
176
     1
290
     0
176
     1
 90
       50
176
     1
 40
0.0
176
     1
 40
1.0
176
     1
 90
        0
176
     1
 62
    18
420
        0
176
     1
 90
       50
176
     1
 90
        3
176
     1
 62
     5
420
      255
176
     1
290
     0
176
     1
 90
       50
176
     1
 90
       50
176
     1
 90
       50
176
     1
290
     0
176
     1
 90
       50
176
     1
 62
   256
176
     0
 40
1.0
176
     0
 90
        2
176
     1
  1
strokes_ogs.tif
176
     1
290
     0
176
     1
 40
1.0
176
     1
 40
1.0
176
     1
  0
VISUALSTYLE
  5
32
102
{ACAD_REACTORS
330
2A
102
}
330
2A
100
AcDbVisualStyle
  2
Basic
 70
     7
177
     3
291
     1
 70
    58
 90
        1
176
     1
 90
        0
176
     1
 90
        1
176
     1
 90
        0
176
     1
 40
0.6
176
     1
 40
30.0
176
     1
 62
     7
420
 16777215
176
     1
 90
        0
176
     1
 90
        4
176
     1
 62
     7
176
     1
 62
   257
176
     1
 90
        1
176
     1
 90
        1
176
     1
 40
1.0
176
     1
 90
        8
176
     1
 62
     7
176
     1
 40
1.0
176
     1
 90
        1
176
     1
 90
        6
176
     1
 90
        2
176
     1
 62
     7
176
     1
 90
        5
176
     1
 90
        0
176
     1
 90
        0
176
     1
290
     0
176
     1
 90
        1
176
     1
 40
0.0
176
     1
 90
        0
176
     1
290
     0
176
     1
290
     1
176
     1
290
     1
176
     1
290
     0
176
     1
290
     0
176
     1
290
     0
176
     1
290
     0
176
     1
290
     0
176
     1
290
     0
176
     1
 90
       50
176
     1
 40
0.0
176
     1
 40
1.0
176
     1
 90
        0
176
     1
 62
    18
420
        0
176
     1
 90
       50
176
     1
 90
        3
176
     1
 62
     5
420
      255
176
     1
290
     0
176
     1
 90
       50
176
     1
 90
       50
176
     1
 90
       50
176
     1
290
     0
176
     1
 90
       50
176
     1
 62
   256
176
     0
 40
1.0
176
     0
 90
        2
176
     1
  1
strokes_ogs.tif
176
     1
290
     0
176
     1
 40
1.0
176
     1
 40
1.0
176
     1
  0
VISUALSTYLE
  5
36
102
{ACAD_REACTORS
330
2A
102
}
330
2A
100
AcDbVisualStyle
  2
Brighten
 70
    12
177
     3
291
     1
 70
    58
 90
        2
176
     1
 90
        2
176
     1
 90
        0
176
     1
 90
        0
176
     1
 40
0.6
176
     1
 40
30.0
176
     1
 62
     7
420
 16777215
176
     1
 90
        1
176
     1
 90
        4
176
     1
 62
     7
176
     1
 62
   257
176
     1
 90
        1
176
     1
 90
        1
176
     1
 40
1.0
176
     1
 90
        8
176
     1
 62
     7
176
     1
 40
1.0
176
     1
 90
        1
176
     1
 90
        6
176
     1
 90
        2
176
     1
 62
     7
176
     1
 90
        5
176
     1
 90
        0
176
     1
 90
        0
176
     1
290
     0
176
     1
 90
        1
176
     1
 40
50.0
176
     1
 90
        0
176
     1
290
     0
176
     1
290
     1
176
     1
290
     1
176
     1
290
     0
176
     1
290
     0
176
     1
290
     0
176
     1
290
     0
176
     1
290
     0
176
     1
290
     0
176
     1
 90
       50
176
     1
 40
0.0
176
     1
 40
1.0
176
     1
 90
        0
176
     1
 62
    18
420
        0
176
     1
 90
       50
176
     1
 90
        3
176
     1
 62
     5
420
      255
176
     1
290
     0
176
     1
 90
       50
176
     1
 90
       50
176
     1
 90
       50
176
     1
290
     0
176
     1
 90
       50
176
     1
 62
   256
176
     0
 40
1.0
176
     0
 90
        2
176
     1
  1
strokes_ogs.tif
176
     1
290
     0
176
     1
 40
1.0
176
     1
 40
1.0
176
     1
  0
VISUALSTYLE
  5
3A
102
{ACAD_REACTORS
330
2A
102
}
330
2A
100
AcDbVisualStyle
  2
ColorChange
 70
    16
177
     3
291
     1
 70
    58
 90
        2
176
     1
 90
        2
176
     1
 90
        3
176
     1
 90
        0
176
     1
 40
0.6
176
     1
 40
30.0
176
     1
 62
     8
420
  8421504
176
     1
 90
        1
176
     1
 90
        4
176
     1
 62
     7
176
     1
 62
   257
176
     1
 90
        1
176
     1
 90
        1
176
     1
 40
1.0
176
     1
 90
        8
176
     1
 62
     8
420
  8421504
176
     1
 40
1.0
176
     1
 90
        1
176
     1
 90
        6
176
     1
 90
        2
176
     1
 62
     7
176
     1
 90
        5
176
     1
 90
        0
176
     1
 90
        0
176
     1
290
     0
176
     1
 90
        1
176
     1
 40
0.0
176
     1
 90
        0
176
     1
290
     0
176
     1
290
     1
176
     1
290
     1
176
     1
290
     0
176
     1
290
     0
176
     1
290
     0
176
     1
290
     0
176
     1
290
     0
176
     1
290
     0
176
     1
 90
       50
176
     1
 40
0.0
176
     1
 40
1.0
176
     1
 90
        0
176
     1
 62
    18
420
        0
176
     1
 90
       50
176
     1
 90
        3
176
     1
 62
     5
420
      255
176
     1
290
     0
176
     1
 90
       50
176
     1
 90
       50
176
     1
 90
       50
176
     1
290
     0
176
     1
 90
       50
176
     1
 62
   256
176
     0
 40
1.0
176
     0
 90
        2
176
     1
  1
strokes_ogs.tif
176
     1
290
     0
176
     1
 40
1.0
176
     1
 40
1.0
176
     1
  0
VISUALSTYLE
  5
34
102
{ACAD_REACTORS
330
2A
102
}
330
2A
100
AcDbVisualStyle
  2
Conceptual
 70
     9
177
     3
291
     0
 70
    58
 90
        3
176
     1
 90
        2
176
     1
 90
        0
176
     1
 90
        0
176
     1
 40
0.6
176
     1
 40
30.0
176
     1
 62
     7
420
 16777215
176
     1
 90
        2
176
     1
 90
        2
176
     1
 62
     7
176
     1
 62
   257
176
     1
 90
        1
176
     1
 90
        1
176
     1
 40
179.0
176
     1
 90
        8
176
     1
 62
     7
176
     1
 40
1.0
176
     1
 90
        1
176
     1
 90
        6
176
     1
 90
        2
176
     1
 62
     7
176
     1
 90
        3
176
     1
 90
        0
176
     1
 90
        0
176
     1
290
     0
176
     1
 90
        1
176
     1
 40
0.0
176
     1
 90
        0
176
     1
290
     0
176
     1
290
     1
176
     1
290
     1
176
     1
290
     0
176
     1
290
     0
176
     1
290
     0
176
     1
290
     0
176
     1
290
     0
176
     1
290
     0
176
     1
 90
       50
176
     1
 40
0.0
176
     1
 40
1.0
176
     1
 90
        0
176
     1
 62
    18
420
        0
176
     1
 90
       50
176
     1
 90
        3
176
     1
 62
     5
420
      255
176
     1
290
     0
176
     1
 90
       50
176
     1
 90
       50
176
     1
 90
       50
176
     1
290
     0
176
     1
 90
       50
176
     1
 62
   256
176
     0
 40
1.0
176
     0
 90
        2
176
     1
  1
strokes_ogs.tif
176
     1
290
     0
176
     1
 40
1.0
176
     1
 40
1.0
176
     1
  0
VISUALSTYLE
  5
35
102
{ACAD_REACTORS
330
2A
102
}
330
2A
100
AcDbVisualStyle
  2
Dim
 70
    11
177
     3
291
     1
 70
    58
 90
        2
176
     1
 90
        2
176
     1
 90
        0
176
     1
 90
        0
176
     1
 40
0.6
176
     1
 40
30.0
176
     1
 62
     7
420
 16777215
176
     1
 90
        1
176
     1
 90
        4
176
     1
 62
     7
176
     1
 62
   257
176
     1
 90
        1
176
     1
 90
        1
176
     1
 40
1.0
176
     1
 90
        8
176
     1
 62
     7
176
     1
 40
1.0
176
     1
 90
        1
176
     1
 90
        6
176
     1
 90
        2
176
     1
 62
     7
176
     1
 90
        5
176
     1
 90
        0
176
     1
 90
        0
176
     1
290
     0
176
     1
 90
        1
176
     1
 40
-50.0
176
     1
 90
        0
176
     1
290
     0
176
     1
290
     1
176
     1
290
     1
176
     1
290
     0
176
     1
290
     0
176
     1
290
     0
176
     1
290
     0
176
     1
290
     0
176
     1
290
     0
176
     1
 90
       50
176
     1
 40
0.0
176
     1
 40
1.0
176
     1
 90
        0
176
     1
 62
    18
420
        0
176
     1
 90
       50
176
     1
 90
        3
176
     1
 62
     5
420
      255
176
     1
290
     0
176
     1
 90
       50
176
     1
 90
       50
176
     1
 90
       50
176
     1
290
     0
176
     1
 90
       50
176
     1
 62
   256
176
     0
 40
1.0
176
     0
 90
        2
176
     1
  1
strokes_ogs.tif
176
     1
290
     0
176
     1
 40
1.0
176
     1
 40
1.0
176
     1
  0
VISUALSTYLE
  5
3D
102
{ACAD_REACTORS
330
2A
102
}
330
2A
100
AcDbVisualStyle
  2
EdgeColorOff
 70
    22
177
     3
291
     1
 70
    58
 90
        2
176
     0
 90
        2
176
     0
 90
        0
176
     0
 90
        0
176
     0
 40
0.6
176
     0
 40
30.0
176
     0
 62
     7
420
 16777215
176
     0
 90
        1
176
     0
 90
        4
176
     0
 62
     7
176
     0
 62
   257
176
     0
 90
        1
176
     0
 90
        1
176
     0
 40
1.0
176
     0
 90
        8
176
     2
 62
     7
176
     0
 40
1.0
176
     0
 90
        1
176
     0
 90
        6
176
     0
 90
        2
176
     0
 62
     7
176
     0
 90
        5
176
     0
 90
        0
176
     0
 90
        0
176
     0
290
     0
176
     0
 90
        1
176
     0
 40
0.0
176
     0
 90
        0
176
     0
290
     0
176
     0
290
     1
176
     0
290
     1
176
     0
290
     0
176
     0
290
     0
176
     0
290
     0
176
     0
290
     0
176
     0
290
     0
176
     0
290
     0
176
     0
 90
       50
176
     0
 40
0.0
176
     0
 40
1.0
176
     0
 90
        0
176
     0
 62
    18
420
        0
176
     0
 90
       50
176
     0
 90
        3
176
     0
 62
     5
420
      255
176
     0
290
     0
176
     0
 90
       50
176
     0
 90
       50
176
     0
 90
       50
176
     0
290
     0
176
     0
 90
       50
176
     0
 62
   256
176
     0
 40
1.0
176
     0
 90
        2
176
     0
  1
strokes_ogs.tif
176
     0
290
     0
176
     0
 40
1.0
176
     0
 40
1.0
176
     0
  0
VISUALSTYLE
  5
39
102
{ACAD_REACTORS
330
2A
102
}
330
2A
100
AcDbVisualStyle
  2
Facepattern
 70
    15
177
     3
291
     1
 70
    58
 90
        2
176
     1
 90
        2
176
     1
 90
        0
176
     1
 90
        0
176
     1
 40
0.6
176
     1
 40
30.0
176
     1
 62
     7
420
 16777215
176
     1
 90
        1
176
     1
 90
        4
176
     1
 62
     7
176
     1
 62
   257
176
     1
 90
        1
176
     1
 90
        1
176
     1
 40
1.0
176
     1
 90
        8
176
     1
 62
     7
176
     1
 40
1.0
176
     1
 90
        1
176
     1
 90
        6
176
     1
 90
        2
176
     1
 62
     7
176
     1
 90
        5
176
     1
 90
        0
176
     1
 90
        0
176
     1
290
     0
176
     1
 90
        1
176
     1
 40
0.0
176
     1
 90
        0
176
     1
290
     0
176
     1
290
     1
176
     1
290
     1
176
     1
290
     0
176
     1
290
     0
176
     1
290
     0
176
     1
290
     0
176
     1
290
     0
176
     1
290
     0
176
     1
 90
       50
176
     1
 40
0.0
176
     1
 40
1.0
176
     1
 90
        0
176
     1
 62
    18
420
        0
176
     1
 90
       50
176
     1
 90
        3
176
     1
 62
     5
420
      255
176
     1
290
     0
176
     1
 90
       50
176
     1
 90
       50
176
     1
 90
       50
176
     1
290
     0
176
     1
 90
       50
176
     1
 62
   256
176
     0
 40
1.0
176
     0
 90
        2
176
     1
  1
strokes_ogs.tif
176
     1
290
     0
176
     1
 40
1.0
176
     1
 40
1.0
176
     1
  0
VISUALSTYLE
  5
2B
102
{ACAD_REACTORS
330
2A
102
}
330
2A
100
AcDbVisualStyle
  2
Flat
 70
     0
177
     3
291
     1
 70
    58
 90
        2
176
     1
 90
        1
176
     1
 90
        1
176
     1
 90
        2
176
     1
 40
0.6
176
     1
 40
30.0
176
     1
 62
     7
420
 16777215
176
     1
 90
        0
176
     1
 90
        0
176
     1
 62
     7
176
     1
 62
   257
176
     1
 90
        1
176
     1
 90
        1
176
     1
 40
1.0
176
     1
 90
        8
176
     1
 62
     7
176
     1
 40
1.0
176
     1
 90
        1
176
     1
 90
        6
176
     1
 90
        2
176
     1
 62
     7
176
     1
 90
        5
176
     1
 90
        0
176
     1
 90
        0
176
     1
290
     0
176
     1
 90
       13
176
     1
 40
0.0
176
     1
 90
        0
176
     1
290
     0
176
     1
290
     1
176
     1
290
     1
176
     1
290
     0
176
     1
290
     0
176
     1
290
     0
176
     1
290
     0
176
     1
290
     0
176
     1
290
     0
176
     1
 90
       50
176
     1
 40
0.0
176
     1
 40
1.0
176
     1
 90
        0
176
     1
 62
    18
420
        0
176
     1
 90
       50
176
     1
 90
        3
176
     1
 62
     5
420
      255
176
     1
290
     0
176
     1
 90
       50
176
     1
 90
       50
176
     1
 90
       50
176
     1
290
     0
176
     1
 90
       50
176
     1
 62
   256
176
     0
 40
1.0
176
     0
 90
        2
176
     1
  1
strokes_ogs.tif
176
     1
290
     0
176
     1
 40
1.0
176
     1
 40
1.0
176
     1
  0
VISUALSTYLE
  5
2C
102
{ACAD_REACTORS
330
2A
102
}
330
2A
100
AcDbVisualStyle
  2
FlatWithEdges
 70
     1
177
     3
291
     1
 70
    58
 90
        2
176
     1
 90
        1
176
     1
 90
        1
176
     1
 90
        2
176
     1
 40
0.6
176
     1
 40
30.0
176
     1
 62
     7
420
 16777215
176
     1
 90
        1
176
     1
 90
        0
176
     1
 62
     7
176
     1
 62
   257
176
     1
 90
        1
176
     1
 90
        1
176
     1
 40
1.0
176
     1
 90
        0
176
     1
 62
   257
176
     1
 40
1.0
176
     1
 90
        1
176
     1
 90
        6
176
     1
 90
        2
176
     1
 62
     7
176
     1
 90
        5
176
     1
 90
        0
176
     1
 90
        0
176
     1
290
     0
176
     1
 90
       13
176
     1
 40
0.0
176
     1
 90
        0
176
     1
290
     0
176
     1
290
     1
176
     1
290
     1
176
     1
290
     0
176
     1
290
     0
176
     1
290
     0
176
     1
290
     0
176
     1
290
     0
176
     1
290
     0
176
     1
 90
       50
176
     1
 40
0.0
176
     1
 40
1.0
176
     1
 90
        0
176
     1
 62
    18
420
        0
176
     1
 90
       50
176
     1
 90
        3
176
     1
 62
     5
420
      255
176
     1
290
     0
176
     1
 90
       50
176
     1
 90
       50
176
     1
 90
       50
176
     1
290
     0
176
     1
 90
       50
176
     1
 62
   256
176
     0
 40
1.0
176
     0
 90
        2
176
     1
  1
strokes_ogs.tif
176
     1
290
     0
176
     1
 40
1.0
176
     1
 40
1.0
176
     1
  0
VISUALSTYLE
  5
2D
102
{ACAD_REACTORS
330
2A
102
}
330
2A
100
AcDbVisualStyle
  2
Gouraud
 70
     2
177
     3
291
     1
 70
    58
 90
        2
176
     1
 90
        2
176
     1
 90
        1
176
     1
 90
        2
176
     1
 40
0.6
176
     1
 40
30.0
176
     1
 62
     7
420
 16777215
176
     1
 90
        0
176
     1
 90
        0
176
     1
 62
     7
176
     1
 62
   257
176
     1
 90
        1
176
     1
 90
        1
176
     1
 40
1.0
176
     1
 90
        0
176
     1
 62
     7
176
     1
 40
1.0
176
     1
 90
        1
176
     1
 90
        6
176
     1
 90
        2
176
     1
 62
     7
176
     1
 90
        5
176
     1
 90
        0
176
     1
 90
        0
176
     1
290
     0
176
     1
 90
       13
176
     1
 40
0.0
176
     1
 90
        0
176
     1
290
     0
176
     1
290
     1
176
     1
290
     1
176
     1
290
     0
176
     1
290
     0
176
     1
290
     0
176
     1
290
     0
176
     1
290
     0
176
     1
290
     0
176
     1
 90
       50
176
     1
 40
0.0
176
     1
 40
1.0
176
     1
 90
        0
176
     1
 62
    18
420
        0
176
     1
 90
       50
176
     1
 90
        3
176
     1
 62
     5
420
      255
176
     1
290
     0
176
     1
 90
       50
176
     1
 90
       50
176
     1
 90
       50
176
     1
290
     0
176
     1
 90
       50
176
     1
 62
   256
176
     0
 40
1.0
176
     0
 90
        2
176
     1
  1
strokes_ogs.tif
176
     1
290
     0
176
     1
 40
1.0
176
     1
 40
1.0
176
     1
  0
VISUALSTYLE
  5
2E
102
{ACAD_REACTORS
330
2A
102
}
330
2A
100
AcDbVisualStyle
  2
GouraudWithEdges
 70
     3
177
     3
291
     1
 70
    58
 90
        2
176
     1
 90
        2
176
     1
 90
        1
176
     1
 90
        2
176
     1
 40
0.6
176
     1
 40
30.0
176
     1
 62
     7
420
 16777215
176
     1
 90
        1
176
     1
 90
        0
176
     1
 62
     7
176
     1
 62
   257
176
     1
 90
        1
176
     1
 90
        1
176
     1
 40
1.0
176
     1
 90
        0
176
     1
 62
   257
176
     1
 40
1.0
176
     1
 90
        1
176
     1
 90
        6
176
     1
 90
        2
176
     1
 62
     7
176
     1
 90
        5
176
     1
 90
        0
176
     1
 90
        0
176
     1
290
     0
176
     1
 90
       13
176
     1
 40
0.0
176
     1
 90
        0
176
     1
290
     0
176
     1
290
     1
176
     1
290
     1
176
     1
290
     0
176
     1
290
     0
176
     1
290
     0
176
     1
290
     0
176
     1
290
     0
176
     1
290
     0
176
     1
 90
       50
176
     1
 40
0.0
176
     1
 40
1.0
176
     1
 90
        0
176
     1
 62
    18
420
        0
176
     1
 90
       50
176
     1
 90
        3
176
     1
 62
     5
420
      255
176
     1
290
     0
176
     1
 90
       50
176
     1
 90
       50
176
     1
 90
       50
176
     1
290
     0
176
     1
 90
       50
176
     1
 62
   256
176
     0
 40
1.0
176
     0
 90
        2
176
     1
  1
strokes_ogs.tif
176
     1
290
     0
176
     1
 40
1.0
176
     1
 40
1.0
176
     1
  0
VISUALSTYLE
  5
31
102
{ACAD_REACTORS
330
2A
102
}
330
2A
100
AcDbVisualStyle
  2
Hidden
 70
     6
177
     3
291
     0
 70
    58
 90
        1
176
     1
 90
        2
176
     1
 90
        2
176
     1
 90
        0
176
     1
 40
0.6
176
     1
 40
30.0
176
     1
 62
     7
420
 16777215
176
     1
 90
        2
176
     1
 90
        2
176
     1
 62
     7
176
     1
 62
   257
176
     1
 90
        2
176
     1
 90
        1
176
     1
 40
40.0
176
     1
 90
        0
176
     1
 62
   257
176
     1
 40
1.0
176
     1
 90
        1
176
     1
 90
        6
176
     1
 90
        2
176
     1
 62
     7
176
     1
 90
        3
176
     1
 90
        0
176
     1
 90
        0
176
     1
290
     0
176
     1
 90
        1
176
     1
 40
0.0
176
     1
 90
        0
176
     1
290
     0
176
     1
290
     1
176
     1
290
     1
176
     1
290
     0
176
     1
290
     0
176
     1
290
     0
176
     1
290
     0
176
     1
290
     0
176
     1
290
     0
176
     1
 90
       50
176
     1
 40
0.0
176
     1
 40
1.0
176
     1
 90
        0
176
     1
 62
    18
420
        0
176
     1
 90
       50
176
     1
 90
        3
176
     1
 62
     5
420
      255
176
     1
290
     0
176
     1
 90
       50
176
     1
 90
       50
176
     1
 90
       50
176
     1
290
     0
176
     1
 90
       50
176
     1
 62
   256
176
     0
 40
1.0
176
     0
 90
        2
176
     1
  1
strokes_ogs.tif
176
     1
290
     0
176
     1
 40
1.0
176
     1
 40
1.0
176
     1
  0
VISUALSTYLE
  5
3B
102
{ACAD_REACTORS
330
2A
102
}
330
2A
100
AcDbVisualStyle
  2
JitterOff
 70
    20
177
     3
291
     1
 70
    58
 90
        2
176
     0
 90
        2
176
     0
 90
        0
176
     0
 90
        0
176
     0
 40
0.6
176
     0
 40
30.0
176
     0
 62
     7
420
 16777215
176
     0
 90
        1
176
     0
 90
        4
176
     0
 62
     7
176
     0
 62
   257
176
     0
 90
        1
176
     0
 90
        1
176
     0
 40
1.0
176
     0
 90
       10
176
     2
 62
     7
176
     0
 40
1.0
176
     0
 90
        1
176
     0
 90
        6
176
     0
 90
        2
176
     0
 62
     7
176
     0
 90
        5
176
     0
 90
        0
176
     0
 90
        0
176
     0
290
     0
176
     0
 90
        1
176
     0
 40
0.0
176
     0
 90
        0
176
     0
290
     0
176
     0
290
     1
176
     0
290
     1
176
     0
290
     0
176
     0
290
     0
176
     0
290
     0
176
     0
290
     0
176
     0
290
     0
176
     0
290
     0
176
     0
 90
       50
176
     0
 40
0.0
176
     0
 40
1.0
176
     0
 90
        0
176
     0
 62
    18
420
        0
176
     0
 90
       50
176
     0
 90
        3
176
     0
 62
     5
420
      255
176
     0
290
     0
176
     0
 90
       50
176
     0
 90
       50
176
     0
 90
       50
176
     0
290
     0
176
     0
 90
       50
176
     0
 62
   256
176
     0
 40
1.0
176
     0
 90
        2
176
     0
  1
strokes_ogs.tif
176
     0
290
     0
176
     0
 40
1.0
176
     0
 40
1.0
176
     0
  0
VISUALSTYLE
  5
38
102
{ACAD_REACTORS
330
2A
102
}
330
2A
100
AcDbVisualStyle
  2
Linepattern
 70
    14
177
     3
291
     1
 70
    58
 90
        2
176
     1
 90
        2
176
     1
 90
        0
176
     1
 90
        0
176
     1
 40
0.6
176
     1
 40
30.0
176
     1
 62
     7
420
 16777215
176
     1
 90
        1
176
     1
 90
        4
176
     1
 62
     7
176
     1
 62
   257
176
     1
 90
        7
176
     1
 90
        7
176
     1
 40
1.0
176
     1
 90
        8
176
     1
 62
     7
176
     1
 40
1.0
176
     1
 90
        1
176
     1
 90
        6
176
     1
 90
        2
176
     1
 62
     7
176
     1
 90
        5
176
     1
 90
        0
176
     1
 90
        0
176
     1
290
     0
176
     1
 90
        1
176
     1
 40
0.0
176
     1
 90
        0
176
     1
290
     0
176
     1
290
     1
176
     1
290
     1
176
     1
290
     0
176
     1
290
     0
176
     1
290
     0
176
     1
290
     0
176
     1
290
     0
176
     1
290
     0
176
     1
 90
       50
176
     1
 40
0.0
176
     1
 40
1.0
176
     1
 90
        0
176
     1
 62
    18
420
        0
176
     1
 90
       50
176
     1
 90
        3
176
     1
 62
     5
420
      255
176
     1
290
     0
176
     1
 90
       50
176
     1
 90
       50
176
     1
 90
       50
176
     1
290
     0
176
     1
 90
       50
176
     1
 62
   256
176
     0
 40
1.0
176
     0
 90
        2
176
     1
  1
strokes_ogs.tif
176
     1
290
     0
176
     1
 40
1.0
176
     1
 40
1.0
176
     1
  0
VISUALSTYLE
  5
3C
102
{ACAD_REACTORS
330
2A
102
}
330
2A
100
AcDbVisualStyle
  2
OverhangOff
 70
    21
177
     3
291
     1
 70
    58
 90
        2
176
     0
 90
        2
176
     0
 90
        0
176
     0
 90
        0
176
     0
 40
0.6
176
     0
 40
30.0
176
     0
 62
     7
420
 16777215
176
     0
 90
        1
176
     0
 90
        4
176
     0
 62
     7
176
     0
 62
   257
176
     0
 90
        1
176
     0
 90
        1
176
     0
 40
1.0
176
     0
 90
        9
176
     2
 62
     7
176
     0
 40
1.0
176
     0
 90
        1
176
     0
 90
        6
176
     0
 90
        2
176
     0
 62
     7
176
     0
 90
        5
176
     0
 90
        0
176
     0
 90
        0
176
     0
290
     0
176
     0
 90
        1
176
     0
 40
0.0
176
     0
 90
        0
176
     0
290
     0
176
     0
290
     1
176
     0
290
     1
176
     0
290
     0
176
     0
290
     0
176
     0
290
     0
176
     0
290
     0
176
     0
290
     0
176
     0
290
     0
176
     0
 90
       50
176
     0
 40
0.0
176
     0
 40
1.0
176
     0
 90
        0
176
     0
 62
    18
420
        0
176
     0
 90
       50
176
     0
 90
        3
176
     0
 62
     5
420
      255
176
     0
290
     0
176
     0
 90
       50
176
     0
 90
       50
176
     0
 90
       50
176
     0
290
     0
176
     0
 90
       50
176
     0
 62
   256
176
     0
 40
1.0
176
     0
 90
        2
176
     0
  1
strokes_ogs.tif
176
     0
290
     0
176
     0
 40
1.0
176
     0
 40
1.0
176
     0
  0
VISUALSTYLE
  5
33
102
{ACAD_REACTORS
330
2A
102
}
330
2A
100
AcDbVisualStyle
  2
Realistic
 70
     8
177
     3
291
     0
 70
    58
 90
        2
176
     1
 90
        3
176
     1
 90
        0
176
     1
 90
        2
176
     1
 40
0.6
176
     1
 40
30.0
176
     1
 62
     7
420
 16777215
176
     1
 90
        0
176
     1
 90
        0
176
     1
 62
     7
176
     1
 62
   257
176
     1
 90
        1
176
     1
 90
        1
176
     1
 40
1.0
176
     1
 90
        8
176
     1
 62
   257
176
     1
 40
1.0
176
     1
 90
        1
176
     1
 90
        6
176
     1
 90
        2
176
     1
 62
     7
176
     1
 90
        3
176
     1
 90
        0
176
     1
 90
        0
176
     1
290
     0
176
     1
 90
       13
176
     1
 40
0.0
176
     1
 90
        0
176
     1
290
     0
176
     1
290
     1
176
     1
290
     1
176
     1
290
     0
176
     1
290
     0
176
     1
290
     0
176
     1
290
     0
176
     1
290
     0
176
     1
290
     0
176
     1
 90
       50
176
     1
 40
0.0
176
     1
 40
1.0
176
     1
 90
        0
176
     1
 62
    18
420
        0
176
     1
 90
       50
176
     1
 90
        3
176
     1
 62
     5
420
      255
176
     1
290
     0
176
     1
 90
       50
176
     1
 90
       50
176
     1
 90
       50
176
     1
290
     0
176
     1
 90
       50
176
     1
 62
   256
176
     0
 40
1.0
176
     0
 90
        2
176
     1
  1
strokes_ogs.tif
176
     1
290
     0
176
     1
 40
1.0
176
     1
 40
1.0
176
     1
  0
VISUALSTYLE
  5
42
102
{ACAD_REACTORS
330
2A
102
}
330
2A
100
AcDbVisualStyle
  2
Shaded
 70
    27
177
     3
291
     0
 70
    58
 90
        2
176
     1
 90
        2
176
     1
 90
        1
176
     1
 90
        2
176
     1
 40
0.6
176
     1
 40
30.0
176
     1
 62
     7
420
 16777215
176
     1
 90
        0
176
     1
 90
        4
176
     1
 62
     7
176
     1
 62
   257
176
     1
 90
        1
176
     1
 90
        1
176
     1
 40
1.0
176
     1
 90
        8
176
     1
 62
   257
176
     1
 40
1.0
176
     1
 90
        1
176
     1
 90
        6
176
     1
 90
        2
176
     1
 62
     8
420
  7895160
176
     1
 90
        3
176
     1
 90
        0
176
     1
 90
        0
176
     1
290
     0
176
     1
 90
        5
176
     1
 40
0.0
176
     1
 90
        0
176
     1
290
     0
176
     1
290
     1
176
     1
290
     1
176
     1
290
     0
176
     1
290
     0
176
     1
290
     0
176
     1
290
     0
176
     1
290
     0
176
     1
290
     0
176
     1
 90
       50
176
     1
 40
0.0
176
     1
 40
1.0
176
     1
 90
        0
176
     1
 62
    18
420
        0
176
     1
 90
       50
176
     1
 90
        3
176
     1
 62
     5
420
      255
176
     1
290
     0
176
     1
 90
       50
176
     1
 90
       50
176
     1
 90
       50
176
     1
290
     0
176
     1
 90
       50
176
     1
 62
   256
176
     0
 40
1.0
176
     0
 90
        2
176
     1
  1
strokes_ogs.tif
176
     1
290
     0
176
     1
 40
1.0
176
     1
 40
1.0
176
     1
  0
VISUALSTYLE
  5
41
102
{ACAD_REACTORS
330
2A
102
}
330
2A
100
AcDbVisualStyle
  2
Shaded with edges
 70
    26
177
     3
291
     0
 70
    58
 90
        2
176
     1
 90
        2
176
     1
 90
        1
176
     1
 90
        2
176
     1
 40
0.6
176
     1
 40
30.0
176
     1
 62
     7
420
 16777215
176
     1
 90
        1
176
     1
 90
       10
176
     1
 62
     7
176
     1
 62
   257
176
     1
 90
        2
176
     1
 90
        1
176
     1
 40
1.0
176
     1
 90
        8
176
     1
 62
   257
176
     1
 40
1.0
176
     1
 90
        1
176
     1
 90
        6
176
     1
 90
        2
176
     1
 62
     7
176
     1
 90
        3
176
     1
 90
        0
176
     1
 90
        0
176
     1
290
     0
176
     1
 90
        5
176
     1
 40
0.0
176
     1
 90
        0
176
     1
290
     0
176
     1
290
     1
176
     1
290
     1
176
     1
290
     0
176
     1
290
     0
176
     1
290
     0
176
     1
290
     0
176
     1
290
     0
176
     1
290
     0
176
     1
 90
       50
176
     1
 40
0.0
176
     1
 40
1.0
176
     1
 90
        0
176
     1
 62
    18
420
        0
176
     1
 90
       50
176
     1
 90
        3
176
     1
 62
     5
420
      255
176
     1
290
     0
176
     1
 90
       50
176
     1
 90
       50
176
     1
 90
       50
176
     1
290
     0
176
     1
 90
       50
176
     1
 62
   256
176
     0
 40
1.0
176
     0
 90
        2
176
     1
  1
strokes_ogs.tif
176
     1
290
     0
176
     1
 40
1.0
176
     1
 40
1.0
176
     1
  0
VISUALSTYLE
  5
3E
102
{ACAD_REACTORS
330
2A
102
}
330
2A
100
AcDbVisualStyle
  2
Shades of Gray
 70
    23
177
     3
291
     0
 70
    58
 90
        2
176
     1
 90
        2
176
     1
 90
        3
176
     1
 90
        0
176
     1
 40
0.6
176
     1
 40
30.0
176
     1
 62
     7
420
 16777215
176
     1
 90
        2
176
     1
 90
        2
176
     1
 62
     7
176
     1
 62
     7
176
     1
 90
        1
176
     1
 90
        1
176
     1
 40
40.0
176
     1
 90
        8
176
     1
 62
     7
176
     1
 40
1.0
176
     1
 90
        1
176
     1
 90
        6
176
     1
 90
        2
176
     1
 62
     7
176
     1
 90
        3
176
     1
 90
        0
176
     1
 90
        0
176
     1
290
     0
176
     1
 90
        1
176
     1
 40
0.0
176
     1
 90
        0
176
     1
290
     0
176
     1
290
     1
176
     1
290
     1
176
     1
290
     0
176
     1
290
     0
176
     1
290
     0
176
     1
290
     0
176
     1
290
     0
176
     1
290
     0
176
     1
 90
       50
176
     1
 40
0.0
176
     1
 40
1.0
176
     1
 90
        0
176
     1
 62
    18
420
        0
176
     1
 90
       50
176
     1
 90
        3
176
     1
 62
     5
420
      255
176
     1
290
     0
176
     1
 90
       50
176
     1
 90
       50
176
     1
 90
       50
176
     1
290
     0
176
     1
 90
       50
176
     1
 62
   256
176
     0
 40
1.0
176
     0
 90
        2
176
     1
  1
strokes_ogs.tif
176
     1
290
     0
176
     1
 40
1.0
176
     1
 40
1.0
176
     1
  0
VISUALSTYLE
  5
3F
102
{ACAD_REACTORS
330
2A
102
}
330
2A
100
AcDbVisualStyle
  2
Sketchy
 70
    24
177
     3
291
     0
 70
    58
 90
        1
176
     1
 90
        2
176
     1
 90
        2
176
     1
 90
        0
176
     1
 40
0.6
176
     1
 40
30.0
176
     1
 62
     7
420
 16777215
176
     1
 90
        2
176
     1
 90
        2
176
     1
 62
     7
176
     1
 62
     7
176
     1
 90
        1
176
     1
 90
        1
176
     1
 40
40.0
176
     1
 90
       11
176
     1
 62
     7
176
     1
 40
1.0
176
     1
 90
        1
176
     1
 90
        6
176
     1
 90
        2
176
     1
 62
     7
176
     1
 90
        6
176
     1
 90
        0
176
     1
 90
        0
176
     1
290
     0
176
     1
 90
        1
176
     1
 40
0.0
176
     1
 90
        0
176
     1
290
     0
176
     1
290
     1
176
     1
290
     1
176
     1
290
     0
176
     1
290
     0
176
     1
290
     0
176
     1
290
     0
176
     1
290
     0
176
     1
290
     0
176
     1
 90
       50
176
     1
 40
0.0
176
     1
 40
1.0
176
     1
 90
        0
176
     1
 62
    18
420
        0
176
     1
 90
       50
176
     1
 90
        3
176
     1
 62
     5
420
      255
176
     1
290
     0
176
     1
 90
       50
176
     1
 90
       50
176
     1
 90
       50
176
     1
290
     0
176
     1
 90
       50
176
     1
 62
   256
176
     0
 40
1.0
176
     0
 90
        2
176
     1
  1
strokes_ogs.tif
176
     1
290
     0
176
     1
 40
1.0
176
     1
 40
1.0
176
     1
  0
VISUALSTYLE
  5
37
102
{ACAD_REACTORS
330
2A
102
}
330
2A
100
AcDbVisualStyle
  2
Thicken
 70
    13
177
     3
291
     1
 70
    58
 90
        2
176
     1
 90
        2
176
     1
 90
        0
176
     1
 90
        0
176
     1
 40
0.6
176
     1
 40
30.0
176
     1
 62
     7
420
 16777215
176
     1
 90
        1
176
     1
 90
        4
176
     1
 62
     7
176
     1
 62
   257
176
     1
 90
        1
176
     1
 90
        1
176
     1
 40
1.0
176
     1
 90
       12
176
     1
 62
     7
176
     1
 40
1.0
176
     1
 90
        1
176
     1
 90
        6
176
     1
 90
        2
176
     1
 62
     7
176
     1
 90
        5
176
     1
 90
        0
176
     1
 90
        0
176
     1
290
     0
176
     1
 90
        1
176
     1
 40
0.0
176
     1
 90
        0
176
     1
290
     0
176
     1
290
     1
176
     1
290
     1
176
     1
290
     0
176
     1
290
     0
176
     1
290
     0
176
     1
290
     0
176
     1
290
     0
176
     1
290
     0
176
     1
 90
       50
176
     1
 40
0.0
176
     1
 40
1.0
176
     1
 90
        0
176
     1
 62
    18
420
        0
176
     1
 90
       50
176
     1
 90
        3
176
     1
 62
     5
420
      255
176
     1
290
     0
176
     1
 90
       50
176
     1
 90
       50
176
     1
 90
       50
176
     1
290
     0
176
     1
 90
       50
176
     1
 62
   256
176
     0
 40
1.0
176
     0
 90
        2
176
     1
  1
strokes_ogs.tif
176
     1
290
     0
176
     1
 40
1.0
176
     1
 40
1.0
176
     1
  0
VISUALSTYLE
  5
30
102
{ACAD_REACTORS
330
2A
102
}
330
2A
100
AcDbVisualStyle
  2
Wireframe
 70
     5
177
     3
291
     0
 70
    58
 90
        0
176
     1
 90
        2
176
     1
 90
        0
176
     1
 90
        0
176
     1
 40
0.6
176
     1
 40
30.0
176
     1
 62
     7
420
 16777215
176
     1
 90
        1
176
     1
 90
        4
176
     1
 62
     7
176
     1
 62
   257
176
     1
 90
        1
176
     1
 90
        1
176
     1
 40
1.0
176
     1
 90
        0
176
     1
 62
   257
176
     1
 40
1.0
176
     1
 90
        1
176
     1
 90
        6
176
     1
 90
        2
176
     1
 62
     7
176
     1
 90
        3
176
     1
 90
        0
176
     1
 90
        0
176
     1
290
     0
176
     1
 90
        1
176
     1
 40
0.0
176
     1
 90
        0
176
     1
290
     0
176
     1
290
     1
176
     1
290
     1
176
     1
290
     0
176
     1
290
     0
176
     1
290
     0
176
     1
290
     0
176
     1
290
     0
176
     1
290
     0
176
     1
 90
       50
176
     1
 40
0.0
176
     1
 40
1.0
176
     1
 90
        0
176
     1
 62
    18
420
        0
176
     1
 90
       50
176
     1
 90
        3
176
     1
 62
     5
420
      255
176
     1
290
     0
176
     1
 90
       50
176
     1
 90
       50
176
     1
 90
       50
176
     1
290
     0
176
     1
 90
       50
176
     1
 62
   256
176
     0
 40
1.0
176
     0
 90
        2
176
     1
  1
strokes_ogs.tif
176
     1
290
     0
176
     1
 40
1.0
176
     1
 40
1.0
176
     1
  0
VISUALSTYLE
  5
40
102
{ACAD_REACTORS
330
2A
102
}
330
2A
100
AcDbVisualStyle
  2
X-Ray
 70
    25
177
     3
291
     0
 70
    58
 90
        2
176
     1
 90
        2
176
     1
 90
        1
176
     1
 90
        1
176
     1
 40
0.5
176
     1
 40
30.0
176
     1
 62
     7
420
 16777215
176
     1
 90
        1
176
     1
 90
        0
176
     1
 62
     7
176
     1
 62
   257
176
     1
 90
        1
176
     1
 90
        1
176
     1
 40
1.0
176
     1
 90
        8
176
     1
 62
     7
176
     1
 40
1.0
176
     1
 90
        1
176
     1
 90
        6
176
     1
 90
        2
176
     1
 62
     7
176
     1
 90
        3
176
     1
 90
        0
176
     1
 90
        0
176
     1
290
     0
176
     1
 90
       13
176
     1
 40
0.0
176
     1
 90
        0
176
     1
290
     0
176
     1
290
     1
176
     1
290
     1
176
     1
290
     0
176
     1
290
     0
176
     1
290
     0
176
     1
290
     0
176
     1
290
     0
176
     1
290
     0
176
     1
 90
       50
176
     1
 40
0.0
176
     1
 40
1.0
176
     1
 90
        0
176
     1
 62
    18
420
        0
176
     1
 90
       50
176
     1
 90
        3
176
     1
 62
     5
420
      255
176
     1
290
     0
176
     1
 90
       50
176
     1
 90
       50
176
     1
 90
       50
176
     1
290
     0
176
     1
 90
       50
176
     1
 62
   256
176
     0
 40
1.0
176
     0
 90
        2
176
     1
  1
strokes_ogs.tif
176
     1
290
     0
176
     1
 40
1.0
176
     1
 40
1.0
176
     1
  0
DICTIONARYVAR
  5
16D
102
{ACAD_REACTORS
330
16C
102
}
330
16C
100
DictionaryVariables
280
     0
  1
1:1
  0
DICTIONARYVAR
  5
172
102
{ACAD_REACTORS
330
16C
102
}
330
16C
100
DictionaryVariables
280
     0
  1
Standard
  0
DICTIONARYVAR
  5
171
102
{ACAD_REACTORS
330
16C
102
}
330
16C
100
DictionaryVariables
280
     0
  1
Standard
  0
DICTIONARY
  5
16E
330
5A
100
AcDbDictionary
280
     1
281
     1
  3
ACAD_ROUNDTRIP_2008_TABLESTYLE_CELLSTYLEMAP
360
16F
  0
CELLSTYLEMAP
  5
16F
102
{ACAD_REACTORS
330
16E
102
}
330
16E
100
AcDbCellStyleMap
 90
        3
300
CELLSTYLE
  1
TABLEFORMAT_BEGIN
 90
        5
170
     1
 91
        0
 92
    32768
 62
   257
 93
        1
300
CONTENTFORMAT
  1
CONTENTFORMAT_BEGIN
 90
        0
 91
        0
 92
        4
 93
        0
300

 40
0.0
140
1.0
 94
        5
 62
     0
340
11
144
0.25
309
CONTENTFORMAT_END
171
     1
301
MARGIN
  1
CELLMARGIN_BEGIN
 40
0.06
 40
0.06
 40
0.06
 40
0.06
 40
0.06
 40
0.06
309
CELLMARGIN_END
 94
        6
 95
        1
302
GRIDFORMAT
  1
GRIDFORMAT_BEGIN
 90
        0
 91
        1
 62
     0
 92
       -2
340
14
 93
        0
 40
0.045
309
GRIDFORMAT_END
 95
        2
302
GRIDFORMAT
  1
GRIDFORMAT_BEGIN
 90
        0
 91
        1
 62
     0
 92
       -2
340
14
 93
        0
 40
0.045
309
GRIDFORMAT_END
 95
        4
302
GRIDFORMAT
  1
GRIDFORMAT_BEGIN
 90
        0
 91
        1
 62
     0
 92
       -2
340
14
 93
        0
 40
0.045
309
GRIDFORMAT_END
 95
        8
302
GRIDFORMAT
  1
GRIDFORMAT_BEGIN
 90
        0
 91
        1
 62
     0
 92
       -2
340
14
 93
        0
 40
0.045
309
GRIDFORMAT_END
 95
       16
302
GRIDFORMAT
  1
GRIDFORMAT_BEGIN
 90
        0
 91
        1
 62
     0
 92
       -2
340
14
 93
        0
 40
0.045
309
GRIDFORMAT_END
 95
       32
302
GRIDFORMAT
  1
GRIDFORMAT_BEGIN
 90
        0
 91
        1
 62
     0
 92
       -2
340
14
 93
        0
 40
0.045
309
GRIDFORMAT_END
309
TABLEFORMAT_END
  1
CELLSTYLE_BEGIN
 90
        1
 91
        1
300
_TITLE
309
CELLSTYLE_END
300
CELLSTYLE
  1
TABLEFORMAT_BEGIN
 90
        5
170
     1
 91
        0
 92
        0
 62
   257
 93
        1
300
CONTENTFORMAT
  1
CONTENTFORMAT_BEGIN
 90
        0
 91
        0
 92
        4
 93
        0
300

 40
0.0
140
1.0
 94
        5
 62
     0
340
11
144
0.18
309
CONTENTFORMAT_END
171
     1
301
MARGIN
  1
CELLMARGIN_BEGIN
 40
0.06
 40
0.06
 40
0.06
 40
0.06
 40
0.06
 40
0.06
309
CELLMARGIN_END
 94
        6
 95
        1
302
GRIDFORMAT
  1
GRIDFORMAT_BEGIN
 90
        0
 91
        1
 62
     0
 92
       -2
340
14
 93
        0
 40
0.045
309
GRIDFORMAT_END
 95
        2
302
GRIDFORMAT
  1
GRIDFORMAT_BEGIN
 90
        0
 91
        1
 62
     0
 92
       -2
340
14
 93
        0
 40
0.045
309
GRIDFORMAT_END
 95
        4
302
GRIDFORMAT
  1
GRIDFORMAT_BEGIN
 90
        0
 91
        1
 62
     0
 92
       -2
340
14
 93
        0
 40
0.045
309
GRIDFORMAT_END
 95
        8
302
GRIDFORMAT
  1
GRIDFORMAT_BEGIN
 90
        0
 91
        1
 62
     0
 92
       -2
340
14
 93
        0
 40
0.045
309
GRIDFORMAT_END
 95
       16
302
GRIDFORMAT
  1
GRIDFORMAT_BEGIN
 90
        0
 91
        1
 62
     0
 92
       -2
340
14
 93
        0
 40
0.045
309
GRIDFORMAT_END
 95
       32
302
GRIDFORMAT
  1
GRIDFORMAT_BEGIN
 90
        0
 91
        1
 62
     0
 92
       -2
340
14
 93
        0
 40
0.045
309
GRIDFORMAT_END
309
TABLEFORMAT_END
  1
CELLSTYLE_BEGIN
 90
        2
 91
        1
300
_HEADER
309
CELLSTYLE_END
300
CELLSTYLE
  1
TABLEFORMAT_BEGIN
 90
        5
170
     1
 91
        0
 92
        0
 62
   257
 93
        1
300
CONTENTFORMAT
  1
CONTENTFORMAT_BEGIN
 90
        0
 91
        0
 92
        4
 93
        0
300

 40
0.0
140
1.0
 94
        2
 62
     0
340
11
144
0.18
309
CONTENTFORMAT_END
171
     1
301
MARGIN
  1
CELLMARGIN_BEGIN
 40
0.06
 40
0.06
 40
0.06
 40
0.06
 40
0.06
 40
0.06
309
CELLMARGIN_END
 94
        6
 95
        1
302
GRIDFORMAT
  1
GRIDFORMAT_BEGIN
 90
        0
 91
        1
 62
     0
 92
       -2
340
14
 93
        0
 40
0.045
309
GRIDFORMAT_END
 95
        2
302
GRIDFORMAT
  1
GRIDFORMAT_BEGIN
 90
        0
 91
        1
 62
     0
 92
       -2
340
14
 93
        0
 40
0.045
309
GRIDFORMAT_END
 95
        4
302
GRIDFORMAT
  1
GRIDFORMAT_BEGIN
 90
        0
 91
        1
 62
     0
 92
       -2
340
14
 93
        0
 40
0.045
309
GRIDFORMAT_END
 95
        8
302
GRIDFORMAT
  1
GRIDFORMAT_BEGIN
 90
        0
 91
        1
 62
     0
 92
       -2
340
14
 93
        0
 40
0.045
309
GRIDFORMAT_END
 95
       16
302
GRIDFORMAT
  1
GRIDFORMAT_BEGIN
 90
        0
 91
        1
 62
     0
 92
       -2
340
14
 93
        0
 40
0.045
309
GRIDFORMAT_END
 95
       32
302
GRIDFORMAT
  1
GRIDFORMAT_BEGIN
 90
        0
 91
        1
 62
     0
 92
       -2
340
14
 93
        0
 40
0.045
309
GRIDFORMAT_END
309
TABLEFORMAT_END
  1
CELLSTYLE_BEGIN
 90
        3
 91
        2
300
_DATA
309
CELLSTYLE_END
  0
ENDSEC
  0
EOF
