  0
SECTION
  2
HEADER
  9
$ACADVER
  1
AC1027
  9
$ACADMAINTVER
 70
   105
  9
$DWGCODEPAGE
  3
ANSI_1252
  9
$LASTSAVEDBY
  1
Office Desk
  9
$REQUIREDVERSIONS
160
                 0
  9
$INSBASE
 10
0.0
 20
0.0
 30
0.0
  9
$EXTMIN
 10
-492.0049
 20
-160.2214
 30
0.0
  9
$EXTMAX
 10
-163.5157
 20
262.5024
 30
0.0
  9
$LIMMIN
 10
0.0
 20
0.0
  9
$LIMMAX
 10
12.0
 20
9.0
  9
$ORTHOMODE
 70
     0
  9
$REGENMODE
 70
     1
  9
$FILLMODE
 70
     1
  9
$QTEXTMODE
 70
     0
  9
$MIRRTEXT
 70
     1
  9
$LTSCALE
 40
1.0
  9
$ATTMODE
 70
     1
  9
$TEXTSIZE
 40
0.2
  9
$TRACEWID
 40
0.05
  9
$TEXTSTYLE
  7
Standard
  9
$CLAYER
  8
0
  9
$CELTYPE
  6
ByLayer
  9
$CECOLOR
 62
   256
  9
$CELTSCALE
 40
1.0
  9
$DISPSILH
 70
     0
  9
$DIMSCALE
 40
1.0
  9
$DIMASZ
 40
0.18
  9
$DIMEXO
 40
0.0625
  9
$DIMDLI
 40
0.38
  9
$DIMRND
 40
0.0
  9
$DIMDLE
 40
0.0
  9
$DIMEXE
 40
0.18
  9
$DIMTP
 40
0.0
  9
$DIMTM
 40
0.0
  9
$DIMTXT
 40
0.18
  9
$DIMCEN
 40
0.09
  9
$DIMTSZ
 40
0.0
  9
$DIMTOL
 70
     0
  9
$DIMLIM
 70
     0
  9
$DIMTIH
 70
     1
  9
$DIMTOH
 70
     1
  9
$DIMSE1
 70
     0
  9
$DIMSE2
 70
     0
  9
$DIMTAD
 70
     0
  9
$DIMZIN
 70
     0
  9
$DIMBLK
  1

  9
$DIMASO
 70
     1
  9
$DIMSHO
 70
     1
  9
$DIMPOST
  1

  9
$DIMAPOST
  1

  9
$DIMALT
 70
     0
  9
$DIMALTD
 70
     2
  9
$DIMALTF
 40
25.4
  9
$DIMLFAC
 40
1.0
  9
$DIMTOFL
 70
     0
  9
$DIMTVP
 40
0.0
  9
$DIMTIX
 70
     0
  9
$DIMSOXD
 70
     0
  9
$DIMSAH
 70
     0
  9
$DIMBLK1
  1

  9
$DIMBLK2
  1

  9
$DIMSTYLE
  2
Standard
  9
$DIMCLRD
 70
     0
  9
$DIMCLRE
 70
     0
  9
$DIMCLRT
 70
     0
  9
$DIMTFAC
 40
1.0
  9
$DIMGAP
 40
0.09
  9
$DIMJUST
 70
     0
  9
$DIMSD1
 70
     0
  9
$DIMSD2
 70
     0
  9
$DIMTOLJ
 70
     1
  9
$DIMTZIN
 70
     0
  9
$DIMALTZ
 70
     0
  9
$DIMALTTZ
 70
     0
  9
$DIMUPT
 70
     0
  9
$DIMDEC
 70
     4
  9
$DIMTDEC
 70
     4
  9
$DIMALTU
 70
     2
  9
$DIMALTTD
 70
     2
  9
$DIMTXSTY
  7
Standard
  9
$DIMAUNIT
 70
     0
  9
$DIMADEC
 70
     0
  9
$DIMALTRND
 40
0.0
  9
$DIMAZIN
 70
     0
  9
$DIMDSEP
 70
    46
  9
$DIMATFIT
 70
     3
  9
$DIMFRAC
 70
     0
  9
$DIMLDRBLK
  1

  9
$DIMLUNIT
 70
     2
  9
$DIMLWD
 70
    -2
  9
$DIMLWE
 70
    -2
  9
$DIMTMOVE
 70
     0
  9
$DIMFXL
 40
1.0
  9
$DIMFXLON
 70
     0
  9
$DIMJOGANG
 40
0.7853981633974483
  9
$DIMTFILL
 70
     0
  9
$DIMTFILLCLR
 70
     0
  9
$DIMARCSYM
 70
     0
  9
$DIMLTYPE
  6

  9
$DIMLTEX1
  6

  9
$DIMLTEX2
  6

  9
$DIMTXTDIRECTION
 70
     0
  9
$LUNITS
 70
     2
  9
$LUPREC
 70
     4
  9
$SKETCHINC
 40
0.1
  9
$FILLETRAD
 40
0.0
  9
$AUNITS
 70
     0
  9
$AUPREC
 70
     0
  9
$MENU
  1
.
  9
$ELEVATION
 40
0.0
  9
$PELEVATION
 40
0.0
  9
$THICKNESS
 40
0.0
  9
$LIMCHECK
 70
     0
  9
$CHAMFERA
 40
0.0
  9
$CHAMFERB
 40
0.0
  9
$CHAMFERC
 40
0.0
  9
$CHAMFERD
 40
0.0
  9
$SKPOLY
 70
     0
  9
$TDCREATE
 40
2461015.669469514
  9
$TDUCREATE
 40
2461015.440302848
  9
$TDUPDATE
 40
2461015.66946963
  9
$TDUUPDATE
 40
2461015.440302963
  9
$TDINDWG
 40
0.0000000116
  9
$TDUSRTIMER
 40
0.0000000116
  9
$USRTIMER
 70
     1
  9
$ANGBASE
 50
0.0
  9
$ANGDIR
 70
     0
  9
$PDMODE
 70
     0
  9
$PDSIZE
 40
0.0
  9
$PLINEWID
 40
0.0
  9
$SPLFRAME
 70
     0
  9
$SPLINETYPE
 70
     6
  9
$SPLINESEGS
 70
     8
  9
$HANDSEED
  5
38D
  9
$SURFTAB1
 70
     6
  9
$SURFTAB2
 70
     6
  9
$SURFTYPE
 70
     6
  9
$SURFU
 70
     6
  9
$SURFV
 70
     6
  9
$UCSBASE
  2

  9
$UCSNAME
  2

  9
$UCSORG
 10
0.0
 20
0.0
 30
0.0
  9
$UCSXDIR
 10
1.0
 20
0.0
 30
0.0
  9
$UCSYDIR
 10
0.0
 20
1.0
 30
0.0
  9
$UCSORTHOREF
  2

  9
$UCSORTHOVIEW
 70
     0
  9
$UCSORGTOP
 10
0.0
 20
0.0
 30
0.0
  9
$UCSORGBOTTOM
 10
0.0
 20
0.0
 30
0.0
  9
$UCSORGLEFT
 10
0.0
 20
0.0
 30
0.0
  9
$UCSORGRIGHT
 10
0.0
 20
0.0
 30
0.0
  9
$UCSORGFRONT
 10
0.0
 20
0.0
 30
0.0
  9
$UCSORGBACK
 10
0.0
 20
0.0
 30
0.0
  9
$PUCSBASE
  2

  9
$PUCSNAME
  2

  9
$PUCSORG
 10
0.0
 20
0.0
 30
0.0
  9
$PUCSXDIR
 10
1.0
 20
0.0
 30
0.0
  9
$PUCSYDIR
 10
0.0
 20
1.0
 30
0.0
  9
$PUCSORTHOREF
  2

  9
$PUCSORTHOVIEW
 70
     0
  9
$PUCSORGTOP
 10
0.0
 20
0.0
 30
0.0
  9
$PUCSORGBOTTOM
 10
0.0
 20
0.0
 30
0.0
  9
$PUCSORGLEFT
 10
0.0
 20
0.0
 30
0.0
  9
$PUCSORGRIGHT
 10
0.0
 20
0.0
 30
0.0
  9
$PUCSORGFRONT
 10
0.0
 20
0.0
 30
0.0
  9
$PUCSORGBACK
 10
0.0
 20
0.0
 30
0.0
  9
$USERI1
 70
     0
  9
$USERI2
 70
     0
  9
$USERI3
 70
     0
  9
$USERI4
 70
     0
  9
$USERI5
 70
     0
  9
$USERR1
 40
0.0
  9
$USERR2
 40
0.0
  9
$USERR3
 40
0.0
  9
$USERR4
 40
0.0
  9
$USERR5
 40
0.0
  9
$WORLDVIEW
 70
     1
  9
$SHADEDGE
 70
     3
  9
$SHADEDIF
 70
    70
  9
$TILEMODE
 70
     1
  9
$MAXACTVP
 70
    64
  9
$PINSBASE
 10
0.0
 20
0.0
 30
0.0
  9
$PLIMCHECK
 70
     0
  9
$PEXTMIN
 10
1.000000000000000E+20
 20
1.000000000000000E+20
 30
1.000000000000000E+20
  9
$PEXTMAX
 10
-1.000000000000000E+20
 20
-1.000000000000000E+20
 30
-1.000000000000000E+20
  9
$PLIMMIN
 10
0.0
 20
0.0
  9
$PLIMMAX
 10
12.0
 20
9.0
  9
$UNITMODE
 70
     0
  9
$VISRETAIN
 70
     1
  9
$PLINEGEN
 70
     0
  9
$PSLTSCALE
 70
     1
  9
$TREEDEPTH
 70
  3020
  9
$CMLSTYLE
  2
Standard
  9
$CMLJUST
 70
     0
  9
$CMLSCALE
 40
1.0
  9
$PROXYGRAPHICS
 70
     1
  9
$MEASUREMENT
 70
     0
  9
$CELWEIGHT
370
    -1
  9
$ENDCAPS
280
     0
  9
$JOINSTYLE
280
     0
  9
$LWDISPLAY
290
     0
  9
$INSUNITS
 70
     4
  9
$HYPERLINKBASE
  1

  9
$STYLESHEET
  1

  9
$XEDIT
290
     1
  9
$CEPSNTYPE
380
     0
  9
$PSTYLEMODE
290
     1
  9
$FINGERPRINTGUID
  2
{a0129c0c-278e-46cb-83bb-921d03af63f8}
  9
$VERSIONGUID
  2
{FAEB1C32-E019-11D5-929B-00C0DF256EC4}
  9
$EXTNAMES
290
     1
  9
$PSVPSCALE
 40
0.0
  9
$OLESTARTUP
290
     0
  9
$SORTENTS
280
   127
  9
$INDEXCTL
280
     0
  9
$HIDETEXT
280
     1
  9
$XCLIPFRAME
280
     2
  9
$HALOGAP
280
     0
  9
$OBSCOLOR
 70
   257
  9
$OBSLTYPE
280
     0
  9
$INTERSECTIONDISPLAY
280
     0
  9
$INTERSECTIONCOLOR
 70
   257
  9
$DIMASSOC
280
     2
  9
$PROJECTNAME
  1

  9
$CAMERADISPLAY
290
     0
  9
$LENSLENGTH
 40
50.0
  9
$CAMERAHEIGHT
 40
0.0
  9
$STEPSPERSEC
 40
2.0
  9
$STEPSIZE
 40
6.0
  9
$3DDWFPREC
 40
2.0
  9
$PSOLWIDTH
 40
0.25
  9
$PSOLHEIGHT
 40
4.0
  9
$LOFTANG1
 40
1.570796326794897
  9
$LOFTANG2
 40
1.570796326794897
  9
$LOFTMAG1
 40
0.0
  9
$LOFTMAG2
 40
0.0
  9
$LOFTPARAM
 70
     7
  9
$LOFTNORMALS
280
     1
  9
$LATITUDE
 40
37.795
  9
$LONGITUDE
 40
-122.394
  9
$NORTHDIRECTION
 40
0.0
  9
$TIMEZONE
 70
 -8000
  9
$LIGHTGLYPHDISPLAY
280
     1
  9
$TILEMODELIGHTSYNCH
280
     1
  9
$CMATERIAL
347
44
  9
$SOLIDHIST
280
     0
  9
$SHOWHIST
280
     1
  9
$DWFFRAME
280
     2
  9
$DGNFRAME
280
     2
  9
$REALWORLDSCALE
290
     1
  9
$INTERFERECOLOR
 62
   256
  9
$CSHADOW
280
     0
  9
$SHADOWPLANELOCATION
 40
0.0
  0
ENDSEC
  0
SECTION
  2
CLASSES
  0
CLASS
  1
ACDBDICTIONARYWDFLT
  2
AcDbDictionaryWithDefault
  3
ObjectDBX Classes
 90
        0
 91
        3
280
     0
281
     0
  0
CLASS
  1
VISUALSTYLE
  2
AcDbVisualStyle
  3
ObjectDBX Classes
 90
     4095
 91
        3
280
     0
281
     0
  0
CLASS
  1
MATERIAL
  2
AcDbMaterial
  3
ObjectDBX Classes
 90
     1153
 91
        3
280
     0
281
     0
  0
CLASS
  1
SCALE
  2
AcDbScale
  3
ObjectDBX Classes
 90
     1153
 91
        3
280
     0
281
     0
  0
CLASS
  1
TABLESTYLE
  2
AcDbTableStyle
  3
ObjectDBX Classes
 90
     4095
 91
        3
280
     0
281
     0
  0
CLASS
  1
MLEADERSTYLE
  2
AcDbMLeaderStyle
  3
ACDB_MLEADERSTYLE_CLASS
 90
     4095
 91
        3
280
     0
281
     0
  0
CLASS
  1
SUN
  2
AcDbSun
  3
SCENEOE
 90
     1153
 91
        3
280
     0
281
     0
  0
CLASS
  1
DICTIONARYVAR
  2
AcDbDictionaryVar
  3
ObjectDBX Classes
 90
        0
 91
        3
280
     0
281
     0
  0
CLASS
  1
CELLSTYLEMAP
  2
AcDbCellStyleMap
  3
ObjectDBX Classes
 90
     1152
 91
        3
280
     0
281
     0
  0
ENDSEC
  0
SECTION
  2
TABLES
  0
TABLE
  2
VPORT
  5
8
330
0
100
AcDbSymbolTable
 70
     1
  0
VPORT
  5
29
330
8
100
AcDbSymbolTableRecord
100
AcDbViewportTableRecord
  2
*Active
 70
     0
 10
0.0
 20
0.0
 11
1.0
 21
1.0
 12
10.42990654205607
 22
4.5
 13
0.0
 23
0.0
 14
0.5
 24
0.5
 15
0.5
 25
0.5
 16
0.0
 26
0.0
 36
1.0
 17
0.0
 27
0.0
 37
0.0
 40
9.0
 41
1.972972972850329
 42
50.0
 43
0.0
 44
0.0
 50
0.0
 51
0.0
 71
     0
 72
   100
 73
     1
 74
     3
 75
     0
 76
     0
 77
     0
 78
     0
281
     0
 65
     1
110
0.0
120
0.0
130
0.0
111
1.0
121
0.0
131
0.0
112
0.0
122
1.0
132
0.0
 79
     0
146
0.0
348
2F
 60
     3
 61
     5
292
     1
282
     1
141
0.0
142
0.0
 63
   250
361
5D
  0
ENDTAB
  0
TABLE
  2
LTYPE
  5
5
330
0
100
AcDbSymbolTable
 70
     1
  0
LTYPE
  5
14
330
5
100
AcDbSymbolTableRecord
100
AcDbLinetypeTableRecord
  2
ByBlock
 70
     0
  3

 72
    65
 73
     0
 40
0.0
  0
LTYPE
  5
15
330
5
100
AcDbSymbolTableRecord
100
AcDbLinetypeTableRecord
  2
ByLayer
 70
     0
  3

 72
    65
 73
     0
 40
0.0
  0
LTYPE
  5
16
330
5
100
AcDbSymbolTableRecord
100
AcDbLinetypeTableRecord
  2
Continuous
 70
     0
  3
Solid line
 72
    65
 73
     0
 40
0.0
  0
ENDTAB
  0
TABLE
  2
LAYER
  5
2
330
0
100
AcDbSymbolTable
 70
     2
  0
LAYER
  5
10
330
2
100
AcDbSymbolTableRecord
100
AcDbLayerTableRecord
  2
0
 70
     0
 62
     7
  6
Continuous
370
    -3
390
F
347
46
348
0
  0
LAYER
  5
5F
330
2
100
AcDbSymbolTableRecord
100
AcDbLayerTableRecord
  2
Layer 1
 70
     0
 62
     7
  6
Continuous
370
    -3
390
F
347
46
348
0
  0
ENDTAB
  0
TABLE
  2
STYLE
  5
3
330
0
100
AcDbSymbolTable
 70
     1
  0
STYLE
  5
11
330
3
100
AcDbSymbolTableRecord
100
AcDbTextStyleTableRecord
  2
Standard
 70
     0
 40
0.0
 41
1.0
 50
0.0
 71
     0
 42
0.2
  3
txt
  4

  0
ENDTAB
  0
TABLE
  2
VIEW
  5
6
330
0
100
AcDbSymbolTable
 70
     0
  0
ENDTAB
  0
TABLE
  2
UCS
  5
7
330
0
100
AcDbSymbolTable
 70
     0
  0
ENDTAB
  0
TABLE
  2
APPID
  5
9
330
0
100
AcDbSymbolTable
 70
     2
  0
APPID
  5
12
330
9
100
AcDbSymbolTableRecord
100
AcDbRegAppTableRecord
  2
ACAD
 70
     0
  0
APPID
  5
5E
330
9
100
AcDbSymbolTableRecord
100
AcDbRegAppTableRecord
  2
ODA
 70
     0
  0
ENDTAB
  0
TABLE
  2
DIMSTYLE
  5
A
330
0
100
AcDbSymbolTable
 70
     1
100
AcDbDimStyleTable
  0
DIMSTYLE
105
27
330
A
100
AcDbSymbolTableRecord
100
AcDbDimStyleTableRecord
  2
Standard
 70
     0
178
     0
340
11
  0
ENDTAB
  0
TABLE
  2
BLOCK_RECORD
  5
1
330
0
100
AcDbSymbolTable
 70
     1
  0
BLOCK_RECORD
  5
1F
330
1
100
AcDbSymbolTableRecord
100
AcDbBlockTableRecord
  2
*Model_Space
340
22
 70
     0
280
     1
281
     0
  0
BLOCK_RECORD
  5
1B
330
1
100
AcDbSymbolTableRecord
100
AcDbBlockTableRecord
  2
*Paper_Space
340
1E
 70
     0
280
     1
281
     0
  0
BLOCK_RECORD
  5
23
330
1
100
AcDbSymbolTableRecord
100
AcDbBlockTableRecord
  2
*Paper_Space0
340
26
 70
     0
280
     1
281
     0
  0
ENDTAB
  0
ENDSEC
  0
SECTION
  2
BLOCKS
  0
BLOCK
  5
20
330
1F
100
AcDbEntity
  8
0
100
AcDbBlockBegin
  2
*Model_Space
 70
     0
 10
0.0
 20
0.0
 30
0.0
  3
*Model_Space
  1

  0
ENDBLK
  5
21
330
1F
100
AcDbEntity
  8
0
100
AcDbBlockEnd
  0
BLOCK
  5
1C
330
1B
100
AcDbEntity
 67
     1
  8
0
100
AcDbBlockBegin
  2
*Paper_Space
 70
     0
 10
0.0
 20
0.0
 30
0.0
  3
*Paper_Space
  1

  0
ENDBLK
  5
1D
330
1B
100
AcDbEntity
 67
     1
  8
0
100
AcDbBlockEnd
  0
BLOCK
  5
24
330
23
100
AcDbEntity
  8
0
100
AcDbBlockBegin
  2
*Paper_Space0
 70
     0
 10
0.0
 20
0.0
 30
0.0
  3
*Paper_Space0
  1

  0
ENDBLK
  5
25
330
23
100
AcDbEntity
  8
0
100
AcDbBlockEnd
  0
ENDSEC
  0
SECTION
  2
ENTITIES
  0
LWPOLYLINE
  5
60
330
1F
100
AcDbEntity
  8
Layer 1
 62
   250
370
     9
100
AcDbPolyline
 90
        5
 70
     1
 43
0.0
 10
-491.9668
 20
-160.1833
 10
-163.5538
 20
-160.1833
 10
-163.5538
 20
262.4643
 10
-491.9668
 20
262.4643
 10
-491.9668
 20
-160.1833
  0
LWPOLYLINE
  5
61
330
1F
100
AcDbEntity
  8
Layer 1
 62
     7
370
    18
100
AcDbPolyline
 90
        4
 70
     1
 43
0.0
 10
-246.2409
 20
-80.4169
 10
-243.4571
 20
-79.7315
 10
-246.2409
 20
-79.0419
 10
-246.2409
 20
-80.4169
  0
LWPOLYLINE
  5
62
330
1F
100
AcDbEntity
  8
Layer 1
 62
     7
370
     9
100
AcDbPolyline
 90
        4
 70
     1
 43
0.0
 10
-246.2382
 20
-80.4196
 10
-243.4557
 20
-79.7299
 10
-246.2382
 20
-79.0446
 10
-246.2382
 20
-80.4196
  0
LWPOLYLINE
  5
63
330
1F
100
AcDbEntity
  8
Layer 1
 62
     7
370
     9
100
AcDbPolyline
 90
        4
 70
     1
 43
0.0
 10
-243.4557
 20
-79.7299
 10
-246.2382
 20
-80.4196
 10
-246.2382
 20
-79.0446
 10
-243.4557
 20
-79.7299
  0
LWPOLYLINE
  5
64
330
1F
100
AcDbEntity
  8
Layer 1
 62
     7
370
     9
100
AcDbPolyline
 90
        4
 70
     1
 43
0.0
 10
-243.4543
 20
-79.7305
 10
-246.2372
 20
-80.4201
 10
-246.2372
 20
-79.0408
 10
-243.4543
 20
-79.7305
  0
LWPOLYLINE
  5
65
330
1F
100
AcDbEntity
  8
Layer 1
 62
     7
370
    18
100
AcDbPolyline
 90
        4
 70
     1
 43
0.0
 10
-276.8444
 20
-79.7305
 10
-274.0569
 20
-80.4143
 10
-274.0569
 20
-79.0446
 10
-276.8444
 20
-79.7305
  0
LWPOLYLINE
  5
66
330
1F
100
AcDbEntity
  8
Layer 1
 62
     7
370
     9
100
AcDbPolyline
 90
        4
 70
     1
 43
0.0
 10
-276.8444
 20
-79.7305
 10
-274.0569
 20
-80.4201
 10
-274.0569
 20
-79.0408
 10
-276.8444
 20
-79.7305
  0
LWPOLYLINE
  5
67
330
1F
100
AcDbEntity
  8
Layer 1
 62
     7
370
     9
100
AcDbPolyline
 90
        4
 70
     1
 43
0.0
 10
-276.8444
 20
-79.7305
 10
-274.0656
 20
-79.0408
 10
-274.0656
 20
-80.4201
 10
-276.8444
 20
-79.7305
  0
LWPOLYLINE
  5
68
330
1F
100
AcDbEntity
  8
Layer 1
 62
     7
370
     9
100
AcDbPolyline
 90
        4
 70
     1
 43
0.0
 10
-276.8444
 20
-79.7305
 10
-274.0656
 20
-79.0408
 10
-274.0656
 20
-80.4201
 10
-276.8444
 20
-79.7305
  0
LWPOLYLINE
  5
69
330
1F
100
AcDbEntity
  8
Layer 1
 62
     7
370
    18
100
AcDbPolyline
 90
        4
 70
     1
 43
0.0
 10
-376.6123
 20
108.7771
 10
-375.4268
 20
108.6355
 10
-375.7413
 20
111.9085
 10
-376.6123
 20
108.7771
  0
LWPOLYLINE
  5
6A
330
1F
100
AcDbEntity
  8
Layer 1
 62
     7
370
     9
100
AcDbPolyline
 90
        4
 70
     1
 43
0.0
 10
-376.6132
 20
108.7766
 10
-375.4268
 20
108.6386
 10
-375.7413
 20
111.9144
 10
-376.6132
 20
108.7766
  0
LWPOLYLINE
  5
6B
330
1F
100
AcDbEntity
  8
Layer 1
 62
     7
370
     9
100
AcDbPolyline
 90
        4
 70
     1
 43
0.0
 10
-375.7376
 20
111.9181
 10
-375.4232
 20
108.6386
 10
-376.6087
 20
108.7766
 10
-375.7376
 20
111.9181
  0
LWPOLYLINE
  5
6C
330
1F
100
AcDbEntity
  8
Layer 1
 62
     7
370
     9
100
AcDbPolyline
 90
        4
 70
     1
 43
0.0
 10
-375.7376
 20
111.9175
 10
-375.4223
 20
108.6386
 10
-376.6087
 20
108.7755
 10
-375.7376
 20
111.9175
  0
LWPOLYLINE
  5
6D
330
1F
100
AcDbEntity
  8
Layer 1
 62
     7
370
    18
100
AcDbPolyline
 90
        4
 70
     1
 43
0.0
 10
-375.9583
 20
126.0962
 10
-375.3243
 20
122.8831
 10
-374.7645
 20
126.1158
 10
-375.9583
 20
126.0962
  0
LWPOLYLINE
  5
6E
330
1F
100
AcDbEntity
  8
Layer 1
 62
     7
370
     9
100
AcDbPolyline
 90
        4
 70
     1
 43
0.0
 10
-375.9569
 20
126.0962
 10
-375.3243
 20
122.8852
 10
-374.7668
 20
126.1158
 10
-375.9569
 20
126.0962
  0
LWPOLYLINE
  5
6F
330
1F
100
AcDbEntity
  8
Layer 1
 62
     7
370
     9
100
AcDbPolyline
 90
        4
 70
     1
 43
0.0
 10
-375.328
 20
122.8852
 10
-375.9619
 20
126.0962
 10
-374.7668
 20
126.1158
 10
-375.328
 20
122.8852
  0
LWPOLYLINE
  5
70
330
1F
100
AcDbEntity
  8
Layer 1
 62
     7
370
     9
100
AcDbPolyline
 90
        4
 70
     1
 43
0.0
 10
-375.3257
 20
122.8831
 10
-375.9592
 20
126.0962
 10
-374.7654
 20
126.1158
 10
-375.3257
 20
122.8831
  0
LWPOLYLINE
  5
71
330
1F
100
AcDbEntity
  8
Layer 1
 62
     7
370
    18
100
AcDbPolyline
 90
        4
 70
     1
 43
0.0
 10
-411.1934
 20
79.9922
 10
-408.4109
 20
79.3026
 10
-408.4109
 20
80.6765
 10
-411.1934
 20
79.9922
  0
LWPOLYLINE
  5
72
330
1F
100
AcDbEntity
  8
Layer 1
 62
     7
370
     9
100
AcDbPolyline
 90
        4
 70
     1
 43
0.0
 10
-411.1948
 20
79.9922
 10
-408.4109
 20
79.2973
 10
-408.4109
 20
80.6818
 10
-411.1948
 20
79.9922
  0
LWPOLYLINE
  5
73
330
1F
100
AcDbEntity
  8
Layer 1
 62
     7
370
     9
100
AcDbPolyline
 90
        4
 70
     1
 43
0.0
 10
-411.1948
 20
79.9922
 10
-408.4109
 20
80.6818
 10
-408.4109
 20
79.2973
 10
-411.1948
 20
79.9922
  0
LWPOLYLINE
  5
74
330
1F
100
AcDbEntity
  8
Layer 1
 62
     7
370
     9
100
AcDbPolyline
 90
        4
 70
     1
 43
0.0
 10
-411.1948
 20
79.9922
 10
-408.4109
 20
80.6818
 10
-408.4109
 20
79.2973
 10
-411.1948
 20
79.9922
  0
LWPOLYLINE
  5
75
330
1F
100
AcDbEntity
  8
Layer 1
 62
     7
370
    18
100
AcDbPolyline
 90
        4
 70
     1
 43
0.0
 10
-262.9302
 20
79.3005
 10
-260.1514
 20
79.9901
 10
-262.9302
 20
80.6797
 10
-262.9302
 20
79.3005
  0
LWPOLYLINE
  5
76
330
1F
100
AcDbEntity
  8
Layer 1
 62
     7
370
     9
100
AcDbPolyline
 90
        4
 70
     1
 43
0.0
 10
-262.9293
 20
79.2999
 10
-260.15
 20
79.9933
 10
-262.9293
 20
80.6792
 10
-262.9293
 20
79.2999
  0
LWPOLYLINE
  5
77
330
1F
100
AcDbEntity
  8
Layer 1
 62
     7
370
     9
100
AcDbPolyline
 90
        4
 70
     1
 43
0.0
 10
-260.15
 20
79.9933
 10
-262.9293
 20
79.2999
 10
-262.9293
 20
80.6792
 10
-260.15
 20
79.9933
  0
LWPOLYLINE
  5
78
330
1F
100
AcDbEntity
  8
Layer 1
 62
     7
370
     9
100
AcDbPolyline
 90
        4
 70
     1
 43
0.0
 10
-260.1491
 20
79.9922
 10
-262.9279
 20
79.2973
 10
-262.9279
 20
80.6818
 10
-260.1491
 20
79.9922
  0
LWPOLYLINE
  5
79
330
1F
100
AcDbEntity
  8
Layer 1
 62
     7
370
    18
100
AcDbPolyline
 90
        4
 70
     1
 43
0.0
 10
-426.9893
 20
112.283
 10
-425.7955
 20
112.283
 10
-426.3993
 20
115.5041
 10
-426.9893
 20
112.283
  0
LWPOLYLINE
  5
7A
330
1F
100
AcDbEntity
  8
Layer 1
 62
     7
370
     9
100
AcDbPolyline
 90
        4
 70
     1
 43
0.0
 10
-426.9893
 20
112.283
 10
-425.7992
 20
112.283
 10
-426.3942
 20
115.5041
 10
-426.9893
 20
112.283
  0
LWPOLYLINE
  5
7B
330
1F
100
AcDbEntity
  8
Layer 1
 62
     7
370
     9
100
AcDbPolyline
 90
        4
 70
     1
 43
0.0
 10
-426.3942
 20
115.51
 10
-425.7992
 20
112.283
 10
-426.9893
 20
112.283
 10
-426.3942
 20
115.51
  0
LWPOLYLINE
  5
7C
330
1F
100
AcDbEntity
  8
Layer 1
 62
     7
370
     9
100
AcDbPolyline
 90
        4
 70
     1
 43
0.0
 10
-426.3956
 20
115.5105
 10
-425.7955
 20
112.2852
 10
-426.9906
 20
112.2852
 10
-426.3956
 20
115.5105
  0
LWPOLYLINE
  5
7D
330
1F
100
AcDbEntity
  8
Layer 1
 62
     7
370
    18
100
AcDbPolyline
 90
        4
 70
     1
 43
0.0
 10
-426.9893
 20
-117.769
 10
-426.3993
 20
-121.0007
 10
-425.7955
 20
-117.769
 10
-426.9893
 20
-117.769
  0
LWPOLYLINE
  5
7E
330
1F
100
AcDbEntity
  8
Layer 1
 62
     7
370
     9
100
AcDbPolyline
 90
        4
 70
     1
 43
0.0
 10
-426.9893
 20
-117.7717
 10
-426.3942
 20
-121.0007
 10
-425.7992
 20
-117.7717
 10
-426.9893
 20
-117.7717
  0
LWPOLYLINE
  5
7F
330
1F
100
AcDbEntity
  8
Layer 1
 62
     7
370
     9
100
AcDbPolyline
 90
        4
 70
     1
 43
0.0
 10
-426.3942
 20
-120.9965
 10
-426.9893
 20
-117.7717
 10
-425.7992
 20
-117.7717
 10
-426.3942
 20
-120.9965
  0
LWPOLYLINE
  5
80
330
1F
100
AcDbEntity
  8
Layer 1
 62
     7
370
     9
100
AcDbPolyline
 90
        4
 70
     1
 43
0.0
 10
-426.3956
 20
-120.9991
 10
-426.9906
 20
-117.7722
 10
-425.7955
 20
-117.7722
 10
-426.3956
 20
-120.9991
  0
LWPOLYLINE
  5
81
330
1F
100
AcDbEntity
  8
Layer 1
 62
     7
370
    18
100
AcDbPolyline
 90
        4
 70
     1
 43
0.0
 10
-419.1115
 20
209.2287
 10
-416.3276
 20
208.5333
 10
-416.3276
 20
209.9184
 10
-419.1115
 20
209.2287
  0
LWPOLYLINE
  5
82
330
1F
100
AcDbEntity
  8
Layer 1
 62
     7
370
     9
100
AcDbPolyline
 90
        4
 70
     1
 43
0.0
 10
-419.1124
 20
209.2266
 10
-416.3285
 20
208.5312
 10
-416.3285
 20
209.92
 10
-419.1124
 20
209.2266
  0
LWPOLYLINE
  5
83
330
1F
100
AcDbEntity
  8
Layer 1
 62
     7
370
     9
100
AcDbPolyline
 90
        4
 70
     1
 43
0.0
 10
-419.1124
 20
209.2266
 10
-416.3322
 20
209.9162
 10
-416.3322
 20
208.5312
 10
-419.1124
 20
209.2266
  0
LWPOLYLINE
  5
84
330
1F
100
AcDbEntity
  8
Layer 1
 62
     7
370
     9
100
AcDbPolyline
 90
        4
 70
     1
 43
0.0
 10
-419.1124
 20
209.2266
 10
-416.3322
 20
209.9162
 10
-416.3322
 20
208.5312
 10
-419.1124
 20
209.2266
  0
LWPOLYLINE
  5
85
330
1F
100
AcDbEntity
  8
Layer 1
 62
     7
370
    18
100
AcDbPolyline
 90
        4
 70
     1
 43
0.0
 10
-246.2409
 20
208.5312
 10
-243.4571
 20
209.2266
 10
-246.2409
 20
209.92
 10
-246.2409
 20
208.5312
  0
LWPOLYLINE
  5
86
330
1F
100
AcDbEntity
  8
Layer 1
 62
     7
370
     9
100
AcDbPolyline
 90
        4
 70
     1
 43
0.0
 10
-246.2382
 20
208.5333
 10
-243.4557
 20
209.2287
 10
-246.2382
 20
209.9184
 10
-246.2382
 20
208.5333
  0
LWPOLYLINE
  5
87
330
1F
100
AcDbEntity
  8
Layer 1
 62
     7
370
     9
100
AcDbPolyline
 90
        4
 70
     1
 43
0.0
 10
-243.4557
 20
209.2287
 10
-246.2382
 20
208.5333
 10
-246.2382
 20
209.9125
 10
-243.4557
 20
209.2287
  0
LWPOLYLINE
  5
88
330
1F
100
AcDbEntity
  8
Layer 1
 62
     7
370
     9
100
AcDbPolyline
 90
        4
 70
     1
 43
0.0
 10
-243.4543
 20
209.2266
 10
-246.2372
 20
208.5312
 10
-246.2372
 20
209.9162
 10
-243.4543
 20
209.2266
  0
LWPOLYLINE
  5
89
330
1F
100
AcDbEntity
  8
Layer 1
 62
     7
370
    18
100
AcDbPolyline
 90
        4
 70
     1
 43
0.0
 10
-224.2182
 20
198.4345
 10
-223.0245
 20
198.4345
 10
-223.6269
 20
201.6556
 10
-224.2182
 20
198.4345
  0
LWPOLYLINE
  5
8A
330
1F
100
AcDbEntity
  8
Layer 1
 62
     7
370
     9
100
AcDbPolyline
 90
        4
 70
     1
 43
0.0
 10
-224.2196
 20
198.4319
 10
-223.0245
 20
198.4319
 10
-223.6246
 20
201.6551
 10
-224.2196
 20
198.4319
  0
LWPOLYLINE
  5
8B
330
1F
100
AcDbEntity
  8
Layer 1
 62
     7
370
     9
100
AcDbPolyline
 90
        4
 70
     1
 43
0.0
 10
-223.6196
 20
201.6551
 10
-223.0245
 20
198.4319
 10
-224.2196
 20
198.4319
 10
-223.6196
 20
201.6551
  0
LWPOLYLINE
  5
8C
330
1F
100
AcDbEntity
  8
Layer 1
 62
     7
370
     9
100
AcDbPolyline
 90
        4
 70
     1
 43
0.0
 10
-223.6223
 20
201.6556
 10
-223.0222
 20
198.4345
 10
-224.221
 20
198.4345
 10
-223.6223
 20
201.6556
  0
LWPOLYLINE
  5
8D
330
1F
100
AcDbEntity
  8
Layer 1
 62
     7
370
    18
100
AcDbPolyline
 90
        4
 70
     1
 43
0.0
 10
-224.2182
 20
-117.769
 10
-223.6269
 20
-121.0007
 10
-223.0245
 20
-117.769
 10
-224.2182
 20
-117.769
  0
LWPOLYLINE
  5
8E
330
1F
100
AcDbEntity
  8
Layer 1
 62
     7
370
     9
100
AcDbPolyline
 90
        4
 70
     1
 43
0.0
 10
-224.2196
 20
-117.7717
 10
-223.6246
 20
-121.0007
 10
-223.0245
 20
-117.7717
 10
-224.2196
 20
-117.7717
  0
LWPOLYLINE
  5
8F
330
1F
100
AcDbEntity
  8
Layer 1
 62
     7
370
     9
100
AcDbPolyline
 90
        4
 70
     1
 43
0.0
 10
-223.6196
 20
-120.9965
 10
-224.2196
 20
-117.7717
 10
-223.0245
 20
-117.7717
 10
-223.6196
 20
-120.9965
  0
LWPOLYLINE
  5
90
330
1F
100
AcDbEntity
  8
Layer 1
 62
     7
370
     9
100
AcDbPolyline
 90
        4
 70
     1
 43
0.0
 10
-223.6223
 20
-120.9991
 10
-224.221
 20
-117.7722
 10
-223.0222
 20
-117.7722
 10
-223.6223
 20
-120.9991
  0
LWPOLYLINE
  5
91
330
1F
100
AcDbEntity
  8
Layer 1
 62
     7
370
    18
100
AcDbPolyline
 90
        4
 70
     1
 43
0.0
 10
-243.0547
 20
-97.5896
 10
-240.2755
 20
-96.9037
 10
-243.0547
 20
-96.2135
 10
-243.0547
 20
-97.5896
  0
LWPOLYLINE
  5
92
330
1F
100
AcDbEntity
  8
Layer 1
 62
     7
370
     9
100
AcDbPolyline
 90
        4
 70
     1
 43
0.0
 10
-243.0556
 20
-97.5896
 10
-240.2768
 20
-96.9047
 10
-243.0556
 20
-96.2151
 10
-243.0556
 20
-97.5896
  0
LWPOLYLINE
  5
93
330
1F
100
AcDbEntity
  8
Layer 1
 62
     7
370
     9
100
AcDbPolyline
 90
        4
 70
     1
 43
0.0
 10
-240.2768
 20
-96.9047
 10
-243.0556
 20
-97.5896
 10
-243.0556
 20
-96.2151
 10
-240.2768
 20
-96.9047
  0
LWPOLYLINE
  5
94
330
1F
100
AcDbEntity
  8
Layer 1
 62
     7
370
     9
100
AcDbPolyline
 90
        4
 70
     1
 43
0.0
 10
-240.2755
 20
-96.9069
 10
-243.0547
 20
-97.5901
 10
-243.0547
 20
-96.213
 10
-240.2755
 20
-96.9069
  0
LWPOLYLINE
  5
95
330
1F
100
AcDbEntity
  8
Layer 1
 62
     7
370
    18
100
AcDbPolyline
 90
        4
 70
     1
 43
0.0
 10
-280.0223
 20
-96.9069
 10
-277.2431
 20
-97.5901
 10
-277.2431
 20
-96.2172
 10
-280.0223
 20
-96.9069
  0
LWPOLYLINE
  5
96
330
1F
100
AcDbEntity
  8
Layer 1
 62
     7
370
     9
100
AcDbPolyline
 90
        4
 70
     1
 43
0.0
 10
-280.0233
 20
-96.9069
 10
-277.2444
 20
-97.5901
 10
-277.2444
 20
-96.213
 10
-280.0233
 20
-96.9069
  0
LWPOLYLINE
  5
97
330
1F
100
AcDbEntity
  8
Layer 1
 62
     7
370
     9
100
AcDbPolyline
 90
        4
 70
     1
 43
0.0
 10
-280.0233
 20
-96.9069
 10
-277.2444
 20
-96.213
 10
-277.2444
 20
-97.5901
 10
-280.0233
 20
-96.9069
  0
LWPOLYLINE
  5
98
330
1F
100
AcDbEntity
  8
Layer 1
 62
     7
100
AcDbPolyline
 90
        4
 70
     1
 43
0.0
 10
-280.0233
 20
-96.9069
 10
-277.2444
 20
-96.213
 10
-277.2444
 20
-97.5901
 10
-280.0233
 20
-96.9069
  0
LWPOLYLINE
  5
99
330
1F
100
AcDbEntity
  8
Layer 1
 62
     7
100
AcDbPolyline
 90
        3
 70
     1
 43
0.0
 10
-260.9428
 20
-120.9997
 10
-427.593
 20
-120.9997
 10
-260.9428
 20
-120.9997
  0
LWPOLYLINE
  5
9A
330
1F
100
AcDbEntity
  8
Layer 1
 62
     7
100
AcDbPolyline
 90
        3
 70
     1
 43
0.0
 10
-239.4781
 20
-120.9997
 10
-222.4295
 20
-120.9997
 10
-239.4781
 20
-120.9997
  0
LWPOLYLINE
  5
9B
330
1F
100
AcDbEntity
  8
Layer 1
 62
     7
100
AcDbPolyline
 90
        3
 70
     1
 43
0.0
 10
-280.0233
 20
-120.074
 10
-240.2782
 20
-120.074
 10
-280.0233
 20
-120.074
  0
LWPOLYLINE
  5
9C
330
1F
100
AcDbEntity
  8
Layer 1
 62
     7
100
AcDbPolyline
 90
        3
 70
     1
 43
0.0
 10
-280.0233
 20
-119.6172
 10
-240.2782
 20
-119.6172
 10
-280.0233
 20
-119.6172
  0
LWPOLYLINE
  5
9D
330
1F
100
AcDbEntity
  8
Layer 1
 62
     7
100
AcDbPolyline
 90
        3
 70
     1
 43
0.0
 10
-270.7554
 20
-117.5091
 10
-270.7975
 20
-117.5091
 10
-270.7554
 20
-117.5091
  0
LWPOLYLINE
  5
9E
330
1F
100
AcDbEntity
  8
Layer 1
 62
     7
100
AcDbPolyline
 90
        3
 70
     1
 43
0.0
 10
-274.5801
 20
-117.5091
 10
-274.6355
 20
-117.5091
 10
-274.5801
 20
-117.5091
  0
LWPOLYLINE
  5
9F
330
1F
100
AcDbEntity
  8
Layer 1
 62
     7
100
AcDbPolyline
 90
        3
 70
     1
 43
0.0
 10
-277.4902
 20
-117.5091
 10
-277.5671
 20
-117.5091
 10
-277.4902
 20
-117.5091
  0
LWPOLYLINE
  5
A0
330
1F
100
AcDbEntity
  8
Layer 1
 62
     7
100
AcDbPolyline
 90
        3
 70
     1
 43
0.0
 10
-279.3175
 20
-117.5091
 10
-279.403
 20
-117.5091
 10
-279.3175
 20
-117.5091
  0
LWPOLYLINE
  5
A1
330
1F
100
AcDbEntity
  8
Layer 1
 62
     7
100
AcDbPolyline
 90
        3
 70
     1
 43
0.0
 10
-279.9935
 20
-117.5091
 10
-280.0233
 20
-117.5091
 10
-279.9935
 20
-117.5091
  0
LWPOLYLINE
  5
A2
330
1F
100
AcDbEntity
  8
Layer 1
 62
     7
100
AcDbPolyline
 90
        3
 70
     1
 43
0.0
 10
-247.5321
 20
-117.5091
 10
-247.4804
 20
-117.5091
 10
-247.5321
 20
-117.5091
  0
LWPOLYLINE
  5
A3
330
1F
100
AcDbEntity
  8
Layer 1
 62
     7
100
AcDbPolyline
 90
        3
 70
     1
 43
0.0
 10
-244.1363
 20
-117.5091
 10
-244.0722
 20
-117.5091
 10
-244.1363
 20
-117.5091
  0
LWPOLYLINE
  5
A4
330
1F
100
AcDbEntity
  8
Layer 1
 62
     7
100
AcDbPolyline
 90
        3
 70
     1
 43
0.0
 10
-241.7438
 20
-117.5091
 10
-241.6715
 20
-117.5091
 10
-241.7438
 20
-117.5091
  0
LWPOLYLINE
  5
A5
330
1F
100
AcDbEntity
  8
Layer 1
 62
     7
100
AcDbPolyline
 90
        3
 70
     1
 43
0.0
 10
-240.5116
 20
-117.5091
 10
-240.4393
 20
-117.5091
 10
-240.5116
 20
-117.5091
  0
LWPOLYLINE
  5
A6
330
1F
100
AcDbEntity
  8
Layer 1
 62
     7
100
AcDbPolyline
 90
        3
 70
     1
 43
0.0
 10
-261.704
 20
-116.8837
 10
-240.5116
 20
-117.5091
 10
-261.704
 20
-116.8837
  0
LWPOLYLINE
  5
A7
330
1F
100
AcDbEntity
  8
Layer 1
 62
     7
100
AcDbPolyline
 90
        3
 70
     1
 43
0.0
 10
-266.5608
 20
-116.8837
 10
-266.586
 20
-116.8837
 10
-266.5608
 20
-116.8837
  0
LWPOLYLINE
  5
A8
330
1F
100
AcDbEntity
  8
Layer 1
 62
     7
100
AcDbPolyline
 90
        3
 70
     1
 43
0.0
 10
-271.019
 20
-116.8837
 10
-271.0611
 20
-116.8837
 10
-271.019
 20
-116.8837
  0
LWPOLYLINE
  5
A9
330
1F
100
AcDbEntity
  8
Layer 1
 62
     7
100
AcDbPolyline
 90
        3
 70
     1
 43
0.0
 10
-274.792
 20
-116.8837
 10
-274.852
 20
-116.8837
 10
-274.792
 20
-116.8837
  0
LWPOLYLINE
  5
AA
330
1F
100
AcDbEntity
  8
Layer 1
 62
     7
100
AcDbPolyline
 90
        3
 70
     1
 43
0.0
 10
-277.6395
 20
-116.8837
 10
-277.7154
 20
-116.8837
 10
-277.6395
 20
-116.8837
  0
LWPOLYLINE
  5
AB
330
1F
100
AcDbEntity
  8
Layer 1
 62
     7
100
AcDbPolyline
 90
        3
 70
     1
 43
0.0
 10
-279.3985
 20
-116.8837
 10
-279.4754
 20
-116.8837
 10
-279.3985
 20
-116.8837
  0
LWPOLYLINE
  5
AC
330
1F
100
AcDbEntity
  8
Layer 1
 62
     7
100
AcDbPolyline
 90
        3
 70
     1
 43
0.0
 10
-256.1327
 20
-116.8837
 10
-256.1194
 20
-116.8837
 10
-256.1327
 20
-116.8837
  0
LWPOLYLINE
  5
AD
330
1F
100
AcDbEntity
  8
Layer 1
 62
     7
100
AcDbPolyline
 90
        3
 70
     1
 43
0.0
 10
-251.4374
 20
-116.8837
 10
-251.4072
 20
-116.8837
 10
-251.4374
 20
-116.8837
  0
LWPOLYLINE
  5
AE
330
1F
100
AcDbEntity
  8
Layer 1
 62
     7
100
AcDbPolyline
 90
        3
 70
     1
 43
0.0
 10
-247.2937
 20
-116.8837
 10
-247.2429
 20
-116.8837
 10
-247.2937
 20
-116.8837
  0
LWPOLYLINE
  5
AF
330
1F
100
AcDbEntity
  8
Layer 1
 62
     7
100
AcDbPolyline
 90
        3
 70
     1
 43
0.0
 10
-243.9532
 20
-116.8837
 10
-243.8859
 20
-116.8837
 10
-243.9532
 20
-116.8837
  0
LWPOLYLINE
  5
B0
330
1F
100
AcDbEntity
  8
Layer 1
 62
     7
100
AcDbPolyline
 90
        3
 70
     1
 43
0.0
 10
-241.6331
 20
-116.8837
 10
-241.5607
 20
-116.8837
 10
-241.6331
 20
-116.8837
  0
LWPOLYLINE
  5
B1
330
1F
100
AcDbEntity
  8
Layer 1
 62
     7
100
AcDbPolyline
 90
        3
 70
     1
 43
0.0
 10
-240.4732
 20
-116.8837
 10
-240.3958
 20
-116.8837
 10
-240.4732
 20
-116.8837
  0
LWPOLYLINE
  5
B2
330
1F
100
AcDbEntity
  8
Layer 1
 62
     7
100
AcDbPolyline
 90
        3
 70
     1
 43
0.0
 10
-280.0233
 20
-113.322
 10
-240.2782
 20
-113.322
 10
-280.0233
 20
-113.322
  0
LWPOLYLINE
  5
B3
330
1F
100
AcDbEntity
  8
Layer 1
 62
     7
100
AcDbPolyline
 90
        3
 70
     1
 43
0.0
 10
-280.0233
 20
-112.8642
 10
-240.2782
 20
-112.8642
 10
-280.0233
 20
-112.8642
  0
LWPOLYLINE
  5
B4
330
1F
100
AcDbEntity
  8
Layer 1
 62
     7
100
AcDbPolyline
 90
        3
 70
     1
 43
0.0
 10
-240.2782
 20
-112.0616
 10
-280.0233
 20
-112.0616
 10
-240.2782
 20
-112.0616
  0
LWPOLYLINE
  5
B5
330
1F
100
AcDbEntity
  8
Layer 1
 62
     7
100
AcDbPolyline
 90
        3
 70
     1
 43
0.0
 10
-240.5153
 20
-111.7842
 10
-279.7811
 20
-111.7842
 10
-240.5153
 20
-111.7842
  0
LWPOLYLINE
  5
B6
330
1F
100
AcDbEntity
  8
Layer 1
 62
     7
100
AcDbPolyline
 90
        3
 70
     1
 43
0.0
 10
-280.0233
 20
-96.9069
 10
-240.2782
 20
-96.9069
 10
-280.0233
 20
-96.9069
  0
LWPOLYLINE
  5
B7
330
1F
100
AcDbEntity
  8
Layer 1
 62
     7
100
AcDbPolyline
 90
        3
 70
     1
 43
0.0
 10
-276.8444
 20
-79.7337
 10
-243.4557
 20
-79.7337
 10
-276.8444
 20
-79.7337
  0
LWPOLYLINE
  5
B8
330
1F
100
AcDbEntity
  8
Layer 1
 62
     7
100
AcDbPolyline
 90
        3
 70
     1
 43
0.0
 10
-261.3982
 20
-117.5091
 10
-259.4044
 20
-118.4184
 10
-261.3982
 20
-117.5091
  0
LWPOLYLINE
  5
B9
330
1F
100
AcDbEntity
  8
Layer 1
 62
     7
100
AcDbPolyline
 90
        3
 70
     1
 43
0.0
 10
-256.4219
 20
-117.5091
 10
-255.4571
 20
-117.9611
 10
-256.4219
 20
-117.5091
  0
LWPOLYLINE
  5
BA
330
1F
100
AcDbEntity
  8
Layer 1
 62
     7
100
AcDbPolyline
 90
        3
 70
     1
 43
0.0
 10
-255.4571
 20
-117.9611
 10
-254.4968
 20
-118.4184
 10
-255.4571
 20
-117.9611
  0
LWPOLYLINE
  5
BB
330
1F
100
AcDbEntity
  8
Layer 1
 62
     7
100
AcDbPolyline
 90
        4
 70
     1
 43
0.0
 10
-266.2935
 20
-117.5091
 10
-265.3323
 20
-117.9611
 10
-264.3684
 20
-118.4184
 10
-266.2935
 20
-117.5091
  0
LWPOLYLINE
  5
BC
330
1F
100
AcDbEntity
  8
Layer 1
 62
     7
100
AcDbPolyline
 90
        4
 70
     1
 43
0.0
 10
-270.7975
 20
-117.5091
 10
-269.9484
 20
-117.9611
 10
-269.0678
 20
-118.4184
 10
-270.7975
 20
-117.5091
  0
LWPOLYLINE
  5
BD
330
1F
100
AcDbEntity
  8
Layer 1
 62
     7
100
AcDbPolyline
 90
        3
 70
     1
 43
0.0
 10
-426.3942
 20
-120.9997
 10
-426.3942
 20
115.5046
 10
-426.3942
 20
-120.9997
  0
LWPOLYLINE
  5
BE
330
1F
100
AcDbEntity
  8
Layer 1
 62
     7
100
AcDbPolyline
 90
        3
 70
     1
 43
0.0
 10
-419.1101
 20
117.2356
 10
-419.1101
 20
210.6032
 10
-419.1101
 20
117.2356
  0
LWPOLYLINE
  5
BF
330
1F
100
AcDbEntity
  8
Layer 1
 62
     7
100
AcDbPolyline
 90
        3
 70
     1
 43
0.0
 10
-419.1101
 20
116.3131
 10
-417.2911
 20
140.4664
 10
-419.1101
 20
116.3131
  0
LWPOLYLINE
  5
C0
330
1F
100
AcDbEntity
  8
Layer 1
 62
     7
100
AcDbPolyline
 90
        3
 70
     1
 43
0.0
 10
-251.6878
 20
-117.5091
 10
-250.7952
 20
-117.9611
 10
-251.6878
 20
-117.5091
  0
LWPOLYLINE
  5
C1
330
1F
100
AcDbEntity
  8
Layer 1
 62
     7
100
AcDbPolyline
 90
        3
 70
     1
 43
0.0
 10
-250.7952
 20
-117.9611
 10
-249.9329
 20
-118.4184
 10
-250.7952
 20
-117.9611
  0
LWPOLYLINE
  5
C2
330
1F
100
AcDbEntity
  8
Layer 1
 62
     7
100
AcDbPolyline
 90
        4
 70
     1
 43
0.0
 10
-274.6355
 20
-117.5091
 10
-273.9379
 20
-117.9611
 10
-273.2065
 20
-118.4184
 10
-274.6355
 20
-117.5091
  0
LWPOLYLINE
  5
C3
330
1F
100
AcDbEntity
  8
Layer 1
 62
     7
100
AcDbPolyline
 90
        3
 70
     1
 43
0.0
 10
-411.1934
 20
114.5859
 10
-411.1934
 20
78.6071
 10
-411.1934
 20
114.5859
  0
LWPOLYLINE
  5
C4
330
1F
100
AcDbEntity
  8
Layer 1
 62
     7
100
AcDbPolyline
 90
        3
 70
     1
 43
0.0
 10
-403.2721
 20
114.7084
 10
-402.7206
 20
122.0359
 10
-403.2721
 20
114.7084
  0
LWPOLYLINE
  5
C5
330
1F
100
AcDbEntity
  8
Layer 1
 62
     7
100
AcDbPolyline
 90
        4
 70
     1
 43
0.0
 10
-267.1595
 20
168.4895
 10
-266.2464
 20
168.9425
 10
-265.3072
 20
169.3945
 10
-267.1595
 20
168.4895
  0
LWPOLYLINE
  5
C6
330
1F
100
AcDbEntity
  8
Layer 1
 62
     7
100
AcDbPolyline
 90
        3
 70
     1
 43
0.0
 10
-262.1375
 20
168.4895
 10
-260.1491
 20
169.3945
 10
-262.1375
 20
168.4895
  0
LWPOLYLINE
  5
C7
330
1F
100
AcDbEntity
  8
Layer 1
 62
     7
100
AcDbPolyline
 90
        3
 70
     1
 43
0.0
 10
-247.4804
 20
-117.5091
 10
-246.7284
 20
-117.9611
 10
-247.4804
 20
-117.5091
  0
LWPOLYLINE
  5
C8
330
1F
100
AcDbEntity
  8
Layer 1
 62
     7
100
AcDbPolyline
 90
        3
 70
     1
 43
0.0
 10
-246.7284
 20
-117.9611
 10
-246.0107
 20
-118.4184
 10
-246.7284
 20
-117.9611
  0
LWPOLYLINE
  5
C9
330
1F
100
AcDbEntity
  8
Layer 1
 62
     7
100
AcDbPolyline
 90
        4
 70
     1
 43
0.0
 10
-271.4987
 20
168.4895
 10
-270.7503
 20
168.9425
 10
-269.9649
 20
169.3945
 10
-271.4987
 20
168.4895
  0
LWPOLYLINE
  5
CA
330
1F
100
AcDbEntity
  8
Layer 1
 62
     7
100
AcDbPolyline
 90
        4
 70
     1
 43
0.0
 10
-252.0109
 20
168.4895
 10
-251.1605
 20
168.9425
 10
-250.3361
 20
169.3945
 10
-252.0109
 20
168.4895
  0
LWPOLYLINE
  5
CB
330
1F
100
AcDbEntity
  8
Layer 1
 62
     7
100
AcDbPolyline
 90
        4
 70
     1
 43
0.0
 10
-256.9181
 20
168.4895
 10
-255.9496
 20
168.9425
 10
-254.9897
 20
169.3945
 10
-256.9181
 20
168.4895
  0
LWPOLYLINE
  5
CC
330
1F
100
AcDbEntity
  8
Layer 1
 62
     7
100
AcDbPolyline
 90
        4
 70
     1
 43
0.0
 10
-277.5671
 20
-117.5091
 10
-277.0614
 20
-117.9611
 10
-276.5217
 20
-118.4184
 10
-277.5671
 20
-117.5091
  0
LWPOLYLINE
  5
CD
330
1F
100
AcDbEntity
  8
Layer 1
 62
     7
100
AcDbPolyline
 90
        3
 70
     1
 43
0.0
 10
-276.0457
 20
201.6551
 10
-276.8444
 20
200.7347
 10
-276.0457
 20
201.6551
  0
LWPOLYLINE
  5
CE
330
1F
100
AcDbEntity
  8
Layer 1
 62
     7
100
AcDbPolyline
 90
        3
 70
     1
 43
0.0
 10
-274.7279
 20
168.4895
 10
-274.2148
 20
168.9425
 10
-274.7279
 20
168.4895
  0
LWPOLYLINE
  5
CF
330
1F
100
AcDbEntity
  8
Layer 1
 62
     7
100
AcDbPolyline
 90
        3
 70
     1
 43
0.0
 10
-274.2148
 20
168.9425
 10
-273.6536
 20
169.3945
 10
-274.2148
 20
168.9425
  0
LWPOLYLINE
  5
D0
330
1F
100
AcDbEntity
  8
Layer 1
 62
     7
100
AcDbPolyline
 90
        3
 70
     1
 43
0.0
 10
-244.0722
 20
-117.5091
 10
-243.5028
 20
-117.9611
 10
-244.0722
 20
-117.5091
  0
LWPOLYLINE
  5
D1
330
1F
100
AcDbEntity
  8
Layer 1
 62
     7
100
AcDbPolyline
 90
        3
 70
     1
 43
0.0
 10
-243.5028
 20
-117.9611
 10
-242.9847
 20
-118.4184
 10
-243.5028
 20
-117.9611
  0
LWPOLYLINE
  5
D2
330
1F
100
AcDbEntity
  8
Layer 1
 62
     7
100
AcDbPolyline
 90
        3
 70
     1
 43
0.0
 10
-261.0875
 20
-116.8837
 10
-259.4044
 20
-118.4184
 10
-261.0875
 20
-116.8837
  0
LWPOLYLINE
  5
D3
330
1F
100
AcDbEntity
  8
Layer 1
 62
     7
100
AcDbPolyline
 90
        4
 70
     1
 43
0.0
 10
-256.1194
 20
-116.8837
 10
-255.2991
 20
-117.647
 10
-254.4922
 20
-118.4184
 10
-256.1194
 20
-116.8837
  0
LWPOLYLINE
  5
D4
330
1F
100
AcDbEntity
  8
Layer 1
 62
     7
100
AcDbPolyline
 90
        4
 70
     1
 43
0.0
 10
-265.991
 20
-116.8837
 10
-265.184
 20
-117.647
 10
-264.3684
 20
-118.4184
 10
-265.991
 20
-116.8837
  0
LWPOLYLINE
  5
D5
330
1F
100
AcDbEntity
  8
Layer 1
 62
     7
100
AcDbPolyline
 90
        4
 70
     1
 43
0.0
 10
-270.5338
 20
-116.8837
 10
-269.8074
 20
-117.647
 10
-269.0678
 20
-118.4184
 10
-270.5338
 20
-116.8837
  0
LWPOLYLINE
  5
D6
330
1F
100
AcDbEntity
  8
Layer 1
 62
     7
100
AcDbPolyline
 90
        4
 70
     1
 43
0.0
 10
-267.1595
 20
168.4895
 10
-266.391
 20
169.2491
 10
-265.601
 20
170.0263
 10
-267.1595
 20
168.4895
  0
LWPOLYLINE
  5
D7
330
1F
100
AcDbEntity
  8
Layer 1
 62
     7
100
AcDbPolyline
 90
        3
 70
     1
 43
0.0
 10
-262.1375
 20
168.4895
 10
-260.4631
 20
170.0263
 10
-262.1375
 20
168.4895
  0
LWPOLYLINE
  5
D8
330
1F
100
AcDbEntity
  8
Layer 1
 62
     7
100
AcDbPolyline
 90
        4
 70
     1
 43
0.0
 10
-247.9056
 20
168.4895
 10
-247.2515
 20
168.9425
 10
-246.6432
 20
169.3945
 10
-247.9056
 20
168.4895
  0
LWPOLYLINE
  5
D9
330
1F
100
AcDbEntity
  8
Layer 1
 62
     7
100
AcDbPolyline
 90
        4
 70
     1
 43
0.0
 10
-251.4072
 20
-116.8837
 10
-250.6593
 20
-117.647
 10
-249.9329
 20
-118.4184
 10
-251.4072
 20
-116.8837
  0
LWPOLYLINE
  5
DA
330
1F
100
AcDbEntity
  8
Layer 1
 62
     7
100
AcDbPolyline
 90
        4
 70
     1
 43
0.0
 10
-274.4222
 20
-116.8837
 10
-273.8235
 20
-117.647
 10
-273.2033
 20
-118.4184
 10
-274.4222
 20
-116.8837
  0
LWPOLYLINE
  5
DB
330
1F
100
AcDbEntity
  8
Layer 1
 62
     7
100
AcDbPolyline
 90
        4
 70
     1
 43
0.0
 10
-271.4987
 20
168.4895
 10
-270.8744
 20
169.2491
 10
-270.2107
 20
170.0263
 10
-271.4987
 20
168.4895
  0
LWPOLYLINE
  5
DC
330
1F
100
AcDbEntity
  8
Layer 1
 62
     7
100
AcDbPolyline
 90
        3
 70
     1
 43
0.0
 10
-256.0992
 20
169.2534
 10
-255.2909
 20
170.0263
 10
-256.0992
 20
169.2534
  0
LWPOLYLINE
  5
DD
330
1F
100
AcDbEntity
  8
Layer 1
 62
     7
100
AcDbPolyline
 90
        3
 70
     1
 43
0.0
 10
-256.9181
 20
168.4895
 10
-256.1029
 20
169.2491
 10
-256.9181
 20
168.4895
  0
LWPOLYLINE
  5
DE
330
1F
100
AcDbEntity
  8
Layer 1
 62
     7
100
AcDbPolyline
 90
        4
 70
     1
 43
0.0
 10
-247.2429
 20
-116.8837
 10
-246.6176
 20
-117.647
 10
-246.0107
 20
-118.4184
 10
-247.2429
 20
-116.8837
  0
LWPOLYLINE
  5
DF
330
1F
100
AcDbEntity
  8
Layer 1
 62
     7
100
AcDbPolyline
 90
        4
 70
     1
 43
0.0
 10
-279.403
 20
-117.5091
 10
-279.127
 20
-117.9611
 10
-278.808
 20
-118.4184
 10
-279.403
 20
-117.5091
  0
LWPOLYLINE
  5
E0
330
1F
100
AcDbEntity
  8
Layer 1
 62
     7
100
AcDbPolyline
 90
        3
 70
     1
 43
0.0
 10
-251.2882
 20
169.2534
 10
-250.5915
 20
170.0263
 10
-251.2882
 20
169.2534
  0
LWPOLYLINE
  5
E1
330
1F
100
AcDbEntity
  8
Layer 1
 62
     7
100
AcDbPolyline
 90
        3
 70
     1
 43
0.0
 10
-252.0109
 20
168.4895
 10
-251.2882
 20
169.2491
 10
-252.0109
 20
168.4895
  0
LWPOLYLINE
  5
E2
330
1F
100
AcDbEntity
  8
Layer 1
 62
     7
100
AcDbPolyline
 90
        3
 70
     1
 43
0.0
 10
-241.6715
 20
-117.5091
 10
-241.3273
 20
-117.9611
 10
-241.6715
 20
-117.5091
  0
LWPOLYLINE
  5
E3
330
1F
100
AcDbEntity
  8
Layer 1
 62
     7
100
AcDbPolyline
 90
        4
 70
     1
 43
0.0
 10
-277.4143
 20
-116.8837
 10
-276.9771
 20
-117.647
 10
-276.5217
 20
-118.4184
 10
-277.4143
 20
-116.8837
  0
LWPOLYLINE
  5
E4
330
1F
100
AcDbEntity
  8
Layer 1
 62
     7
100
AcDbPolyline
 90
        4
 70
     1
 43
0.0
 10
-274.7279
 20
168.4895
 10
-274.2958
 20
169.2491
 10
-273.8367
 20
170.0263
 10
-274.7279
 20
168.4895
  0
LWPOLYLINE
  5
E5
330
1F
100
AcDbEntity
  8
Layer 1
 62
     7
100
AcDbPolyline
 90
        3
 70
     1
 43
0.0
 10
-276.3048
 20
168.9425
 10
-276.0242
 20
169.3945
 10
-276.3048
 20
168.9425
  0
LWPOLYLINE
  5
E6
330
1F
100
AcDbEntity
  8
Layer 1
 62
     7
100
AcDbPolyline
 90
        4
 70
     1
 43
0.0
 10
-244.9987
 20
168.4895
 10
-244.6073
 20
168.9425
 10
-244.2723
 20
169.3945
 10
-244.9987
 20
168.4895
  0
LWPOLYLINE
  5
E7
330
1F
100
AcDbEntity
  8
Layer 1
 62
     7
100
AcDbPolyline
 90
        3
 70
     1
 43
0.0
 10
-402.7206
 20
122.0359
 10
-409.9397
 20
132.0896
 10
-402.7206
 20
122.0359
  0
LWPOLYLINE
  5
E8
330
1F
100
AcDbEntity
  8
Layer 1
 62
     7
100
AcDbPolyline
 90
        3
 70
     1
 43
0.0
 10
-416.4974
 20
141.304
 10
-409.9397
 20
132.0896
 10
-416.4974
 20
141.304
  0
LWPOLYLINE
  5
E9
330
1F
100
AcDbEntity
  8
Layer 1
 62
     7
100
AcDbPolyline
 90
        3
 70
     1
 43
0.0
 10
-241.3273
 20
-117.9611
 10
-241.0298
 20
-118.4184
 10
-241.3273
 20
-117.9611
  0
LWPOLYLINE
  5
EA
330
1F
100
AcDbEntity
  8
Layer 1
 62
     7
100
AcDbPolyline
 90
        3
 70
     1
 43
0.0
 10
-276.53
 20
168.4895
 10
-276.3048
 20
168.9425
 10
-276.53
 20
168.4895
  0
LWPOLYLINE
  5
EB
330
1F
100
AcDbEntity
  8
Layer 1
 62
     7
100
AcDbPolyline
 90
        3
 70
     1
 43
0.0
 10
-247.3527
 20
169.2534
 10
-246.8309
 20
170.0263
 10
-247.3527
 20
169.2534
  0
LWPOLYLINE
  5
EC
330
1F
100
AcDbEntity
  8
Layer 1
 62
     7
100
AcDbPolyline
 90
        3
 70
     1
 43
0.0
 10
-247.9056
 20
168.4895
 10
-247.3527
 20
169.2491
 10
-247.9056
 20
168.4895
  0
LWPOLYLINE
  5
ED
330
1F
100
AcDbEntity
  8
Layer 1
 62
     7
100
AcDbPolyline
 90
        3
 70
     1
 43
0.0
 10
-417.2911
 20
140.4664
 10
-409.9397
 20
132.0933
 10
-417.2911
 20
140.4664
  0
LWPOLYLINE
  5
EE
330
1F
100
AcDbEntity
  8
Layer 1
 62
     7
100
AcDbPolyline
 90
        3
 70
     1
 43
0.0
 10
-401.9292
 20
122.8831
 10
-409.9397
 20
132.0996
 10
-401.9292
 20
122.8831
  0
LWPOLYLINE
  5
EF
330
1F
100
AcDbEntity
  8
Layer 1
 62
     7
100
AcDbPolyline
 90
        4
 70
     1
 43
0.0
 10
-243.8891
 20
-116.8837
 10
-243.4218
 20
-117.647
 10
-242.9847
 20
-118.4184
 10
-243.8891
 20
-116.8837
  0
LWPOLYLINE
  5
F0
330
1F
100
AcDbEntity
  8
Layer 1
 62
     7
100
AcDbPolyline
 90
        4
 70
     1
 43
0.0
 10
-279.3175
 20
-116.8837
 10
-279.0804
 20
-117.647
 10
-278.808
 20
-118.4184
 10
-279.3175
 20
-116.8837
  0
LWPOLYLINE
  5
F1
330
1F
100
AcDbEntity
  8
Layer 1
 62
     7
100
AcDbPolyline
 90
        3
 70
     1
 43
0.0
 10
-276.53
 20
168.4895
 10
-276.3469
 20
169.2491
 10
-276.53
 20
168.4895
  0
LWPOLYLINE
  5
F2
330
1F
100
AcDbEntity
  8
Layer 1
 62
     7
100
AcDbPolyline
 90
        3
 70
     1
 43
0.0
 10
-276.3469
 20
169.2534
 10
-276.118
 20
170.0263
 10
-276.3469
 20
169.2534
  0
LWPOLYLINE
  5
F3
330
1F
100
AcDbEntity
  8
Layer 1
 62
     7
100
AcDbPolyline
 90
       13
 70
     1
 43
0.0
 10
-276.7387
 20
123.8098
 10
-276.4073
 20
124.7594
 10
-276.0242
 20
126.0299
 10
-275.6507
 20
127.5667
 10
-275.3486
 20
129.3019
 10
-275.1833
 20
131.149
 10
-275.1833
 20
133.045
 10
-275.3486
 20
134.891
 10
-275.6507
 20
136.6199
 10
-276.0242
 20
138.1604
 10
-276.4073
 20
139.4272
 10
-276.7387
 20
140.3725
 10
-276.7387
 20
123.8098
  0
LWPOLYLINE
  5
F4
330
1F
100
AcDbEntity
  8
Layer 1
 62
     7
100
AcDbPolyline
 90
       14
 70
     1
 43
0.0
 10
-277.1676
 20
123.0709
 10
-276.9588
 20
123.6422
 10
-276.6361
 20
124.6178
 10
-276.2457
 20
125.9524
 10
-275.8676
 20
127.5667
 10
-275.5738
 20
129.3507
 10
-275.4209
 20
131.1782
 10
-275.4209
 20
133.0142
 10
-275.5738
 20
134.8459
 10
-275.8676
 20
136.6199
 10
-276.2457
 20
138.2341
 10
-276.6361
 20
139.5799
 10
-276.9588
 20
140.5459
 10
-277.1676
 20
123.0709
  0
LWPOLYLINE
  5
F5
330
1F
100
AcDbEntity
  8
Layer 1
 62
     7
100
AcDbPolyline
 90
        3
 70
     1
 43
0.0
 10
-276.9469
 20
123.2332
 10
-276.7387
 20
123.8098
 10
-276.9469
 20
123.2332
  0
LWPOLYLINE
  5
F6
330
1F
100
AcDbEntity
  8
Layer 1
 62
     7
100
AcDbPolyline
 90
        3
 70
     1
 43
0.0
 10
-277.2444
 20
122.8831
 10
-277.1676
 20
123.0661
 10
-277.2444
 20
122.8831
  0
LWPOLYLINE
  5
F7
330
1F
100
AcDbEntity
  8
Layer 1
 62
     7
100
AcDbPolyline
 90
        3
 70
     1
 43
0.0
 10
-277.0229
 20
123.0465
 10
-276.9469
 20
123.2332
 10
-277.0229
 20
123.0465
  0
LWPOLYLINE
  5
F8
330
1F
100
AcDbEntity
  8
Layer 1
 62
     7
100
AcDbPolyline
 90
        3
 70
     1
 43
0.0
 10
-244.6677
 20
169.2534
 10
-244.3652
 20
170.0263
 10
-244.6677
 20
169.2534
  0
LWPOLYLINE
  5
F9
330
1F
100
AcDbEntity
  8
Layer 1
 62
     7
100
AcDbPolyline
 90
        3
 70
     1
 43
0.0
 10
-244.9987
 20
168.4895
 10
-244.6677
 20
169.2491
 10
-244.9987
 20
168.4895
  0
LWPOLYLINE
  5
FA
330
1F
100
AcDbEntity
  8
Layer 1
 62
     7
100
AcDbPolyline
 90
        3
 70
     1
 43
0.0
 10
-411.1934
 20
79.9922
 10
-260.1491
 20
79.9922
 10
-411.1934
 20
79.9922
  0
LWPOLYLINE
  5
FB
330
1F
100
AcDbEntity
  8
Layer 1
 62
     7
100
AcDbPolyline
 90
        4
 70
     1
 43
0.0
 10
-241.5571
 20
-116.8837
 10
-241.2802
 20
-117.647
 10
-241.0298
 20
-118.4184
 10
-241.5571
 20
-116.8837
  0
LWPOLYLINE
  5
FC
330
1F
100
AcDbEntity
  8
Layer 1
 62
     7
100
AcDbPolyline
 90
        3
 70
     1
 43
0.0
 10
-274.6355
 20
-114.4297
 10
-274.4222
 20
-116.8869
 10
-274.6355
 20
-114.4297
  0
LWPOLYLINE
  5
FD
330
1F
100
AcDbEntity
  8
Layer 1
 62
     7
100
AcDbPolyline
 90
        3
 70
     1
 43
0.0
 10
-279.9898
 20
-117.647
 10
-279.9258
 20
-118.4184
 10
-279.9898
 20
-117.647
  0
LWPOLYLINE
  5
FE
330
1F
100
AcDbEntity
  8
Layer 1
 62
     7
100
AcDbPolyline
 90
        3
 70
     1
 43
0.0
 10
-277.5671
 20
-114.4297
 10
-277.4143
 20
-116.8869
 10
-277.5671
 20
-114.4297
  0
LWPOLYLINE
  5
FF
330
1F
100
AcDbEntity
  8
Layer 1
 62
     7
100
AcDbPolyline
 90
        3
 70
     1
 43
0.0
 10
-280.0233
 20
-116.8837
 10
-279.9898
 20
-117.647
 10
-280.0233
 20
-116.8837
  0
LWPOLYLINE
  5
100
330
1F
100
AcDbEntity
  8
Layer 1
 62
     7
100
AcDbPolyline
 90
        5
 70
     1
 43
0.0
 10
-280.0233
 20
-117.5091
 10
-280.015
 20
-117.8083
 10
-279.9766
 20
-118.1139
 10
-279.9258
 20
-118.4184
 10
-280.0233
 20
-117.5091
  0
LWPOLYLINE
  5
101
330
1F
100
AcDbEntity
  8
Layer 1
 62
     7
100
AcDbPolyline
 90
        3
 70
     1
 43
0.0
 10
-279.403
 20
-114.4297
 10
-279.3175
 20
-116.8869
 10
-279.403
 20
-114.4297
  0
LWPOLYLINE
  5
102
330
1F
100
AcDbEntity
  8
Layer 1
 62
     7
100
AcDbPolyline
 90
        3
 70
     1
 43
0.0
 10
-266.2935
 20
-114.4297
 10
-265.996
 20
-116.8869
 10
-266.2935
 20
-114.4297
  0
LWPOLYLINE
  5
103
330
1F
100
AcDbEntity
  8
Layer 1
 62
     7
100
AcDbPolyline
 90
        3
 70
     1
 43
0.0
 10
-270.7975
 20
-114.4297
 10
-270.5302
 20
-116.8869
 10
-270.7975
 20
-114.4297
  0
LWPOLYLINE
  5
104
330
1F
100
AcDbEntity
  8
Layer 1
 62
     7
100
AcDbPolyline
 90
        3
 70
     1
 43
0.0
 10
-280.0233
 20
-114.4297
 10
-280.0233
 20
-116.8869
 10
-280.0233
 20
-114.4297
  0
LWPOLYLINE
  5
105
330
1F
100
AcDbEntity
  8
Layer 1
 62
     7
100
AcDbPolyline
 90
        3
 70
     1
 43
0.0
 10
-276.8444
 20
172.4798
 10
-276.8407
 20
170.0263
 10
-276.8444
 20
172.4798
  0
LWPOLYLINE
  5
106
330
1F
100
AcDbEntity
  8
Layer 1
 62
     7
100
AcDbPolyline
 90
        3
 70
     1
 43
0.0
 10
-280.0233
 20
-120.9997
 10
-280.0233
 20
-120.074
 10
-280.0233
 20
-120.9997
  0
LWPOLYLINE
  5
107
330
1F
100
AcDbEntity
  8
Layer 1
 62
     7
100
AcDbPolyline
 90
        3
 70
     1
 43
0.0
 10
-280.0233
 20
-119.6172
 10
-280.0233
 20
-117.5091
 10
-280.0233
 20
-119.6172
  0
LWPOLYLINE
  5
108
330
1F
100
AcDbEntity
  8
Layer 1
 62
     7
100
AcDbPolyline
 90
        3
 70
     1
 43
0.0
 10
-280.0233
 20
-114.4297
 10
-280.0233
 20
-113.322
 10
-280.0233
 20
-114.4297
  0
LWPOLYLINE
  5
109
330
1F
100
AcDbEntity
  8
Layer 1
 62
     7
100
AcDbPolyline
 90
        3
 70
     1
 43
0.0
 10
-280.0233
 20
-112.8642
 10
-280.0233
 20
-112.0616
 10
-280.0233
 20
-112.8642
  0
LWPOLYLINE
  5
10A
330
1F
100
AcDbEntity
  8
Layer 1
 62
     7
100
AcDbPolyline
 90
        3
 70
     1
 43
0.0
 10
-280.0233
 20
-111.1391
 10
-280.0233
 20
-95.5234
 10
-280.0233
 20
-111.1391
  0
LWPOLYLINE
  5
10B
330
1F
100
AcDbEntity
  8
Layer 1
 62
     7
100
AcDbPolyline
 90
        3
 70
     1
 43
0.0
 10
-279.9381
 20
-112.8642
 10
-279.9381
 20
-113.322
 10
-279.9381
 20
-112.8642
  0
LWPOLYLINE
  5
10C
330
1F
100
AcDbEntity
  8
Layer 1
 62
     7
100
AcDbPolyline
 90
        3
 70
     1
 43
0.0
 10
-279.9381
 20
-119.6172
 10
-279.9381
 20
-120.074
 10
-279.9381
 20
-119.6172
  0
LWPOLYLINE
  5
10D
330
1F
100
AcDbEntity
  8
Layer 1
 62
     7
100
AcDbPolyline
 90
        3
 70
     1
 43
0.0
 10
-276.8444
 20
123.5181
 10
-276.8444
 20
-102.3576
 10
-276.8444
 20
123.5181
  0
LWPOLYLINE
  5
10E
330
1F
100
AcDbEntity
  8
Layer 1
 62
     7
100
AcDbPolyline
 90
        3
 70
     1
 43
0.0
 10
-276.8444
 20
140.6685
 10
-276.8444
 20
164.0626
 10
-276.8444
 20
140.6685
  0
LWPOLYLINE
  5
10F
330
1F
100
AcDbEntity
  8
Layer 1
 62
     7
100
AcDbPolyline
 90
        3
 70
     1
 43
0.0
 10
-276.8444
 20
165.0764
 10
-276.8444
 20
166.8248
 10
-276.8444
 20
165.0764
  0
LWPOLYLINE
  5
110
330
1F
100
AcDbEntity
  8
Layer 1
 62
     7
100
AcDbPolyline
 90
        3
 70
     1
 43
0.0
 10
-276.8444
 20
167.2933
 10
-276.8444
 20
169.3945
 10
-276.8444
 20
167.2933
  0
LWPOLYLINE
  5
111
330
1F
100
AcDbEntity
  8
Layer 1
 62
     7
100
AcDbPolyline
 90
        3
 70
     1
 43
0.0
 10
-276.8444
 20
172.4798
 10
-276.8444
 20
173.5779
 10
-276.8444
 20
172.4798
  0
LWPOLYLINE
  5
112
330
1F
100
AcDbEntity
  8
Layer 1
 62
     7
100
AcDbPolyline
 90
        3
 70
     1
 43
0.0
 10
-276.8444
 20
174.0463
 10
-276.8444
 20
200.7347
 10
-276.8444
 20
174.0463
  0
LWPOLYLINE
  5
113
330
1F
100
AcDbEntity
  8
Layer 1
 62
     7
100
AcDbPolyline
 90
        3
 70
     1
 43
0.0
 10
-276.7602
 20
174.0463
 10
-276.7602
 20
173.5874
 10
-276.7602
 20
174.0463
  0
LWPOLYLINE
  5
114
330
1F
100
AcDbEntity
  8
Layer 1
 62
     7
100
AcDbPolyline
 90
        3
 70
     1
 43
0.0
 10
-276.7602
 20
167.2933
 10
-276.7602
 20
166.8344
 10
-276.7602
 20
167.2933
  0
LWPOLYLINE
  5
115
330
1F
100
AcDbEntity
  8
Layer 1
 62
     7
100
AcDbPolyline
 90
        3
 70
     1
 43
0.0
 10
-279.4754
 20
-116.8837
 10
-279.403
 20
-114.4297
 10
-279.4754
 20
-116.8837
  0
LWPOLYLINE
  5
116
330
1F
100
AcDbEntity
  8
Layer 1
 62
     7
100
AcDbPolyline
 90
        3
 70
     1
 43
0.0
 10
-276.118
 20
170.0263
 10
-276.0324
 20
172.4798
 10
-276.118
 20
170.0263
  0
LWPOLYLINE
  5
117
330
1F
100
AcDbEntity
  8
Layer 1
 62
     7
100
AcDbPolyline
 90
        3
 70
     1
 43
0.0
 10
-273.8367
 20
170.0263
 10
-273.6573
 20
172.4798
 10
-273.8367
 20
170.0263
  0
LWPOLYLINE
  5
118
330
1F
100
AcDbEntity
  8
Layer 1
 62
     7
100
AcDbPolyline
 90
        3
 70
     1
 43
0.0
 10
-270.2107
 20
170.0263
 10
-269.9649
 20
172.4798
 10
-270.2107
 20
170.0263
  0
LWPOLYLINE
  5
119
330
1F
100
AcDbEntity
  8
Layer 1
 62
     7
100
AcDbPolyline
 90
        3
 70
     1
 43
0.0
 10
-265.601
 20
170.0263
 10
-265.3072
 20
172.4798
 10
-265.601
 20
170.0263
  0
LWPOLYLINE
  5
11A
330
1F
100
AcDbEntity
  8
Layer 1
 62
     7
100
AcDbPolyline
 90
        3
 70
     1
 43
0.0
 10
-260.4631
 20
170.0263
 10
-260.1491
 20
172.4798
 10
-260.4631
 20
170.0263
  0
LWPOLYLINE
  5
11B
330
1F
100
AcDbEntity
  8
Layer 1
 62
     7
100
AcDbPolyline
 90
        3
 70
     1
 43
0.0
 10
-243.5752
 20
168.4895
 10
-243.5074
 20
168.7913
 10
-243.5752
 20
168.4895
  0
LWPOLYLINE
  5
11C
330
1F
100
AcDbEntity
  8
Layer 1
 62
     7
100
AcDbPolyline
 90
        3
 70
     1
 43
0.0
 10
-240.4347
 20
-117.5091
 10
-240.3336
 20
-117.9611
 10
-240.4347
 20
-117.5091
  0
LWPOLYLINE
  5
11D
330
1F
100
AcDbEntity
  8
Layer 1
 62
     7
100
AcDbPolyline
 90
        3
 70
     1
 43
0.0
 10
-261.3982
 20
-114.4297
 10
-261.0875
 20
-116.8869
 10
-261.3982
 20
-114.4297
  0
LWPOLYLINE
  5
11E
330
1F
100
AcDbEntity
  8
Layer 1
 62
     7
100
AcDbPolyline
 90
        3
 70
     1
 43
0.0
 10
-256.4219
 20
-114.4297
 10
-256.1194
 20
-116.8869
 10
-256.4219
 20
-114.4297
  0
LWPOLYLINE
  5
11F
330
1F
100
AcDbEntity
  8
Layer 1
 62
     7
100
AcDbPolyline
 90
        3
 70
     1
 43
0.0
 10
-273.6573
 20
172.4798
 10
-273.4706
 20
170.0263
 10
-273.6573
 20
172.4798
  0
LWPOLYLINE
  5
120
330
1F
100
AcDbEntity
  8
Layer 1
 62
     7
100
AcDbPolyline
 90
        3
 70
     1
 43
0.0
 10
-276.8407
 20
170.0263
 10
-276.8023
 20
169.2534
 10
-276.8407
 20
170.0263
  0
LWPOLYLINE
  5
121
330
1F
100
AcDbEntity
  8
Layer 1
 62
     7
100
AcDbPolyline
 90
        3
 70
     1
 43
0.0
 10
-276.8444
 20
169.3945
 10
-276.8275
 20
169.0958
 10
-276.8444
 20
169.3945
  0
LWPOLYLINE
  5
122
330
1F
100
AcDbEntity
  8
Layer 1
 62
     7
100
AcDbPolyline
 90
        3
 70
     1
 43
0.0
 10
-276.0292
 20
172.4798
 10
-275.9313
 20
170.0263
 10
-276.0292
 20
172.4798
  0
LWPOLYLINE
  5
123
330
1F
100
AcDbEntity
  8
Layer 1
 62
     7
100
AcDbPolyline
 90
        3
 70
     1
 43
0.0
 10
-277.7118
 20
-116.8837
 10
-277.5671
 20
-114.4297
 10
-277.7118
 20
-116.8837
  0
LWPOLYLINE
  5
124
330
1F
100
AcDbEntity
  8
Layer 1
 62
     7
100
AcDbPolyline
 90
        3
 70
     1
 43
0.0
 10
-250.5915
 20
170.0263
 10
-250.3361
 20
172.4798
 10
-250.5915
 20
170.0263
  0
LWPOLYLINE
  5
125
330
1F
100
AcDbEntity
  8
Layer 1
 62
     7
100
AcDbPolyline
 90
        3
 70
     1
 43
0.0
 10
-255.2909
 20
170.0263
 10
-254.9897
 20
172.4798
 10
-255.2909
 20
170.0263
  0
LWPOLYLINE
  5
126
330
1F
100
AcDbEntity
  8
Layer 1
 62
     7
100
AcDbPolyline
 90
        3
 70
     1
 43
0.0
 10
-411.9885
 20
115.5105
 10
-427.588
 20
115.5105
 10
-411.9885
 20
115.5105
  0
LWPOLYLINE
  5
127
330
1F
100
AcDbEntity
  8
Layer 1
 62
     7
100
AcDbPolyline
 90
        3
 70
     1
 43
0.0
 10
-419.1101
 20
116.3131
 10
-403.2772
 20
114.7084
 10
-419.1101
 20
116.3131
  0
LWPOLYLINE
  5
128
330
1F
100
AcDbEntity
  8
Layer 1
 62
     7
100
AcDbPolyline
 90
        3
 70
     1
 43
0.0
 10
-402.4771
 20
114.6304
 10
-374.5499
 20
111.7923
 10
-402.4771
 20
114.6304
  0
LWPOLYLINE
  5
129
330
1F
100
AcDbEntity
  8
Layer 1
 62
     7
100
AcDbPolyline
 90
        3
 70
     1
 43
0.0
 10
-251.6878
 20
-114.4297
 10
-251.4072
 20
-116.8869
 10
-251.6878
 20
-114.4297
  0
LWPOLYLINE
  5
12A
330
1F
100
AcDbEntity
  8
Layer 1
 62
     7
100
AcDbPolyline
 90
        3
 70
     1
 43
0.0
 10
-276.8023
 20
169.2534
 10
-276.73
 20
168.4895
 10
-276.8023
 20
169.2534
  0
LWPOLYLINE
  5
12B
330
1F
100
AcDbEntity
  8
Layer 1
 62
     7
100
AcDbPolyline
 90
        3
 70
     1
 43
0.0
 10
-247.4804
 20
-114.4297
 10
-247.2465
 20
-116.8869
 10
-247.4804
 20
-114.4297
  0
LWPOLYLINE
  5
12C
330
1F
100
AcDbEntity
  8
Layer 1
 62
     7
100
AcDbPolyline
 90
        3
 70
     1
 43
0.0
 10
-244.0722
 20
-114.4297
 10
-243.8891
 20
-116.8869
 10
-244.0722
 20
-114.4297
  0
LWPOLYLINE
  5
12D
330
1F
100
AcDbEntity
  8
Layer 1
 62
     7
100
AcDbPolyline
 90
        3
 70
     1
 43
0.0
 10
-260.1491
 20
98.1256
 10
-260.1491
 20
78.6071
 10
-260.1491
 20
98.1256
  0
LWPOLYLINE
  5
12E
330
1F
100
AcDbEntity
  8
Layer 1
 62
     7
100
AcDbPolyline
 90
        3
 70
     1
 43
0.0
 10
-246.8309
 20
170.0263
 10
-246.6432
 20
172.4798
 10
-246.8309
 20
170.0263
  0
LWPOLYLINE
  5
12F
330
1F
100
AcDbEntity
  8
Layer 1
 62
     7
100
AcDbPolyline
 90
        3
 70
     1
 43
0.0
 10
-274.8474
 20
-116.8837
 10
-274.6355
 20
-114.4297
 10
-274.8474
 20
-116.8837
  0
LWPOLYLINE
  5
130
330
1F
100
AcDbEntity
  8
Layer 1
 62
     7
100
AcDbPolyline
 90
        3
 70
     1
 43
0.0
 10
-243.5752
 20
168.4895
 10
-243.4941
 20
169.2491
 10
-243.5752
 20
168.4895
  0
LWPOLYLINE
  5
131
330
1F
100
AcDbEntity
  8
Layer 1
 62
     7
100
AcDbPolyline
 90
        3
 70
     1
 43
0.0
 10
-271.0611
 20
-116.8837
 10
-270.8025
 20
-114.4297
 10
-271.0611
 20
-116.8837
  0
LWPOLYLINE
  5
132
330
1F
100
AcDbEntity
  8
Layer 1
 62
     7
100
AcDbPolyline
 90
        4
 70
     1
 43
0.0
 10
-243.5074
 20
168.7913
 10
-243.4653
 20
169.0958
 10
-243.4557
 20
169.3945
 10
-243.5074
 20
168.7913
  0
LWPOLYLINE
  5
133
330
1F
100
AcDbEntity
  8
Layer 1
 62
     7
100
AcDbPolyline
 90
        4
 70
     1
 43
0.0
 10
-279.7935
 20
-118.4184
 10
-279.6502
 20
-117.6571
 10
-279.4754
 20
-116.8837
 10
-279.7935
 20
-118.4184
  0
LWPOLYLINE
  5
134
330
1F
100
AcDbEntity
  8
Layer 1
 62
     7
100
AcDbPolyline
 90
        3
 70
     1
 43
0.0
 10
-401.9292
 20
122.8831
 10
-277.2444
 20
122.8831
 10
-401.9292
 20
122.8831
  0
LWPOLYLINE
  5
135
330
1F
100
AcDbEntity
  8
Layer 1
 62
     7
100
AcDbPolyline
 90
        4
 70
     1
 43
0.0
 10
-276.8275
 20
169.0958
 10
-276.789
 20
168.7913
 10
-276.7254
 20
168.4895
 10
-276.8275
 20
169.0958
  0
LWPOLYLINE
  5
136
330
1F
100
AcDbEntity
  8
Layer 1
 62
     7
100
AcDbPolyline
 90
        3
 70
     1
 43
0.0
 10
-240.3336
 20
-117.9611
 10
-240.2782
 20
-118.4184
 10
-240.3336
 20
-117.9611
  0
LWPOLYLINE
  5
137
330
1F
100
AcDbEntity
  8
Layer 1
 62
     7
100
AcDbPolyline
 90
        3
 70
     1
 43
0.0
 10
-269.9649
 20
172.4798
 10
-269.7099
 20
170.0263
 10
-269.9649
 20
172.4798
  0
LWPOLYLINE
  5
138
330
1F
100
AcDbEntity
  8
Layer 1
 62
     7
100
AcDbPolyline
 90
        4
 70
     1
 43
0.0
 10
-240.3958
 20
-116.8837
 10
-240.3153
 20
-117.647
 10
-240.2782
 20
-118.4184
 10
-240.3958
 20
-116.8837
  0
LWPOLYLINE
  5
139
330
1F
100
AcDbEntity
  8
Layer 1
 62
     7
100
AcDbPolyline
 90
        3
 70
     1
 43
0.0
 10
-241.6715
 20
-114.4297
 10
-241.5571
 20
-116.8869
 10
-241.6715
 20
-114.4297
  0
LWPOLYLINE
  5
13A
330
1F
100
AcDbEntity
  8
Layer 1
 62
     7
100
AcDbPolyline
 90
        3
 70
     1
 43
0.0
 10
-240.4347
 20
-114.4297
 10
-240.3958
 20
-116.8869
 10
-240.4347
 20
-114.4297
  0
LWPOLYLINE
  5
13B
330
1F
100
AcDbEntity
  8
Layer 1
 62
     7
100
AcDbPolyline
 90
        3
 70
     1
 43
0.0
 10
-243.5362
 20
174.0463
 10
-243.5362
 20
173.5874
 10
-243.5362
 20
174.0463
  0
LWPOLYLINE
  5
13C
330
1F
100
AcDbEntity
  8
Layer 1
 62
     7
100
AcDbPolyline
 90
        3
 70
     1
 43
0.0
 10
-243.5362
 20
167.2933
 10
-243.5362
 20
166.8344
 10
-243.5362
 20
167.2933
  0
LWPOLYLINE
  5
13D
330
1F
100
AcDbEntity
  8
Layer 1
 62
     7
100
AcDbPolyline
 90
        3
 70
     1
 43
0.0
 10
-243.4557
 20
-102.3544
 10
-243.4557
 20
164.0626
 10
-243.4557
 20
-102.3544
  0
LWPOLYLINE
  5
13E
330
1F
100
AcDbEntity
  8
Layer 1
 62
     7
100
AcDbPolyline
 90
        3
 70
     1
 43
0.0
 10
-243.4557
 20
165.0764
 10
-243.4557
 20
166.8248
 10
-243.4557
 20
165.0764
  0
LWPOLYLINE
  5
13F
330
1F
100
AcDbEntity
  8
Layer 1
 62
     7
100
AcDbPolyline
 90
        3
 70
     1
 43
0.0
 10
-243.4557
 20
167.2933
 10
-243.4557
 20
169.3945
 10
-243.4557
 20
167.2933
  0
LWPOLYLINE
  5
140
330
1F
100
AcDbEntity
  8
Layer 1
 62
     7
100
AcDbPolyline
 90
        3
 70
     1
 43
0.0
 10
-243.4557
 20
174.0463
 10
-243.4557
 20
200.7347
 10
-243.4557
 20
174.0463
  0
LWPOLYLINE
  5
141
330
1F
100
AcDbEntity
  8
Layer 1
 62
     7
100
AcDbPolyline
 90
        3
 70
     1
 43
0.0
 10
-243.4557
 20
201.6551
 10
-243.4557
 20
210.6128
 10
-243.4557
 20
201.6551
  0
LWPOLYLINE
  5
142
330
1F
100
AcDbEntity
  8
Layer 1
 62
     7
100
AcDbPolyline
 90
        3
 70
     1
 43
0.0
 10
-240.3537
 20
-112.8642
 10
-240.3537
 20
-113.322
 10
-240.3537
 20
-112.8642
  0
LWPOLYLINE
  5
143
330
1F
100
AcDbEntity
  8
Layer 1
 62
     7
100
AcDbPolyline
 90
        3
 70
     1
 43
0.0
 10
-240.3537
 20
-119.6172
 10
-240.3537
 20
-120.074
 10
-240.3537
 20
-119.6172
  0
LWPOLYLINE
  5
144
330
1F
100
AcDbEntity
  8
Layer 1
 62
     7
100
AcDbPolyline
 90
        3
 70
     1
 43
0.0
 10
-240.2782
 20
-120.9997
 10
-240.2782
 20
-120.074
 10
-240.2782
 20
-120.9997
  0
LWPOLYLINE
  5
145
330
1F
100
AcDbEntity
  8
Layer 1
 62
     7
100
AcDbPolyline
 90
        3
 70
     1
 43
0.0
 10
-240.2782
 20
-119.6172
 10
-240.2782
 20
-113.322
 10
-240.2782
 20
-119.6172
  0
LWPOLYLINE
  5
146
330
1F
100
AcDbEntity
  8
Layer 1
 62
     7
100
AcDbPolyline
 90
        3
 70
     1
 43
0.0
 10
-240.2782
 20
-112.8642
 10
-240.2782
 20
-112.0616
 10
-240.2782
 20
-112.8642
  0
LWPOLYLINE
  5
147
330
1F
100
AcDbEntity
  8
Layer 1
 62
     7
100
AcDbPolyline
 90
        3
 70
     1
 43
0.0
 10
-240.2782
 20
-111.1391
 10
-240.2782
 20
-95.5234
 10
-240.2782
 20
-111.1391
  0
LWPOLYLINE
  5
148
330
1F
100
AcDbEntity
  8
Layer 1
 62
     7
100
AcDbPolyline
 90
        3
 70
     1
 43
0.0
 10
-243.4607
 20
170.8448
 10
-243.4557
 20
173.5816
 10
-243.4607
 20
170.8448
  0
LWPOLYLINE
  5
149
330
1F
100
AcDbEntity
  8
Layer 1
 62
     7
100
AcDbPolyline
 90
        3
 70
     1
 43
0.0
 10
-243.4607
 20
170.0263
 10
-243.4607
 20
170.8448
 10
-243.4607
 20
170.0263
  0
LWPOLYLINE
  5
14A
330
1F
100
AcDbEntity
  8
Layer 1
 62
     7
100
AcDbPolyline
 90
        3
 70
     1
 43
0.0
 10
-244.3652
 20
170.0263
 10
-244.2723
 20
172.4798
 10
-244.3652
 20
170.0263
  0
LWPOLYLINE
  5
14B
330
1F
100
AcDbEntity
  8
Layer 1
 62
     7
100
AcDbPolyline
 90
        3
 70
     1
 43
0.0
 10
-243.4941
 20
169.2534
 10
-243.4607
 20
170.0263
 10
-243.4941
 20
169.2534
  0
LWPOLYLINE
  5
14C
330
1F
100
AcDbEntity
  8
Layer 1
 62
     7
100
AcDbPolyline
 90
        3
 70
     1
 43
0.0
 10
-266.586
 20
-116.8837
 10
-266.2935
 20
-114.4297
 10
-266.586
 20
-116.8837
  0
LWPOLYLINE
  5
14D
330
1F
100
AcDbEntity
  8
Layer 1
 62
     7
100
AcDbPolyline
 90
        3
 70
     1
 43
0.0
 10
-261.7077
 20
-116.8837
 10
-261.3982
 20
-114.4297
 10
-261.7077
 20
-116.8837
  0
LWPOLYLINE
  5
14E
330
1F
100
AcDbEntity
  8
Layer 1
 62
     7
100
AcDbPolyline
 90
        3
 70
     1
 43
0.0
 10
-416.4974
 20
141.304
 10
-277.2444
 20
141.304
 10
-416.4974
 20
141.304
  0
LWPOLYLINE
  5
14F
330
1F
100
AcDbEntity
  8
Layer 1
 62
     7
100
AcDbPolyline
 90
        3
 70
     1
 43
0.0
 10
-276.9469
 20
140.9544
 10
-277.0229
 20
141.1459
 10
-276.9469
 20
140.9544
  0
LWPOLYLINE
  5
150
330
1F
100
AcDbEntity
  8
Layer 1
 62
     7
100
AcDbPolyline
 90
        3
 70
     1
 43
0.0
 10
-276.7336
 20
140.3773
 10
-276.9506
 20
140.9544
 10
-276.7336
 20
140.3773
  0
LWPOLYLINE
  5
151
330
1F
100
AcDbEntity
  8
Layer 1
 62
     7
100
AcDbPolyline
 90
        4
 70
     1
 43
0.0
 10
-276.9588
 20
140.5459
 10
-277.1721
 20
141.121
 10
-277.2444
 20
141.304
 10
-276.9588
 20
140.5459
  0
LWPOLYLINE
  5
152
330
1F
100
AcDbEntity
  8
Layer 1
 62
     7
100
AcDbPolyline
 90
        3
 70
     1
 43
0.0
 10
-260.1491
 20
172.4798
 10
-259.8383
 20
170.0263
 10
-260.1491
 20
172.4798
  0
LWPOLYLINE
  5
153
330
1F
100
AcDbEntity
  8
Layer 1
 62
     7
100
AcDbPolyline
 90
        3
 70
     1
 43
0.0
 10
-265.3072
 20
172.4798
 10
-265.0096
 20
170.0263
 10
-265.3072
 20
172.4798
  0
LWPOLYLINE
  5
154
330
1F
100
AcDbEntity
  8
Layer 1
 62
     7
100
AcDbPolyline
 90
        3
 70
     1
 43
0.0
 10
-246.6432
 20
172.4798
 10
-246.4647
 20
170.0263
 10
-246.6432
 20
172.4798
  0
LWPOLYLINE
  5
155
330
1F
100
AcDbEntity
  8
Layer 1
 62
     7
100
AcDbPolyline
 90
        3
 70
     1
 43
0.0
 10
-244.2723
 20
172.4798
 10
-244.1748
 20
170.0263
 10
-244.2723
 20
172.4798
  0
LWPOLYLINE
  5
156
330
1F
100
AcDbEntity
  8
Layer 1
 62
     7
100
AcDbPolyline
 90
        3
 70
     1
 43
0.0
 10
-240.4732
 20
-116.8837
 10
-240.4347
 20
-114.4297
 10
-240.4732
 20
-116.8837
  0
LWPOLYLINE
  5
157
330
1F
100
AcDbEntity
  8
Layer 1
 62
     7
100
AcDbPolyline
 90
        3
 70
     1
 43
0.0
 10
-241.7859
 20
-116.8837
 10
-241.6715
 20
-114.4297
 10
-241.7859
 20
-116.8837
  0
LWPOLYLINE
  5
158
330
1F
100
AcDbEntity
  8
Layer 1
 62
     7
100
AcDbPolyline
 90
        3
 70
     1
 43
0.0
 10
-244.2558
 20
-116.8837
 10
-244.0722
 20
-114.4297
 10
-244.2558
 20
-116.8837
  0
LWPOLYLINE
  5
159
330
1F
100
AcDbEntity
  8
Layer 1
 62
     7
100
AcDbPolyline
 90
        3
 70
     1
 43
0.0
 10
-247.7225
 20
-116.8837
 10
-247.4804
 20
-114.4297
 10
-247.7225
 20
-116.8837
  0
LWPOLYLINE
  5
15A
330
1F
100
AcDbEntity
  8
Layer 1
 62
     7
100
AcDbPolyline
 90
        3
 70
     1
 43
0.0
 10
-251.9683
 20
-116.8837
 10
-251.6878
 20
-114.4297
 10
-251.9683
 20
-116.8837
  0
LWPOLYLINE
  5
15B
330
1F
100
AcDbEntity
  8
Layer 1
 62
     7
100
AcDbPolyline
 90
        3
 70
     1
 43
0.0
 10
-256.7364
 20
-116.8837
 10
-256.4219
 20
-114.4297
 10
-256.7364
 20
-116.8837
  0
LWPOLYLINE
  5
15C
330
1F
100
AcDbEntity
  8
Layer 1
 62
     7
100
AcDbPolyline
 90
        3
 70
     1
 43
0.0
 10
-275.6337
 20
169.2534
 10
-275.3028
 20
168.4895
 10
-275.6337
 20
169.2534
  0
LWPOLYLINE
  5
15D
330
1F
100
AcDbEntity
  8
Layer 1
 62
     7
100
AcDbPolyline
 90
        3
 70
     1
 43
0.0
 10
-275.9267
 20
170.0263
 10
-275.6337
 20
169.2534
 10
-275.9267
 20
170.0263
  0
LWPOLYLINE
  5
15E
330
1F
100
AcDbEntity
  8
Layer 1
 62
     7
100
AcDbPolyline
 90
        3
 70
     1
 43
0.0
 10
-254.9897
 20
172.4798
 10
-254.6959
 20
170.0263
 10
-254.9897
 20
172.4798
  0
LWPOLYLINE
  5
15F
330
1F
100
AcDbEntity
  8
Layer 1
 62
     7
100
AcDbPolyline
 90
        3
 70
     1
 43
0.0
 10
-250.3361
 20
172.4798
 10
-250.0857
 20
170.0263
 10
-250.3361
 20
172.4798
  0
LWPOLYLINE
  5
160
330
1F
100
AcDbEntity
  8
Layer 1
 62
     7
370
     9
100
AcDbPolyline
 90
        4
 70
     1
 43
0.0
 10
-280.0233
 20
-96.9069
 10
-277.2444
 20
-96.213
 10
-277.2444
 20
-97.5901
 10
-280.0233
 20
-96.9069
  0
LWPOLYLINE
  5
161
330
1F
100
AcDbEntity
  8
Layer 1
 62
     7
370
     9
100
AcDbPolyline
 90
        2
 70
     0
 43
0.0
 10
-260.9428
 20
-120.9997
 10
-427.593
 20
-120.9997
  0
LWPOLYLINE
  5
162
330
1F
100
AcDbEntity
  8
Layer 1
 62
     7
370
     9
100
AcDbPolyline
 90
        2
 70
     0
 43
0.0
 10
-239.4781
 20
-120.9997
 10
-222.4295
 20
-120.9997
  0
LWPOLYLINE
  5
163
330
1F
100
AcDbEntity
  8
Layer 1
 62
     7
370
     9
100
AcDbPolyline
 90
        2
 70
     0
 43
0.0
 10
-280.0233
 20
-120.074
 10
-240.2782
 20
-120.074
  0
LWPOLYLINE
  5
164
330
1F
100
AcDbEntity
  8
Layer 1
 62
     7
370
     9
100
AcDbPolyline
 90
        2
 70
     0
 43
0.0
 10
-280.0233
 20
-119.6172
 10
-240.2782
 20
-119.6172
  0
LWPOLYLINE
  5
165
330
1F
100
AcDbEntity
  8
Layer 1
 62
     7
370
     9
100
AcDbPolyline
 90
        2
 70
     0
 43
0.0
 10
-270.7554
 20
-117.5091
 10
-270.7975
 20
-117.5091
  0
LWPOLYLINE
  5
166
330
1F
100
AcDbEntity
  8
Layer 1
 62
     7
370
     9
100
AcDbPolyline
 90
        2
 70
     0
 43
0.0
 10
-274.5801
 20
-117.5091
 10
-274.6355
 20
-117.5091
  0
LWPOLYLINE
  5
167
330
1F
100
AcDbEntity
  8
Layer 1
 62
     7
370
     9
100
AcDbPolyline
 90
        2
 70
     0
 43
0.0
 10
-277.4902
 20
-117.5091
 10
-277.5671
 20
-117.5091
  0
LWPOLYLINE
  5
168
330
1F
100
AcDbEntity
  8
Layer 1
 62
     7
370
     9
100
AcDbPolyline
 90
        2
 70
     0
 43
0.0
 10
-279.3175
 20
-117.5091
 10
-279.403
 20
-117.5091
  0
LWPOLYLINE
  5
169
330
1F
100
AcDbEntity
  8
Layer 1
 62
     7
370
     9
100
AcDbPolyline
 90
        2
 70
     0
 43
0.0
 10
-279.9935
 20
-117.5091
 10
-280.0233
 20
-117.5091
  0
LWPOLYLINE
  5
16A
330
1F
100
AcDbEntity
  8
Layer 1
 62
     7
370
     9
100
AcDbPolyline
 90
        2
 70
     0
 43
0.0
 10
-247.5321
 20
-117.5091
 10
-247.4804
 20
-117.5091
  0
LWPOLYLINE
  5
16B
330
1F
100
AcDbEntity
  8
Layer 1
 62
     7
370
     9
100
AcDbPolyline
 90
        2
 70
     0
 43
0.0
 10
-244.1363
 20
-117.5091
 10
-244.0722
 20
-117.5091
  0
LWPOLYLINE
  5
16C
330
1F
100
AcDbEntity
  8
Layer 1
 62
     7
370
     9
100
AcDbPolyline
 90
        2
 70
     0
 43
0.0
 10
-241.7438
 20
-117.5091
 10
-241.6715
 20
-117.5091
  0
LWPOLYLINE
  5
16D
330
1F
100
AcDbEntity
  8
Layer 1
 62
     7
370
     9
100
AcDbPolyline
 90
        2
 70
     0
 43
0.0
 10
-240.5116
 20
-117.5091
 10
-240.4393
 20
-117.5091
  0
LWPOLYLINE
  5
16E
330
1F
100
AcDbEntity
  8
Layer 1
 62
     7
370
     9
100
AcDbPolyline
 90
        2
 70
     0
 43
0.0
 10
-261.704
 20
-116.8837
 10
-240.5116
 20
-117.5091
  0
LWPOLYLINE
  5
16F
330
1F
100
AcDbEntity
  8
Layer 1
 62
     7
370
     9
100
AcDbPolyline
 90
        2
 70
     0
 43
0.0
 10
-266.5608
 20
-116.8837
 10
-266.586
 20
-116.8837
  0
LWPOLYLINE
  5
170
330
1F
100
AcDbEntity
  8
Layer 1
 62
     7
370
     9
100
AcDbPolyline
 90
        2
 70
     0
 43
0.0
 10
-271.019
 20
-116.8837
 10
-271.0611
 20
-116.8837
  0
LWPOLYLINE
  5
171
330
1F
100
AcDbEntity
  8
Layer 1
 62
     7
370
     9
100
AcDbPolyline
 90
        2
 70
     0
 43
0.0
 10
-274.792
 20
-116.8837
 10
-274.852
 20
-116.8837
  0
LWPOLYLINE
  5
172
330
1F
100
AcDbEntity
  8
Layer 1
 62
     7
370
     9
100
AcDbPolyline
 90
        2
 70
     0
 43
0.0
 10
-277.6395
 20
-116.8837
 10
-277.7154
 20
-116.8837
  0
LWPOLYLINE
  5
173
330
1F
100
AcDbEntity
  8
Layer 1
 62
     7
370
     9
100
AcDbPolyline
 90
        2
 70
     0
 43
0.0
 10
-279.3985
 20
-116.8837
 10
-279.4754
 20
-116.8837
  0
LWPOLYLINE
  5
174
330
1F
100
AcDbEntity
  8
Layer 1
 62
     7
370
     9
100
AcDbPolyline
 90
        2
 70
     0
 43
0.0
 10
-256.1327
 20
-116.8837
 10
-256.1194
 20
-116.8837
  0
LWPOLYLINE
  5
175
330
1F
100
AcDbEntity
  8
Layer 1
 62
     7
370
     9
100
AcDbPolyline
 90
        2
 70
     0
 43
0.0
 10
-251.4374
 20
-116.8837
 10
-251.4072
 20
-116.8837
  0
LWPOLYLINE
  5
176
330
1F
100
AcDbEntity
  8
Layer 1
 62
     7
370
     9
100
AcDbPolyline
 90
        2
 70
     0
 43
0.0
 10
-247.2937
 20
-116.8837
 10
-247.2429
 20
-116.8837
  0
LWPOLYLINE
  5
177
330
1F
100
AcDbEntity
  8
Layer 1
 62
     7
370
     9
100
AcDbPolyline
 90
        2
 70
     0
 43
0.0
 10
-243.9532
 20
-116.8837
 10
-243.8859
 20
-116.8837
  0
LWPOLYLINE
  5
178
330
1F
100
AcDbEntity
  8
Layer 1
 62
     7
370
     9
100
AcDbPolyline
 90
        2
 70
     0
 43
0.0
 10
-241.6331
 20
-116.8837
 10
-241.5607
 20
-116.8837
  0
LWPOLYLINE
  5
179
330
1F
100
AcDbEntity
  8
Layer 1
 62
     7
370
     9
100
AcDbPolyline
 90
        2
 70
     0
 43
0.0
 10
-240.4732
 20
-116.8837
 10
-240.3958
 20
-116.8837
  0
LWPOLYLINE
  5
17A
330
1F
100
AcDbEntity
  8
Layer 1
 62
     7
370
     9
100
AcDbPolyline
 90
        2
 70
     0
 43
0.0
 10
-280.0233
 20
-113.322
 10
-240.2782
 20
-113.322
  0
LWPOLYLINE
  5
17B
330
1F
100
AcDbEntity
  8
Layer 1
 62
     7
370
     9
100
AcDbPolyline
 90
        2
 70
     0
 43
0.0
 10
-280.0233
 20
-112.8642
 10
-240.2782
 20
-112.8642
  0
LWPOLYLINE
  5
17C
330
1F
100
AcDbEntity
  8
Layer 1
 62
     7
370
     9
100
AcDbPolyline
 90
        2
 70
     0
 43
0.0
 10
-240.2782
 20
-112.0616
 10
-280.0233
 20
-112.0616
  0
LWPOLYLINE
  5
17D
330
1F
100
AcDbEntity
  8
Layer 1
 62
     7
370
     9
100
AcDbPolyline
 90
        2
 70
     0
 43
0.0
 10
-240.5153
 20
-111.7842
 10
-279.7811
 20
-111.7842
  0
LWPOLYLINE
  5
17E
330
1F
100
AcDbEntity
  8
Layer 1
 62
     7
370
     9
100
AcDbPolyline
 90
        2
 70
     0
 43
0.0
 10
-280.0233
 20
-96.9069
 10
-240.2782
 20
-96.9069
  0
LWPOLYLINE
  5
17F
330
1F
100
AcDbEntity
  8
Layer 1
 62
     7
370
     9
100
AcDbPolyline
 90
        2
 70
     0
 43
0.0
 10
-276.8444
 20
-79.7337
 10
-243.4557
 20
-79.7337
  0
LWPOLYLINE
  5
180
330
1F
100
AcDbEntity
  8
Layer 1
 62
     7
370
     9
100
AcDbPolyline
 90
        2
 70
     0
 43
0.0
 10
-261.3982
 20
-117.5091
 10
-259.4044
 20
-118.4184
  0
LWPOLYLINE
  5
181
330
1F
100
AcDbEntity
  8
Layer 1
 62
     7
370
     9
100
AcDbPolyline
 90
        2
 70
     0
 43
0.0
 10
-256.4219
 20
-117.5091
 10
-255.4571
 20
-117.9611
  0
LWPOLYLINE
  5
182
330
1F
100
AcDbEntity
  8
Layer 1
 62
     7
370
     9
100
AcDbPolyline
 90
        2
 70
     0
 43
0.0
 10
-255.4571
 20
-117.9611
 10
-254.4968
 20
-118.4184
  0
LWPOLYLINE
  5
183
330
1F
100
AcDbEntity
  8
Layer 1
 62
     7
370
     9
100
AcDbPolyline
 90
        3
 70
     0
 43
0.0
 10
-266.2935
 20
-117.5091
 10
-265.3323
 20
-117.9611
 10
-264.3684
 20
-118.4184
  0
LWPOLYLINE
  5
184
330
1F
100
AcDbEntity
  8
Layer 1
 62
     7
370
     9
100
AcDbPolyline
 90
        3
 70
     0
 43
0.0
 10
-270.7975
 20
-117.5091
 10
-269.9484
 20
-117.9611
 10
-269.0678
 20
-118.4184
  0
LWPOLYLINE
  5
185
330
1F
100
AcDbEntity
  8
Layer 1
 62
     7
370
     9
100
AcDbPolyline
 90
        2
 70
     0
 43
0.0
 10
-426.3942
 20
-120.9997
 10
-426.3942
 20
115.5046
  0
LWPOLYLINE
  5
186
330
1F
100
AcDbEntity
  8
Layer 1
 62
     7
370
     9
100
AcDbPolyline
 90
        2
 70
     0
 43
0.0
 10
-419.1101
 20
117.2356
 10
-419.1101
 20
210.6032
  0
LWPOLYLINE
  5
187
330
1F
100
AcDbEntity
  8
Layer 1
 62
     7
370
     9
100
AcDbPolyline
 90
        2
 70
     0
 43
0.0
 10
-419.1101
 20
116.3131
 10
-417.2911
 20
140.4664
  0
LWPOLYLINE
  5
188
330
1F
100
AcDbEntity
  8
Layer 1
 62
     7
370
     9
100
AcDbPolyline
 90
        2
 70
     0
 43
0.0
 10
-251.6878
 20
-117.5091
 10
-250.7952
 20
-117.9611
  0
LWPOLYLINE
  5
189
330
1F
100
AcDbEntity
  8
Layer 1
 62
     7
370
     9
100
AcDbPolyline
 90
        2
 70
     0
 43
0.0
 10
-250.7952
 20
-117.9611
 10
-249.9329
 20
-118.4184
  0
LWPOLYLINE
  5
18A
330
1F
100
AcDbEntity
  8
Layer 1
 62
     7
370
     9
100
AcDbPolyline
 90
        3
 70
     0
 43
0.0
 10
-274.6355
 20
-117.5091
 10
-273.9379
 20
-117.9611
 10
-273.2065
 20
-118.4184
  0
LWPOLYLINE
  5
18B
330
1F
100
AcDbEntity
  8
Layer 1
 62
     7
370
     9
100
AcDbPolyline
 90
        2
 70
     0
 43
0.0
 10
-411.1934
 20
114.5859
 10
-411.1934
 20
78.6071
  0
LWPOLYLINE
  5
18C
330
1F
100
AcDbEntity
  8
Layer 1
 62
     7
370
     9
100
AcDbPolyline
 90
        2
 70
     0
 43
0.0
 10
-403.2721
 20
114.7084
 10
-402.7206
 20
122.0359
  0
LWPOLYLINE
  5
18D
330
1F
100
AcDbEntity
  8
Layer 1
 62
     7
370
     9
100
AcDbPolyline
 90
        3
 70
     0
 43
0.0
 10
-267.1595
 20
168.4895
 10
-266.2464
 20
168.9425
 10
-265.3072
 20
169.3945
  0
LWPOLYLINE
  5
18E
330
1F
100
AcDbEntity
  8
Layer 1
 62
     7
370
     9
100
AcDbPolyline
 90
        2
 70
     0
 43
0.0
 10
-262.1375
 20
168.4895
 10
-260.1491
 20
169.3945
  0
LWPOLYLINE
  5
18F
330
1F
100
AcDbEntity
  8
Layer 1
 62
     7
370
     9
100
AcDbPolyline
 90
        2
 70
     0
 43
0.0
 10
-247.4804
 20
-117.5091
 10
-246.7284
 20
-117.9611
  0
LWPOLYLINE
  5
190
330
1F
100
AcDbEntity
  8
Layer 1
 62
     7
370
     9
100
AcDbPolyline
 90
        2
 70
     0
 43
0.0
 10
-246.7284
 20
-117.9611
 10
-246.0107
 20
-118.4184
  0
LWPOLYLINE
  5
191
330
1F
100
AcDbEntity
  8
Layer 1
 62
     7
370
     9
100
AcDbPolyline
 90
        3
 70
     0
 43
0.0
 10
-271.4987
 20
168.4895
 10
-270.7503
 20
168.9425
 10
-269.9649
 20
169.3945
  0
LWPOLYLINE
  5
192
330
1F
100
AcDbEntity
  8
Layer 1
 62
     7
370
     9
100
AcDbPolyline
 90
        3
 70
     0
 43
0.0
 10
-252.0109
 20
168.4895
 10
-251.1605
 20
168.9425
 10
-250.3361
 20
169.3945
  0
LWPOLYLINE
  5
193
330
1F
100
AcDbEntity
  8
Layer 1
 62
     7
370
     9
100
AcDbPolyline
 90
        3
 70
     0
 43
0.0
 10
-256.9181
 20
168.4895
 10
-255.9496
 20
168.9425
 10
-254.9897
 20
169.3945
  0
LWPOLYLINE
  5
194
330
1F
100
AcDbEntity
  8
Layer 1
 62
     7
370
     9
100
AcDbPolyline
 90
        3
 70
     0
 43
0.0
 10
-277.5671
 20
-117.5091
 10
-277.0614
 20
-117.9611
 10
-276.5217
 20
-118.4184
  0
LWPOLYLINE
  5
195
330
1F
100
AcDbEntity
  8
Layer 1
 62
     7
370
     9
100
AcDbPolyline
 90
        2
 70
     0
 43
0.0
 10
-276.0457
 20
201.6551
 10
-276.8444
 20
200.7347
  0
LWPOLYLINE
  5
196
330
1F
100
AcDbEntity
  8
Layer 1
 62
     7
370
     9
100
AcDbPolyline
 90
        2
 70
     0
 43
0.0
 10
-274.7279
 20
168.4895
 10
-274.2148
 20
168.9425
  0
LWPOLYLINE
  5
197
330
1F
100
AcDbEntity
  8
Layer 1
 62
     7
370
     9
100
AcDbPolyline
 90
        2
 70
     0
 43
0.0
 10
-274.2148
 20
168.9425
 10
-273.6536
 20
169.3945
  0
LWPOLYLINE
  5
198
330
1F
100
AcDbEntity
  8
Layer 1
 62
     7
370
     9
100
AcDbPolyline
 90
        2
 70
     0
 43
0.0
 10
-244.0722
 20
-117.5091
 10
-243.5028
 20
-117.9611
  0
LWPOLYLINE
  5
199
330
1F
100
AcDbEntity
  8
Layer 1
 62
     7
370
     9
100
AcDbPolyline
 90
        2
 70
     0
 43
0.0
 10
-243.5028
 20
-117.9611
 10
-242.9847
 20
-118.4184
  0
LWPOLYLINE
  5
19A
330
1F
100
AcDbEntity
  8
Layer 1
 62
     7
370
     9
100
AcDbPolyline
 90
        2
 70
     0
 43
0.0
 10
-261.0875
 20
-116.8837
 10
-259.4044
 20
-118.4184
  0
LWPOLYLINE
  5
19B
330
1F
100
AcDbEntity
  8
Layer 1
 62
     7
370
     9
100
AcDbPolyline
 90
        3
 70
     0
 43
0.0
 10
-256.1194
 20
-116.8837
 10
-255.2991
 20
-117.647
 10
-254.4922
 20
-118.4184
  0
LWPOLYLINE
  5
19C
330
1F
100
AcDbEntity
  8
Layer 1
 62
     7
370
     9
100
AcDbPolyline
 90
        3
 70
     0
 43
0.0
 10
-265.991
 20
-116.8837
 10
-265.184
 20
-117.647
 10
-264.3684
 20
-118.4184
  0
LWPOLYLINE
  5
19D
330
1F
100
AcDbEntity
  8
Layer 1
 62
     7
370
     9
100
AcDbPolyline
 90
        3
 70
     0
 43
0.0
 10
-270.5338
 20
-116.8837
 10
-269.8074
 20
-117.647
 10
-269.0678
 20
-118.4184
  0
LWPOLYLINE
  5
19E
330
1F
100
AcDbEntity
  8
Layer 1
 62
     7
370
     9
100
AcDbPolyline
 90
        3
 70
     0
 43
0.0
 10
-267.1595
 20
168.4895
 10
-266.391
 20
169.2491
 10
-265.601
 20
170.0263
  0
LWPOLYLINE
  5
19F
330
1F
100
AcDbEntity
  8
Layer 1
 62
     7
370
     9
100
AcDbPolyline
 90
        2
 70
     0
 43
0.0
 10
-262.1375
 20
168.4895
 10
-260.4631
 20
170.0263
  0
LWPOLYLINE
  5
1A0
330
1F
100
AcDbEntity
  8
Layer 1
 62
     7
370
     9
100
AcDbPolyline
 90
        3
 70
     0
 43
0.0
 10
-247.9056
 20
168.4895
 10
-247.2515
 20
168.9425
 10
-246.6432
 20
169.3945
  0
LWPOLYLINE
  5
1A1
330
1F
100
AcDbEntity
  8
Layer 1
 62
     7
370
     9
100
AcDbPolyline
 90
        3
 70
     0
 43
0.0
 10
-251.4072
 20
-116.8837
 10
-250.6593
 20
-117.647
 10
-249.9329
 20
-118.4184
  0
LWPOLYLINE
  5
1A2
330
1F
100
AcDbEntity
  8
Layer 1
 62
     7
370
     9
100
AcDbPolyline
 90
        3
 70
     0
 43
0.0
 10
-274.4222
 20
-116.8837
 10
-273.8235
 20
-117.647
 10
-273.2033
 20
-118.4184
  0
LWPOLYLINE
  5
1A3
330
1F
100
AcDbEntity
  8
Layer 1
 62
     7
370
     9
100
AcDbPolyline
 90
        3
 70
     0
 43
0.0
 10
-271.4987
 20
168.4895
 10
-270.8744
 20
169.2491
 10
-270.2107
 20
170.0263
  0
LWPOLYLINE
  5
1A4
330
1F
100
AcDbEntity
  8
Layer 1
 62
     7
370
     9
100
AcDbPolyline
 90
        2
 70
     0
 43
0.0
 10
-256.0992
 20
169.2534
 10
-255.2909
 20
170.0263
  0
LWPOLYLINE
  5
1A5
330
1F
100
AcDbEntity
  8
Layer 1
 62
     7
370
     9
100
AcDbPolyline
 90
        2
 70
     0
 43
0.0
 10
-256.9181
 20
168.4895
 10
-256.1029
 20
169.2491
  0
LWPOLYLINE
  5
1A6
330
1F
100
AcDbEntity
  8
Layer 1
 62
     7
370
     9
100
AcDbPolyline
 90
        3
 70
     0
 43
0.0
 10
-247.2429
 20
-116.8837
 10
-246.6176
 20
-117.647
 10
-246.0107
 20
-118.4184
  0
LWPOLYLINE
  5
1A7
330
1F
100
AcDbEntity
  8
Layer 1
 62
     7
370
     9
100
AcDbPolyline
 90
        3
 70
     0
 43
0.0
 10
-279.403
 20
-117.5091
 10
-279.127
 20
-117.9611
 10
-278.808
 20
-118.4184
  0
LWPOLYLINE
  5
1A8
330
1F
100
AcDbEntity
  8
Layer 1
 62
     7
370
     9
100
AcDbPolyline
 90
        2
 70
     0
 43
0.0
 10
-251.2882
 20
169.2534
 10
-250.5915
 20
170.0263
  0
LWPOLYLINE
  5
1A9
330
1F
100
AcDbEntity
  8
Layer 1
 62
     7
370
     9
100
AcDbPolyline
 90
        2
 70
     0
 43
0.0
 10
-252.0109
 20
168.4895
 10
-251.2882
 20
169.2491
  0
LWPOLYLINE
  5
1AA
330
1F
100
AcDbEntity
  8
Layer 1
 62
     7
370
     9
100
AcDbPolyline
 90
        2
 70
     0
 43
0.0
 10
-241.6715
 20
-117.5091
 10
-241.3273
 20
-117.9611
  0
LWPOLYLINE
  5
1AB
330
1F
100
AcDbEntity
  8
Layer 1
 62
     7
370
     9
100
AcDbPolyline
 90
        3
 70
     0
 43
0.0
 10
-277.4143
 20
-116.8837
 10
-276.9771
 20
-117.647
 10
-276.5217
 20
-118.4184
  0
LWPOLYLINE
  5
1AC
330
1F
100
AcDbEntity
  8
Layer 1
 62
     7
370
     9
100
AcDbPolyline
 90
        3
 70
     0
 43
0.0
 10
-274.7279
 20
168.4895
 10
-274.2958
 20
169.2491
 10
-273.8367
 20
170.0263
  0
LWPOLYLINE
  5
1AD
330
1F
100
AcDbEntity
  8
Layer 1
 62
     7
370
     9
100
AcDbPolyline
 90
        2
 70
     0
 43
0.0
 10
-276.3048
 20
168.9425
 10
-276.0242
 20
169.3945
  0
LWPOLYLINE
  5
1AE
330
1F
100
AcDbEntity
  8
Layer 1
 62
     7
370
     9
100
AcDbPolyline
 90
        3
 70
     0
 43
0.0
 10
-244.9987
 20
168.4895
 10
-244.6073
 20
168.9425
 10
-244.2723
 20
169.3945
  0
LWPOLYLINE
  5
1AF
330
1F
100
AcDbEntity
  8
Layer 1
 62
     7
370
     9
100
AcDbPolyline
 90
        2
 70
     0
 43
0.0
 10
-402.7206
 20
122.0359
 10
-409.9397
 20
132.0896
  0
LWPOLYLINE
  5
1B0
330
1F
100
AcDbEntity
  8
Layer 1
 62
     7
370
     9
100
AcDbPolyline
 90
        2
 70
     0
 43
0.0
 10
-416.4974
 20
141.304
 10
-409.9397
 20
132.0896
  0
LWPOLYLINE
  5
1B1
330
1F
100
AcDbEntity
  8
Layer 1
 62
     7
370
     9
100
AcDbPolyline
 90
        2
 70
     0
 43
0.0
 10
-241.3273
 20
-117.9611
 10
-241.0298
 20
-118.4184
  0
LWPOLYLINE
  5
1B2
330
1F
100
AcDbEntity
  8
Layer 1
 62
     7
370
     9
100
AcDbPolyline
 90
        2
 70
     0
 43
0.0
 10
-276.53
 20
168.4895
 10
-276.3048
 20
168.9425
  0
LWPOLYLINE
  5
1B3
330
1F
100
AcDbEntity
  8
Layer 1
 62
     7
370
     9
100
AcDbPolyline
 90
        2
 70
     0
 43
0.0
 10
-247.3527
 20
169.2534
 10
-246.8309
 20
170.0263
  0
LWPOLYLINE
  5
1B4
330
1F
100
AcDbEntity
  8
Layer 1
 62
     7
370
     9
100
AcDbPolyline
 90
        2
 70
     0
 43
0.0
 10
-247.9056
 20
168.4895
 10
-247.3527
 20
169.2491
  0
LWPOLYLINE
  5
1B5
330
1F
100
AcDbEntity
  8
Layer 1
 62
     7
370
     9
100
AcDbPolyline
 90
        2
 70
     0
 43
0.0
 10
-417.2911
 20
140.4664
 10
-409.9397
 20
132.0933
  0
LWPOLYLINE
  5
1B6
330
1F
100
AcDbEntity
  8
Layer 1
 62
     7
370
     9
100
AcDbPolyline
 90
        2
 70
     0
 43
0.0
 10
-401.9292
 20
122.8831
 10
-409.9397
 20
132.0996
  0
LWPOLYLINE
  5
1B7
330
1F
100
AcDbEntity
  8
Layer 1
 62
     7
370
     9
100
AcDbPolyline
 90
        3
 70
     0
 43
0.0
 10
-243.8891
 20
-116.8837
 10
-243.4218
 20
-117.647
 10
-242.9847
 20
-118.4184
  0
LWPOLYLINE
  5
1B8
330
1F
100
AcDbEntity
  8
Layer 1
 62
     7
370
     9
100
AcDbPolyline
 90
        3
 70
     0
 43
0.0
 10
-279.3175
 20
-116.8837
 10
-279.0804
 20
-117.647
 10
-278.808
 20
-118.4184
  0
LWPOLYLINE
  5
1B9
330
1F
100
AcDbEntity
  8
Layer 1
 62
     7
370
     9
100
AcDbPolyline
 90
        2
 70
     0
 43
0.0
 10
-276.53
 20
168.4895
 10
-276.3469
 20
169.2491
  0
LWPOLYLINE
  5
1BA
330
1F
100
AcDbEntity
  8
Layer 1
 62
     7
370
     9
100
AcDbPolyline
 90
        2
 70
     0
 43
0.0
 10
-276.3469
 20
169.2534
 10
-276.118
 20
170.0263
  0
LWPOLYLINE
  5
1BB
330
1F
100
AcDbEntity
  8
Layer 1
 62
     7
370
     9
100
AcDbPolyline
 90
       12
 70
     0
 43
0.0
 10
-276.7387
 20
123.8098
 10
-276.4073
 20
124.7594
 10
-276.0242
 20
126.0299
 10
-275.6507
 20
127.5667
 10
-275.3486
 20
129.3019
 10
-275.1833
 20
131.149
 10
-275.1833
 20
133.045
 10
-275.3486
 20
134.891
 10
-275.6507
 20
136.6199
 10
-276.0242
 20
138.1604
 10
-276.4073
 20
139.4272
 10
-276.7387
 20
140.3725
  0
LWPOLYLINE
  5
1BC
330
1F
100
AcDbEntity
  8
Layer 1
 62
     7
370
     9
100
AcDbPolyline
 90
       13
 70
     0
 43
0.0
 10
-277.1676
 20
123.0709
 10
-276.9588
 20
123.6422
 10
-276.6361
 20
124.6178
 10
-276.2457
 20
125.9524
 10
-275.8676
 20
127.5667
 10
-275.5738
 20
129.3507
 10
-275.4209
 20
131.1782
 10
-275.4209
 20
133.0142
 10
-275.5738
 20
134.8459
 10
-275.8676
 20
136.6199
 10
-276.2457
 20
138.2341
 10
-276.6361
 20
139.5799
 10
-276.9588
 20
140.5459
  0
LWPOLYLINE
  5
1BD
330
1F
100
AcDbEntity
  8
Layer 1
 62
     7
370
     9
100
AcDbPolyline
 90
        2
 70
     0
 43
0.0
 10
-276.9469
 20
123.2332
 10
-276.7387
 20
123.8098
  0
LWPOLYLINE
  5
1BE
330
1F
100
AcDbEntity
  8
Layer 1
 62
     7
370
     9
100
AcDbPolyline
 90
        2
 70
     0
 43
0.0
 10
-277.2444
 20
122.8831
 10
-277.1676
 20
123.0661
  0
LWPOLYLINE
  5
1BF
330
1F
100
AcDbEntity
  8
Layer 1
 62
     7
370
     9
100
AcDbPolyline
 90
        2
 70
     0
 43
0.0
 10
-277.0229
 20
123.0465
 10
-276.9469
 20
123.2332
  0
LWPOLYLINE
  5
1C0
330
1F
100
AcDbEntity
  8
Layer 1
 62
     7
370
     9
100
AcDbPolyline
 90
        2
 70
     0
 43
0.0
 10
-244.6677
 20
169.2534
 10
-244.3652
 20
170.0263
  0
LWPOLYLINE
  5
1C1
330
1F
100
AcDbEntity
  8
Layer 1
 62
     7
370
     9
100
AcDbPolyline
 90
        2
 70
     0
 43
0.0
 10
-244.9987
 20
168.4895
 10
-244.6677
 20
169.2491
  0
LWPOLYLINE
  5
1C2
330
1F
100
AcDbEntity
  8
Layer 1
 62
     7
370
     9
100
AcDbPolyline
 90
        2
 70
     0
 43
0.0
 10
-411.1934
 20
79.9922
 10
-260.1491
 20
79.9922
  0
LWPOLYLINE
  5
1C3
330
1F
100
AcDbEntity
  8
Layer 1
 62
     7
370
     9
100
AcDbPolyline
 90
        3
 70
     0
 43
0.0
 10
-241.5571
 20
-116.8837
 10
-241.2802
 20
-117.647
 10
-241.0298
 20
-118.4184
  0
LWPOLYLINE
  5
1C4
330
1F
100
AcDbEntity
  8
Layer 1
 62
     7
370
     9
100
AcDbPolyline
 90
        2
 70
     0
 43
0.0
 10
-274.6355
 20
-114.4297
 10
-274.4222
 20
-116.8869
  0
LWPOLYLINE
  5
1C5
330
1F
100
AcDbEntity
  8
Layer 1
 62
     7
370
     9
100
AcDbPolyline
 90
        2
 70
     0
 43
0.0
 10
-279.9898
 20
-117.647
 10
-279.9258
 20
-118.4184
  0
LWPOLYLINE
  5
1C6
330
1F
100
AcDbEntity
  8
Layer 1
 62
     7
370
     9
100
AcDbPolyline
 90
        2
 70
     0
 43
0.0
 10
-277.5671
 20
-114.4297
 10
-277.4143
 20
-116.8869
  0
LWPOLYLINE
  5
1C7
330
1F
100
AcDbEntity
  8
Layer 1
 62
     7
370
     9
100
AcDbPolyline
 90
        2
 70
     0
 43
0.0
 10
-280.0233
 20
-116.8837
 10
-279.9898
 20
-117.647
  0
LWPOLYLINE
  5
1C8
330
1F
100
AcDbEntity
  8
Layer 1
 62
     7
370
     9
100
AcDbPolyline
 90
        4
 70
     0
 43
0.0
 10
-280.0233
 20
-117.5091
 10
-280.015
 20
-117.8083
 10
-279.9766
 20
-118.1139
 10
-279.9258
 20
-118.4184
  0
LWPOLYLINE
  5
1C9
330
1F
100
AcDbEntity
  8
Layer 1
 62
     7
370
     9
100
AcDbPolyline
 90
        2
 70
     0
 43
0.0
 10
-279.403
 20
-114.4297
 10
-279.3175
 20
-116.8869
  0
LWPOLYLINE
  5
1CA
330
1F
100
AcDbEntity
  8
Layer 1
 62
     7
370
     9
100
AcDbPolyline
 90
        2
 70
     0
 43
0.0
 10
-266.2935
 20
-114.4297
 10
-265.996
 20
-116.8869
  0
LWPOLYLINE
  5
1CB
330
1F
100
AcDbEntity
  8
Layer 1
 62
     7
370
     9
100
AcDbPolyline
 90
        2
 70
     0
 43
0.0
 10
-270.7975
 20
-114.4297
 10
-270.5302
 20
-116.8869
  0
LWPOLYLINE
  5
1CC
330
1F
100
AcDbEntity
  8
Layer 1
 62
     7
370
     9
100
AcDbPolyline
 90
        2
 70
     0
 43
0.0
 10
-280.0233
 20
-114.4297
 10
-280.0233
 20
-116.8869
  0
LWPOLYLINE
  5
1CD
330
1F
100
AcDbEntity
  8
Layer 1
 62
     7
370
     9
100
AcDbPolyline
 90
        2
 70
     0
 43
0.0
 10
-276.8444
 20
172.4798
 10
-276.8407
 20
170.0263
  0
LWPOLYLINE
  5
1CE
330
1F
100
AcDbEntity
  8
Layer 1
 62
     7
370
     9
100
AcDbPolyline
 90
        2
 70
     0
 43
0.0
 10
-280.0233
 20
-120.9997
 10
-280.0233
 20
-120.074
  0
LWPOLYLINE
  5
1CF
330
1F
100
AcDbEntity
  8
Layer 1
 62
     7
370
     9
100
AcDbPolyline
 90
        2
 70
     0
 43
0.0
 10
-280.0233
 20
-119.6172
 10
-280.0233
 20
-117.5091
  0
LWPOLYLINE
  5
1D0
330
1F
100
AcDbEntity
  8
Layer 1
 62
     7
370
     9
100
AcDbPolyline
 90
        2
 70
     0
 43
0.0
 10
-280.0233
 20
-114.4297
 10
-280.0233
 20
-113.322
  0
LWPOLYLINE
  5
1D1
330
1F
100
AcDbEntity
  8
Layer 1
 62
     7
370
     9
100
AcDbPolyline
 90
        2
 70
     0
 43
0.0
 10
-280.0233
 20
-112.8642
 10
-280.0233
 20
-112.0616
  0
LWPOLYLINE
  5
1D2
330
1F
100
AcDbEntity
  8
Layer 1
 62
     7
370
     9
100
AcDbPolyline
 90
        2
 70
     0
 43
0.0
 10
-280.0233
 20
-111.1391
 10
-280.0233
 20
-95.5234
  0
LWPOLYLINE
  5
1D3
330
1F
100
AcDbEntity
  8
Layer 1
 62
     7
370
     9
100
AcDbPolyline
 90
        2
 70
     0
 43
0.0
 10
-279.9381
 20
-112.8642
 10
-279.9381
 20
-113.322
  0
LWPOLYLINE
  5
1D4
330
1F
100
AcDbEntity
  8
Layer 1
 62
     7
370
     9
100
AcDbPolyline
 90
        2
 70
     0
 43
0.0
 10
-279.9381
 20
-119.6172
 10
-279.9381
 20
-120.074
  0
LWPOLYLINE
  5
1D5
330
1F
100
AcDbEntity
  8
Layer 1
 62
     7
370
     9
100
AcDbPolyline
 90
        2
 70
     0
 43
0.0
 10
-276.8444
 20
123.5181
 10
-276.8444
 20
-102.3576
  0
LWPOLYLINE
  5
1D6
330
1F
100
AcDbEntity
  8
Layer 1
 62
     7
370
     9
100
AcDbPolyline
 90
        2
 70
     0
 43
0.0
 10
-276.8444
 20
140.6685
 10
-276.8444
 20
164.0626
  0
LWPOLYLINE
  5
1D7
330
1F
100
AcDbEntity
  8
Layer 1
 62
     7
370
     9
100
AcDbPolyline
 90
        2
 70
     0
 43
0.0
 10
-276.8444
 20
165.0764
 10
-276.8444
 20
166.8248
  0
LWPOLYLINE
  5
1D8
330
1F
100
AcDbEntity
  8
Layer 1
 62
     7
370
     9
100
AcDbPolyline
 90
        2
 70
     0
 43
0.0
 10
-276.8444
 20
167.2933
 10
-276.8444
 20
169.3945
  0
LWPOLYLINE
  5
1D9
330
1F
100
AcDbEntity
  8
Layer 1
 62
     7
370
     9
100
AcDbPolyline
 90
        2
 70
     0
 43
0.0
 10
-276.8444
 20
172.4798
 10
-276.8444
 20
173.5779
  0
LWPOLYLINE
  5
1DA
330
1F
100
AcDbEntity
  8
Layer 1
 62
     7
370
     9
100
AcDbPolyline
 90
        2
 70
     0
 43
0.0
 10
-276.8444
 20
174.0463
 10
-276.8444
 20
200.7347
  0
LWPOLYLINE
  5
1DB
330
1F
100
AcDbEntity
  8
Layer 1
 62
     7
370
     9
100
AcDbPolyline
 90
        2
 70
     0
 43
0.0
 10
-276.7602
 20
174.0463
 10
-276.7602
 20
173.5874
  0
LWPOLYLINE
  5
1DC
330
1F
100
AcDbEntity
  8
Layer 1
 62
     7
370
     9
100
AcDbPolyline
 90
        2
 70
     0
 43
0.0
 10
-276.7602
 20
167.2933
 10
-276.7602
 20
166.8344
  0
LWPOLYLINE
  5
1DD
330
1F
100
AcDbEntity
  8
Layer 1
 62
     7
370
     9
100
AcDbPolyline
 90
        2
 70
     0
 43
0.0
 10
-279.4754
 20
-116.8837
 10
-279.403
 20
-114.4297
  0
LWPOLYLINE
  5
1DE
330
1F
100
AcDbEntity
  8
Layer 1
 62
     7
370
     9
100
AcDbPolyline
 90
        2
 70
     0
 43
0.0
 10
-276.118
 20
170.0263
 10
-276.0324
 20
172.4798
  0
LWPOLYLINE
  5
1DF
330
1F
100
AcDbEntity
  8
Layer 1
 62
     7
370
     9
100
AcDbPolyline
 90
        2
 70
     0
 43
0.0
 10
-273.8367
 20
170.0263
 10
-273.6573
 20
172.4798
  0
LWPOLYLINE
  5
1E0
330
1F
100
AcDbEntity
  8
Layer 1
 62
     7
370
     9
100
AcDbPolyline
 90
        2
 70
     0
 43
0.0
 10
-270.2107
 20
170.0263
 10
-269.9649
 20
172.4798
  0
LWPOLYLINE
  5
1E1
330
1F
100
AcDbEntity
  8
Layer 1
 62
     7
370
     9
100
AcDbPolyline
 90
        2
 70
     0
 43
0.0
 10
-265.601
 20
170.0263
 10
-265.3072
 20
172.4798
  0
LWPOLYLINE
  5
1E2
330
1F
100
AcDbEntity
  8
Layer 1
 62
     7
370
     9
100
AcDbPolyline
 90
        2
 70
     0
 43
0.0
 10
-260.4631
 20
170.0263
 10
-260.1491
 20
172.4798
  0
LWPOLYLINE
  5
1E3
330
1F
100
AcDbEntity
  8
Layer 1
 62
     7
370
     9
100
AcDbPolyline
 90
        2
 70
     0
 43
0.0
 10
-243.5752
 20
168.4895
 10
-243.5074
 20
168.7913
  0
LWPOLYLINE
  5
1E4
330
1F
100
AcDbEntity
  8
Layer 1
 62
     7
370
     9
100
AcDbPolyline
 90
        2
 70
     0
 43
0.0
 10
-240.4347
 20
-117.5091
 10
-240.3336
 20
-117.9611
  0
LWPOLYLINE
  5
1E5
330
1F
100
AcDbEntity
  8
Layer 1
 62
     7
370
     9
100
AcDbPolyline
 90
        2
 70
     0
 43
0.0
 10
-261.3982
 20
-114.4297
 10
-261.0875
 20
-116.8869
  0
LWPOLYLINE
  5
1E6
330
1F
100
AcDbEntity
  8
Layer 1
 62
     7
370
     9
100
AcDbPolyline
 90
        2
 70
     0
 43
0.0
 10
-256.4219
 20
-114.4297
 10
-256.1194
 20
-116.8869
  0
LWPOLYLINE
  5
1E7
330
1F
100
AcDbEntity
  8
Layer 1
 62
     7
370
     9
100
AcDbPolyline
 90
        2
 70
     0
 43
0.0
 10
-273.6573
 20
172.4798
 10
-273.4706
 20
170.0263
  0
LWPOLYLINE
  5
1E8
330
1F
100
AcDbEntity
  8
Layer 1
 62
     7
370
     9
100
AcDbPolyline
 90
        2
 70
     0
 43
0.0
 10
-276.8407
 20
170.0263
 10
-276.8023
 20
169.2534
  0
LWPOLYLINE
  5
1E9
330
1F
100
AcDbEntity
  8
Layer 1
 62
     7
370
     9
100
AcDbPolyline
 90
        2
 70
     0
 43
0.0
 10
-276.8444
 20
169.3945
 10
-276.8275
 20
169.0958
  0
LWPOLYLINE
  5
1EA
330
1F
100
AcDbEntity
  8
Layer 1
 62
     7
370
     9
100
AcDbPolyline
 90
        2
 70
     0
 43
0.0
 10
-276.0292
 20
172.4798
 10
-275.9313
 20
170.0263
  0
LWPOLYLINE
  5
1EB
330
1F
100
AcDbEntity
  8
Layer 1
 62
     7
370
     9
100
AcDbPolyline
 90
        2
 70
     0
 43
0.0
 10
-277.7118
 20
-116.8837
 10
-277.5671
 20
-114.4297
  0
LWPOLYLINE
  5
1EC
330
1F
100
AcDbEntity
  8
Layer 1
 62
     7
370
     9
100
AcDbPolyline
 90
        2
 70
     0
 43
0.0
 10
-250.5915
 20
170.0263
 10
-250.3361
 20
172.4798
  0
LWPOLYLINE
  5
1ED
330
1F
100
AcDbEntity
  8
Layer 1
 62
     7
370
     9
100
AcDbPolyline
 90
        2
 70
     0
 43
0.0
 10
-255.2909
 20
170.0263
 10
-254.9897
 20
172.4798
  0
LWPOLYLINE
  5
1EE
330
1F
100
AcDbEntity
  8
Layer 1
 62
     7
370
     9
100
AcDbPolyline
 90
        2
 70
     0
 43
0.0
 10
-411.9885
 20
115.5105
 10
-427.588
 20
115.5105
  0
LWPOLYLINE
  5
1EF
330
1F
100
AcDbEntity
  8
Layer 1
 62
     7
370
     9
100
AcDbPolyline
 90
        2
 70
     0
 43
0.0
 10
-419.1101
 20
116.3131
 10
-403.2772
 20
114.7084
  0
LWPOLYLINE
  5
1F0
330
1F
100
AcDbEntity
  8
Layer 1
 62
     7
370
     9
100
AcDbPolyline
 90
        2
 70
     0
 43
0.0
 10
-402.4771
 20
114.6304
 10
-374.5499
 20
111.7923
  0
LWPOLYLINE
  5
1F1
330
1F
100
AcDbEntity
  8
Layer 1
 62
     7
370
     9
100
AcDbPolyline
 90
        2
 70
     0
 43
0.0
 10
-251.6878
 20
-114.4297
 10
-251.4072
 20
-116.8869
  0
LWPOLYLINE
  5
1F2
330
1F
100
AcDbEntity
  8
Layer 1
 62
     7
370
     9
100
AcDbPolyline
 90
        2
 70
     0
 43
0.0
 10
-276.8023
 20
169.2534
 10
-276.73
 20
168.4895
  0
LWPOLYLINE
  5
1F3
330
1F
100
AcDbEntity
  8
Layer 1
 62
     7
370
     9
100
AcDbPolyline
 90
        2
 70
     0
 43
0.0
 10
-247.4804
 20
-114.4297
 10
-247.2465
 20
-116.8869
  0
LWPOLYLINE
  5
1F4
330
1F
100
AcDbEntity
  8
Layer 1
 62
     7
370
     9
100
AcDbPolyline
 90
        2
 70
     0
 43
0.0
 10
-244.0722
 20
-114.4297
 10
-243.8891
 20
-116.8869
  0
LWPOLYLINE
  5
1F5
330
1F
100
AcDbEntity
  8
Layer 1
 62
     7
370
     9
100
AcDbPolyline
 90
        2
 70
     0
 43
0.0
 10
-260.1491
 20
98.1256
 10
-260.1491
 20
78.6071
  0
LWPOLYLINE
  5
1F6
330
1F
100
AcDbEntity
  8
Layer 1
 62
     7
370
     9
100
AcDbPolyline
 90
        2
 70
     0
 43
0.0
 10
-246.8309
 20
170.0263
 10
-246.6432
 20
172.4798
  0
LWPOLYLINE
  5
1F7
330
1F
100
AcDbEntity
  8
Layer 1
 62
     7
370
     9
100
AcDbPolyline
 90
        2
 70
     0
 43
0.0
 10
-274.8474
 20
-116.8837
 10
-274.6355
 20
-114.4297
  0
LWPOLYLINE
  5
1F8
330
1F
100
AcDbEntity
  8
Layer 1
 62
     7
370
     9
100
AcDbPolyline
 90
        2
 70
     0
 43
0.0
 10
-243.5752
 20
168.4895
 10
-243.4941
 20
169.2491
  0
LWPOLYLINE
  5
1F9
330
1F
100
AcDbEntity
  8
Layer 1
 62
     7
370
     9
100
AcDbPolyline
 90
        2
 70
     0
 43
0.0
 10
-271.0611
 20
-116.8837
 10
-270.8025
 20
-114.4297
  0
LWPOLYLINE
  5
1FA
330
1F
100
AcDbEntity
  8
Layer 1
 62
     7
370
     9
100
AcDbPolyline
 90
        3
 70
     0
 43
0.0
 10
-243.5074
 20
168.7913
 10
-243.4653
 20
169.0958
 10
-243.4557
 20
169.3945
  0
LWPOLYLINE
  5
1FB
330
1F
100
AcDbEntity
  8
Layer 1
 62
     7
370
     9
100
AcDbPolyline
 90
        3
 70
     0
 43
0.0
 10
-279.7935
 20
-118.4184
 10
-279.6502
 20
-117.6571
 10
-279.4754
 20
-116.8837
  0
LWPOLYLINE
  5
1FC
330
1F
100
AcDbEntity
  8
Layer 1
 62
     7
370
     9
100
AcDbPolyline
 90
        2
 70
     0
 43
0.0
 10
-401.9292
 20
122.8831
 10
-277.2444
 20
122.8831
  0
LWPOLYLINE
  5
1FD
330
1F
100
AcDbEntity
  8
Layer 1
 62
     7
370
     9
100
AcDbPolyline
 90
        3
 70
     0
 43
0.0
 10
-276.8275
 20
169.0958
 10
-276.789
 20
168.7913
 10
-276.7254
 20
168.4895
  0
LWPOLYLINE
  5
1FE
330
1F
100
AcDbEntity
  8
Layer 1
 62
     7
370
     9
100
AcDbPolyline
 90
        2
 70
     0
 43
0.0
 10
-240.3336
 20
-117.9611
 10
-240.2782
 20
-118.4184
  0
LWPOLYLINE
  5
1FF
330
1F
100
AcDbEntity
  8
Layer 1
 62
     7
370
     9
100
AcDbPolyline
 90
        2
 70
     0
 43
0.0
 10
-269.9649
 20
172.4798
 10
-269.7099
 20
170.0263
  0
LWPOLYLINE
  5
200
330
1F
100
AcDbEntity
  8
Layer 1
 62
     7
370
     9
100
AcDbPolyline
 90
        3
 70
     0
 43
0.0
 10
-240.3958
 20
-116.8837
 10
-240.3153
 20
-117.647
 10
-240.2782
 20
-118.4184
  0
LWPOLYLINE
  5
201
330
1F
100
AcDbEntity
  8
Layer 1
 62
     7
370
     9
100
AcDbPolyline
 90
        2
 70
     0
 43
0.0
 10
-241.6715
 20
-114.4297
 10
-241.5571
 20
-116.8869
  0
LWPOLYLINE
  5
202
330
1F
100
AcDbEntity
  8
Layer 1
 62
     7
370
     9
100
AcDbPolyline
 90
        2
 70
     0
 43
0.0
 10
-240.4347
 20
-114.4297
 10
-240.3958
 20
-116.8869
  0
LWPOLYLINE
  5
203
330
1F
100
AcDbEntity
  8
Layer 1
 62
     7
370
     9
100
AcDbPolyline
 90
        2
 70
     0
 43
0.0
 10
-243.5362
 20
174.0463
 10
-243.5362
 20
173.5874
  0
LWPOLYLINE
  5
204
330
1F
100
AcDbEntity
  8
Layer 1
 62
     7
370
     9
100
AcDbPolyline
 90
        2
 70
     0
 43
0.0
 10
-243.5362
 20
167.2933
 10
-243.5362
 20
166.8344
  0
LWPOLYLINE
  5
205
330
1F
100
AcDbEntity
  8
Layer 1
 62
     7
370
     9
100
AcDbPolyline
 90
        2
 70
     0
 43
0.0
 10
-243.4557
 20
-102.3544
 10
-243.4557
 20
164.0626
  0
LWPOLYLINE
  5
206
330
1F
100
AcDbEntity
  8
Layer 1
 62
     7
370
     9
100
AcDbPolyline
 90
        2
 70
     0
 43
0.0
 10
-243.4557
 20
165.0764
 10
-243.4557
 20
166.8248
  0
LWPOLYLINE
  5
207
330
1F
100
AcDbEntity
  8
Layer 1
 62
     7
370
     9
100
AcDbPolyline
 90
        2
 70
     0
 43
0.0
 10
-243.4557
 20
167.2933
 10
-243.4557
 20
169.3945
  0
LWPOLYLINE
  5
208
330
1F
100
AcDbEntity
  8
Layer 1
 62
     7
370
     9
100
AcDbPolyline
 90
        2
 70
     0
 43
0.0
 10
-243.4557
 20
174.0463
 10
-243.4557
 20
200.7347
  0
LWPOLYLINE
  5
209
330
1F
100
AcDbEntity
  8
Layer 1
 62
     7
370
     9
100
AcDbPolyline
 90
        2
 70
     0
 43
0.0
 10
-243.4557
 20
201.6551
 10
-243.4557
 20
210.6128
  0
LWPOLYLINE
  5
20A
330
1F
100
AcDbEntity
  8
Layer 1
 62
     7
370
     9
100
AcDbPolyline
 90
        2
 70
     0
 43
0.0
 10
-240.3537
 20
-112.8642
 10
-240.3537
 20
-113.322
  0
LWPOLYLINE
  5
20B
330
1F
100
AcDbEntity
  8
Layer 1
 62
     7
370
     9
100
AcDbPolyline
 90
        2
 70
     0
 43
0.0
 10
-240.3537
 20
-119.6172
 10
-240.3537
 20
-120.074
  0
LWPOLYLINE
  5
20C
330
1F
100
AcDbEntity
  8
Layer 1
 62
     7
370
     9
100
AcDbPolyline
 90
        2
 70
     0
 43
0.0
 10
-240.2782
 20
-120.9997
 10
-240.2782
 20
-120.074
  0
LWPOLYLINE
  5
20D
330
1F
100
AcDbEntity
  8
Layer 1
 62
     7
370
     9
100
AcDbPolyline
 90
        2
 70
     0
 43
0.0
 10
-240.2782
 20
-119.6172
 10
-240.2782
 20
-113.322
  0
LWPOLYLINE
  5
20E
330
1F
100
AcDbEntity
  8
Layer 1
 62
     7
370
     9
100
AcDbPolyline
 90
        2
 70
     0
 43
0.0
 10
-240.2782
 20
-112.8642
 10
-240.2782
 20
-112.0616
  0
LWPOLYLINE
  5
20F
330
1F
100
AcDbEntity
  8
Layer 1
 62
     7
370
     9
100
AcDbPolyline
 90
        2
 70
     0
 43
0.0
 10
-240.2782
 20
-111.1391
 10
-240.2782
 20
-95.5234
  0
LWPOLYLINE
  5
210
330
1F
100
AcDbEntity
  8
Layer 1
 62
     7
370
     9
100
AcDbPolyline
 90
        2
 70
     0
 43
0.0
 10
-243.4607
 20
170.8448
 10
-243.4557
 20
173.5816
  0
LWPOLYLINE
  5
211
330
1F
100
AcDbEntity
  8
Layer 1
 62
     7
370
     9
100
AcDbPolyline
 90
        2
 70
     0
 43
0.0
 10
-243.4607
 20
170.0263
 10
-243.4607
 20
170.8448
  0
LWPOLYLINE
  5
212
330
1F
100
AcDbEntity
  8
Layer 1
 62
     7
370
     9
100
AcDbPolyline
 90
        2
 70
     0
 43
0.0
 10
-244.3652
 20
170.0263
 10
-244.2723
 20
172.4798
  0
LWPOLYLINE
  5
213
330
1F
100
AcDbEntity
  8
Layer 1
 62
     7
370
     9
100
AcDbPolyline
 90
        2
 70
     0
 43
0.0
 10
-243.4941
 20
169.2534
 10
-243.4607
 20
170.0263
  0
LWPOLYLINE
  5
214
330
1F
100
AcDbEntity
  8
Layer 1
 62
     7
370
     9
100
AcDbPolyline
 90
        2
 70
     0
 43
0.0
 10
-266.586
 20
-116.8837
 10
-266.2935
 20
-114.4297
  0
LWPOLYLINE
  5
215
330
1F
100
AcDbEntity
  8
Layer 1
 62
     7
370
     9
100
AcDbPolyline
 90
        2
 70
     0
 43
0.0
 10
-261.7077
 20
-116.8837
 10
-261.3982
 20
-114.4297
  0
LWPOLYLINE
  5
216
330
1F
100
AcDbEntity
  8
Layer 1
 62
     7
370
     9
100
AcDbPolyline
 90
        2
 70
     0
 43
0.0
 10
-416.4974
 20
141.304
 10
-277.2444
 20
141.304
  0
LWPOLYLINE
  5
217
330
1F
100
AcDbEntity
  8
Layer 1
 62
     7
370
     9
100
AcDbPolyline
 90
        2
 70
     0
 43
0.0
 10
-276.9469
 20
140.9544
 10
-277.0229
 20
141.1459
  0
LWPOLYLINE
  5
218
330
1F
100
AcDbEntity
  8
Layer 1
 62
     7
370
     9
100
AcDbPolyline
 90
        2
 70
     0
 43
0.0
 10
-276.7336
 20
140.3773
 10
-276.9506
 20
140.9544
  0
LWPOLYLINE
  5
219
330
1F
100
AcDbEntity
  8
Layer 1
 62
     7
370
     9
100
AcDbPolyline
 90
        3
 70
     0
 43
0.0
 10
-276.9588
 20
140.5459
 10
-277.1721
 20
141.121
 10
-277.2444
 20
141.304
  0
LWPOLYLINE
  5
21A
330
1F
100
AcDbEntity
  8
Layer 1
 62
     7
370
     9
100
AcDbPolyline
 90
        2
 70
     0
 43
0.0
 10
-260.1491
 20
172.4798
 10
-259.8383
 20
170.0263
  0
LWPOLYLINE
  5
21B
330
1F
100
AcDbEntity
  8
Layer 1
 62
     7
370
     9
100
AcDbPolyline
 90
        2
 70
     0
 43
0.0
 10
-265.3072
 20
172.4798
 10
-265.0096
 20
170.0263
  0
LWPOLYLINE
  5
21C
330
1F
100
AcDbEntity
  8
Layer 1
 62
     7
370
     9
100
AcDbPolyline
 90
        2
 70
     0
 43
0.0
 10
-246.6432
 20
172.4798
 10
-246.4647
 20
170.0263
  0
LWPOLYLINE
  5
21D
330
1F
100
AcDbEntity
  8
Layer 1
 62
     7
370
     9
100
AcDbPolyline
 90
        2
 70
     0
 43
0.0
 10
-244.2723
 20
172.4798
 10
-244.1748
 20
170.0263
  0
LWPOLYLINE
  5
21E
330
1F
100
AcDbEntity
  8
Layer 1
 62
     7
370
     9
100
AcDbPolyline
 90
        2
 70
     0
 43
0.0
 10
-240.4732
 20
-116.8837
 10
-240.4347
 20
-114.4297
  0
LWPOLYLINE
  5
21F
330
1F
100
AcDbEntity
  8
Layer 1
 62
     7
370
     9
100
AcDbPolyline
 90
        2
 70
     0
 43
0.0
 10
-241.7859
 20
-116.8837
 10
-241.6715
 20
-114.4297
  0
LWPOLYLINE
  5
220
330
1F
100
AcDbEntity
  8
Layer 1
 62
     7
370
     9
100
AcDbPolyline
 90
        2
 70
     0
 43
0.0
 10
-244.2558
 20
-116.8837
 10
-244.0722
 20
-114.4297
  0
LWPOLYLINE
  5
221
330
1F
100
AcDbEntity
  8
Layer 1
 62
     7
370
     9
100
AcDbPolyline
 90
        2
 70
     0
 43
0.0
 10
-247.7225
 20
-116.8837
 10
-247.4804
 20
-114.4297
  0
LWPOLYLINE
  5
222
330
1F
100
AcDbEntity
  8
Layer 1
 62
     7
370
     9
100
AcDbPolyline
 90
        2
 70
     0
 43
0.0
 10
-251.9683
 20
-116.8837
 10
-251.6878
 20
-114.4297
  0
LWPOLYLINE
  5
223
330
1F
100
AcDbEntity
  8
Layer 1
 62
     7
370
     9
100
AcDbPolyline
 90
        2
 70
     0
 43
0.0
 10
-256.7364
 20
-116.8837
 10
-256.4219
 20
-114.4297
  0
LWPOLYLINE
  5
224
330
1F
100
AcDbEntity
  8
Layer 1
 62
     7
370
     9
100
AcDbPolyline
 90
        2
 70
     0
 43
0.0
 10
-275.6337
 20
169.2534
 10
-275.3028
 20
168.4895
  0
LWPOLYLINE
  5
225
330
1F
100
AcDbEntity
  8
Layer 1
 62
     7
370
     9
100
AcDbPolyline
 90
        2
 70
     0
 43
0.0
 10
-275.9267
 20
170.0263
 10
-275.6337
 20
169.2534
  0
LWPOLYLINE
  5
226
330
1F
100
AcDbEntity
  8
Layer 1
 62
     7
370
     9
100
AcDbPolyline
 90
        2
 70
     0
 43
0.0
 10
-254.9897
 20
172.4798
 10
-254.6959
 20
170.0263
  0
LWPOLYLINE
  5
227
330
1F
100
AcDbEntity
  8
Layer 1
 62
     7
370
     9
100
AcDbPolyline
 90
        3
 70
     1
 43
0.0
 10
-250.3361
 20
172.4798
 10
-250.0857
 20
170.0263
 10
-250.3361
 20
172.4798
  0
LWPOLYLINE
  5
228
330
1F
100
AcDbEntity
  8
Layer 1
 62
     7
370
     9
100
AcDbPolyline
 90
        2
 70
     0
 43
0.0
 10
-223.6223
 20
-120.9991
 10
-223.6223
 20
201.6577
  0
LWPOLYLINE
  5
229
330
1F
100
AcDbEntity
  8
Layer 1
 62
     7
370
     9
100
AcDbPolyline
 90
        3
 70
     0
 43
0.0
 10
-279.7958
 20
-118.4237
 10
-279.626
 20
-117.9643
 10
-279.4008
 20
-117.5065
  0
LWPOLYLINE
  5
22A
330
1F
100
AcDbEntity
  8
Layer 1
 62
     7
370
     9
100
AcDbPolyline
 90
        3
 70
     0
 43
0.0
 10
-278.4322
 20
-118.4237
 10
-278.0876
 20
-117.6539
 10
-277.7095
 20
-116.8805
  0
LWPOLYLINE
  5
22B
330
1F
100
AcDbEntity
  8
Layer 1
 62
     7
370
     9
100
AcDbPolyline
 90
        2
 70
     0
 43
0.0
 10
-276.8421
 20
164.0632
 10
-243.4543
 20
164.0632
  0
LWPOLYLINE
  5
22C
330
1F
100
AcDbEntity
  8
Layer 1
 62
     7
370
     9
100
AcDbPolyline
 90
        2
 70
     0
 43
0.0
 10
-243.6964
 20
164.3406
 10
-276.605
 20
164.3406
  0
LWPOLYLINE
  5
22D
330
1F
100
AcDbEntity
  8
Layer 1
 62
     7
370
     9
100
AcDbPolyline
 90
        2
 70
     0
 43
0.0
 10
-243.6964
 20
164.8027
 10
-276.605
 20
164.8027
  0
LWPOLYLINE
  5
22E
330
1F
100
AcDbEntity
  8
Layer 1
 62
     7
370
     9
100
AcDbPolyline
 90
        2
 70
     0
 43
0.0
 10
-243.4543
 20
165.079
 10
-276.8421
 20
165.079
  0
LWPOLYLINE
  5
22F
330
1F
100
AcDbEntity
  8
Layer 1
 62
     7
370
     9
100
AcDbPolyline
 90
        2
 70
     0
 43
0.0
 10
-276.8421
 20
166.827
 10
-243.4543
 20
166.827
  0
LWPOLYLINE
  5
230
330
1F
100
AcDbEntity
  8
Layer 1
 62
     7
370
     9
100
AcDbPolyline
 90
        2
 70
     0
 43
0.0
 10
-276.8421
 20
167.2901
 10
-243.4543
 20
167.2901
  0
LWPOLYLINE
  5
231
330
1F
100
AcDbEntity
  8
Layer 1
 62
     7
370
     9
100
AcDbPolyline
 90
        2
 70
     0
 43
0.0
 10
-265.2843
 20
169.3977
 10
-265.3094
 20
169.3977
  0
LWPOLYLINE
  5
232
330
1F
100
AcDbEntity
  8
Layer 1
 62
     7
370
     9
100
AcDbPolyline
 90
        2
 70
     0
 43
0.0
 10
-269.9159
 20
169.3977
 10
-269.9626
 20
169.3977
  0
LWPOLYLINE
  5
233
330
1F
100
AcDbEntity
  8
Layer 1
 62
     7
370
     9
100
AcDbPolyline
 90
        2
 70
     0
 43
0.0
 10
-273.5923
 20
169.3977
 10
-273.6559
 20
169.3977
  0
LWPOLYLINE
  5
234
330
1F
100
AcDbEntity
  8
Layer 1
 62
     7
370
     9
100
AcDbPolyline
 90
        2
 70
     0
 43
0.0
 10
-275.9541
 20
169.3977
 10
-276.0228
 20
169.3977
  0
LWPOLYLINE
  5
235
330
1F
100
AcDbEntity
  8
Layer 1
 62
     7
370
     9
100
AcDbPolyline
 90
        2
 70
     0
 43
0.0
 10
-255.0172
 20
169.3977
 10
-254.992
 20
169.3977
  0
LWPOLYLINE
  5
236
330
1F
100
AcDbEntity
  8
Layer 1
 62
     7
370
     9
100
AcDbPolyline
 90
        2
 70
     0
 43
0.0
 10
-250.3846
 20
169.3977
 10
-250.3338
 20
169.3977
  0
LWPOLYLINE
  5
237
330
1F
100
AcDbEntity
  8
Layer 1
 62
     7
370
     9
100
AcDbPolyline
 90
        2
 70
     0
 43
0.0
 10
-246.7092
 20
169.3977
 10
-246.6419
 20
169.3977
  0
LWPOLYLINE
  5
238
330
1F
100
AcDbEntity
  8
Layer 1
 62
     7
370
     9
100
AcDbPolyline
 90
        2
 70
     0
 43
0.0
 10
-244.3505
 20
169.3977
 10
-244.275
 20
169.3977
  0
LWPOLYLINE
  5
239
330
1F
100
AcDbEntity
  8
Layer 1
 62
     7
370
     9
100
AcDbPolyline
 90
        2
 70
     0
 43
0.0
 10
-240.6119
 20
-117.6502
 10
-240.4755
 20
-116.8863
  0
LWPOLYLINE
  5
23A
330
1F
100
AcDbEntity
  8
Layer 1
 62
     7
370
     9
100
AcDbPolyline
 90
        2
 70
     0
 43
0.0
 10
-240.7767
 20
-118.4237
 10
-240.6119
 20
-117.6539
  0
LWPOLYLINE
  5
23B
330
1F
100
AcDbEntity
  8
Layer 1
 62
     7
370
     9
100
AcDbPolyline
 90
        2
 70
     0
 43
0.0
 10
-265.5818
 20
170.0284
 10
-265.607
 20
170.0284
  0
LWPOLYLINE
  5
23C
330
1F
100
AcDbEntity
  8
Layer 1
 62
     7
370
     9
100
AcDbPolyline
 90
        2
 70
     0
 43
0.0
 10
-270.1626
 20
170.0284
 10
-270.2134
 20
170.0284
  0
LWPOLYLINE
  5
23D
330
1F
100
AcDbEntity
  8
Layer 1
 62
     7
370
     9
100
AcDbPolyline
 90
        2
 70
     0
 43
0.0
 10
-273.774
 20
170.0284
 10
-273.8344
 20
170.0284
  0
LWPOLYLINE
  5
23E
330
1F
100
AcDbEntity
  8
Layer 1
 62
     7
370
     9
100
AcDbPolyline
 90
        2
 70
     0
 43
0.0
 10
-276.0434
 20
170.0284
 10
-276.1208
 20
170.0284
  0
LWPOLYLINE
  5
23F
330
1F
100
AcDbEntity
  8
Layer 1
 62
     7
370
     9
100
AcDbPolyline
 90
        2
 70
     0
 43
0.0
 10
-254.7151
 20
170.0284
 10
-254.6945
 20
170.0284
  0
LWPOLYLINE
  5
240
330
1F
100
AcDbEntity
  8
Layer 1
 62
     7
370
     9
100
AcDbPolyline
 90
        2
 70
     0
 43
0.0
 10
-250.1301
 20
170.0284
 10
-250.088
 20
170.0284
  0
LWPOLYLINE
  5
241
330
1F
100
AcDbEntity
  8
Layer 1
 62
     7
370
     9
100
AcDbPolyline
 90
        2
 70
     0
 43
0.0
 10
-246.5261
 20
170.0284
 10
-246.4624
 20
170.0284
  0
LWPOLYLINE
  5
242
330
1F
100
AcDbEntity
  8
Layer 1
 62
     7
370
     9
100
AcDbPolyline
 90
        2
 70
     0
 43
0.0
 10
-244.2485
 20
170.0284
 10
-244.1807
 20
170.0284
  0
LWPOLYLINE
  5
243
330
1F
100
AcDbEntity
  8
Layer 1
 62
     7
370
     9
100
AcDbPolyline
 90
        2
 70
     0
 43
0.0
 10
-276.8421
 20
173.5842
 10
-243.4543
 20
173.5842
  0
LWPOLYLINE
  5
244
330
1F
100
AcDbEntity
  8
Layer 1
 62
     7
370
     9
100
AcDbPolyline
 90
        2
 70
     0
 43
0.0
 10
-276.8421
 20
174.0431
 10
-243.4543
 20
174.0431
  0
LWPOLYLINE
  5
245
330
1F
100
AcDbEntity
  8
Layer 1
 62
     7
370
     9
100
AcDbPolyline
 90
        3
 70
     0
 43
0.0
 10
-269.7072
 20
170.0284
 10
-269.0064
 20
169.256
 10
-268.2883
 20
168.4868
  0
LWPOLYLINE
  5
246
330
1F
100
AcDbEntity
  8
Layer 1
 62
     7
370
     9
100
AcDbPolyline
 90
        3
 70
     0
 43
0.0
 10
-276.0265
 20
169.3977
 10
-275.6905
 20
168.9393
 10
-275.3001
 20
168.4868
  0
LWPOLYLINE
  5
247
330
1F
100
AcDbEntity
  8
Layer 1
 62
     7
370
     9
100
AcDbPolyline
 90
        2
 70
     0
 43
0.0
 10
-272.9451
 20
169.256
 10
-272.3936
 20
168.4868
  0
LWPOLYLINE
  5
248
330
1F
100
AcDbEntity
  8
Layer 1
 62
     7
370
     9
100
AcDbPolyline
 90
        2
 70
     0
 43
0.0
 10
-273.4646
 20
170.0284
 10
-272.9451
 20
169.256
  0
LWPOLYLINE
  5
249
330
1F
100
AcDbEntity
  8
Layer 1
 62
     7
370
     9
100
AcDbPolyline
 90
        3
 70
     0
 43
0.0
 10
-244.1761
 20
170.0284
 10
-243.9509
 20
169.256
 10
-243.7688
 20
168.4868
  0
LWPOLYLINE
  5
24A
330
1F
100
AcDbEntity
  8
Layer 1
 62
     7
370
     9
100
AcDbPolyline
 90
        3
 70
     0
 43
0.0
 10
-275.9244
 20
-118.4237
 10
-275.4026
 20
-117.6539
 10
-274.8533
 20
-116.8805
  0
LWPOLYLINE
  5
24B
330
1F
100
AcDbEntity
  8
Layer 1
 62
     7
370
     9
100
AcDbPolyline
 90
        2
 70
     0
 43
0.0
 10
-260.15
 20
169.3977
 10
-258.1663
 20
168.4868
  0
LWPOLYLINE
  5
24C
330
1F
100
AcDbEntity
  8
Layer 1
 62
     7
370
     9
100
AcDbPolyline
 90
        3
 70
     0
 43
0.0
 10
-265.3094
 20
169.3977
 10
-264.3528
 20
168.9393
 10
-263.3843
 20
168.4868
  0
LWPOLYLINE
  5
24D
330
1F
100
AcDbEntity
  8
Layer 1
 62
     7
370
     9
100
AcDbPolyline
 90
        3
 70
     0
 43
0.0
 10
-254.992
 20
169.3977
 10
-254.0523
 20
168.9393
 10
-253.1346
 20
168.4868
  0
LWPOLYLINE
  5
24E
330
1F
100
AcDbEntity
  8
Layer 1
 62
     7
370
     9
100
AcDbPolyline
 90
        3
 70
     0
 43
0.0
 10
-269.9626
 20
169.3977
 10
-269.1424
 20
168.9393
 10
-268.2837
 20
168.4868
  0
LWPOLYLINE
  5
24F
330
1F
100
AcDbEntity
  8
Layer 1
 62
     7
370
     9
100
AcDbPolyline
 90
        3
 70
     0
 43
0.0
 10
-273.6559
 20
169.3977
 10
-273.044
 20
168.9393
 10
-272.3936
 20
168.4868
  0
LWPOLYLINE
  5
250
330
1F
100
AcDbEntity
  8
Layer 1
 62
     7
370
     9
100
AcDbPolyline
 90
        2
 70
     0
 43
0.0
 10
-259.8356
 20
170.0284
 10
-258.1613
 20
168.4868
  0
LWPOLYLINE
  5
251
330
1F
100
AcDbEntity
  8
Layer 1
 62
     7
370
     9
100
AcDbPolyline
 90
        3
 70
     0
 43
0.0
 10
-265.0083
 20
170.0284
 10
-264.205
 20
169.256
 10
-263.3843
 20
168.4868
  0
LWPOLYLINE
  5
252
330
1F
100
AcDbEntity
  8
Layer 1
 62
     7
370
     9
100
AcDbPolyline
 90
        3
 70
     0
 43
0.0
 10
-254.6945
 20
170.0284
 10
-253.9031
 20
169.256
 10
-253.1346
 20
168.4868
  0
LWPOLYLINE
  5
253
330
1F
100
AcDbEntity
  8
Layer 1
 62
     7
370
     9
100
AcDbPolyline
 90
        3
 70
     0
 43
0.0
 10
-246.4624
 20
170.0284
 10
-245.9997
 20
169.256
 10
-245.5708
 20
168.4868
  0
LWPOLYLINE
  5
254
330
1F
100
AcDbEntity
  8
Layer 1
 62
     7
370
     9
100
AcDbPolyline
 90
        2
 70
     0
 43
0.0
 10
-243.994
 20
168.9393
 10
-243.7688
 20
168.4868
  0
LWPOLYLINE
  5
255
330
1F
100
AcDbEntity
  8
Layer 1
 62
     7
370
     9
100
AcDbPolyline
 90
        3
 70
     0
 43
0.0
 10
-240.7767
 20
-118.4237
 10
-240.5766
 20
-117.9643
 10
-240.432
 20
-117.5065
  0
LWPOLYLINE
  5
256
330
1F
100
AcDbEntity
  8
Layer 1
 62
     7
370
     9
100
AcDbPolyline
 90
        3
 70
     0
 43
0.0
 10
-242.4894
 20
-118.4237
 10
-242.1283
 20
-117.6539
 10
-241.7836
 20
-116.8805
  0
LWPOLYLINE
  5
257
330
1F
100
AcDbEntity
  8
Layer 1
 62
     7
370
     9
100
AcDbPolyline
 90
        3
 70
     0
 43
0.0
 10
-272.4187
 20
-118.4237
 10
-271.7514
 20
-117.6539
 10
-271.0588
 20
-116.8805
  0
LWPOLYLINE
  5
258
330
1F
100
AcDbEntity
  8
Layer 1
 62
     7
370
     9
100
AcDbPolyline
 90
        3
 70
     0
 43
0.0
 10
-278.4322
 20
-118.4237
 10
-278.0239
 20
-117.9643
 10
-277.5612
 20
-117.5065
  0
LWPOLYLINE
  5
259
330
1F
100
AcDbEntity
  8
Layer 1
 62
     7
370
     9
100
AcDbPolyline
 90
        3
 70
     0
 43
0.0
 10
-268.1487
 20
-118.4237
 10
-267.3751
 20
-117.6539
 10
-266.5837
 20
-116.8805
  0
LWPOLYLINE
  5
25A
330
1F
100
AcDbEntity
  8
Layer 1
 62
     7
370
     9
100
AcDbPolyline
 90
        3
 70
     0
 43
0.0
 10
-275.9244
 20
-118.4237
 10
-275.3001
 20
-117.9643
 10
-274.6377
 20
-117.5065
  0
LWPOLYLINE
  5
25B
330
1F
100
AcDbEntity
  8
Layer 1
 62
     7
370
     9
100
AcDbPolyline
 90
        2
 70
     0
 43
0.0
 10
-276.8421
 20
200.7315
 10
-243.4543
 20
200.7315
  0
LWPOLYLINE
  5
25C
330
1F
100
AcDbEntity
  8
Layer 1
 62
     7
370
     9
100
AcDbPolyline
 90
        2
 70
     0
 43
0.0
 10
-276.0484
 20
201.6577
 10
-244.2485
 20
201.6577
  0
LWPOLYLINE
  5
25D
330
1F
100
AcDbEntity
  8
Layer 1
 62
     7
370
     9
100
AcDbPolyline
 90
        2
 70
     0
 43
0.0
 10
-243.4543
 20
201.6577
 10
-222.4322
 20
201.6577
  0
LWPOLYLINE
  5
25E
330
1F
100
AcDbEntity
  8
Layer 1
 62
     7
370
     9
100
AcDbPolyline
 90
        2
 70
     0
 43
0.0
 10
-250.3338
 20
169.3977
 10
-249.5484
 20
168.9393
  0
LWPOLYLINE
  5
25F
330
1F
100
AcDbEntity
  8
Layer 1
 62
     7
370
     9
100
AcDbPolyline
 90
        2
 70
     0
 43
0.0
 10
-249.5484
 20
168.9393
 10
-248.7954
 20
168.4868
  0
LWPOLYLINE
  5
260
330
1F
100
AcDbEntity
  8
Layer 1
 62
     7
370
     9
100
AcDbPolyline
 90
        2
 70
     0
 43
0.0
 10
-246.6419
 20
169.3977
 10
-246.0807
 20
168.9393
  0
LWPOLYLINE
  5
261
330
1F
100
AcDbEntity
  8
Layer 1
 62
     7
370
     9
100
AcDbPolyline
 90
        2
 70
     0
 43
0.0
 10
-246.0807
 20
168.9393
 10
-245.5662
 20
168.4868
  0
LWPOLYLINE
  5
262
330
1F
100
AcDbEntity
  8
Layer 1
 62
     7
370
     9
100
AcDbPolyline
 90
        3
 70
     0
 43
0.0
 10
-250.088
 20
170.0284
 10
-249.4243
 20
169.256
 10
-248.7954
 20
168.4868
  0
LWPOLYLINE
  5
263
330
1F
100
AcDbEntity
  8
Layer 1
 62
     7
370
     9
100
AcDbPolyline
 90
        2
 70
     0
 43
0.0
 10
-244.27
 20
169.3977
 10
-243.994
 20
168.9393
  0
LWPOLYLINE
  5
264
330
1F
100
AcDbEntity
  8
Layer 1
 62
     7
370
     9
100
AcDbPolyline
 90
        3
 70
     0
 43
0.0
 10
-245.3154
 20
-118.4237
 10
-244.7757
 20
-117.6539
 10
-244.253
 20
-116.8805
  0
LWPOLYLINE
  5
265
330
1F
100
AcDbEntity
  8
Layer 1
 62
     7
370
     9
100
AcDbPolyline
 90
        3
 70
     0
 43
0.0
 10
-249.0714
 20
-118.4237
 10
-248.3871
 20
-117.6539
 10
-247.7248
 20
-116.8805
  0
LWPOLYLINE
  5
266
330
1F
100
AcDbEntity
  8
Layer 1
 62
     7
370
     9
100
AcDbPolyline
 90
        3
 70
     0
 43
0.0
 10
-242.4894
 20
-118.4237
 10
-242.061
 20
-117.9643
 10
-241.6692
 20
-117.5065
  0
LWPOLYLINE
  5
267
330
1F
100
AcDbEntity
  8
Layer 1
 62
     7
370
     9
100
AcDbPolyline
 90
        3
 70
     0
 43
0.0
 10
-253.5259
 20
-118.4237
 10
-252.7478
 20
-117.6539
 10
-251.9697
 20
-116.8805
  0
LWPOLYLINE
  5
268
330
1F
100
AcDbEntity
  8
Layer 1
 62
     7
370
     9
100
AcDbPolyline
 90
        2
 70
     0
 43
0.0
 10
-263.371
 20
-118.4237
 10
-261.71
 20
-116.8805
  0
LWPOLYLINE
  5
269
330
1F
100
AcDbEntity
  8
Layer 1
 62
     7
370
     9
100
AcDbPolyline
 90
        3
 70
     0
 43
0.0
 10
-258.3952
 20
-118.4237
 10
-257.5626
 20
-117.6539
 10
-256.7341
 20
-116.8805
  0
LWPOLYLINE
  5
26A
330
1F
100
AcDbEntity
  8
Layer 1
 62
     7
370
     9
100
AcDbPolyline
 90
        3
 70
     0
 43
0.0
 10
-245.3154
 20
-118.4237
 10
-244.6737
 20
-117.9643
 10
-244.0699
 20
-117.5065
  0
LWPOLYLINE
  5
26B
330
1F
100
AcDbEntity
  8
Layer 1
 62
     7
370
     9
100
AcDbPolyline
 90
        3
 70
     0
 43
0.0
 10
-272.4187
 20
-118.4237
 10
-271.6237
 20
-117.9643
 10
-270.8034
 20
-117.5065
  0
LWPOLYLINE
  5
26C
330
1F
100
AcDbEntity
  8
Layer 1
 62
     7
370
     9
100
AcDbPolyline
 90
        3
 70
     0
 43
0.0
 10
-249.0714
 20
-118.4237
 10
-248.2645
 20
-117.9643
 10
-247.4777
 20
-117.5065
  0
LWPOLYLINE
  5
26D
330
1F
100
AcDbEntity
  8
Layer 1
 62
     7
370
     9
100
AcDbPolyline
 90
        3
 70
     0
 43
0.0
 10
-268.1487
 20
-118.4237
 10
-267.2305
 20
-117.9643
 10
-266.2913
 20
-117.5065
  0
LWPOLYLINE
  5
26E
330
1F
100
AcDbEntity
  8
Layer 1
 62
     7
370
     9
100
AcDbPolyline
 90
        3
 70
     0
 43
0.0
 10
-253.5259
 20
-118.4237
 10
-252.5949
 20
-117.9643
 10
-251.6855
 20
-117.5065
  0
LWPOLYLINE
  5
26F
330
1F
100
AcDbEntity
  8
Layer 1
 62
     7
370
     9
100
AcDbPolyline
 90
        2
 70
     0
 43
0.0
 10
-263.371
 20
-118.4237
 10
-261.3992
 20
-117.5065
  0
LWPOLYLINE
  5
270
330
1F
100
AcDbEntity
  8
Layer 1
 62
     7
370
     9
100
AcDbPolyline
 90
        3
 70
     0
 43
0.0
 10
-258.3952
 20
-118.4237
 10
-257.4047
 20
-117.9643
 10
-256.4233
 20
-117.5065
  0
LWPOLYLINE
  5
271
330
1F
100
AcDbEntity
  8
Layer 1
 62
     7
370
     9
100
AcDbPolyline
 90
        2
 70
     0
 43
0.0
 10
-419.1124
 20
209.2266
 10
-243.4543
 20
209.2266
  0
LWPOLYLINE
  5
272
330
1F
100
AcDbEntity
  8
Layer 1
 62
     7
370
     9
100
AcDbPolyline
 90
        2
 70
     0
 43
0.0
 10
-244.2485
 20
201.6577
 10
-243.4543
 20
200.7315
  0
LWPOLYLINE
  5
273
330
1F
100
AcDbEntity
  8
Layer 1
 62
     7
370
     9
100
AcDbPolyline
 90
        9
 70
     0
 43
0.0
 10
-375.3243
 20
122.8852
 10
-375.3253
 20
123.4586
 10
-375.3285
 20
124.0329
 10
-375.3339
 20
124.6078
 10
-375.3416
 20
125.1829
 10
-375.3516
 20
125.758
 10
-375.3641
 20
126.3328
 10
-375.3791
 20
126.9069
 10
-375.3966
 20
127.4802
  0
LWPOLYLINE
  5
274
330
1F
100
AcDbEntity
  8
Layer 1
 62
     7
370
     9
100
AcDbPolyline
 90
        9
 70
     0
 43
0.0
 10
-376.1615
 20
107.3331
 10
-376.1007
 20
107.9055
 10
-376.0418
 20
108.4783
 10
-375.9851
 20
109.0514
 10
-375.9307
 20
109.6245
 10
-375.8786
 20
110.1974
 10
-375.829
 20
110.7701
 10
-375.7819
 20
111.3423
 10
-375.7376
 20
111.9138
  0
LWPOLYLINE
  5
275
330
1F
100
AcDbEntity
  8
Layer 1
 62
     7
370
     9
100
AcDbPolyline
 90
        9
 70
     0
 43
0.0
 10
-416.4984
 20
141.304
 10
-416.6481
 20
141.2875
 10
-416.7889
 20
141.2399
 10
-416.918
 20
141.1643
 10
-417.0325
 20
141.0636
 10
-417.1296
 20
140.9407
 10
-417.2066
 20
140.7987
 10
-417.2606
 20
140.6405
 10
-417.2888
 20
140.469
  0
LWPOLYLINE
  5
276
330
1F
100
AcDbEntity
  8
Layer 1
 62
     7
370
     9
100
AcDbPolyline
 90
        9
 70
     0
 43
0.0
 10
-401.9264
 20
122.8852
 10
-402.0786
 20
122.8684
 10
-402.2206
 20
122.8202
 10
-402.3501
 20
122.7435
 10
-402.4645
 20
122.6414
 10
-402.5614
 20
122.5169
 10
-402.6381
 20
122.373
 10
-402.6924
 20
122.2127
 10
-402.7215
 20
122.0391
  0
LWPOLYLINE
  5
277
330
1F
100
AcDbEntity
  8
Layer 1
 62
     7
370
     9
100
AcDbPolyline
 90
        9
 70
     0
 43
0.0
 10
-240.2755
 20
-112.0632
 10
-240.2801
 20
-112.0062
 10
-240.2935
 20
-111.954
 10
-240.3149
 20
-111.9074
 10
-240.3437
 20
-111.8673
 10
-240.379
 20
-111.8346
 10
-240.4203
 20
-111.8101
 10
-240.4667
 20
-111.7948
 10
-240.5176
 20
-111.7895
  0
LWPOLYLINE
  5
278
330
1F
100
AcDbEntity
  8
Layer 1
 62
     7
370
     9
100
AcDbPolyline
 90
        9
 70
     0
 43
0.0
 10
-279.7825
 20
-111.7895
 10
-279.831
 20
-111.7948
 10
-279.8763
 20
-111.8101
 10
-279.9174
 20
-111.8346
 10
-279.9533
 20
-111.8673
 10
-279.983
 20
-111.9074
 10
-280.0054
 20
-111.954
 10
-280.0196
 20
-112.0062
 10
-280.0246
 20
-112.0632
  0
LWPOLYLINE
  5
279
330
1F
100
AcDbEntity
  8
Layer 1
 62
     7
370
     9
100
AcDbPolyline
 90
        9
 70
     0
 43
0.0
 10
-243.4534
 20
164.0632
 10
-243.4581
 20
164.1191
 10
-243.4715
 20
164.1712
 10
-243.4931
 20
164.2183
 10
-243.522
 20
164.2594
 10
-243.5574
 20
164.2932
 10
-243.5986
 20
164.3188
 10
-243.6449
 20
164.335
 10
-243.6955
 20
164.3406
  0
LWPOLYLINE
  5
27A
330
1F
100
AcDbEntity
  8
Layer 1
 62
     7
370
     9
100
AcDbPolyline
 90
        9
 70
     0
 43
0.0
 10
-276.605
 20
164.3406
 10
-276.653
 20
164.335
 10
-276.6981
 20
164.3188
 10
-276.7391
 20
164.2932
 10
-276.7751
 20
164.2594
 10
-276.805
 20
164.2183
 10
-276.8277
 20
164.1712
 10
-276.8421
 20
164.1191
 10
-276.8471
 20
164.0632
  0
LWPOLYLINE
  5
27B
330
1F
100
AcDbEntity
  8
Layer 1
 62
     7
370
     9
100
AcDbPolyline
 90
        9
 70
     0
 43
0.0
 10
-276.8471
 20
165.079
 10
-276.8421
 20
165.0217
 10
-276.8277
 20
164.9686
 10
-276.805
 20
164.9207
 10
-276.7751
 20
164.8791
 10
-276.7391
 20
164.845
 10
-276.6981
 20
164.8193
 10
-276.653
 20
164.803
 10
-276.605
 20
164.7974
  0
LWPOLYLINE
  5
27C
330
1F
100
AcDbEntity
  8
Layer 1
 62
     7
370
     9
100
AcDbPolyline
 90
        9
 70
     0
 43
0.0
 10
-243.6955
 20
164.8027
 10
-243.6449
 20
164.8081
 10
-243.5986
 20
164.8237
 10
-243.5574
 20
164.8486
 10
-243.522
 20
164.8818
 10
-243.4931
 20
164.9224
 10
-243.4715
 20
164.9694
 10
-243.4581
 20
165.0219
 10
-243.4534
 20
165.079
  0
LWPOLYLINE
  5
27D
330
1F
100
AcDbEntity
  8
Layer 1
 62
     7
370
     9
100
AcDbPolyline
 90
        9
 70
     0
 43
0.0
 10
-277.0202
 20
141.147
 10
-277.037
 20
141.1812
 10
-277.058
 20
141.2118
 10
-277.0827
 20
141.2386
 10
-277.1104
 20
141.2613
 10
-277.1408
 20
141.2795
 10
-277.1732
 20
141.2929
 10
-277.2072
 20
141.3012
 10
-277.2422
 20
141.304
  0
LWPOLYLINE
  5
27E
330
1F
100
AcDbEntity
  8
Layer 1
 62
     7
370
     9
100
AcDbPolyline
 90
        9
 70
     0
 43
0.0
 10
-277.2422
 20
122.8852
 10
-277.2072
 20
122.888
 10
-277.1732
 20
122.8961
 10
-277.1408
 20
122.9095
 10
-277.1104
 20
122.9279
 10
-277.0827
 20
122.9512
 10
-277.058
 20
122.9792
 10
-277.037
 20
123.0117
 10
-277.0202
 20
123.0486
  0
LWPOLYLINE
  5
27F
330
1F
100
AcDbEntity
  8
Layer 1
 62
     7
370
     9
100
AcDbPolyline
 90
        2
 70
     0
 43
0.0
 10
-280.0246
 20
-120.9991
 10
-240.2755
 20
-120.9991
  0
LWPOLYLINE
  5
280
330
1F
100
AcDbEntity
  8
Layer 1
 62
     7
370
     9
100
AcDbPolyline
 90
        2
 70
     0
 43
0.0
 10
-280.0246
 20
-120.9991
 10
-280.0246
 20
-120.0724
  0
LWPOLYLINE
  5
281
330
1F
100
AcDbEntity
  8
Layer 1
 62
     7
370
     9
100
AcDbPolyline
 90
        2
 70
     0
 43
0.0
 10
-280.0246
 20
-119.6199
 10
-280.0246
 20
-117.5065
  0
LWPOLYLINE
  5
282
330
1F
100
AcDbEntity
  8
Layer 1
 62
     7
370
     9
100
AcDbPolyline
 90
        2
 70
     0
 43
0.0
 10
-280.0246
 20
-114.427
 10
-280.0246
 20
-113.3199
  0
LWPOLYLINE
  5
283
330
1F
100
AcDbEntity
  8
Layer 1
 62
     7
370
     9
100
AcDbPolyline
 90
        2
 70
     0
 43
0.0
 10
-280.0246
 20
-112.8669
 10
-280.0246
 20
-112.0632
  0
LWPOLYLINE
  5
284
330
1F
100
AcDbEntity
  8
Layer 1
 62
     7
370
     9
100
AcDbPolyline
 90
        2
 70
     0
 43
0.0
 10
-276.8471
 20
164.0632
 10
-276.8471
 20
140.6658
  0
LWPOLYLINE
  5
285
330
1F
100
AcDbEntity
  8
Layer 1
 62
     7
370
     9
100
AcDbPolyline
 90
        2
 70
     0
 43
0.0
 10
-276.8471
 20
123.5213
 10
-276.8471
 20
-102.3607
  0
LWPOLYLINE
  5
286
330
1F
100
AcDbEntity
  8
Layer 1
 62
     7
370
     9
100
AcDbPolyline
 90
        2
 70
     0
 43
0.0
 10
-276.8471
 20
-102.8196
 10
-276.8471
 20
-103.923
  0
LWPOLYLINE
  5
287
330
1F
100
AcDbEntity
  8
Layer 1
 62
     7
370
     9
100
AcDbPolyline
 90
        2
 70
     0
 43
0.0
 10
-276.8471
 20
-107.0008
 10
-276.8471
 20
-109.1201
  0
LWPOLYLINE
  5
288
330
1F
100
AcDbEntity
  8
Layer 1
 62
     7
370
     9
100
AcDbPolyline
 90
        2
 70
     0
 43
0.0
 10
-276.8471
 20
-109.5721
 10
-276.8471
 20
-111.6012
  0
LWPOLYLINE
  5
289
330
1F
100
AcDbEntity
  8
Layer 1
 62
     7
370
     9
100
AcDbPolyline
 90
        2
 70
     0
 43
0.0
 10
-276.8471
 20
165.079
 10
-276.8471
 20
166.8217
  0
LWPOLYLINE
  5
28A
330
1F
100
AcDbEntity
  8
Layer 1
 62
     7
370
     9
100
AcDbPolyline
 90
        2
 70
     0
 43
0.0
 10
-276.8471
 20
167.2901
 10
-276.8471
 20
169.3977
  0
LWPOLYLINE
  5
28B
330
1F
100
AcDbEntity
  8
Layer 1
 62
     7
370
     9
100
AcDbPolyline
 90
        2
 70
     0
 43
0.0
 10
-276.8471
 20
172.4808
 10
-276.8471
 20
173.5741
  0
LWPOLYLINE
  5
28C
330
1F
100
AcDbEntity
  8
Layer 1
 62
     7
370
     9
100
AcDbPolyline
 90
        2
 70
     0
 43
0.0
 10
-276.8471
 20
174.0431
 10
-276.8471
 20
200.7315
  0
LWPOLYLINE
  5
28D
330
1F
100
AcDbEntity
  8
Layer 1
 62
     7
370
     9
100
AcDbPolyline
 90
        2
 70
     0
 43
0.0
 10
-243.4534
 20
164.0632
 10
-243.4534
 20
-102.3576
  0
LWPOLYLINE
  5
28E
330
1F
100
AcDbEntity
  8
Layer 1
 62
     7
370
     9
100
AcDbPolyline
 90
        2
 70
     0
 43
0.0
 10
-243.4534
 20
-102.8196
 10
-243.4534
 20
-103.923
  0
LWPOLYLINE
  5
28F
330
1F
100
AcDbEntity
  8
Layer 1
 62
     7
370
     9
100
AcDbPolyline
 90
        2
 70
     0
 43
0.0
 10
-243.4534
 20
-107.0008
 10
-243.4534
 20
-109.1201
  0
LWPOLYLINE
  5
290
330
1F
100
AcDbEntity
  8
Layer 1
 62
     7
370
     9
100
AcDbPolyline
 90
        2
 70
     0
 43
0.0
 10
-243.4534
 20
-109.5721
 10
-243.4534
 20
-111.6012
  0
LWPOLYLINE
  5
291
330
1F
100
AcDbEntity
  8
Layer 1
 62
     7
370
     9
100
AcDbPolyline
 90
        2
 70
     0
 43
0.0
 10
-243.4534
 20
165.079
 10
-243.4534
 20
166.8217
  0
LWPOLYLINE
  5
292
330
1F
100
AcDbEntity
  8
Layer 1
 62
     7
370
     9
100
AcDbPolyline
 90
        2
 70
     0
 43
0.0
 10
-243.4534
 20
167.2901
 10
-243.4534
 20
169.3977
  0
LWPOLYLINE
  5
293
330
1F
100
AcDbEntity
  8
Layer 1
 62
     7
370
     9
100
AcDbPolyline
 90
        2
 70
     0
 43
0.0
 10
-243.4534
 20
172.4808
 10
-243.4534
 20
173.5741
  0
LWPOLYLINE
  5
294
330
1F
100
AcDbEntity
  8
Layer 1
 62
     7
370
     9
100
AcDbPolyline
 90
        2
 70
     0
 43
0.0
 10
-243.4534
 20
174.0431
 10
-243.4534
 20
200.7315
  0
LWPOLYLINE
  5
295
330
1F
100
AcDbEntity
  8
Layer 1
 62
     7
370
     9
100
AcDbPolyline
 90
        2
 70
     0
 43
0.0
 10
-240.2755
 20
-120.9991
 10
-240.2755
 20
-120.0724
  0
LWPOLYLINE
  5
296
330
1F
100
AcDbEntity
  8
Layer 1
 62
     7
370
     9
100
AcDbPolyline
 90
        2
 70
     0
 43
0.0
 10
-240.2755
 20
-119.6199
 10
-240.2755
 20
-113.3199
  0
LWPOLYLINE
  5
297
330
1F
100
AcDbEntity
  8
Layer 1
 62
     7
370
     9
100
AcDbPolyline
 90
        2
 70
     0
 43
0.0
 10
-240.2755
 20
-112.8669
 10
-240.2755
 20
-112.0632
  0
LWPOLYLINE
  5
298
330
1F
100
AcDbEntity
  8
Layer 1
 62
     7
370
     9
100
AcDbPolyline
 90
        2
 70
     0
 43
0.0
 10
-259.3513
 20
201.7516
 10
-260.9405
 20
201.7516
  0
LWPOLYLINE
  5
299
330
1F
100
AcDbEntity
  8
Layer 1
 62
     7
370
     9
100
AcDbPolyline
 90
        2
 70
     0
 43
0.0
 10
-276.8421
 20
-111.5996
 10
-243.4543
 20
-111.5996
  0
LWPOLYLINE
  5
29A
330
1F
100
AcDbEntity
  8
Layer 1
 62
     7
370
     9
100
AcDbPolyline
 90
        2
 70
     0
 43
0.0
 10
-276.8421
 20
-109.57
 10
-243.4543
 20
-109.57
  0
LWPOLYLINE
  5
29B
330
1F
100
AcDbEntity
  8
Layer 1
 62
     7
370
     9
100
AcDbPolyline
 90
        2
 70
     0
 43
0.0
 10
-276.8421
 20
-109.1132
 10
-243.4543
 20
-109.1132
  0
LWPOLYLINE
  5
29C
330
1F
100
AcDbEntity
  8
Layer 1
 62
     7
370
     9
100
AcDbPolyline
 90
        2
 70
     0
 43
0.0
 10
-265.2843
 20
-107.004
 10
-265.3094
 20
-107.004
  0
LWPOLYLINE
  5
29D
330
1F
100
AcDbEntity
  8
Layer 1
 62
     7
370
     9
100
AcDbPolyline
 90
        2
 70
     0
 43
0.0
 10
-269.9159
 20
-107.004
 10
-269.9626
 20
-107.004
  0
LWPOLYLINE
  5
29E
330
1F
100
AcDbEntity
  8
Layer 1
 62
     7
370
     9
100
AcDbPolyline
 90
        2
 70
     0
 43
0.0
 10
-273.5923
 20
-107.004
 10
-273.6559
 20
-107.004
  0
LWPOLYLINE
  5
29F
330
1F
100
AcDbEntity
  8
Layer 1
 62
     7
370
     9
100
AcDbPolyline
 90
        2
 70
     0
 43
0.0
 10
-275.9541
 20
-107.004
 10
-276.0228
 20
-107.004
  0
LWPOLYLINE
  5
2A0
330
1F
100
AcDbEntity
  8
Layer 1
 62
     7
370
     9
100
AcDbPolyline
 90
        2
 70
     0
 43
0.0
 10
-255.0172
 20
-107.004
 10
-254.992
 20
-107.004
  0
LWPOLYLINE
  5
2A1
330
1F
100
AcDbEntity
  8
Layer 1
 62
     7
370
     9
100
AcDbPolyline
 90
        2
 70
     0
 43
0.0
 10
-250.3846
 20
-107.004
 10
-250.3338
 20
-107.004
  0
LWPOLYLINE
  5
2A2
330
1F
100
AcDbEntity
  8
Layer 1
 62
     7
370
     9
100
AcDbPolyline
 90
        2
 70
     0
 43
0.0
 10
-246.7092
 20
-107.004
 10
-246.6419
 20
-107.004
  0
LWPOLYLINE
  5
2A3
330
1F
100
AcDbEntity
  8
Layer 1
 62
     7
370
     9
100
AcDbPolyline
 90
        2
 70
     0
 43
0.0
 10
-244.3505
 20
-107.004
 10
-244.275
 20
-107.004
  0
LWPOLYLINE
  5
2A4
330
1F
100
AcDbEntity
  8
Layer 1
 62
     7
370
     9
100
AcDbPolyline
 90
        2
 70
     0
 43
0.0
 10
-265.5818
 20
-106.3796
 10
-265.607
 20
-106.3796
  0
LWPOLYLINE
  5
2A5
330
1F
100
AcDbEntity
  8
Layer 1
 62
     7
370
     9
100
AcDbPolyline
 90
        2
 70
     0
 43
0.0
 10
-270.1626
 20
-106.3796
 10
-270.2134
 20
-106.3796
  0
LWPOLYLINE
  5
2A6
330
1F
100
AcDbEntity
  8
Layer 1
 62
     7
370
     9
100
AcDbPolyline
 90
        2
 70
     0
 43
0.0
 10
-273.774
 20
-106.3796
 10
-273.8344
 20
-106.3796
  0
LWPOLYLINE
  5
2A7
330
1F
100
AcDbEntity
  8
Layer 1
 62
     7
370
     9
100
AcDbPolyline
 90
        2
 70
     0
 43
0.0
 10
-276.0434
 20
-106.3796
 10
-276.1208
 20
-106.3796
  0
LWPOLYLINE
  5
2A8
330
1F
100
AcDbEntity
  8
Layer 1
 62
     7
370
     9
100
AcDbPolyline
 90
        2
 70
     0
 43
0.0
 10
-254.7151
 20
-106.3796
 10
-254.6945
 20
-106.3796
  0
LWPOLYLINE
  5
2A9
330
1F
100
AcDbEntity
  8
Layer 1
 62
     7
370
     9
100
AcDbPolyline
 90
        2
 70
     0
 43
0.0
 10
-250.1301
 20
-106.3796
 10
-250.088
 20
-106.3796
  0
LWPOLYLINE
  5
2AA
330
1F
100
AcDbEntity
  8
Layer 1
 62
     7
370
     9
100
AcDbPolyline
 90
        2
 70
     0
 43
0.0
 10
-246.5261
 20
-106.3796
 10
-246.4624
 20
-106.3796
  0
LWPOLYLINE
  5
2AB
330
1F
100
AcDbEntity
  8
Layer 1
 62
     7
370
     9
100
AcDbPolyline
 90
        2
 70
     0
 43
0.0
 10
-244.2485
 20
-106.3796
 10
-244.1807
 20
-106.3796
  0
LWPOLYLINE
  5
2AC
330
1F
100
AcDbEntity
  8
Layer 1
 62
     7
370
     9
100
AcDbPolyline
 90
        2
 70
     0
 43
0.0
 10
-276.8421
 20
-102.8169
 10
-243.4543
 20
-102.8169
  0
LWPOLYLINE
  5
2AD
330
1F
100
AcDbEntity
  8
Layer 1
 62
     7
370
     9
100
AcDbPolyline
 90
        2
 70
     0
 43
0.0
 10
-276.8421
 20
-102.3544
 10
-243.4543
 20
-102.3544
  0
LWPOLYLINE
  5
2AE
330
1F
100
AcDbEntity
  8
Layer 1
 62
     7
370
     9
100
AcDbPolyline
 90
        3
 70
     0
 43
0.0
 10
-269.1085
 20
-118.3754
 10
-269.9072
 20
-117.9616
 10
-270.7577
 20
-117.5038
  0
LWPOLYLINE
  5
2AF
330
1F
100
AcDbEntity
  8
Layer 1
 62
     7
370
     9
100
AcDbPolyline
 90
        2
 70
     0
 43
0.0
 10
-260.15
 20
-107.004
 10
-258.1663
 20
-107.9143
  0
LWPOLYLINE
  5
2B0
330
1F
100
AcDbEntity
  8
Layer 1
 62
     7
370
     9
100
AcDbPolyline
 90
        3
 70
     0
 43
0.0
 10
-263.3591
 20
-107.9143
 10
-264.324
 20
-107.456
 10
-265.2843
 20
-107.004
  0
LWPOLYLINE
  5
2B1
330
1F
100
AcDbEntity
  8
Layer 1
 62
     7
370
     9
100
AcDbPolyline
 90
        3
 70
     0
 43
0.0
 10
-265.3094
 20
-107.004
 10
-264.3528
 20
-107.456
 10
-263.3843
 20
-107.9143
  0
LWPOLYLINE
  5
2B2
330
1F
100
AcDbEntity
  8
Layer 1
 62
     7
370
     9
100
AcDbPolyline
 90
        3
 70
     0
 43
0.0
 10
-254.992
 20
-107.004
 10
-254.0523
 20
-107.456
 10
-253.1346
 20
-107.9143
  0
LWPOLYLINE
  5
2B3
330
1F
100
AcDbEntity
  8
Layer 1
 62
     7
370
     9
100
AcDbPolyline
 90
        3
 70
     0
 43
0.0
 10
-269.9626
 20
-107.004
 10
-269.1424
 20
-107.456
 10
-268.2837
 20
-107.9143
  0
LWPOLYLINE
  5
2B4
330
1F
100
AcDbEntity
  8
Layer 1
 62
     7
370
     9
100
AcDbPolyline
 90
        3
 70
     0
 43
0.0
 10
-273.2646
 20
-118.3414
 10
-273.8811
 20
-117.9616
 10
-274.5773
 20
-117.5038
  0
LWPOLYLINE
  5
2B5
330
1F
100
AcDbEntity
  8
Layer 1
 62
     7
370
     9
100
AcDbPolyline
 90
        2
 70
     0
 43
0.0
 10
-250.3338
 20
-107.004
 10
-249.5484
 20
-107.456
  0
LWPOLYLINE
  5
2B6
330
1F
100
AcDbEntity
  8
Layer 1
 62
     7
370
     9
100
AcDbPolyline
 90
        2
 70
     0
 43
0.0
 10
-249.5484
 20
-107.456
 10
-248.7954
 20
-107.9143
  0
LWPOLYLINE
  5
2B7
330
1F
100
AcDbEntity
  8
Layer 1
 62
     7
370
     9
100
AcDbPolyline
 90
        2
 70
     0
 43
0.0
 10
-272.4526
 20
-107.8273
 10
-272.9753
 20
-107.456
  0
LWPOLYLINE
  5
2B8
330
1F
100
AcDbEntity
  8
Layer 1
 62
     7
370
     9
100
AcDbPolyline
 90
        2
 70
     0
 43
0.0
 10
-272.9803
 20
-107.456
 10
-273.5923
 20
-107.004
  0
LWPOLYLINE
  5
2B9
330
1F
100
AcDbEntity
  8
Layer 1
 62
     7
370
     9
100
AcDbPolyline
 90
        3
 70
     0
 43
0.0
 10
-273.6559
 20
-107.004
 10
-273.044
 20
-107.456
 10
-272.3936
 20
-107.9143
  0
LWPOLYLINE
  5
2BA
330
1F
100
AcDbEntity
  8
Layer 1
 62
     7
370
     9
100
AcDbPolyline
 90
        3
 70
     0
 43
0.0
 10
-276.5917
 20
-118.3017
 10
-276.995
 20
-117.9616
 10
-277.4925
 20
-117.5038
  0
LWPOLYLINE
  5
2BB
330
1F
100
AcDbEntity
  8
Layer 1
 62
     7
370
     9
100
AcDbPolyline
 90
        2
 70
     0
 43
0.0
 10
-255.0172
 20
169.3998
 10
-255.9688
 20
168.942
  0
LWPOLYLINE
  5
2BC
330
1F
100
AcDbEntity
  8
Layer 1
 62
     7
370
     9
100
AcDbPolyline
 90
        2
 70
     0
 43
0.0
 10
-255.9688
 20
168.942
 10
-256.9424
 20
168.4895
  0
LWPOLYLINE
  5
2BD
330
1F
100
AcDbEntity
  8
Layer 1
 62
     7
370
     9
100
AcDbPolyline
 90
        2
 70
     0
 43
0.0
 10
-246.6419
 20
-107.004
 10
-246.0807
 20
-107.456
  0
LWPOLYLINE
  5
2BE
330
1F
100
AcDbEntity
  8
Layer 1
 62
     7
370
     9
100
AcDbPolyline
 90
        2
 70
     0
 43
0.0
 10
-259.8356
 20
-106.3796
 10
-258.1613
 20
-107.9143
  0
LWPOLYLINE
  5
2BF
330
1F
100
AcDbEntity
  8
Layer 1
 62
     7
370
     9
100
AcDbPolyline
 90
        3
 70
     0
 43
0.0
 10
-254.5197
 20
-118.4056
 10
-255.3147
 20
-117.6518
 10
-256.1304
 20
-116.8784
  0
LWPOLYLINE
  5
2C0
330
1F
100
AcDbEntity
  8
Layer 1
 62
     7
370
     9
100
AcDbPolyline
 90
        3
 70
     0
 43
0.0
 10
-265.0083
 20
-106.3796
 10
-264.205
 20
-107.1473
 10
-263.3843
 20
-107.9143
  0
LWPOLYLINE
  5
2C1
330
1F
100
AcDbEntity
  8
Layer 1
 62
     7
370
     9
100
AcDbPolyline
 90
        2
 70
     0
 43
0.0
 10
-265.5818
 20
170.0252
 10
-265.6875
 20
169.9213
  0
LWPOLYLINE
  5
2C2
330
1F
100
AcDbEntity
  8
Layer 1
 62
     7
370
     9
100
AcDbPolyline
 90
        2
 70
     0
 43
0.0
 10
-246.7092
 20
169.3998
 10
-247.3129
 20
168.942
  0
LWPOLYLINE
  5
2C3
330
1F
100
AcDbEntity
  8
Layer 1
 62
     7
370
     9
100
AcDbPolyline
 90
        2
 70
     0
 43
0.0
 10
-247.3129
 20
168.942
 10
-247.8438
 20
168.5829
  0
LWPOLYLINE
  5
2C4
330
1F
100
AcDbEntity
  8
Layer 1
 62
     7
370
     9
100
AcDbPolyline
 90
        2
 70
     0
 43
0.0
 10
-246.0807
 20
-107.456
 10
-245.5662
 20
-107.9143
  0
LWPOLYLINE
  5
2C5
330
1F
100
AcDbEntity
  8
Layer 1
 62
     7
370
     9
100
AcDbPolyline
 90
        3
 70
     0
 43
0.0
 10
-254.6945
 20
-106.3796
 10
-253.9031
 20
-107.1473
 10
-253.1346
 20
-107.9143
  0
LWPOLYLINE
  5
2C6
330
1F
100
AcDbEntity
  8
Layer 1
 62
     7
370
     9
100
AcDbPolyline
 90
        2
 70
     0
 43
0.0
 10
-254.6089
 20
-106.4826
 10
-254.7151
 20
-106.3796
  0
LWPOLYLINE
  5
2C7
330
1F
100
AcDbEntity
  8
Layer 1
 62
     7
370
     9
100
AcDbPolyline
 90
        3
 70
     0
 43
0.0
 10
-249.9979
 20
-118.3818
 10
-250.6904
 20
-117.6518
 10
-251.4383
 20
-116.8784
  0
LWPOLYLINE
  5
2C8
330
1F
100
AcDbEntity
  8
Layer 1
 62
     7
370
     9
100
AcDbPolyline
 90
        3
 70
     0
 43
0.0
 10
-269.7072
 20
-106.3796
 10
-269.0064
 20
-107.1473
 10
-268.2883
 20
-107.9143
  0
LWPOLYLINE
  5
2C9
330
1F
100
AcDbEntity
  8
Layer 1
 62
     7
370
     9
100
AcDbPolyline
 90
        2
 70
     0
 43
0.0
 10
-275.376
 20
-107.7334
 10
-275.6099
 20
-107.4618
  0
LWPOLYLINE
  5
2CA
330
1F
100
AcDbEntity
  8
Layer 1
 62
     7
370
     9
100
AcDbPolyline
 90
        3
 70
     0
 43
0.0
 10
-278.8863
 20
-118.1934
 10
-279.0479
 20
-117.9616
 10
-279.3197
 20
-117.5038
  0
LWPOLYLINE
  5
2CB
330
1F
100
AcDbEntity
  8
Layer 1
 62
     7
370
     9
100
AcDbPolyline
 90
        3
 70
     0
 43
0.0
 10
-270.1626
 20
170.0252
 10
-270.8217
 20
169.2507
 10
-271.4072
 20
168.5473
  0
LWPOLYLINE
  5
2CC
330
1F
100
AcDbEntity
  8
Layer 1
 62
     7
370
     9
100
AcDbPolyline
 90
        3
 70
     0
 43
0.0
 10
-250.088
 20
-106.3796
 10
-249.4243
 20
-107.1473
 10
-248.7954
 20
-107.9143
  0
LWPOLYLINE
  5
2CD
330
1F
100
AcDbEntity
  8
Layer 1
 62
     7
370
     9
100
AcDbPolyline
 90
        2
 70
     0
 43
0.0
 10
-249.4761
 20
-107.1473
 10
-250.1338
 20
-106.3796
  0
LWPOLYLINE
  5
2CE
330
1F
100
AcDbEntity
  8
Layer 1
 62
     7
370
     9
100
AcDbPolyline
 90
        2
 70
     0
 43
0.0
 10
-275.6145
 20
-107.456
 10
-275.9541
 20
-107.004
  0
LWPOLYLINE
  5
2CF
330
1F
100
AcDbEntity
  8
Layer 1
 62
     7
370
     9
100
AcDbPolyline
 90
        3
 70
     0
 43
0.0
 10
-276.0265
 20
-107.004
 10
-275.6905
 20
-107.456
 10
-275.3001
 20
-107.9143
  0
LWPOLYLINE
  5
2D0
330
1F
100
AcDbEntity
  8
Layer 1
 62
     7
370
     9
100
AcDbPolyline
 90
        2
 70
     0
 43
0.0
 10
-272.9451
 20
-107.1473
 10
-272.3936
 20
-107.9106
  0
LWPOLYLINE
  5
2D1
330
1F
100
AcDbEntity
  8
Layer 1
 62
     7
370
     9
100
AcDbPolyline
 90
        2
 70
     0
 43
0.0
 10
-273.4646
 20
-106.3796
 10
-272.9451
 20
-107.1473
  0
LWPOLYLINE
  5
2D2
330
1F
100
AcDbEntity
  8
Layer 1
 62
     7
370
     9
100
AcDbPolyline
 90
        2
 70
     0
 43
0.0
 10
-248.8897
 20
-107.856
 10
-249.4761
 20
-107.1473
  0
LWPOLYLINE
  5
2D3
330
1F
100
AcDbEntity
  8
Layer 1
 62
     7
370
     9
100
AcDbPolyline
 90
        3
 70
     0
 43
0.0
 10
-246.1141
 20
-118.351
 10
-246.667
 20
-117.6518
 10
-247.2909
 20
-116.8784
  0
LWPOLYLINE
  5
2D4
330
1F
100
AcDbEntity
  8
Layer 1
 62
     7
370
     9
100
AcDbPolyline
 90
        2
 70
     0
 43
0.0
 10
-274.2331
 20
169.2507
 10
-274.5993
 20
168.602
  0
LWPOLYLINE
  5
2D5
330
1F
100
AcDbEntity
  8
Layer 1
 62
     7
370
     9
100
AcDbPolyline
 90
        2
 70
     0
 43
0.0
 10
-273.774
 20
170.0252
 10
-274.2331
 20
169.2507
  0
LWPOLYLINE
  5
2D6
330
1F
100
AcDbEntity
  8
Layer 1
 62
     7
370
     9
100
AcDbPolyline
 90
        2
 70
     0
 43
0.0
 10
-244.6819
 20
168.942
 10
-244.924
 20
168.6661
  0
LWPOLYLINE
  5
2D7
330
1F
100
AcDbEntity
  8
Layer 1
 62
     7
370
     9
100
AcDbPolyline
 90
        2
 70
     0
 43
0.0
 10
-244.3505
 20
169.3998
 10
-244.6819
 20
168.942
  0
LWPOLYLINE
  5
2D8
330
1F
100
AcDbEntity
  8
Layer 1
 62
     7
370
     9
100
AcDbPolyline
 90
        2
 70
     0
 43
0.0
 10
-244.27
 20
-107.004
 10
-243.994
 20
-107.456
  0
LWPOLYLINE
  5
2D9
330
1F
100
AcDbEntity
  8
Layer 1
 62
     7
370
     9
100
AcDbPolyline
 90
        3
 70
     0
 43
0.0
 10
-246.4624
 20
-106.3796
 10
-245.9997
 20
-107.1473
 10
-245.5708
 20
-107.9143
  0
LWPOLYLINE
  5
2DA
330
1F
100
AcDbEntity
  8
Layer 1
 62
     7
370
     9
100
AcDbPolyline
 90
        2
 70
     0
 43
0.0
 10
-246.0638
 20
-107.1473
 10
-246.5261
 20
-106.3796
  0
LWPOLYLINE
  5
2DB
330
1F
100
AcDbEntity
  8
Layer 1
 62
     7
370
     9
100
AcDbPolyline
 90
        3
 70
     0
 43
0.0
 10
-243.1101
 20
-118.3075
 10
-243.4836
 20
-117.6518
 10
-243.9509
 20
-116.8784
  0
LWPOLYLINE
  5
2DC
330
1F
100
AcDbEntity
  8
Layer 1
 62
     7
370
     9
100
AcDbPolyline
 90
        2
 70
     0
 43
0.0
 10
-245.6976
 20
-107.8013
 10
-246.0674
 20
-107.1473
  0
LWPOLYLINE
  5
2DD
330
1F
100
AcDbEntity
  8
Layer 1
 62
     7
370
     9
100
AcDbPolyline
 90
        2
 70
     0
 43
0.0
 10
-275.6315
 20
-107.1473
 10
-275.3001
 20
-107.9106
  0
LWPOLYLINE
  5
2DE
330
1F
100
AcDbEntity
  8
Layer 1
 62
     7
370
     9
100
AcDbPolyline
 90
        2
 70
     0
 43
0.0
 10
-275.929
 20
-106.3796
 10
-275.6315
 20
-107.1473
  0
LWPOLYLINE
  5
2DF
330
1F
100
AcDbEntity
  8
Layer 1
 62
     7
370
     9
100
AcDbPolyline
 90
        2
 70
     0
 43
0.0
 10
-243.994
 20
-107.456
 10
-243.7688
 20
-107.9143
  0
LWPOLYLINE
  5
2E0
330
1F
100
AcDbEntity
  8
Layer 1
 62
     7
370
     9
100
AcDbPolyline
 90
        2
 70
     0
 43
0.0
 10
-276.2686
 20
169.2507
 10
-276.3748
 20
168.794
  0
LWPOLYLINE
  5
2E1
330
1F
100
AcDbEntity
  8
Layer 1
 62
     7
370
     9
100
AcDbPolyline
 90
        2
 70
     0
 43
0.0
 10
-276.0434
 20
170.0252
 10
-276.2686
 20
169.2507
  0
LWPOLYLINE
  5
2E2
330
1F
100
AcDbEntity
  8
Layer 1
 62
     7
370
     9
100
AcDbPolyline
 90
        3
 70
     0
 43
0.0
 10
-276.8302
 20
-107.3043
 10
-276.7913
 20
-107.6151
 10
-276.724
 20
-107.9143
  0
LWPOLYLINE
  5
2E3
330
1F
100
AcDbEntity
  8
Layer 1
 62
     7
370
     9
100
AcDbPolyline
 90
        2
 70
     0
 43
0.0
 10
-273.6559
 20
-103.9262
 10
-273.4683
 20
-106.3796
  0
LWPOLYLINE
  5
2E4
330
1F
100
AcDbEntity
  8
Layer 1
 62
     7
370
     9
100
AcDbPolyline
 90
        3
 70
     0
 43
0.0
 10
-241.1767
 20
-118.1934
 10
-241.3502
 20
-117.6518
 10
-241.6308
 20
-116.8784
  0
LWPOLYLINE
  5
2E5
330
1F
100
AcDbEntity
  8
Layer 1
 62
     7
370
     9
100
AcDbPolyline
 90
        3
 70
     0
 43
0.0
 10
-244.1761
 20
-106.3796
 10
-243.9509
 20
-107.1473
 10
-243.7688
 20
-107.9143
  0
LWPOLYLINE
  5
2E6
330
1F
100
AcDbEntity
  8
Layer 1
 62
     7
370
     9
100
AcDbPolyline
 90
        2
 70
     0
 43
0.0
 10
-244.0315
 20
-107.1473
 10
-244.2485
 20
-106.3796
  0
LWPOLYLINE
  5
2E7
330
1F
100
AcDbEntity
  8
Layer 1
 62
     7
370
     9
100
AcDbPolyline
 90
        2
 70
     0
 43
0.0
 10
-269.9626
 20
-103.9262
 10
-269.7122
 20
-106.3796
  0
LWPOLYLINE
  5
2E8
330
1F
100
AcDbEntity
  8
Layer 1
 62
     7
370
     9
100
AcDbPolyline
 90
        2
 70
     0
 43
0.0
 10
-276.8046
 20
-107.1473
 10
-276.7277
 20
-107.9106
  0
LWPOLYLINE
  5
2E9
330
1F
100
AcDbEntity
  8
Layer 1
 62
     7
370
     9
100
AcDbPolyline
 90
        2
 70
     0
 43
0.0
 10
-276.8385
 20
-106.3796
 10
-276.8046
 20
-107.1473
  0
LWPOLYLINE
  5
2EA
330
1F
100
AcDbEntity
  8
Layer 1
 62
     7
370
     9
100
AcDbPolyline
 90
        2
 70
     0
 43
0.0
 10
-276.8421
 20
-107.004
 10
-276.8302
 20
-107.3043
  0
LWPOLYLINE
  5
2EB
330
1F
100
AcDbEntity
  8
Layer 1
 62
     7
370
     9
100
AcDbPolyline
 90
        2
 70
     0
 43
0.0
 10
-276.0265
 20
-103.9262
 10
-275.9326
 20
-106.3796
  0
LWPOLYLINE
  5
2EC
330
1F
100
AcDbEntity
  8
Layer 1
 62
     7
370
     9
100
AcDbPolyline
 90
        2
 70
     0
 43
0.0
 10
-276.8421
 20
-103.9262
 10
-276.8385
 20
-106.3796
  0
LWPOLYLINE
  5
2ED
330
1F
100
AcDbEntity
  8
Layer 1
 62
     7
370
     9
100
AcDbPolyline
 90
        2
 70
     0
 43
0.0
 10
-276.8421
 20
-111.5996
 10
-276.8421
 20
-109.57
  0
LWPOLYLINE
  5
2EE
330
1F
100
AcDbEntity
  8
Layer 1
 62
     7
370
     9
100
AcDbPolyline
 90
        2
 70
     0
 43
0.0
 10
-276.8421
 20
-109.1132
 10
-276.8421
 20
-107.004
  0
LWPOLYLINE
  5
2EF
330
1F
100
AcDbEntity
  8
Layer 1
 62
     7
370
     9
100
AcDbPolyline
 90
        2
 70
     0
 43
0.0
 10
-276.8421
 20
-103.9262
 10
-276.8421
 20
-102.8169
  0
LWPOLYLINE
  5
2F0
330
1F
100
AcDbEntity
  8
Layer 1
 62
     7
370
     9
100
AcDbPolyline
 90
        2
 70
     0
 43
0.0
 10
-276.7616
 20
-102.3544
 10
-276.7616
 20
-102.8169
  0
LWPOLYLINE
  5
2F1
330
1F
100
AcDbEntity
  8
Layer 1
 62
     7
370
     9
100
AcDbPolyline
 90
        2
 70
     0
 43
0.0
 10
-276.7616
 20
-109.1132
 10
-276.7616
 20
-109.57
  0
LWPOLYLINE
  5
2F2
330
1F
100
AcDbEntity
  8
Layer 1
 62
     7
370
     9
100
AcDbPolyline
 90
        2
 70
     0
 43
0.0
 10
-279.3586
 20
-115.6424
 10
-279.3921
 20
-116.8784
  0
LWPOLYLINE
  5
2F3
330
1F
100
AcDbEntity
  8
Layer 1
 62
     7
370
     9
100
AcDbPolyline
 90
        2
 70
     0
 43
0.0
 10
-275.988
 20
171.518
 10
-276.0434
 20
170.0252
  0
LWPOLYLINE
  5
2F4
330
1F
100
AcDbEntity
  8
Layer 1
 62
     7
370
     9
100
AcDbPolyline
 90
        2
 70
     0
 43
0.0
 10
-273.6257
 20
172.0495
 10
-273.7704
 20
170.0252
  0
LWPOLYLINE
  5
2F5
330
1F
100
AcDbEntity
  8
Layer 1
 62
     7
370
     9
100
AcDbPolyline
 90
        2
 70
     0
 43
0.0
 10
-269.9374
 20
172.2522
 10
-270.1626
 20
170.0252
  0
LWPOLYLINE
  5
2F6
330
1F
100
AcDbEntity
  8
Layer 1
 62
     7
370
     9
100
AcDbPolyline
 90
        2
 70
     0
 43
0.0
 10
-243.9171
 20
-107.6098
 10
-244.0315
 20
-107.1473
  0
LWPOLYLINE
  5
2F7
330
1F
100
AcDbEntity
  8
Layer 1
 62
     7
370
     9
100
AcDbPolyline
 90
        2
 70
     0
 43
0.0
 10
-260.15
 20
-103.9262
 10
-259.8356
 20
-106.3796
  0
LWPOLYLINE
  5
2F8
330
1F
100
AcDbEntity
  8
Layer 1
 62
     7
370
     9
100
AcDbPolyline
 90
        2
 70
     0
 43
0.0
 10
-256.1304
 20
-116.8784
 10
-256.4329
 20
-114.4907
  0
LWPOLYLINE
  5
2F9
330
1F
100
AcDbEntity
  8
Layer 1
 62
     7
370
     9
100
AcDbPolyline
 90
        2
 70
     0
 43
0.0
 10
-265.3094
 20
-103.9262
 10
-265.0083
 20
-106.3796
  0
LWPOLYLINE
  5
2FA
330
1F
100
AcDbEntity
  8
Layer 1
 62
     7
370
     9
100
AcDbPolyline
 90
        2
 70
     0
 43
0.0
 10
-276.1208
 20
-106.3796
 10
-276.0315
 20
-103.9262
  0
LWPOLYLINE
  5
2FB
330
1F
100
AcDbEntity
  8
Layer 1
 62
     7
370
     9
100
AcDbPolyline
 90
        2
 70
     0
 43
0.0
 10
-275.988
 20
-104.8858
 10
-276.0434
 20
-106.3796
  0
LWPOLYLINE
  5
2FC
330
1F
100
AcDbEntity
  8
Layer 1
 62
     7
370
     9
100
AcDbPolyline
 90
        2
 70
     0
 43
0.0
 10
-277.531
 20
-114.9973
 10
-277.6454
 20
-116.8784
  0
LWPOLYLINE
  5
2FD
330
1F
100
AcDbEntity
  8
Layer 1
 62
     7
370
     9
100
AcDbPolyline
 90
        2
 70
     0
 43
0.0
 10
-273.8344
 20
-106.3796
 10
-273.6559
 20
-103.9262
  0
LWPOLYLINE
  5
2FE
330
1F
100
AcDbEntity
  8
Layer 1
 62
     7
370
     9
100
AcDbPolyline
 90
        2
 70
     0
 43
0.0
 10
-273.6257
 20
-104.3553
 10
-273.7704
 20
-106.3796
  0
LWPOLYLINE
  5
2FF
330
1F
100
AcDbEntity
  8
Layer 1
 62
     7
370
     9
100
AcDbPolyline
 90
        2
 70
     0
 43
0.0
 10
-254.992
 20
-103.9262
 10
-254.6945
 20
-106.3796
  0
LWPOLYLINE
  5
300
330
1F
100
AcDbEntity
  8
Layer 1
 62
     7
370
     9
100
AcDbPolyline
 90
        2
 70
     0
 43
0.0
 10
-251.4383
 20
-116.8784
 10
-251.7024
 20
-114.5777
  0
LWPOLYLINE
  5
301
330
1F
100
AcDbEntity
  8
Layer 1
 62
     7
370
     9
100
AcDbPolyline
 90
        2
 70
     0
 43
0.0
 10
-250.1301
 20
-106.3796
 10
-250.359
 20
-104.1516
  0
LWPOLYLINE
  5
302
330
1F
100
AcDbEntity
  8
Layer 1
 62
     7
370
     9
100
AcDbPolyline
 90
        2
 70
     0
 43
0.0
 10
-250.3338
 20
-103.9262
 10
-250.088
 20
-106.3796
  0
LWPOLYLINE
  5
303
330
1F
100
AcDbEntity
  8
Layer 1
 62
     7
370
     9
100
AcDbPolyline
 90
        2
 70
     0
 43
0.0
 10
-247.2909
 20
-116.8784
 10
-247.5079
 20
-114.6864
  0
LWPOLYLINE
  5
304
330
1F
100
AcDbEntity
  8
Layer 1
 62
     7
370
     9
100
AcDbPolyline
 90
        2
 70
     0
 43
0.0
 10
-243.9509
 20
-116.8784
 10
-244.1002
 20
-114.8541
  0
LWPOLYLINE
  5
305
330
1F
100
AcDbEntity
  8
Layer 1
 62
     7
370
     9
100
AcDbPolyline
 90
        2
 70
     0
 43
0.0
 10
-246.5261
 20
-106.3796
 10
-246.6757
 20
-104.3553
  0
LWPOLYLINE
  5
306
330
1F
100
AcDbEntity
  8
Layer 1
 62
     7
370
     9
100
AcDbPolyline
 90
        2
 70
     0
 43
0.0
 10
-246.6419
 20
-103.9262
 10
-246.4624
 20
-106.3796
  0
LWPOLYLINE
  5
307
330
1F
100
AcDbEntity
  8
Layer 1
 62
     7
370
     9
100
AcDbPolyline
 90
        2
 70
     0
 43
0.0
 10
-274.6075
 20
-114.7607
 10
-274.7906
 20
-116.8837
  0
LWPOLYLINE
  5
308
330
1F
100
AcDbEntity
  8
Layer 1
 62
     7
370
     9
100
AcDbPolyline
 90
        2
 70
     0
 43
0.0
 10
-270.2134
 20
-106.3796
 10
-269.9626
 20
-103.9262
  0
LWPOLYLINE
  5
309
330
1F
100
AcDbEntity
  8
Layer 1
 62
     7
370
     9
100
AcDbPolyline
 90
        2
 70
     0
 43
0.0
 10
-269.9374
 20
-104.1516
 10
-270.1626
 20
-106.3796
  0
LWPOLYLINE
  5
30A
330
1F
100
AcDbEntity
  8
Layer 1
 62
     7
370
     9
100
AcDbPolyline
 90
        2
 70
     0
 43
0.0
 10
-270.7783
 20
-114.6222
 10
-271.0167
 20
-116.8784
  0
LWPOLYLINE
  5
30B
330
1F
100
AcDbEntity
  8
Layer 1
 62
     7
370
     9
100
AcDbPolyline
 90
        2
 70
     0
 43
0.0
 10
-279.5752
 20
-117.6518
 10
-279.6475
 20
-118.0205
  0
LWPOLYLINE
  5
30C
330
1F
100
AcDbEntity
  8
Layer 1
 62
     7
370
     9
100
AcDbPolyline
 90
        2
 70
     0
 43
0.0
 10
-240.3986
 20
-117.6518
 10
-240.4755
 20
-116.8837
  0
LWPOLYLINE
  5
30D
330
1F
100
AcDbEntity
  8
Layer 1
 62
     7
370
     9
100
AcDbPolyline
 90
        2
 70
     0
 43
0.0
 10
-241.6308
 20
-116.8784
 10
-241.7077
 20
-115.219
  0
LWPOLYLINE
  5
30E
330
1F
100
AcDbEntity
  8
Layer 1
 62
     7
370
     9
100
AcDbPolyline
 90
        2
 70
     0
 43
0.0
 10
-244.2485
 20
-106.3796
 10
-244.3084
 20
-104.8858
  0
LWPOLYLINE
  5
30F
330
1F
100
AcDbEntity
  8
Layer 1
 62
     7
370
     9
100
AcDbPolyline
 90
        2
 70
     0
 43
0.0
 10
-244.27
 20
-103.9262
 10
-244.1761
 20
-106.3796
  0
LWPOLYLINE
  5
310
330
1F
100
AcDbEntity
  8
Layer 1
 62
     7
370
     9
100
AcDbPolyline
 90
        2
 70
     0
 43
0.0
 10
-243.5353
 20
-102.3544
 10
-243.5353
 20
-102.8169
  0
LWPOLYLINE
  5
311
330
1F
100
AcDbEntity
  8
Layer 1
 62
     7
370
     9
100
AcDbPolyline
 90
        2
 70
     0
 43
0.0
 10
-243.5353
 20
-109.1132
 10
-243.5353
 20
-109.57
  0
LWPOLYLINE
  5
312
330
1F
100
AcDbEntity
  8
Layer 1
 62
     7
370
     9
100
AcDbPolyline
 90
        2
 70
     0
 43
0.0
 10
-243.4543
 20
-111.5996
 10
-243.4543
 20
-109.57
  0
LWPOLYLINE
  5
313
330
1F
100
AcDbEntity
  8
Layer 1
 62
     7
370
     9
100
AcDbPolyline
 90
        2
 70
     0
 43
0.0
 10
-243.4543
 20
-109.1132
 10
-243.4543
 20
-107.004
  0
LWPOLYLINE
  5
314
330
1F
100
AcDbEntity
  8
Layer 1
 62
     7
370
     9
100
AcDbPolyline
 90
        2
 70
     0
 43
0.0
 10
-243.458
 20
-105.5601
 10
-243.4543
 20
-102.8169
  0
LWPOLYLINE
  5
315
330
1F
100
AcDbEntity
  8
Layer 1
 62
     7
370
     9
100
AcDbPolyline
 90
        2
 70
     0
 43
0.0
 10
-243.458
 20
-106.3796
 10
-243.458
 20
-105.5601
  0
LWPOLYLINE
  5
316
330
1F
100
AcDbEntity
  8
Layer 1
 62
     7
370
     9
100
AcDbPolyline
 90
        2
 70
     0
 43
0.0
 10
-265.6019
 20
-106.3796
 10
-265.3094
 20
-103.9262
  0
LWPOLYLINE
  5
317
330
1F
100
AcDbEntity
  8
Layer 1
 62
     7
370
     9
100
AcDbPolyline
 90
        2
 70
     0
 43
0.0
 10
-266.278
 20
-114.5352
 10
-266.5586
 20
-116.8784
  0
LWPOLYLINE
  5
318
330
1F
100
AcDbEntity
  8
Layer 1
 62
     7
370
     9
100
AcDbPolyline
 90
        2
 70
     0
 43
0.0
 10
-261.3955
 20
-114.4456
 10
-261.7054
 20
-116.8784
  0
LWPOLYLINE
  5
319
330
1F
100
AcDbEntity
  8
Layer 1
 62
     7
370
     9
100
AcDbPolyline
 90
        2
 70
     0
 43
0.0
 10
-260.4608
 20
-106.3796
 10
-260.15
 20
-103.9262
  0
LWPOLYLINE
  5
31A
330
1F
100
AcDbEntity
  8
Layer 1
 62
     7
370
     9
100
AcDbPolyline
 90
        2
 70
     0
 43
0.0
 10
-279.3971
 20
-116.8784
 10
-279.5752
 20
-117.647
  0
LWPOLYLINE
  5
31B
330
1F
100
AcDbEntity
  8
Layer 1
 62
     7
370
     9
100
AcDbPolyline
 90
        2
 70
     0
 43
0.0
 10
-276.2686
 20
-107.1473
 10
-276.3748
 20
-107.6098
  0
LWPOLYLINE
  5
31C
330
1F
100
AcDbEntity
  8
Layer 1
 62
     7
370
     9
100
AcDbPolyline
 90
        2
 70
     0
 43
0.0
 10
-276.5277
 20
-107.9143
 10
-276.3459
 20
-107.1473
  0
LWPOLYLINE
  5
31D
330
1F
100
AcDbEntity
  8
Layer 1
 62
     7
370
     9
100
AcDbPolyline
 90
        2
 70
     0
 43
0.0
 10
-246.5261
 20
170.0252
 10
-246.6757
 20
172.0495
  0
LWPOLYLINE
  5
31E
330
1F
100
AcDbEntity
  8
Layer 1
 62
     7
370
     9
100
AcDbPolyline
 90
        2
 70
     0
 43
0.0
 10
-244.2485
 20
170.0252
 10
-244.3084
 20
171.518
  0
LWPOLYLINE
  5
31F
330
1F
100
AcDbEntity
  8
Layer 1
 62
     7
370
     9
100
AcDbPolyline
 90
        2
 70
     0
 43
0.0
 10
-244.3675
 20
-106.3796
 10
-244.27
 20
-103.9262
  0
LWPOLYLINE
  5
320
330
1F
100
AcDbEntity
  8
Layer 1
 62
     7
370
     9
100
AcDbPolyline
 90
        2
 70
     0
 43
0.0
 10
-243.4969
 20
-107.1473
 10
-243.458
 20
-106.3796
  0
LWPOLYLINE
  5
321
330
1F
100
AcDbEntity
  8
Layer 1
 62
     7
370
     9
100
AcDbPolyline
 90
        2
 70
     0
 43
0.0
 10
-246.8286
 20
-106.3796
 10
-246.6419
 20
-103.9262
  0
LWPOLYLINE
  5
322
330
1F
100
AcDbEntity
  8
Layer 1
 62
     7
370
     9
100
AcDbPolyline
 90
        2
 70
     0
 43
0.0
 10
-243.5724
 20
-107.9143
 10
-243.4969
 20
-107.1473
  0
LWPOLYLINE
  5
323
330
1F
100
AcDbEntity
  8
Layer 1
 62
     7
370
     9
100
AcDbPolyline
 90
        2
 70
     0
 43
0.0
 10
-250.5929
 20
-106.3796
 10
-250.3338
 20
-103.9262
  0
LWPOLYLINE
  5
324
330
1F
100
AcDbEntity
  8
Layer 1
 62
     7
370
     9
100
AcDbPolyline
 90
        2
 70
     0
 43
0.0
 10
-255.2895
 20
-106.3796
 10
-254.992
 20
-103.9262
  0
LWPOLYLINE
  5
325
330
1F
100
AcDbEntity
  8
Layer 1
 62
     7
370
     9
100
AcDbPolyline
 90
        2
 70
     0
 43
0.0
 10
-276.0434
 20
-106.3796
 10
-276.2686
 20
-107.1473
  0
LWPOLYLINE
  5
326
330
1F
100
AcDbEntity
  8
Layer 1
 62
     7
370
     9
100
AcDbPolyline
 90
        2
 70
     0
 43
0.0
 10
-276.3459
 20
-107.1473
 10
-276.1208
 20
-106.3796
  0
LWPOLYLINE
  5
327
330
1F
100
AcDbEntity
  8
Layer 1
 62
     7
370
     9
100
AcDbPolyline
 90
        2
 70
     0
 43
0.0
 10
-250.1301
 20
170.0252
 10
-250.359
 20
172.2522
  0
LWPOLYLINE
  5
328
330
1F
100
AcDbEntity
  8
Layer 1
 62
     7
370
     9
100
AcDbPolyline
 90
        3
 70
     0
 43
0.0
 10
-243.5097
 20
-107.6151
 10
-243.4667
 20
-107.3043
 10
-243.4543
 20
-107.004
  0
LWPOLYLINE
  5
329
330
1F
100
AcDbEntity
  8
Layer 1
 62
     7
370
     9
100
AcDbPolyline
 90
        2
 70
     0
 43
0.0
 10
-276.5277
 20
-107.9143
 10
-276.3025
 20
-107.456
  0
LWPOLYLINE
  5
32A
330
1F
100
AcDbEntity
  8
Layer 1
 62
     7
370
     9
100
AcDbPolyline
 90
        2
 70
     0
 43
0.0
 10
-243.5724
 20
-107.9143
 10
-243.5097
 20
-107.6151
  0
LWPOLYLINE
  5
32B
330
1F
100
AcDbEntity
  8
Layer 1
 62
     7
370
     9
100
AcDbPolyline
 90
        3
 70
     0
 43
0.0
 10
-277.6417
 20
-116.8784
 10
-278.0203
 20
-117.647
 10
-278.2958
 20
-118.2672
  0
LWPOLYLINE
  5
32C
330
1F
100
AcDbEntity
  8
Layer 1
 62
     7
370
     9
100
AcDbPolyline
 90
        2
 70
     0
 43
0.0
 10
-274.2331
 20
-107.1473
 10
-274.5993
 20
-107.8013
  0
LWPOLYLINE
  5
32D
330
1F
100
AcDbEntity
  8
Layer 1
 62
     7
370
     9
100
AcDbPolyline
 90
        3
 70
     0
 43
0.0
 10
-274.727
 20
-107.9143
 10
-274.2967
 20
-107.1473
 10
-273.8344
 20
-106.3796
  0
LWPOLYLINE
  5
32E
330
1F
100
AcDbEntity
  8
Layer 1
 62
     7
370
     9
100
AcDbPolyline
 90
        2
 70
     0
 43
0.0
 10
-273.774
 20
-106.3796
 10
-274.2331
 20
-107.1473
  0
LWPOLYLINE
  5
32F
330
1F
100
AcDbEntity
  8
Layer 1
 62
     7
370
     9
100
AcDbPolyline
 90
        2
 70
     0
 43
0.0
 10
-276.3025
 20
-107.456
 10
-276.0228
 20
-107.004
  0
LWPOLYLINE
  5
330
330
1F
100
AcDbEntity
  8
Layer 1
 62
     7
370
     9
100
AcDbPolyline
 90
        2
 70
     0
 43
0.0
 10
-275.376
 20
168.6661
 10
-275.6099
 20
168.942
  0
LWPOLYLINE
  5
331
330
1F
100
AcDbEntity
  8
Layer 1
 62
     7
370
     9
100
AcDbPolyline
 90
        2
 70
     0
 43
0.0
 10
-275.6145
 20
168.942
 10
-275.9541
 20
169.3998
  0
LWPOLYLINE
  5
332
330
1F
100
AcDbEntity
  8
Layer 1
 62
     7
370
     9
100
AcDbPolyline
 90
        2
 70
     0
 43
0.0
 10
-244.0315
 20
169.2507
 10
-244.2485
 20
170.0252
  0
LWPOLYLINE
  5
333
330
1F
100
AcDbEntity
  8
Layer 1
 62
     7
370
     9
100
AcDbPolyline
 90
        2
 70
     0
 43
0.0
 10
-243.9171
 20
168.794
 10
-244.0315
 20
169.247
  0
LWPOLYLINE
  5
334
330
1F
100
AcDbEntity
  8
Layer 1
 62
     7
370
     9
100
AcDbPolyline
 90
        3
 70
     0
 43
0.0
 10
-240.513
 20
-117.5038
 10
-240.6577
 20
-117.9616
 10
-240.6961
 20
-118.0518
  0
LWPOLYLINE
  5
335
330
1F
100
AcDbEntity
  8
Layer 1
 62
     7
370
     9
100
AcDbPolyline
 90
        2
 70
     0
 43
0.0
 10
-244.665
 20
-107.1473
 10
-244.3675
 20
-106.3796
  0
LWPOLYLINE
  5
336
330
1F
100
AcDbEntity
  8
Layer 1
 62
     7
370
     9
100
AcDbPolyline
 90
        2
 70
     0
 43
0.0
 10
-244.9964
 20
-107.9143
 10
-244.665
 20
-107.1473
  0
LWPOLYLINE
  5
337
330
1F
100
AcDbEntity
  8
Layer 1
 62
     7
370
     9
100
AcDbPolyline
 90
        3
 70
     0
 43
0.0
 10
-274.7906
 20
-116.8784
 10
-275.3422
 20
-117.647
 10
-275.8063
 20
-118.3319
  0
LWPOLYLINE
  5
338
330
1F
100
AcDbEntity
  8
Layer 1
 62
     7
370
     9
100
AcDbPolyline
 90
        3
 70
     0
 43
0.0
 10
-271.501
 20
-107.9143
 10
-270.8721
 20
-107.1473
 10
-270.2134
 20
-106.3796
  0
LWPOLYLINE
  5
339
330
1F
100
AcDbEntity
  8
Layer 1
 62
     7
370
     9
100
AcDbPolyline
 90
        3
 70
     0
 43
0.0
 10
-270.1626
 20
-106.3796
 10
-270.8217
 20
-107.1473
 10
-271.4072
 20
-107.856
  0
LWPOLYLINE
  5
33A
330
1F
100
AcDbEntity
  8
Layer 1
 62
     7
370
     9
100
AcDbPolyline
 90
        3
 70
     0
 43
0.0
 10
-263.3591
 20
168.4895
 10
-264.324
 20
168.942
 10
-265.2843
 20
169.3998
  0
LWPOLYLINE
  5
33B
330
1F
100
AcDbEntity
  8
Layer 1
 62
     7
370
     9
100
AcDbPolyline
 90
        2
 70
     0
 43
0.0
 10
-272.4526
 20
168.5765
 10
-272.9753
 20
168.942
  0
LWPOLYLINE
  5
33C
330
1F
100
AcDbEntity
  8
Layer 1
 62
     7
370
     9
100
AcDbPolyline
 90
        2
 70
     0
 43
0.0
 10
-272.9803
 20
168.942
 10
-273.5923
 20
169.3998
  0
LWPOLYLINE
  5
33D
330
1F
100
AcDbEntity
  8
Layer 1
 62
     7
370
     9
100
AcDbPolyline
 90
        2
 70
     0
 43
0.0
 10
-246.0638
 20
169.2507
 10
-246.5261
 20
170.0252
  0
LWPOLYLINE
  5
33E
330
1F
100
AcDbEntity
  8
Layer 1
 62
     7
370
     9
100
AcDbPolyline
 90
        2
 70
     0
 43
0.0
 10
-245.6976
 20
168.602
 10
-246.0674
 20
169.2507
  0
LWPOLYLINE
  5
33F
330
1F
100
AcDbEntity
  8
Layer 1
 62
     7
370
     9
100
AcDbPolyline
 90
        2
 70
     0
 43
0.0
 10
-247.3513
 20
-107.1473
 10
-246.8286
 20
-106.3796
  0
LWPOLYLINE
  5
340
330
1F
100
AcDbEntity
  8
Layer 1
 62
     7
370
     9
100
AcDbPolyline
 90
        2
 70
     0
 43
0.0
 10
-247.9079
 20
-107.9143
 10
-247.3513
 20
-107.1473
  0
LWPOLYLINE
  5
341
330
1F
100
AcDbEntity
  8
Layer 1
 62
     7
370
     9
100
AcDbPolyline
 90
        3
 70
     0
 43
0.0
 10
-271.0167
 20
-116.8784
 10
-271.7047
 20
-117.647
 10
-272.3382
 20
-118.3658
  0
LWPOLYLINE
  5
342
330
1F
100
AcDbEntity
  8
Layer 1
 62
     7
370
     9
100
AcDbPolyline
 90
        3
 70
     0
 43
0.0
 10
-267.1586
 20
-107.9143
 10
-266.3933
 20
-107.1473
 10
-265.6019
 20
-106.3796
  0
LWPOLYLINE
  5
343
330
1F
100
AcDbEntity
  8
Layer 1
 62
     7
370
     9
100
AcDbPolyline
 90
        3
 70
     0
 43
0.0
 10
-266.5586
 20
-116.8784
 10
-267.3486
 20
-117.647
 10
-268.1015
 20
-118.395
  0
LWPOLYLINE
  5
344
330
1F
100
AcDbEntity
  8
Layer 1
 62
     7
370
     9
100
AcDbPolyline
 90
        2
 70
     0
 43
0.0
 10
-262.1352
 20
-107.9143
 10
-260.4608
 20
-106.3796
  0
LWPOLYLINE
  5
345
330
1F
100
AcDbEntity
  8
Layer 1
 62
     7
370
     9
100
AcDbPolyline
 90
        2
 70
     0
 43
0.0
 10
-274.727
 20
-107.9143
 10
-274.2125
 20
-107.456
  0
LWPOLYLINE
  5
346
330
1F
100
AcDbEntity
  8
Layer 1
 62
     7
370
     9
100
AcDbPolyline
 90
        2
 70
     0
 43
0.0
 10
-274.2125
 20
-107.456
 10
-273.6514
 20
-107.004
  0
LWPOLYLINE
  5
347
330
1F
100
AcDbEntity
  8
Layer 1
 62
     7
370
     9
100
AcDbPolyline
 90
        3
 70
     0
 43
0.0
 10
-271.501
 20
-107.9143
 10
-270.7531
 20
-107.456
 10
-269.9626
 20
-107.004
  0
LWPOLYLINE
  5
348
330
1F
100
AcDbEntity
  8
Layer 1
 62
     7
370
     9
100
AcDbPolyline
 90
        3
 70
     0
 43
0.0
 10
-267.1586
 20
-107.9143
 10
-266.2441
 20
-107.456
 10
-265.3094
 20
-107.004
  0
LWPOLYLINE
  5
349
330
1F
100
AcDbEntity
  8
Layer 1
 62
     7
370
     9
100
AcDbPolyline
 90
        2
 70
     0
 43
0.0
 10
-262.1352
 20
-107.9143
 10
-260.15
 20
-107.004
  0
LWPOLYLINE
  5
34A
330
1F
100
AcDbEntity
  8
Layer 1
 62
     7
370
     9
100
AcDbPolyline
 90
        2
 70
     0
 43
0.0
 10
-264.9611
 20
201.7516
 10
-274.1654
 20
201.7516
  0
LWPOLYLINE
  5
34B
330
1F
100
AcDbEntity
  8
Layer 1
 62
     7
370
     9
100
AcDbPolyline
 90
        2
 70
     0
 43
0.0
 10
-264.9181
 20
201.7516
 10
-255.3788
 20
201.7516
  0
LWPOLYLINE
  5
34C
330
1F
100
AcDbEntity
  8
Layer 1
 62
     7
370
     9
100
AcDbPolyline
 90
        2
 70
     0
 43
0.0
 10
-249.4761
 20
169.2507
 10
-250.1338
 20
170.0252
  0
LWPOLYLINE
  5
34D
330
1F
100
AcDbEntity
  8
Layer 1
 62
     7
370
     9
100
AcDbPolyline
 90
        2
 70
     0
 43
0.0
 10
-248.8897
 20
168.5473
 10
-249.4761
 20
169.247
  0
LWPOLYLINE
  5
34E
330
1F
100
AcDbEntity
  8
Layer 1
 62
     7
370
     9
100
AcDbPolyline
 90
        2
 70
     0
 43
0.0
 10
-244.3505
 20
-107.004
 10
-244.6819
 20
-107.456
  0
LWPOLYLINE
  5
34F
330
1F
100
AcDbEntity
  8
Layer 1
 62
     7
370
     9
100
AcDbPolyline
 90
        3
 70
     0
 43
0.0
 10
-241.7466
 20
-117.5038
 10
-242.1365
 20
-117.9616
 10
-242.4171
 20
-118.2672
  0
LWPOLYLINE
  5
350
330
1F
100
AcDbEntity
  8
Layer 1
 62
     7
370
     9
100
AcDbPolyline
 90
        3
 70
     0
 43
0.0
 10
-244.9964
 20
-107.9143
 10
-244.6059
 20
-107.456
 10
-244.27
 20
-107.004
  0
LWPOLYLINE
  5
351
330
1F
100
AcDbEntity
  8
Layer 1
 62
     7
370
     9
100
AcDbPolyline
 90
        2
 70
     0
 43
0.0
 10
-244.6819
 20
-107.456
 10
-244.924
 20
-107.7334
  0
LWPOLYLINE
  5
352
330
1F
100
AcDbEntity
  8
Layer 1
 62
     7
370
     9
100
AcDbPolyline
 90
        2
 70
     0
 43
0.0
 10
-251.2905
 20
-107.1473
 10
-250.5929
 20
-106.3796
  0
LWPOLYLINE
  5
353
330
1F
100
AcDbEntity
  8
Layer 1
 62
     7
370
     9
100
AcDbPolyline
 90
        2
 70
     0
 43
0.0
 10
-252.0132
 20
-107.9143
 10
-251.2905
 20
-107.1473
  0
LWPOLYLINE
  5
354
330
1F
100
AcDbEntity
  8
Layer 1
 62
     7
370
     9
100
AcDbPolyline
 90
        2
 70
     0
 43
0.0
 10
-256.1002
 20
-107.1473
 10
-255.2895
 20
-106.3796
  0
LWPOLYLINE
  5
355
330
1F
100
AcDbEntity
  8
Layer 1
 62
     7
370
     9
100
AcDbPolyline
 90
        2
 70
     0
 43
0.0
 10
-256.9172
 20
-107.9143
 10
-256.1052
 20
-107.1473
  0
LWPOLYLINE
  5
356
330
1F
100
AcDbEntity
  8
Layer 1
 62
     7
370
     9
100
AcDbPolyline
 90
        2
 70
     0
 43
0.0
 10
-261.7054
 20
-116.8784
 10
-263.3673
 20
-118.4205
  0
LWPOLYLINE
  5
357
330
1F
100
AcDbEntity
  8
Layer 1
 62
     7
370
     9
100
AcDbPolyline
 90
        3
 70
     0
 43
0.0
 10
-244.134
 20
-117.5038
 10
-244.7423
 20
-117.9616
 10
-245.2554
 20
-118.3271
  0
LWPOLYLINE
  5
358
330
1F
100
AcDbEntity
  8
Layer 1
 62
     7
370
     9
100
AcDbPolyline
 90
        2
 70
     0
 43
0.0
 10
-246.7092
 20
-107.004
 10
-247.3129
 20
-107.456
  0
LWPOLYLINE
  5
359
330
1F
100
AcDbEntity
  8
Layer 1
 62
     7
370
     9
100
AcDbPolyline
 90
        3
 70
     0
 43
0.0
 10
-247.9079
 20
-107.9143
 10
-247.2538
 20
-107.456
 10
-246.6419
 20
-107.004
  0
LWPOLYLINE
  5
35A
330
1F
100
AcDbEntity
  8
Layer 1
 62
     7
370
     9
100
AcDbPolyline
 90
        2
 70
     0
 43
0.0
 10
-247.3129
 20
-107.456
 10
-247.8438
 20
-107.8273
  0
LWPOLYLINE
  5
35B
330
1F
100
AcDbEntity
  8
Layer 1
 62
     7
370
     9
100
AcDbPolyline
 90
        3
 70
     0
 43
0.0
 10
-247.5298
 20
-117.5038
 10
-248.3148
 20
-117.9616
 10
-249.0257
 20
-118.3563
  0
LWPOLYLINE
  5
35C
330
1F
100
AcDbEntity
  8
Layer 1
 62
     7
370
     9
100
AcDbPolyline
 90
        3
 70
     0
 43
0.0
 10
-252.0118
 20
-107.9164
 10
-251.1614
 20
-107.4581
 10
-250.3329
 20
-106.9998
  0
LWPOLYLINE
  5
35D
330
1F
100
AcDbEntity
  8
Layer 1
 62
     7
370
     9
100
AcDbPolyline
 90
        3
 70
     0
 43
0.0
 10
-251.723
 20
-117.5038
 10
-252.6325
 20
-117.9616
 10
-253.4985
 20
-118.3818
  0
LWPOLYLINE
  5
35E
330
1F
100
AcDbEntity
  8
Layer 1
 62
     7
370
     9
100
AcDbPolyline
 90
        2
 70
     0
 43
0.0
 10
-255.0163
 20
-106.9998
 10
-255.9715
 20
-107.4581
  0
LWPOLYLINE
  5
35F
330
1F
100
AcDbEntity
  8
Layer 1
 62
     7
370
     9
100
AcDbPolyline
 90
        2
 70
     0
 43
0.0
 10
-255.9715
 20
-107.4581
 10
-256.941
 20
-107.9164
  0
LWPOLYLINE
  5
360
330
1F
100
AcDbEntity
  8
Layer 1
 62
     7
370
     9
100
AcDbPolyline
 90
        3
 70
     0
 43
0.0
 10
-256.9158
 20
-107.9164
 10
-255.9509
 20
-107.4581
 10
-254.9906
 20
-106.9998
  0
LWPOLYLINE
  5
361
330
1F
100
AcDbEntity
  8
Layer 1
 62
     7
370
     9
100
AcDbPolyline
 90
       87
 70
     1
 43
0.0
 10
-347.4762
 20
216.6854
 10
-339.9912
 20
216.6854
 10
-339.9912
 20
217.9532
 10
-344.8352
 20
217.9532
 10
-341.1321
 20
222.2092
 10
-340.8903
 20
222.5156
 10
-340.6808
 20
222.8373
 10
-340.5035
 20
223.1743
 10
-340.3585
 20
223.5265
 10
-340.2457
 20
223.894
 10
-340.1651
 20
224.2768
 10
-340.1168
 20
224.6749
 10
-340.1007
 20
225.0882
 10
-340.1172
 20
225.511
 10
-340.1666
 20
225.9168
 10
-340.2491
 20
226.3057
 10
-340.3645
 20
226.6775
 10
-340.5128
 20
227.0324
 10
-340.6942
 20
227.3702
 10
-340.9085
 20
227.691
 10
-341.1558
 20
227.9948
 10
-341.4305
 20
228.2771
 10
-341.7173
 20
228.5218
 10
-342.0164
 20
228.7289
 10
-342.3276
 20
228.8983
 10
-342.651
 20
229.03
 10
-342.9866
 20
229.1241
 10
-343.3344
 20
229.1806
 10
-343.6943
 20
229.1994
 10
-344.0684
 20
229.1796
 10
-344.4286
 20
229.1201
 10
-344.7747
 20
229.0211
 10
-345.107
 20
228.8824
 10
-345.4253
 20
228.7041
 10
-345.7296
 20
228.4861
 10
-346.0201
 20
228.2286
 10
-346.2966
 20
227.9315
 10
-346.5427
 20
227.6119
 10
-346.7539
 20
227.2756
 10
-346.9303
 20
226.9227
 10
-347.0718
 20
226.553
 10
-347.1784
 20
226.1666
 10
-347.2501
 20
225.7635
 10
-347.2869
 20
225.3437
 10
-347.2888
 20
224.9072
 10
-346.1791
 20
224.9072
 10
-346.1884
 20
225.1903
 10
-346.1713
 20
225.4669
 10
-346.1278
 20
225.7369
 10
-346.058
 20
226.0005
 10
-345.9617
 20
226.2576
 10
-345.8391
 20
226.5082
 10
-345.6902
 20
226.7523
 10
-345.5149
 20
226.99
 10
-345.3274
 20
227.2021
 10
-345.1302
 20
227.386
 10
-344.9232
 20
227.5415
 10
-344.7065
 20
227.6688
 10
-344.48
 20
227.7679
 10
-344.2437
 20
227.8386
 10
-343.9975
 20
227.881
 10
-343.7415
 20
227.8952
 10
-343.4904
 20
227.8825
 10
-343.2487
 20
227.8443
 10
-343.0166
 20
227.7807
 10
-342.7941
 20
227.6916
 10
-342.581
 20
227.577
 10
-342.3776
 20
227.4369
 10
-342.1836
 20
227.2713
 10
-341.9992
 20
227.0802
 10
-341.8289
 20
226.8691
 10
-341.6814
 20
226.6478
 10
-341.5564
 20
226.4164
 10
-341.4542
 20
226.1748
 10
-341.3746
 20
225.923
 10
-341.3178
 20
225.661
 10
-341.2837
 20
225.3888
 10
-341.2723
 20
225.1064
 10
-341.2833
 20
224.8177
 10
-341.3163
 20
224.5404
 10
-341.3712
 20
224.2744
 10
-341.4482
 20
224.0197
 10
-341.5471
 20
223.7763
 10
-341.668
 20
223.5443
 10
-341.8108
 20
223.3236
 10
-341.9756
 20
223.1143
 10
-347.4762
 20
216.6854
  0
LWPOLYLINE
  5
362
330
1F
100
AcDbEntity
  8
Layer 1
 62
     7
370
     9
100
AcDbPolyline
 90
       87
 70
     1
 43
0.0
 10
-337.8661
 20
216.6854
 10
-330.3811
 20
216.6854
 10
-330.3811
 20
217.9532
 10
-335.2251
 20
217.9532
 10
-331.5221
 20
222.2092
 10
-331.2803
 20
222.5156
 10
-331.0708
 20
222.8373
 10
-330.8935
 20
223.1743
 10
-330.7485
 20
223.5265
 10
-330.6357
 20
223.894
 10
-330.5551
 20
224.2768
 10
-330.5068
 20
224.6749
 10
-330.4907
 20
225.0882
 10
-330.5072
 20
225.511
 10
-330.5566
 20
225.9168
 10
-330.639
 20
226.3057
 10
-330.7544
 20
226.6775
 10
-330.9028
 20
227.0324
 10
-331.0841
 20
227.3702
 10
-331.2984
 20
227.691
 10
-331.5457
 20
227.9948
 10
-331.8204
 20
228.2771
 10
-332.1072
 20
228.5218
 10
-332.4063
 20
228.7289
 10
-332.7175
 20
228.8983
 10
-333.0409
 20
229.03
 10
-333.3765
 20
229.1241
 10
-333.7243
 20
229.1806
 10
-334.0842
 20
229.1994
 10
-334.4583
 20
229.1796
 10
-334.8185
 20
229.1201
 10
-335.1647
 20
229.0211
 10
-335.4969
 20
228.8824
 10
-335.8152
 20
228.7041
 10
-336.1196
 20
228.4861
 10
-336.41
 20
228.2286
 10
-336.6866
 20
227.9315
 10
-336.9327
 20
227.6119
 10
-337.1439
 20
227.2756
 10
-337.3203
 20
226.9227
 10
-337.4617
 20
226.553
 10
-337.5683
 20
226.1666
 10
-337.64
 20
225.7635
 10
-337.6768
 20
225.3437
 10
-337.6788
 20
224.9072
 10
-336.569
 20
224.9072
 10
-336.5783
 20
225.1903
 10
-336.5613
 20
225.4669
 10
-336.5178
 20
225.7369
 10
-336.4479
 20
226.0005
 10
-336.3517
 20
226.2576
 10
-336.2291
 20
226.5082
 10
-336.0801
 20
226.7523
 10
-335.9048
 20
226.99
 10
-335.7173
 20
227.2021
 10
-335.5201
 20
227.386
 10
-335.313
 20
227.5415
 10
-335.0963
 20
227.6688
 10
-334.8697
 20
227.7679
 10
-334.6334
 20
227.8386
 10
-334.3873
 20
227.881
 10
-334.1314
 20
227.8952
 10
-333.8803
 20
227.8825
 10
-333.6386
 20
227.8443
 10
-333.4065
 20
227.7807
 10
-333.184
 20
227.6916
 10
-332.971
 20
227.577
 10
-332.7675
 20
227.4369
 10
-332.5736
 20
227.2713
 10
-332.3892
 20
227.0802
 10
-332.2189
 20
226.8691
 10
-332.0713
 20
226.6478
 10
-331.9463
 20
226.4164
 10
-331.8441
 20
226.1748
 10
-331.7645
 20
225.923
 10
-331.7077
 20
225.661
 10
-331.6736
 20
225.3888
 10
-331.6622
 20
225.1064
 10
-331.6732
 20
224.8177
 10
-331.7062
 20
224.5404
 10
-331.7611
 20
224.2744
 10
-331.8381
 20
224.0197
 10
-331.937
 20
223.7763
 10
-332.0579
 20
223.5443
 10
-332.2007
 20
223.3236
 10
-332.3655
 20
223.1143
 10
-337.8661
 20
216.6854
  0
LWPOLYLINE
  5
363
330
1F
100
AcDbEntity
  8
Layer 1
 62
     7
370
     9
100
AcDbPolyline
 90
        7
 70
     1
 43
0.0
 10
-326.9278
 20
216.6854
 10
-325.8341
 20
216.6854
 10
-325.8341
 20
229.1449
 10
-328.4596
 20
228.8192
 10
-328.4596
 20
227.7142
 10
-326.9278
 20
227.7142
 10
-326.9278
 20
216.6854
  0
LWPOLYLINE
  5
364
330
1F
100
AcDbEntity
  8
Layer 1
 62
     7
370
     9
100
AcDbPolyline
 90
        7
 70
     1
 43
0.0
 10
-346.1479
 20
56.3652
 10
-345.0542
 20
56.3652
 10
-345.0542
 20
68.8247
 10
-347.6797
 20
68.499
 10
-347.6797
 20
67.394
 10
-346.1479
 20
67.394
 10
-346.1479
 20
56.3652
  0
LWPOLYLINE
  5
365
330
1F
100
AcDbEntity
  8
Layer 1
 62
     7
370
     9
100
AcDbPolyline
 90
       73
 70
     1
 43
0.0
 10
-339.9993
 20
61.961
 10
-340.2485
 20
61.9743
 10
-340.4885
 20
62.0142
 10
-340.7192
 20
62.0807
 10
-340.9407
 20
62.1738
 10
-341.1528
 20
62.2936
 10
-341.3557
 20
62.4399
 10
-341.5493
 20
62.6128
 10
-341.7335
 20
62.8123
 10
-341.9002
 20
63.0279
 10
-342.0447
 20
63.2537
 10
-342.1669
 20
63.4897
 10
-342.267
 20
63.7359
 10
-342.3448
 20
63.9923
 10
-342.4004
 20
64.2589
 10
-342.4338
 20
64.5356
 10
-342.4449
 20
64.8225
 10
-342.4337
 20
65.1029
 10
-342.4
 20
65.3737
 10
-342.3438
 20
65.6349
 10
-342.2652
 20
65.8865
 10
-342.1641
 20
66.1284
 10
-342.0406
 20
66.3607
 10
-341.8945
 20
66.5833
 10
-341.726
 20
66.7963
 10
-341.5451
 20
66.9873
 10
-341.3539
 20
67.1528
 10
-341.1524
 20
67.2929
 10
-340.9407
 20
67.4075
 10
-340.7187
 20
67.4967
 10
-340.4865
 20
67.5603
 10
-340.244
 20
67.5986
 10
-339.9912
 20
67.6113
 10
-339.7435
 20
67.5981
 10
-339.5041
 20
67.5587
 10
-339.273
 20
67.4929
 10
-339.0501
 20
67.4008
 10
-338.8355
 20
67.2824
 10
-338.6292
 20
67.1377
 10
-338.4312
 20
66.9667
 10
-338.2414
 20
66.7694
 10
-338.0693
 20
66.5558
 10
-337.9201
 20
66.3318
 10
-337.7939
 20
66.0973
 10
-337.6906
 20
65.8523
 10
-337.6103
 20
65.5969
 10
-337.5529
 20
65.3311
 10
-337.5185
 20
65.0548
 10
-337.507
 20
64.768
 10
-337.5186
 20
64.4897
 10
-337.5534
 20
64.2203
 10
-337.6114
 20
63.96
 10
-337.6926
 20
63.7087
 10
-337.7969
 20
63.4665
 10
-337.9244
 20
63.2333
 10
-338.0751
 20
63.0091
 10
-338.249
 20
62.7941
 10
-338.335
 20
62.7014
 10
-338.4246
 20
62.6135
 10
-338.5178
 20
62.5304
 10
-338.6146
 20
62.4522
 10
-338.7151
 20
62.3788
 10
-338.8192
 20
62.3103
 10
-338.9269
 20
62.2466
 10
-339.0382
 20
62.1878
 10
-339.1523
 20
62.1347
 10
-339.2681
 20
62.0887
 10
-339.3856
 20
62.0497
 10
-339.5049
 20
62.0178
 10
-339.6259
 20
61.9929
 10
-339.7486
 20
61.9752
 10
-339.8731
 20
61.9646
 10
-339.9993
 20
61.961
  0
LWPOLYLINE
  5
366
330
1F
100
AcDbEntity
  8
Layer 1
 62
     7
370
     9
100
AcDbPolyline
 90
       69
 70
     1
 43
0.0
 10
-343.5541
 20
64.7317
 10
-343.537
 20
64.2957
 10
-343.4858
 20
63.8795
 10
-343.4003
 20
63.4832
 10
-343.2807
 20
63.1066
 10
-343.1269
 20
62.7498
 10
-342.9389
 20
62.4128
 10
-342.7168
 20
62.0955
 10
-342.4604
 20
61.7981
 10
-342.1984
 20
61.5476
 10
-341.918
 20
61.3279
 10
-341.6192
 20
61.1391
 10
-341.3022
 20
60.9811
 10
-340.9668
 20
60.8539
 10
-340.6132
 20
60.7576
 10
-340.2412
 20
60.6921
 10
-339.8511
 20
60.6574
 10
-339.5386
 20
60.8923
 10
-342.7885
 20
56.3652
 10
-341.3507
 20
56.3652
 10
-337.1945
 20
62.1784
 10
-337.0076
 20
62.4616
 10
-336.8457
 20
62.7564
 10
-336.7088
 20
63.0627
 10
-336.5968
 20
63.3807
 10
-336.5096
 20
63.7101
 10
-336.4474
 20
64.0512
 10
-336.4101
 20
64.4038
 10
-336.3977
 20
64.768
 10
-336.414
 20
65.1879
 10
-336.4631
 20
65.5916
 10
-336.5448
 20
65.9791
 10
-336.6593
 20
66.3505
 10
-336.8065
 20
66.7057
 10
-336.9864
 20
67.0448
 10
-337.1992
 20
67.3677
 10
-337.4447
 20
67.6746
 10
-337.715
 20
67.9569
 10
-337.9985
 20
68.2016
 10
-338.2951
 20
68.4087
 10
-338.6049
 20
68.5781
 10
-338.9278
 20
68.7098
 10
-339.2639
 20
68.8039
 10
-339.6132
 20
68.8604
 10
-339.9756
 20
68.8792
 10
-340.3434
 20
68.8605
 10
-340.6964
 20
68.8045
 10
-341.0348
 20
68.7111
 10
-341.3586
 20
68.5804
 10
-341.6677
 20
68.4123
 10
-341.9621
 20
68.2069
 10
-342.242
 20
67.9641
 10
-342.5072
 20
67.684
 10
-342.6252
 20
67.5407
 10
-342.7368
 20
67.3918
 10
-342.8421
 20
67.2372
 10
-342.9409
 20
67.077
 10
-343.0334
 20
66.9112
 10
-343.1196
 20
66.7397
 10
-343.1994
 20
66.5626
 10
-343.2728
 20
66.3798
 10
-343.3387
 20
66.1917
 10
-343.3958
 20
65.9984
 10
-343.4442
 20
65.8001
 10
-343.4837
 20
65.5966
 10
-343.5145
 20
65.388
 10
-343.5365
 20
65.1743
 10
-343.5497
 20
64.9556
 10
-343.5541
 20
64.7317
  0
LWPOLYLINE
  5
367
330
1F
100
AcDbEntity
  8
Layer 1
 62
     7
370
     9
100
AcDbPolyline
 90
       92
 70
     1
 43
0.0
 10
-330.7489
 20
67.2493
 10
-330.5684
 20
67.1072
 10
-330.4001
 20
66.9459
 10
-330.244
 20
66.7653
 10
-330.1002
 20
66.5656
 10
-329.9685
 20
66.3466
 10
-329.849
 20
66.1084
 10
-329.7418
 20
65.8509
 10
-329.6467
 20
65.5742
 10
-329.5408
 20
65.207
 10
-329.4489
 20
64.8344
 10
-329.3711
 20
64.4564
 10
-329.3074
 20
64.0732
 10
-329.2578
 20
63.6845
 10
-329.2224
 20
63.2906
 10
-329.2011
 20
62.8913
 10
-329.194
 20
62.4866
 10
-329.2408
 20
61.5902
 10
-329.295
 20
61.1033
 10
-329.3657
 20
60.6433
 10
-329.4531
 20
60.2101
 10
-329.557
 20
59.8039
 10
-329.6775
 20
59.4246
 10
-329.8147
 20
59.0722
 10
-329.9685
 20
58.7466
 10
-330.139
 20
58.448
 10
-330.2946
 20
58.2229
 10
-330.4584
 20
58.0279
 10
-330.6306
 20
57.8628
 10
-330.8111
 20
57.7278
 10
-330.9999
 20
57.6227
 10
-331.1969
 20
57.5477
 10
-331.4023
 20
57.5027
 10
-331.616
 20
57.4877
 10
-331.8545
 20
57.5026
 10
-332.0814
 20
57.5471
 10
-332.2969
 20
57.6214
 10
-332.5008
 20
57.7254
 10
-332.6932
 20
57.8592
 10
-332.8741
 20
58.0226
 10
-333.0435
 20
58.2157
 10
-333.2015
 20
58.4386
 10
-333.3327
 20
58.6582
 10
-333.4519
 20
58.8915
 10
-333.5593
 20
59.1382
 10
-333.6552
 20
59.3983
 10
-333.7396
 20
59.6673
 10
-333.8134
 20
59.9395
 10
-333.8763
 20
60.2151
 10
-333.9285
 20
60.4939
 10
-334.0616
 20
61.5808
 10
-334.1003
 20
62.791
 10
-334.0976
 20
62.9671
 10
-334.0896
 20
63.1534
 10
-334.0762
 20
63.3499
 10
-334.0575
 20
63.5567
 10
-334.0334
 20
63.7738
 10
-334.0038
 20
64.0013
 10
-333.9689
 20
64.2391
 10
-333.9285
 20
64.4874
 10
-333.8768
 20
64.763
 10
-333.8151
 20
65.0375
 10
-333.7437
 20
65.3108
 10
-333.6627
 20
65.583
 10
-333.5706
 20
65.8478
 10
-333.4658
 20
66.0991
 10
-333.3481
 20
66.3368
 10
-333.2176
 20
66.5608
 10
-333.1475
 20
66.6669
 10
-333.0739
 20
66.7675
 10
-332.997
 20
66.8628
 10
-332.9167
 20
66.9526
 10
-332.8329
 20
67.0371
 10
-332.7457
 20
67.1161
 10
-332.6551
 20
67.1898
 10
-332.561
 20
67.258
 10
-332.4632
 20
67.3197
 10
-332.3609
 20
67.3731
 10
-332.2542
 20
67.4183
 10
-332.1431
 20
67.4553
 10
-332.0276
 20
67.4841
 10
-331.9077
 20
67.5047
 10
-331.7834
 20
67.517
 10
-331.6547
 20
67.5211
 10
-331.5262
 20
67.5168
 10
-331.402
 20
67.5041
 10
-331.2822
 20
67.4828
 10
-331.1668
 20
67.4531
 10
-331.0557
 20
67.4148
 10
-330.949
 20
67.3681
 10
-330.8468
 20
67.3129
 10
-330.7489
 20
67.2493
  0
LWPOLYLINE
  5
368
330
1F
100
AcDbEntity
  8
Layer 1
 62
     7
370
     9
100
AcDbPolyline
 90
       65
 70
     1
 43
0.0
 10
-331.5999
 20
56.2023
 10
-331.1439
 20
56.2358
 10
-330.7169
 20
56.3364
 10
-330.3188
 20
56.5041
 10
-329.9498
 20
56.7388
 10
-329.6098
 20
57.0406
 10
-329.2989
 20
57.4095
 10
-329.0169
 20
57.8454
 10
-328.764
 20
58.3484
 10
-328.5864
 20
58.7872
 10
-328.4325
 20
59.2503
 10
-328.3023
 20
59.7378
 10
-328.1958
 20
60.2497
 10
-328.1129
 20
60.7859
 10
-328.0537
 20
61.3464
 10
-328.0182
 20
61.9313
 10
-328.0064
 20
62.5404
 10
-328.0182
 20
63.1498
 10
-328.0537
 20
63.7348
 10
-328.1129
 20
64.2953
 10
-328.1958
 20
64.8315
 10
-328.3023
 20
65.3434
 10
-328.4325
 20
65.8309
 10
-328.5864
 20
66.2941
 10
-328.764
 20
66.7331
 10
-329.0169
 20
67.2361
 10
-329.2989
 20
67.672
 10
-329.6098
 20
68.0409
 10
-329.9498
 20
68.3427
 10
-330.3188
 20
68.5774
 10
-330.7169
 20
68.7451
 10
-331.1439
 20
68.8457
 10
-331.5999
 20
68.8792
 10
-332.0563
 20
68.8457
 10
-332.4836
 20
68.7451
 10
-332.8818
 20
68.5774
 10
-333.2509
 20
68.3427
 10
-333.5909
 20
68.0409
 10
-333.9018
 20
67.672
 10
-334.1837
 20
67.2361
 10
-334.4364
 20
66.7331
 10
-334.614
 20
66.2941
 10
-334.768
 20
65.8309
 10
-334.8983
 20
65.3434
 10
-335.0049
 20
64.8315
 10
-335.0878
 20
64.2953
 10
-335.1471
 20
63.7348
 10
-335.1826
 20
63.1498
 10
-335.1945
 20
62.5404
 10
-335.1826
 20
61.9313
 10
-335.1471
 20
61.3464
 10
-335.0878
 20
60.7859
 10
-335.0049
 20
60.2497
 10
-334.8983
 20
59.7378
 10
-334.768
 20
59.2503
 10
-334.614
 20
58.7872
 10
-334.4364
 20
58.3484
 10
-334.1837
 20
57.8454
 10
-333.9018
 20
57.4095
 10
-333.5909
 20
57.0406
 10
-333.2509
 20
56.7388
 10
-332.8818
 20
56.5041
 10
-332.4836
 20
56.3364
 10
-332.0563
 20
56.2358
 10
-331.5999
 20
56.2023
  0
LWPOLYLINE
  5
369
330
1F
100
AcDbEntity
  8
Layer 1
 62
     7
370
     9
100
AcDbPolyline
 90
      136
 70
     1
 43
0.0
 10
-365.3369
 20
107.5219
 10
-364.618
 20
110.8182
 10
-360.7743
 20
110.8182
 10
-360.7743
 20
112.086
 10
-365.4459
 20
112.086
 10
-366.6652
 20
106.5622
 10
-365.4776
 20
105.9465
 10
-365.3054
 20
106.0824
 10
-365.1246
 20
106.2001
 10
-364.9353
 20
106.2997
 10
-364.7375
 20
106.3811
 10
-364.5311
 20
106.4445
 10
-364.3161
 20
106.4897
 10
-364.0925
 20
106.5169
 10
-363.8604
 20
106.5259
 10
-363.627
 20
106.5126
 10
-363.4013
 20
106.4728
 10
-363.1836
 20
106.4064
 10
-362.9736
 20
106.3134
 10
-362.7714
 20
106.1938
 10
-362.5771
 20
106.0476
 10
-362.3904
 20
105.8747
 10
-362.2116
 20
105.6752
 10
-362.0432
 20
105.4526
 10
-361.8972
 20
105.2219
 10
-361.7737
 20
104.9829
 10
-361.6726
 20
104.7357
 10
-361.5939
 20
104.4803
 10
-361.5377
 20
104.2167
 10
-361.5039
 20
103.9449
 10
-361.4927
 20
103.665
 10
-361.5042
 20
103.3753
 10
-361.5387
 20
103.0973
 10
-361.5961
 20
102.8308
 10
-361.6766
 20
102.576
 10
-361.7799
 20
102.3328
 10
-361.9063
 20
102.1013
 10
-362.0555
 20
101.8813
 10
-362.2277
 20
101.673
 10
-362.3151
 20
101.5803
 10
-362.4057
 20
101.4924
 10
-362.4996
 20
101.4093
 10
-362.5967
 20
101.331
 10
-362.6969
 20
101.2575
 10
-362.8003
 20
101.1889
 10
-362.9068
 20
101.125
 10
-363.0164
 20
101.066
 10
-363.1309
 20
101.013
 10
-363.2518
 20
100.967
 10
-363.3791
 20
100.9281
 10
-363.5128
 20
100.8964
 10
-363.6527
 20
100.8717
 10
-363.799
 20
100.854
 10
-363.9517
 20
100.8434
 10
-364.1106
 20
100.8399
 10
-364.2726
 20
100.8478
 10
-364.4343
 20
100.8716
 10
-364.5959
 20
100.9112
 10
-364.7572
 20
100.9667
 10
-364.9182
 20
101.0379
 10
-365.079
 20
101.125
 10
-365.2395
 20
101.228
 10
-365.3997
 20
101.3467
 10
-365.5539
 20
101.4783
 10
-365.6965
 20
101.6195
 10
-365.8274
 20
101.7703
 10
-365.9465
 20
101.9308
 10
-366.054
 20
102.1009
 10
-366.1497
 20
102.2806
 10
-366.2337
 20
102.47
 10
-366.306
 20
102.669
 10
-367.368
 20
102.2706
 10
-367.2637
 20
101.9725
 10
-367.1421
 20
101.6894
 10
-367.0032
 20
101.4212
 10
-366.8469
 20
101.1681
 10
-366.6733
 20
100.9299
 10
-366.4823
 20
100.7067
 10
-366.274
 20
100.4986
 10
-366.0483
 20
100.3055
 10
-365.8083
 20
100.1293
 10
-365.5629
 20
99.9766
 10
-365.3121
 20
99.8474
 10
-365.056
 20
99.7417
 10
-364.7945
 20
99.6595
 10
-364.5276
 20
99.6008
 10
-364.2552
 20
99.5655
 10
-363.9775
 20
99.5538
 10
-363.6077
 20
99.5732
 10
-363.252
 20
99.6313
 10
-362.9104
 20
99.7282
 10
-362.5831
 20
99.8639
 10
-362.2699
 20
100.0383
 10
-361.9709
 20
100.2515
 10
-361.686
 20
100.5035
 10
-361.4154
 20
100.7942
 10
-361.1698
 20
101.1099
 10
-360.9571
 20
101.4412
 10
-360.7771
 20
101.7881
 10
-360.6299
 20
102.1504
 10
-360.5155
 20
102.5284
 10
-360.4338
 20
102.9218
 10
-360.3847
 20
103.3308
 10
-360.3684
 20
103.7553
 10
-360.3845
 20
104.1777
 10
-360.4328
 20
104.5822
 10
-360.5134
 20
104.9688
 10
-360.6261
 20
105.3377
 10
-360.7711
 20
105.6887
 10
-360.9483
 20
106.0219
 10
-361.1577
 20
106.3373
 10
-361.3993
 20
106.6349
 10
-361.5227
 20
106.7672
 10
-361.6511
 20
106.8924
 10
-361.7844
 20
107.0105
 10
-361.9226
 20
107.1216
 10
-362.0657
 20
107.2256
 10
-362.2136
 20
107.3225
 10
-362.3664
 20
107.4123
 10
-362.5241
 20
107.495
 10
-362.6852
 20
107.5692
 10
-362.8477
 20
107.6336
 10
-363.0115
 20
107.6881
 10
-363.1767
 20
107.7327
 10
-363.3431
 20
107.7674
 10
-363.5109
 20
107.7922
 10
-363.6799
 20
107.807
 10
-363.8502
 20
107.812
 10
-364.0237
 20
107.8075
 10
-364.2006
 20
107.7939
 10
-364.381
 20
107.7713
 10
-364.565
 20
107.7396
 10
-364.7525
 20
107.6988
 10
-364.9436
 20
107.6489
 10
-365.1384
 20
107.5899
 10
-365.3369
 20
107.5219
  0
LWPOLYLINE
  5
36A
330
1F
100
AcDbEntity
  8
Layer 1
 62
     7
370
     9
100
AcDbPolyline
 90
       65
 70
     1
 43
0.0
 10
-358.5714
 20
110.5075
 10
-358.5616
 20
110.7563
 10
-358.5324
 20
110.9958
 10
-358.4837
 20
111.2261
 10
-358.4155
 20
111.4471
 10
-358.3279
 20
111.659
 10
-358.221
 20
111.8618
 10
-358.0947
 20
112.0554
 10
-357.9491
 20
112.2401
 10
-357.7898
 20
112.4077
 10
-357.6227
 20
112.5529
 10
-357.4478
 20
112.6758
 10
-357.2652
 20
112.7763
 10
-357.0748
 20
112.8544
 10
-356.8765
 20
112.9102
 10
-356.6704
 20
112.9437
 10
-356.4565
 20
112.9549
 10
-356.24
 20
112.9437
 10
-356.0317
 20
112.9102
 10
-355.8317
 20
112.8544
 10
-355.6399
 20
112.7763
 10
-355.4562
 20
112.6758
 10
-355.2806
 20
112.5529
 10
-355.1131
 20
112.4077
 10
-354.9537
 20
112.2401
 10
-354.8091
 20
112.0554
 10
-354.6838
 20
111.8618
 10
-354.5778
 20
111.659
 10
-354.491
 20
111.4471
 10
-354.4235
 20
111.2261
 10
-354.3754
 20
110.9958
 10
-354.3464
 20
110.7563
 10
-354.3368
 20
110.5075
 10
-354.3465
 20
110.2575
 10
-354.3758
 20
110.0169
 10
-354.4244
 20
109.7855
 10
-354.4926
 20
109.5635
 10
-354.5802
 20
109.3508
 10
-354.6872
 20
109.1474
 10
-354.8137
 20
108.9533
 10
-354.9596
 20
108.7685
 10
-355.1189
 20
108.5998
 10
-355.2861
 20
108.4534
 10
-355.4614
 20
108.3295
 10
-355.6446
 20
108.2281
 10
-355.8358
 20
108.1491
 10
-356.0348
 20
108.0927
 10
-356.2417
 20
108.0588
 10
-356.4565
 20
108.0475
 10
-356.6704
 20
108.0587
 10
-356.8765
 20
108.0922
 10
-357.0748
 20
108.1482
 10
-357.2652
 20
108.2264
 10
-357.4478
 20
108.3271
 10
-357.6227
 20
108.45
 10
-357.7898
 20
108.5953
 10
-357.9491
 20
108.7629
 10
-358.0947
 20
108.9475
 10
-358.221
 20
109.1415
 10
-358.3279
 20
109.345
 10
-358.4155
 20
109.5581
 10
-358.4837
 20
109.7808
 10
-358.5324
 20
110.0132
 10
-358.5616
 20
110.2554
 10
-358.5714
 20
110.5075
  0
LWPOLYLINE
  5
36B
330
1F
100
AcDbEntity
  8
Layer 1
 62
     7
370
     9
100
AcDbPolyline
 90
       65
 70
     1
 43
0.0
 10
-357.7429
 20
110.5012
 10
-357.737
 20
110.3491
 10
-357.7194
 20
110.2029
 10
-357.69
 20
110.0625
 10
-357.6488
 20
109.9278
 10
-357.5958
 20
109.7988
 10
-357.5309
 20
109.6753
 10
-357.4542
 20
109.5574
 10
-357.3655
 20
109.445
 10
-357.2682
 20
109.342
 10
-357.1661
 20
109.2529
 10
-357.0591
 20
109.1777
 10
-356.9471
 20
109.1162
 10
-356.8302
 20
109.0684
 10
-356.7082
 20
109.0344
 10
-356.5811
 20
109.014
 10
-356.449
 20
109.0072
 10
-356.3194
 20
109.014
 10
-356.1945
 20
109.0344
 10
-356.0742
 20
109.0684
 10
-355.9586
 20
109.1162
 10
-355.8476
 20
109.1777
 10
-355.7413
 20
109.2529
 10
-355.6397
 20
109.342
 10
-355.5427
 20
109.445
 10
-355.4538
 20
109.5574
 10
-355.3769
 20
109.6753
 10
-355.312
 20
109.7988
 10
-355.2589
 20
109.9278
 10
-355.2176
 20
110.0625
 10
-355.1882
 20
110.2029
 10
-355.1706
 20
110.3491
 10
-355.1647
 20
110.5012
 10
-355.1706
 20
110.6533
 10
-355.1882
 20
110.7995
 10
-355.2176
 20
110.9399
 10
-355.2589
 20
111.0747
 10
-355.312
 20
111.2038
 10
-355.3769
 20
111.3273
 10
-355.4538
 20
111.4454
 10
-355.5427
 20
111.558
 10
-355.6397
 20
111.6608
 10
-355.7413
 20
111.7497
 10
-355.8476
 20
111.8249
 10
-355.9586
 20
111.8863
 10
-356.0742
 20
111.934
 10
-356.1945
 20
111.968
 10
-356.3194
 20
111.9884
 10
-356.449
 20
111.9952
 10
-356.5811
 20
111.9884
 10
-356.7082
 20
111.968
 10
-356.8302
 20
111.934
 10
-356.9471
 20
111.8863
 10
-357.0591
 20
111.8249
 10
-357.1661
 20
111.7497
 10
-357.2682
 20
111.6608
 10
-357.3655
 20
111.558
 10
-357.4542
 20
111.4454
 10
-357.5309
 20
111.3273
 10
-357.5958
 20
111.2038
 10
-357.6488
 20
111.0747
 10
-357.69
 20
110.9399
 10
-357.7194
 20
110.7995
 10
-357.737
 20
110.6533
 10
-357.7429
 20
110.5012
  0
LWPOLYLINE
  5
36C
330
1F
100
AcDbEntity
  8
Layer 1
 62
     7
370
     9
100
AcDbPolyline
 90
       87
 70
     1
 43
0.0
 10
-432.6316
 20
-7.4672
 10
-432.6316
 20
1.2075
 10
-433.7258
 20
1.2075
 10
-433.7258
 20
-4.4065
 10
-437.3977
 20
-0.1143
 10
-437.6622
 20
0.1658
 10
-437.9398
 20
0.4086
 10
-438.2306
 20
0.614
 10
-438.5346
 20
0.7821
 10
-438.8517
 20
0.9128
 10
-439.1819
 20
1.0062
 10
-439.5254
 20
1.0622
 10
-439.882
 20
1.0809
 10
-440.2467
 20
1.0618
 10
-440.5968
 20
1.0044
 10
-440.9323
 20
0.9089
 10
-441.2531
 20
0.7751
 10
-441.5593
 20
0.6032
 10
-441.8508
 20
0.393
 10
-442.1277
 20
0.1446
 10
-442.3899
 20
-0.1419
 10
-442.6334
 20
-0.4602
 10
-442.8445
 20
-0.7927
 10
-443.0231
 20
-1.1393
 10
-443.1693
 20
-1.5
 10
-443.283
 20
-1.8749
 10
-443.3643
 20
-2.2639
 10
-443.413
 20
-2.667
 10
-443.4293
 20
-3.0842
 10
-443.4122
 20
-3.5177
 10
-443.3609
 20
-3.935
 10
-443.2753
 20
-4.3362
 10
-443.1556
 20
-4.7212
 10
-443.0017
 20
-5.09
 10
-442.8137
 20
-5.4427
 10
-442.5914
 20
-5.7793
 10
-442.3351
 20
-6.0998
 10
-442.0593
 20
-6.3852
 10
-441.7692
 20
-6.6301
 10
-441.4647
 20
-6.8345
 10
-441.1458
 20
-6.9985
 10
-440.8124
 20
-7.122
 10
-440.4647
 20
-7.2051
 10
-440.1024
 20
-7.2477
 10
-439.7257
 20
-7.2499
 10
-439.7257
 20
-5.9638
 10
-439.9699
 20
-5.9746
 10
-440.2085
 20
-5.9548
 10
-440.4415
 20
-5.9044
 10
-440.6689
 20
-5.8234
 10
-440.8907
 20
-5.7119
 10
-441.107
 20
-5.5698
 10
-441.3176
 20
-5.3972
 10
-441.5227
 20
-5.194
 10
-441.7058
 20
-4.9767
 10
-441.8645
 20
-4.7481
 10
-441.9987
 20
-4.5082
 10
-442.1086
 20
-4.257
 10
-442.194
 20
-3.9945
 10
-442.2551
 20
-3.7206
 10
-442.2917
 20
-3.4353
 10
-442.3039
 20
-3.1387
 10
-442.2929
 20
-2.8477
 10
-442.26
 20
-2.5677
 10
-442.2051
 20
-2.2988
 10
-442.1282
 20
-2.0409
 10
-442.0294
 20
-1.794
 10
-441.9085
 20
-1.5581
 10
-441.7656
 20
-1.3334
 10
-441.6006
 20
-1.1197
 10
-441.4184
 20
-0.9223
 10
-441.2275
 20
-0.7513
 10
-441.0278
 20
-0.6065
 10
-440.8193
 20
-0.488
 10
-440.6021
 20
-0.3958
 10
-440.376
 20
-0.3299
 10
-440.1412
 20
-0.2904
 10
-439.8975
 20
-0.2772
 10
-439.6485
 20
-0.2899
 10
-439.4092
 20
-0.3282
 10
-439.1797
 20
-0.3918
 10
-438.9599
 20
-0.481
 10
-438.7499
 20
-0.5956
 10
-438.5498
 20
-0.7357
 10
-438.3594
 20
-0.9012
 10
-438.1789
 20
-1.0921
 10
-432.6316
 20
-7.4672
  0
LWPOLYLINE
  5
36D
330
1F
100
AcDbEntity
  8
Layer 1
 62
     7
370
     9
100
AcDbPolyline
 90
      136
 70
     1
 43
0.0
 10
-439.3193
 20
5.7716
 10
-442.1633
 20
6.6047
 10
-442.1633
 20
11.0598
 10
-443.2575
 20
11.0598
 10
-443.2575
 20
5.645
 10
-438.4914
 20
4.2324
 10
-437.9598
 20
5.6087
 10
-438.077
 20
5.8082
 10
-438.1786
 20
6.0177
 10
-438.2645
 20
6.2371
 10
-438.3348
 20
6.4664
 10
-438.3895
 20
6.7057
 10
-438.4285
 20
6.9549
 10
-438.4519
 20
7.2139
 10
-438.4597
 20
7.4829
 10
-438.4482
 20
7.7534
 10
-438.4139
 20
8.0149
 10
-438.3566
 20
8.2673
 10
-438.2764
 20
8.5106
 10
-438.1732
 20
8.7448
 10
-438.047
 20
8.9701
 10
-437.8979
 20
9.1863
 10
-437.7258
 20
9.3935
 10
-437.5338
 20
9.5886
 10
-437.3347
 20
9.7578
 10
-437.1285
 20
9.901
 10
-436.9152
 20
10.0182
 10
-436.6949
 20
10.1094
 10
-436.4675
 20
10.1746
 10
-436.233
 20
10.2137
 10
-435.9915
 20
10.2267
 10
-435.7415
 20
10.2134
 10
-435.5015
 20
10.1735
 10
-435.2715
 20
10.107
 10
-435.0516
 20
10.0139
 10
-434.8418
 20
9.8941
 10
-434.642
 20
9.7478
 10
-434.4522
 20
9.5749
 10
-434.2724
 20
9.3754
 10
-434.1925
 20
9.2739
 10
-434.1167
 20
9.1688
 10
-434.045
 20
9.06
 10
-433.9774
 20
8.9475
 10
-433.914
 20
8.8313
 10
-433.8548
 20
8.7114
 10
-433.7997
 20
8.5879
 10
-433.7489
 20
8.4608
 10
-433.703
 20
8.3281
 10
-433.6633
 20
8.1881
 10
-433.6297
 20
8.0407
 10
-433.6023
 20
7.8858
 10
-433.5809
 20
7.7236
 10
-433.5657
 20
7.5541
 10
-433.5565
 20
7.3772
 10
-433.5535
 20
7.1929
 10
-433.5603
 20
7.0051
 10
-433.5809
 20
6.8177
 10
-433.6151
 20
6.6305
 10
-433.6629
 20
6.4436
 10
-433.7245
 20
6.257
 10
-433.7997
 20
6.0707
 10
-433.8885
 20
5.8846
 10
-433.991
 20
5.6989
 10
-434.1045
 20
5.5201
 10
-434.2263
 20
5.3549
 10
-434.3564
 20
5.2032
 10
-434.4949
 20
5.0651
 10
-434.6416
 20
4.9406
 10
-434.7967
 20
4.8296
 10
-434.9602
 20
4.7322
 10
-435.132
 20
4.6484
 10
-434.7883
 20
3.4175
 10
-434.531
 20
3.5384
 10
-434.2867
 20
3.6794
 10
-434.0553
 20
3.8405
 10
-433.8369
 20
4.0216
 10
-433.6314
 20
4.2229
 10
-433.4389
 20
4.4442
 10
-433.2593
 20
4.6857
 10
-433.0928
 20
4.9472
 10
-432.9407
 20
5.2254
 10
-432.8089
 20
5.5098
 10
-432.6974
 20
5.8004
 10
-432.6062
 20
6.0973
 10
-432.5353
 20
6.4004
 10
-432.4847
 20
6.7097
 10
-432.4543
 20
7.0252
 10
-432.4442
 20
7.347
 10
-432.4609
 20
7.7757
 10
-432.5111
 20
8.188
 10
-432.5946
 20
8.5839
 10
-432.7117
 20
8.9633
 10
-432.8621
 20
9.3263
 10
-433.046
 20
9.6729
 10
-433.2634
 20
10.0031
 10
-433.5143
 20
10.3169
 10
-433.7868
 20
10.6014
 10
-434.0726
 20
10.8479
 10
-434.3719
 20
11.0565
 10
-434.6845
 20
11.2271
 10
-435.0106
 20
11.3598
 10
-435.3501
 20
11.4545
 10
-435.703
 20
11.5114
 10
-436.0694
 20
11.5303
 10
-436.4338
 20
11.5116
 10
-436.7828
 20
11.4556
 10
-437.1163
 20
11.3622
 10
-437.4346
 20
11.2315
 10
-437.7374
 20
11.0634
 10
-438.0248
 20
10.858
 10
-438.297
 20
10.6152
 10
-438.5537
 20
10.335
 10
-438.6678
 20
10.1919
 10
-438.7758
 20
10.0432
 10
-438.8778
 20
9.8887
 10
-438.9737
 20
9.7286
 10
-439.0634
 20
9.5628
 10
-439.1471
 20
9.3913
 10
-439.2247
 20
9.2142
 10
-439.2962
 20
9.0315
 10
-439.3602
 20
8.8449
 10
-439.4157
 20
8.6566
 10
-439.4627
 20
8.4668
 10
-439.5011
 20
8.2754
 10
-439.531
 20
8.0825
 10
-439.5524
 20
7.8881
 10
-439.5652
 20
7.6922
 10
-439.5695
 20
7.4949
 10
-439.5656
 20
7.2937
 10
-439.5539
 20
7.0885
 10
-439.5344
 20
6.8793
 10
-439.507
 20
6.6661
 10
-439.4719
 20
6.4488
 10
-439.4288
 20
6.2273
 10
-439.378
 20
6.0015
 10
-439.3193
 20
5.7716
  0
LWPOLYLINE
  5
36E
330
1F
100
AcDbEntity
  8
Layer 1
 62
     7
370
     9
100
AcDbPolyline
 90
       73
 70
     1
 43
0.0
 10
-438.4291
 20
17.153
 10
-438.4176
 20
17.442
 10
-438.3832
 20
17.7202
 10
-438.3258
 20
17.9876
 10
-438.2455
 20
18.2443
 10
-438.1422
 20
18.4902
 10
-438.016
 20
18.7253
 10
-437.8668
 20
18.9497
 10
-437.6946
 20
19.1632
 10
-437.5086
 20
19.3564
 10
-437.3138
 20
19.5238
 10
-437.1101
 20
19.6655
 10
-436.8977
 20
19.7814
 10
-436.6765
 20
19.8716
 10
-436.4464
 20
19.936
 10
-436.2076
 20
19.9747
 10
-435.9599
 20
19.9876
 10
-435.718
 20
19.9746
 10
-435.4843
 20
19.9355
 10
-435.259
 20
19.8703
 10
-435.0419
 20
19.7792
 10
-434.8331
 20
19.662
 10
-434.6327
 20
19.5188
 10
-434.4406
 20
19.3496
 10
-434.2568
 20
19.1544
 10
-434.0918
 20
18.9448
 10
-433.9489
 20
18.7233
 10
-433.828
 20
18.4898
 10
-433.7292
 20
18.2445
 10
-433.6523
 20
17.9873
 10
-433.5974
 20
17.7182
 10
-433.5645
 20
17.4372
 10
-433.5535
 20
17.1443
 10
-433.5648
 20
16.8571
 10
-433.5989
 20
16.5795
 10
-433.6556
 20
16.3114
 10
-433.7351
 20
16.053
 10
-433.8372
 20
15.8043
 10
-433.9621
 20
15.5652
 10
-434.1096
 20
15.3357
 10
-434.2799
 20
15.1159
 10
-434.4642
 20
14.9164
 10
-434.6574
 20
14.7435
 10
-434.8597
 20
14.5972
 10
-435.071
 20
14.4774
 10
-435.2914
 20
14.3843
 10
-435.5208
 20
14.3178
 10
-435.7594
 20
14.2779
 10
-436.0071
 20
14.2646
 10
-436.2532
 20
14.2779
 10
-436.4898
 20
14.3178
 10
-436.7169
 20
14.3843
 10
-436.9346
 20
14.4774
 10
-437.1427
 20
14.5972
 10
-437.3413
 20
14.7435
 10
-437.5305
 20
14.9164
 10
-437.7102
 20
15.1159
 10
-437.7901
 20
15.2175
 10
-437.8658
 20
15.323
 10
-437.9374
 20
15.4324
 10
-438.0049
 20
15.5459
 10
-438.0682
 20
15.6632
 10
-438.1273
 20
15.7846
 10
-438.1823
 20
15.9099
 10
-438.2331
 20
16.0392
 10
-438.279
 20
16.1715
 10
-438.3188
 20
16.3058
 10
-438.3525
 20
16.4421
 10
-438.38
 20
16.5804
 10
-438.4015
 20
16.7206
 10
-438.4168
 20
16.8628
 10
-438.426
 20
17.0069
 10
-438.4291
 20
17.153
  0
LWPOLYLINE
  5
36F
330
1F
100
AcDbEntity
  8
Layer 1
 62
     7
370
     9
100
AcDbPolyline
 90
       69
 70
     1
 43
0.0
 10
-436.0377
 20
21.273
 10
-436.4141
 20
21.2532
 10
-436.7733
 20
21.1938
 10
-437.1155
 20
21.0949
 10
-437.4405
 20
20.9563
 10
-437.7484
 20
20.7781
 10
-438.0392
 20
20.5603
 10
-438.313
 20
20.3029
 10
-438.5698
 20
20.0058
 10
-438.7858
 20
19.702
 10
-438.9753
 20
19.3769
 10
-439.1382
 20
19.0307
 10
-439.2745
 20
18.6632
 10
-439.3842
 20
18.2745
 10
-439.4674
 20
17.8646
 10
-439.5239
 20
17.4336
 10
-439.5539
 20
16.9814
 10
-439.3504
 20
16.6187
 10
-443.2575
 20
20.386
 10
-443.2575
 20
18.7197
 10
-438.2412
 20
13.9025
 10
-437.997
 20
13.686
 10
-437.7427
 20
13.4984
 10
-437.4784
 20
13.3397
 10
-437.2041
 20
13.2099
 10
-436.9198
 20
13.109
 10
-436.6255
 20
13.0369
 10
-436.3213
 20
12.9936
 10
-436.0071
 20
12.9792
 10
-435.6448
 20
12.9981
 10
-435.2965
 20
13.055
 10
-434.9621
 20
13.1497
 10
-434.6416
 20
13.2824
 10
-434.3351
 20
13.453
 10
-434.0425
 20
13.6615
 10
-433.7639
 20
13.9081
 10
-433.4992
 20
14.1926
 10
-433.2555
 20
14.5057
 10
-433.0444
 20
14.8341
 10
-432.8657
 20
15.1779
 10
-432.7196
 20
15.537
 10
-432.6059
 20
15.9113
 10
-432.5247
 20
16.301
 10
-432.476
 20
16.7059
 10
-432.4598
 20
17.1261
 10
-432.4759
 20
17.5522
 10
-432.5242
 20
17.9613
 10
-432.6048
 20
18.3535
 10
-432.7176
 20
18.7286
 10
-432.8626
 20
19.0868
 10
-433.0399
 20
19.4281
 10
-433.2494
 20
19.7523
 10
-433.4912
 20
20.0596
 10
-433.6148
 20
20.1964
 10
-433.7432
 20
20.3258
 10
-433.8765
 20
20.4478
 10
-434.0146
 20
20.5624
 10
-434.1576
 20
20.6697
 10
-434.3056
 20
20.7696
 10
-434.4585
 20
20.8621
 10
-434.6165
 20
20.9473
 10
-434.7788
 20
21.0237
 10
-434.9455
 20
21.0899
 10
-435.1166
 20
21.1458
 10
-435.2921
 20
21.1916
 10
-435.472
 20
21.2272
 10
-435.6562
 20
21.2527
 10
-435.8448
 20
21.2679
 10
-436.0377
 20
21.273
  0
LWPOLYLINE
  5
370
330
1F
100
AcDbEntity
  8
Layer 1
 62
     7
370
     9
100
AcDbPolyline
 90
       65
 70
     1
 43
0.0
 10
-432.4754
 20
24.1708
 10
-432.4794
 20
24.2735
 10
-432.4915
 20
24.3733
 10
-432.5116
 20
24.4703
 10
-432.5398
 20
24.5645
 10
-432.5761
 20
24.6559
 10
-432.6204
 20
24.7445
 10
-432.6727
 20
24.8302
 10
-432.7331
 20
24.9131
 10
-432.7992
 20
24.9895
 10
-432.8688
 20
25.0558
 10
-432.9418
 20
25.1119
 10
-433.0182
 20
25.1578
 10
-433.098
 20
25.1935
 10
-433.1812
 20
25.2191
 10
-433.2679
 20
25.2344
 10
-433.358
 20
25.2395
 10
-433.4481
 20
25.2345
 10
-433.5349
 20
25.2197
 10
-433.6182
 20
25.1949
 10
-433.6982
 20
25.1602
 10
-433.7747
 20
25.1156
 10
-433.8477
 20
25.0611
 10
-433.9173
 20
24.9967
 10
-433.9835
 20
24.9225
 10
-434.0439
 20
24.8415
 10
-434.0962
 20
24.7568
 10
-434.1405
 20
24.6684
 10
-434.1768
 20
24.5763
 10
-434.205
 20
24.4805
 10
-434.2251
 20
24.381
 10
-434.2372
 20
24.2777
 10
-434.2412
 20
24.1708
 10
-434.237
 20
24.064
 10
-434.2246
 20
23.9613
 10
-434.2038
 20
23.8625
 10
-434.1748
 20
23.7677
 10
-434.1374
 20
23.6769
 10
-434.0917
 20
23.5901
 10
-434.0378
 20
23.5073
 10
-433.9755
 20
23.4285
 10
-433.9076
 20
23.3563
 10
-433.8368
 20
23.2937
 10
-433.763
 20
23.2407
 10
-433.6864
 20
23.1974
 10
-433.6068
 20
23.1637
 10
-433.5243
 20
23.1396
 10
-433.4389
 20
23.1251
 10
-433.3505
 20
23.1203
 10
-433.2623
 20
23.1253
 10
-433.1772
 20
23.1401
 10
-433.0952
 20
23.1649
 10
-433.0164
 20
23.1996
 10
-432.9408
 20
23.2442
 10
-432.8684
 20
23.2987
 10
-432.7991
 20
23.3631
 10
-432.7331
 20
23.4373
 10
-432.6727
 20
23.518
 10
-432.6204
 20
23.6019
 10
-432.5761
 20
23.689
 10
-432.5398
 20
23.7792
 10
-432.5116
 20
23.8724
 10
-432.4915
 20
23.9688
 10
-432.4794
 20
24.0683
 10
-432.4754
 20
24.1708
  0
LWPOLYLINE
  5
371
330
1F
100
AcDbEntity
  8
Layer 1
 62
     7
370
     9
100
AcDbPolyline
 90
        7
 70
     1
 43
0.0
 10
-432.6316
 20
29.4591
 10
-443.2102
 20
34.8739
 10
-443.2102
 20
27.1407
 10
-442.116
 20
27.1407
 10
-442.116
 20
32.9
 10
-432.6316
 20
28.0465
 10
-432.6316
 20
29.4591
  0
LWPOLYLINE
  5
372
330
1F
100
AcDbEntity
  8
Layer 1
 62
     7
370
     9
100
AcDbPolyline
 90
      135
 70
     1
 43
0.0
 10
-226.8813
 20
-2.152
 10
-226.9528
 20
-1.9669
 10
-227.0307
 20
-1.7875
 10
-227.115
 20
-1.6137
 10
-227.2057
 20
-1.4455
 10
-227.3027
 20
-1.283
 10
-227.4061
 20
-1.1262
 10
-227.5159
 20
-0.9751
 10
-227.6319
 20
-0.8297
 10
-227.8939
 20
-0.5432
 10
-228.1707
 20
-0.2949
 10
-228.4621
 20
-0.0848
 10
-228.7683
 20
0.087
 10
-229.0891
 20
0.2207
 10
-229.4247
 20
0.3161
 10
-229.7749
 20
0.3734
 10
-230.1398
 20
0.3925
 10
-230.5046
 20
0.3731
 10
-230.8554
 20
0.315
 10
-231.192
 20
0.2181
 10
-231.5145
 20
0.0824
 10
-231.8229
 20
-0.092
 10
-232.1172
 20
-0.3052
 10
-232.3973
 20
-0.5571
 10
-232.6633
 20
-0.8478
 10
-232.8926
 20
-1.1482
 10
-233.0947
 20
-1.468
 10
-233.2693
 20
-1.8069
 10
-233.4167
 20
-2.1652
 10
-233.5368
 20
-2.5427
 10
-233.6296
 20
-2.9395
 10
-233.6951
 20
-3.3555
 10
-233.7333
 20
-3.7908
 10
-233.452
 20
-4.3339
 10
-237.3896
 20
-0.4764
 10
-237.3896
 20
-7.1045
 10
-236.296
 20
-7.1045
 10
-236.296
 20
-3.0485
 10
-232.5457
 20
-6.7788
 10
-231.874
 20
-5.8191
 10
-232.0497
 20
-5.5967
 10
-232.202
 20
-5.3641
 10
-232.3308
 20
-5.1213
 10
-232.4362
 20
-4.8683
 10
-232.5182
 20
-4.6051
 10
-232.5767
 20
-4.3317
 10
-232.6118
 20
-4.0481
 10
-232.6235
 20
-3.7544
 10
-232.6122
 20
-3.4611
 10
-232.5781
 20
-3.1789
 10
-232.5214
 20
-2.9077
 10
-232.4419
 20
-2.6475
 10
-232.3398
 20
-2.3984
 10
-232.2149
 20
-2.1603
 10
-232.0674
 20
-1.9333
 10
-231.8971
 20
-1.7173
 10
-231.711
 20
-1.5199
 10
-231.5158
 20
-1.3489
 10
-231.3115
 20
-1.2041
 10
-231.0983
 20
-1.0856
 10
-230.8759
 20
-0.9934
 10
-230.6446
 20
-0.9275
 10
-230.4042
 20
-0.888
 10
-230.1548
 20
-0.8748
 10
-229.9111
 20
-0.8882
 10
-229.6755
 20
-0.9286
 10
-229.4483
 20
-0.9958
 10
-229.2292
 20
-1.09
 10
-229.0184
 20
-1.211
 10
-228.8159
 20
-1.3589
 10
-228.6217
 20
-1.5338
 10
-228.4357
 20
-1.7355
 10
-228.356
 20
-1.8349
 10
-228.2804
 20
-1.9386
 10
-228.2088
 20
-2.0465
 10
-228.1414
 20
-2.1587
 10
-228.078
 20
-2.2752
 10
-228.0188
 20
-2.3959
 10
-227.9637
 20
-2.5209
 10
-227.9127
 20
-2.6501
 10
-227.8669
 20
-2.7848
 10
-227.8272
 20
-2.9262
 10
-227.7937
 20
-3.0744
 10
-227.7663
 20
-3.2294
 10
-227.7451
 20
-3.3912
 10
-227.7299
 20
-3.5597
 10
-227.7208
 20
-3.7351
 10
-227.7178
 20
-3.9173
 10
-227.7245
 20
-4.1031
 10
-227.7446
 20
-4.2888
 10
-227.7781
 20
-4.4745
 10
-227.825
 20
-4.6602
 10
-227.8854
 20
-4.8458
 10
-227.9592
 20
-5.0314
 10
-228.0465
 20
-5.217
 10
-228.1473
 20
-5.4026
 10
-228.2594
 20
-5.5814
 10
-228.381
 20
-5.7466
 10
-228.5121
 20
-5.8982
 10
-228.6528
 20
-6.0363
 10
-228.803
 20
-6.1609
 10
-228.9627
 20
-6.2718
 10
-229.132
 20
-6.3693
 10
-229.3108
 20
-6.4531
 10
-228.9516
 20
-7.6846
 10
-228.697
 20
-7.5676
 10
-228.4545
 20
-7.4293
 10
-228.2243
 20
-7.2697
 10
-228.0063
 20
-7.089
 10
-227.8005
 20
-6.8871
 10
-227.6069
 20
-6.664
 10
-227.4256
 20
-6.4197
 10
-227.2566
 20
-6.1543
 10
-227.1824
 20
-6.0236
 10
-227.1123
 20
-5.8897
 10
-227.0465
 20
-5.7529
 10
-226.9848
 20
-5.6129
 10
-226.8739
 20
-5.3238
 10
-226.7798
 20
-5.0223
 10
-226.7396
 20
-4.8663
 10
-226.7047
 20
-4.706
 10
-226.6752
 20
-4.5415
 10
-226.651
 20
-4.3726
 10
-226.6322
 20
-4.1996
 10
-226.6188
 20
-4.0222
 10
-226.6107
 20
-3.8406
 10
-226.608
 20
-3.6548
 10
-226.6123
 20
-3.4669
 10
-226.6251
 20
-3.279
 10
-226.6465
 20
-3.0911
 10
-226.6764
 20
-2.9032
 10
-226.7148
 20
-2.7154
 10
-226.7618
 20
-2.5275
 10
-226.8173
 20
-2.3397
 10
-226.8813
 20
-2.152
  0
LWPOLYLINE
  5
373
330
1F
100
AcDbEntity
  8
Layer 1
 62
     7
370
     9
100
AcDbPolyline
 90
      136
 70
     1
 43
0.0
 10
-233.452
 20
4.0508
 10
-236.296
 20
4.8839
 10
-236.296
 20
9.339
 10
-237.3896
 20
9.339
 10
-237.3896
 20
3.9242
 10
-232.6235
 20
2.5117
 10
-232.0925
 20
3.8879
 10
-232.2097
 20
4.0874
 10
-232.3113
 20
4.2969
 10
-232.3972
 20
4.5163
 10
-232.4675
 20
4.7457
 10
-232.5221
 20
4.9849
 10
-232.5612
 20
5.2341
 10
-232.5846
 20
5.4932
 10
-232.5924
 20
5.7622
 10
-232.5809
 20
6.0327
 10
-232.5466
 20
6.2942
 10
-232.4893
 20
6.5465
 10
-232.409
 20
6.7898
 10
-232.3058
 20
7.0241
 10
-232.1797
 20
7.2494
 10
-232.0305
 20
7.4656
 10
-231.8584
 20
7.6728
 10
-231.6664
 20
7.8679
 10
-231.4672
 20
8.0371
 10
-231.261
 20
8.1803
 10
-231.0476
 20
8.2975
 10
-230.8272
 20
8.3886
 10
-230.5997
 20
8.4538
 10
-230.3652
 20
8.4929
 10
-230.1237
 20
8.5059
 10
-229.8738
 20
8.4926
 10
-229.634
 20
8.4527
 10
-229.4041
 20
8.3862
 10
-229.1843
 20
8.2931
 10
-228.9744
 20
8.1733
 10
-228.7746
 20
8.027
 10
-228.5849
 20
7.8541
 10
-228.4051
 20
7.6546
 10
-228.325
 20
7.5531
 10
-228.2491
 20
7.448
 10
-228.1774
 20
7.3392
 10
-228.1099
 20
7.2267
 10
-228.0466
 20
7.1105
 10
-227.9874
 20
6.9906
 10
-227.9324
 20
6.8671
 10
-227.8816
 20
6.74
 10
-227.8357
 20
6.6073
 10
-227.796
 20
6.4673
 10
-227.7624
 20
6.3199
 10
-227.7349
 20
6.165
 10
-227.7135
 20
6.0028
 10
-227.6983
 20
5.8333
 10
-227.6891
 20
5.6564
 10
-227.6861
 20
5.4721
 10
-227.6929
 20
5.2843
 10
-227.7135
 20
5.0969
 10
-227.7477
 20
4.9097
 10
-227.7956
 20
4.7228
 10
-227.8571
 20
4.5362
 10
-227.9323
 20
4.3499
 10
-228.0212
 20
4.1638
 10
-228.1237
 20
3.9781
 10
-228.2372
 20
3.7993
 10
-228.359
 20
3.6341
 10
-228.4891
 20
3.4824
 10
-228.6276
 20
3.3443
 10
-228.7743
 20
3.2198
 10
-228.9294
 20
3.1088
 10
-229.0928
 20
3.0114
 10
-229.2646
 20
2.9276
 10
-228.9205
 20
1.6967
 10
-228.6634
 20
1.8176
 10
-228.4192
 20
1.9586
 10
-228.1878
 20
2.1197
 10
-227.9694
 20
2.3009
 10
-227.7639
 20
2.5022
 10
-227.5713
 20
2.7235
 10
-227.3916
 20
2.9649
 10
-227.2249
 20
3.2264
 10
-227.0729
 20
3.5046
 10
-226.9412
 20
3.789
 10
-226.8298
 20
4.0797
 10
-226.7386
 20
4.3765
 10
-226.6676
 20
4.6796
 10
-226.617
 20
4.9889
 10
-226.5865
 20
5.3044
 10
-226.5764
 20
5.6262
 10
-226.5931
 20
6.0549
 10
-226.6433
 20
6.4672
 10
-226.727
 20
6.8631
 10
-226.8441
 20
7.2425
 10
-226.9946
 20
7.6055
 10
-227.1786
 20
7.9521
 10
-227.396
 20
8.2823
 10
-227.6469
 20
8.5961
 10
-227.9192
 20
8.8806
 10
-228.205
 20
9.1271
 10
-228.5042
 20
9.3357
 10
-228.8169
 20
9.5063
 10
-229.143
 20
9.639
 10
-229.4825
 20
9.7337
 10
-229.8353
 20
9.7906
 10
-230.2015
 20
9.8095
 10
-230.5661
 20
9.7908
 10
-230.9152
 20
9.7348
 10
-231.2489
 20
9.6414
 10
-231.5672
 20
9.5107
 10
-231.87
 20
9.3426
 10
-232.1575
 20
9.1372
 10
-232.4296
 20
8.8944
 10
-232.6863
 20
8.6143
 10
-232.8004
 20
8.4712
 10
-232.9085
 20
8.3224
 10
-233.0104
 20
8.168
 10
-233.1062
 20
8.0078
 10
-233.1959
 20
7.842
 10
-233.2795
 20
7.6706
 10
-233.357
 20
7.4935
 10
-233.4283
 20
7.3107
 10
-233.4925
 20
7.1241
 10
-233.5481
 20
6.9358
 10
-233.5952
 20
6.746
 10
-233.6337
 20
6.5546
 10
-233.6637
 20
6.3617
 10
-233.6851
 20
6.1673
 10
-233.6979
 20
5.9714
 10
-233.7022
 20
5.7741
 10
-233.6983
 20
5.5729
 10
-233.6866
 20
5.3678
 10
-233.667
 20
5.1586
 10
-233.6397
 20
4.9453
 10
-233.6045
 20
4.728
 10
-233.5615
 20
4.5065
 10
-233.5107
 20
4.2808
 10
-233.452
 20
4.0508
  0
LWPOLYLINE
  5
374
330
1F
100
AcDbEntity
  8
Layer 1
 62
     7
370
     9
100
AcDbPolyline
 90
       90
 70
     1
 43
0.0
 10
-236.1553
 20
16.8267
 10
-236.0326
 20
17.0359
 10
-235.8934
 20
17.231
 10
-235.7376
 20
17.4118
 10
-235.5653
 20
17.5785
 10
-235.3763
 20
17.731
 10
-235.1708
 20
17.8694
 10
-234.9486
 20
17.9937
 10
-234.7099
 20
18.1039
 10
-234.3931
 20
18.2268
 10
-234.0717
 20
18.3334
 10
-233.7456
 20
18.4236
 10
-233.4149
 20
18.4975
 10
-233.0796
 20
18.555
 10
-232.7396
 20
18.596
 10
-232.395
 20
18.6207
 10
-232.0458
 20
18.6289
 10
-231.2727
 20
18.5744
 10
-230.8524
 20
18.5117
 10
-230.4554
 20
18.4297
 10
-230.0817
 20
18.3284
 10
-229.7312
 20
18.2079
 10
-229.4039
 20
18.0682
 10
-229.0998
 20
17.9091
 10
-228.8189
 20
17.7309
 10
-228.5613
 20
17.5333
 10
-228.3671
 20
17.353
 10
-228.1988
 20
17.1631
 10
-228.0564
 20
16.9635
 10
-227.9399
 20
16.7544
 10
-227.8493
 20
16.5357
 10
-227.7846
 20
16.3073
 10
-227.7458
 20
16.0694
 10
-227.7329
 20
15.8219
 10
-227.7457
 20
15.5455
 10
-227.7841
 20
15.2824
 10
-227.8482
 20
15.0327
 10
-227.9379
 20
14.7963
 10
-228.0532
 20
14.5732
 10
-228.1942
 20
14.3635
 10
-228.3609
 20
14.1671
 10
-228.5532
 20
13.984
 10
-228.7427
 20
13.8321
 10
-228.9438
 20
13.6939
 10
-229.1567
 20
13.5694
 10
-229.3812
 20
13.4584
 10
-229.6133
 20
13.3604
 10
-229.8483
 20
13.275
 10
-230.086
 20
13.202
 10
-230.3266
 20
13.1414
 10
-231.2646
 20
12.9873
 10
-232.3084
 20
12.9422
 10
-232.4604
 20
12.9453
 10
-232.6211
 20
12.9547
 10
-232.7907
 20
12.9702
 10
-232.9692
 20
12.992
 10
-233.3529
 20
13.0543
 10
-233.7725
 20
13.1414
 10
-234.0103
 20
13.2016
 10
-234.247
 20
13.273
 10
-234.4827
 20
13.3556
 10
-234.7175
 20
13.4496
 10
-234.9461
 20
13.5565
 10
-235.163
 20
13.6781
 10
-235.3682
 20
13.8145
 10
-235.5615
 20
13.9658
 10
-235.653
 20
14.047
 10
-235.7398
 20
14.1321
 10
-235.8219
 20
14.2212
 10
-235.8994
 20
14.3143
 10
-235.9722
 20
14.4114
 10
-236.0404
 20
14.5124
 10
-236.1039
 20
14.6174
 10
-236.1628
 20
14.7263
 10
-236.216
 20
14.8397
 10
-236.2622
 20
14.9582
 10
-236.3012
 20
15.0819
 10
-236.3331
 20
15.2106
 10
-236.358
 20
15.3445
 10
-236.3757
 20
15.4835
 10
-236.3864
 20
15.6276
 10
-236.3899
 20
15.7768
 10
-236.3862
 20
15.9258
 10
-236.3752
 20
16.0697
 10
-236.3569
 20
16.2086
 10
-236.3312
 20
16.3424
 10
-236.2982
 20
16.4711
 10
-236.2579
 20
16.5947
 10
-236.2102
 20
16.7133
 10
-236.1553
 20
16.8267
  0
LWPOLYLINE
  5
375
330
1F
100
AcDbEntity
  8
Layer 1
 62
     7
370
     9
100
AcDbPolyline
 90
       65
 70
     1
 43
0.0
 10
-226.6236
 20
15.84
 10
-226.6525
 20
16.3686
 10
-226.7394
 20
16.8636
 10
-226.884
 20
17.325
 10
-227.0866
 20
17.7527
 10
-227.347
 20
18.1467
 10
-227.6653
 20
18.5071
 10
-228.0414
 20
18.8338
 10
-228.4754
 20
19.1269
 10
-228.854
 20
19.3328
 10
-229.2536
 20
19.5112
 10
-229.6742
 20
19.6622
 10
-230.1158
 20
19.7856
 10
-230.5785
 20
19.8817
 10
-231.0622
 20
19.9502
 10
-231.5668
 20
19.9914
 10
-232.0925
 20
20.0051
 10
-232.6182
 20
19.9914
 10
-233.1228
 20
19.9502
 10
-233.6064
 20
19.8817
 10
-234.0691
 20
19.7856
 10
-234.5108
 20
19.6622
 10
-234.9315
 20
19.5112
 10
-235.3313
 20
19.3328
 10
-235.7102
 20
19.1269
 10
-236.1441
 20
18.8338
 10
-236.5203
 20
18.5071
 10
-236.8385
 20
18.1467
 10
-237.099
 20
17.7527
 10
-237.3015
 20
17.325
 10
-237.4462
 20
16.8636
 10
-237.5331
 20
16.3686
 10
-237.562
 20
15.84
 10
-237.5331
 20
15.3112
 10
-237.4462
 20
14.8161
 10
-237.3015
 20
14.3547
 10
-237.099
 20
13.927
 10
-236.8385
 20
13.533
 10
-236.5203
 20
13.1727
 10
-236.1441
 20
12.8461
 10
-235.7102
 20
12.5532
 10
-235.3313
 20
12.3473
 10
-234.9315
 20
12.1688
 10
-234.5108
 20
12.0177
 10
-234.0691
 20
11.8941
 10
-233.6064
 20
11.798
 10
-233.1228
 20
11.7293
 10
-232.6182
 20
11.688
 10
-232.0925
 20
11.6743
 10
-231.5668
 20
11.688
 10
-231.0622
 20
11.7293
 10
-230.5785
 20
11.798
 10
-230.1158
 20
11.8941
 10
-229.6742
 20
12.0177
 10
-229.2536
 20
12.1688
 10
-228.854
 20
12.3473
 10
-228.4754
 20
12.5532
 10
-228.0414
 20
12.8461
 10
-227.6653
 20
13.1727
 10
-227.347
 20
13.533
 10
-227.0866
 20
13.927
 10
-226.884
 20
14.3547
 10
-226.7394
 20
14.8161
 10
-226.6525
 20
15.3112
 10
-226.6236
 20
15.84
  0
LWPOLYLINE
  5
376
330
1F
100
AcDbEntity
  8
Layer 1
 62
     7
370
     9
100
AcDbPolyline
 90
       65
 70
     1
 43
0.0
 10
-226.608
 20
23.3195
 10
-226.612
 20
23.4222
 10
-226.6241
 20
23.522
 10
-226.6442
 20
23.619
 10
-226.6724
 20
23.7132
 10
-226.7087
 20
23.8046
 10
-226.753
 20
23.8932
 10
-226.8054
 20
23.9789
 10
-226.8658
 20
24.0618
 10
-226.9319
 20
24.1382
 10
-227.0015
 20
24.2045
 10
-227.0745
 20
24.2606
 10
-227.1509
 20
24.3065
 10
-227.2307
 20
24.3422
 10
-227.3139
 20
24.3678
 10
-227.4006
 20
24.3831
 10
-227.4907
 20
24.3882
 10
-227.5808
 20
24.3832
 10
-227.6675
 20
24.3684
 10
-227.7508
 20
24.3436
 10
-227.8306
 20
24.3089
 10
-227.9071
 20
24.2643
 10
-227.9802
 20
24.2098
 10
-228.0499
 20
24.1454
 10
-228.1162
 20
24.0712
 10
-228.1766
 20
23.9902
 10
-228.2289
 20
23.9055
 10
-228.2732
 20
23.8171
 10
-228.3095
 20
23.725
 10
-228.3377
 20
23.6292
 10
-228.3578
 20
23.5297
 10
-228.3699
 20
23.4264
 10
-228.3739
 20
23.3195
 10
-228.3697
 20
23.2127
 10
-228.3573
 20
23.11
 10
-228.3365
 20
23.0112
 10
-228.3074
 20
22.9164
 10
-228.2699
 20
22.8256
 10
-228.2242
 20
22.7388
 10
-228.1701
 20
22.656
 10
-228.1076
 20
22.5772
 10
-228.0399
 20
22.505
 10
-227.9692
 20
22.4423
 10
-227.8956
 20
22.3894
 10
-227.819
 20
22.346
 10
-227.7394
 20
22.3123
 10
-227.657
 20
22.2883
 10
-227.5715
 20
22.2738
 10
-227.4832
 20
22.269
 10
-227.395
 20
22.274
 10
-227.3099
 20
22.2888
 10
-227.2279
 20
22.3136
 10
-227.1491
 20
22.3483
 10
-227.0735
 20
22.3929
 10
-227.0011
 20
22.4474
 10
-226.9318
 20
22.5118
 10
-226.8658
 20
22.586
 10
-226.8054
 20
22.6667
 10
-226.753
 20
22.7506
 10
-226.7087
 20
22.8377
 10
-226.6724
 20
22.9279
 10
-226.6442
 20
23.0211
 10
-226.6241
 20
23.1175
 10
-226.612
 20
23.217
 10
-226.608
 20
23.3195
  0
LWPOLYLINE
  5
377
330
1F
100
AcDbEntity
  8
Layer 1
 62
     7
370
     9
100
AcDbPolyline
 90
       87
 70
     1
 43
0.0
 10
-226.7643
 20
26.887
 10
-226.7643
 20
35.5617
 10
-227.858
 20
35.5617
 10
-227.858
 20
29.9477
 10
-231.5304
 20
34.2399
 10
-231.7947
 20
34.5201
 10
-232.0723
 20
34.7629
 10
-232.363
 20
34.9683
 10
-232.667
 20
35.1364
 10
-232.9842
 20
35.2671
 10
-233.3145
 20
35.3605
 10
-233.658
 20
35.4165
 10
-234.0146
 20
35.4352
 10
-234.3794
 20
35.4161
 10
-234.7295
 20
35.3587
 10
-235.065
 20
35.2632
 10
-235.3858
 20
35.1294
 10
-235.6919
 20
34.9575
 10
-235.9834
 20
34.7473
 10
-236.2603
 20
34.4989
 10
-236.5225
 20
34.2124
 10
-236.766
 20
33.8941
 10
-236.9771
 20
33.5616
 10
-237.1558
 20
33.215
 10
-237.302
 20
32.8542
 10
-237.4157
 20
32.4794
 10
-237.497
 20
32.0904
 10
-237.5457
 20
31.6873
 10
-237.562
 20
31.2701
 10
-237.5449
 20
30.8366
 10
-237.4936
 20
30.4192
 10
-237.408
 20
30.0181
 10
-237.2883
 20
29.6331
 10
-237.1344
 20
29.2642
 10
-236.9464
 20
28.9115
 10
-236.7241
 20
28.575
 10
-236.4678
 20
28.2545
 10
-236.192
 20
27.9691
 10
-235.9018
 20
27.7242
 10
-235.5972
 20
27.5197
 10
-235.2783
 20
27.3557
 10
-234.9449
 20
27.2322
 10
-234.5971
 20
27.1491
 10
-234.235
 20
27.1065
 10
-233.8584
 20
27.1044
 10
-233.8584
 20
28.3904
 10
-234.1026
 20
28.3796
 10
-234.3412
 20
28.3994
 10
-234.5742
 20
28.4498
 10
-234.8016
 20
28.5308
 10
-235.0234
 20
28.6423
 10
-235.2396
 20
28.7844
 10
-235.4503
 20
28.9571
 10
-235.6554
 20
29.1603
 10
-235.8384
 20
29.3776
 10
-235.997
 20
29.6062
 10
-236.1312
 20
29.8461
 10
-236.2411
 20
30.0973
 10
-236.3266
 20
30.3598
 10
-236.3877
 20
30.6337
 10
-236.4244
 20
30.919
 10
-236.4366
 20
31.2156
 10
-236.4256
 20
31.5065
 10
-236.3927
 20
31.7865
 10
-236.3378
 20
32.0554
 10
-236.2609
 20
32.3134
 10
-236.162
 20
32.5602
 10
-236.0411
 20
32.7961
 10
-235.8982
 20
33.0208
 10
-235.7333
 20
33.2345
 10
-235.5511
 20
33.4319
 10
-235.3602
 20
33.603
 10
-235.1605
 20
33.7478
 10
-234.952
 20
33.8663
 10
-234.7348
 20
33.9585
 10
-234.5087
 20
34.0244
 10
-234.2739
 20
34.0639
 10
-234.0302
 20
34.0771
 10
-233.781
 20
34.0644
 10
-233.5416
 20
34.0261
 10
-233.3121
 20
33.9624
 10
-233.0923
 20
33.8733
 10
-232.8823
 20
33.7586
 10
-232.6821
 20
33.6186
 10
-232.4917
 20
33.453
 10
-232.311
 20
33.2621
 10
-226.7643
 20
26.887
  0
LWPOLYLINE
  5
378
330
1F
100
AcDbEntity
  8
Layer 1
 62
     7
370
     9
100
AcDbPolyline
 90
      136
 70
     1
 43
0.0
 10
-264.6886
 20
-65.9137
 10
-264.6953
 20
-65.5899
 10
-264.7155
 20
-65.2707
 10
-264.7491
 20
-64.9561
 10
-264.7961
 20
-64.646
 10
-264.8566
 20
-64.3404
 10
-264.9305
 20
-64.0393
 10
-265.0179
 20
-63.7427
 10
-265.1187
 20
-63.4506
 10
-265.2056
 20
-63.2271
 10
-265.2983
 20
-63.0096
 10
-265.3969
 20
-62.7981
 10
-265.5013
 20
-62.5926
 10
-265.6116
 20
-62.393
 10
-265.7277
 20
-62.1994
 10
-265.8498
 20
-62.0117
 10
-265.9777
 20
-61.83
 10
-265.3136
 20
-61.0602
 10
-265.9235
 20
-60.3535
 10
-266.5876
 20
-61.1234
 10
-266.7503
 20
-60.9696
 10
-266.918
 20
-60.8228
 10
-267.091
 20
-60.6832
 10
-267.2691
 20
-60.5506
 10
-267.4523
 20
-60.4251
 10
-267.6407
 20
-60.3067
 10
-267.8343
 20
-60.1954
 10
-268.033
 20
-60.0911
 10
-268.2848
 20
-59.9744
 10
-268.5407
 20
-59.8732
 10
-268.8004
 20
-59.7876
 10
-269.0641
 20
-59.7176
 10
-269.3316
 20
-59.6631
 10
-269.6031
 20
-59.6242
 10
-269.8784
 20
-59.6009
 10
-270.1575
 20
-59.5931
 10
-270.4367
 20
-59.6009
 10
-270.7118
 20
-59.6242
 10
-270.9827
 20
-59.6631
 10
-271.2495
 20
-59.7176
 10
-271.5122
 20
-59.7876
 10
-271.7706
 20
-59.8732
 10
-272.025
 20
-59.9744
 10
-272.2751
 20
-60.0911
 10
-272.5194
 20
-60.2211
 10
-272.7558
 20
-60.3622
 10
-272.9844
 20
-60.5143
 10
-273.2051
 20
-60.6774
 10
-273.418
 20
-60.8516
 10
-273.623
 20
-61.0368
 10
-273.8203
 20
-61.2331
 10
-274.0098
 20
-61.4404
 10
-274.1904
 20
-61.658
 10
-274.3612
 20
-61.8853
 10
-274.5223
 20
-62.1222
 10
-274.6737
 20
-62.3687
 10
-274.8153
 20
-62.6248
 10
-274.9471
 20
-62.8905
 10
-275.0691
 20
-63.1657
 10
-275.1813
 20
-63.4506
 10
-275.2821
 20
-63.7427
 10
-275.3695
 20
-64.0393
 10
-275.4434
 20
-64.3404
 10
-275.5039
 20
-64.646
 10
-275.5509
 20
-64.9561
 10
-275.5845
 20
-65.2707
 10
-275.6047
 20
-65.5899
 10
-275.6114
 20
-65.9137
 10
-275.6047
 20
-66.2373
 10
-275.5845
 20
-66.5564
 10
-275.5509
 20
-66.871
 10
-275.5039
 20
-67.1812
 10
-275.4434
 20
-67.4868
 10
-275.3695
 20
-67.788
 10
-275.2821
 20
-68.0847
 10
-275.1813
 20
-68.3768
 10
-275.0923
 20
-68.6056
 10
-274.997
 20
-68.8282
 10
-274.8954
 20
-69.0448
 10
-274.7874
 20
-69.2555
 10
-274.6732
 20
-69.4602
 10
-274.5528
 20
-69.659
 10
-274.4261
 20
-69.852
 10
-274.2933
 20
-70.0393
 10
-274.9865
 20
-70.8392
 10
-274.3765
 20
-71.5458
 10
-273.6839
 20
-70.7428
 10
-273.5245
 20
-70.8942
 10
-273.3603
 20
-71.0383
 10
-273.1914
 20
-71.1751
 10
-273.0178
 20
-71.3049
 10
-272.8393
 20
-71.4276
 10
-272.656
 20
-71.5432
 10
-272.468
 20
-71.6519
 10
-272.2751
 20
-71.7538
 10
-272.025
 20
-71.8705
 10
-271.7706
 20
-71.9717
 10
-271.5122
 20
-72.0573
 10
-271.2495
 20
-72.1273
 10
-270.9827
 20
-72.1818
 10
-270.7118
 20
-72.2207
 10
-270.4367
 20
-72.244
 10
-270.1575
 20
-72.2518
 10
-269.8784
 20
-72.244
 10
-269.6031
 20
-72.2207
 10
-269.3316
 20
-72.1818
 10
-269.0641
 20
-72.1273
 10
-268.8004
 20
-72.0573
 10
-268.5407
 20
-71.9717
 10
-268.2848
 20
-71.8705
 10
-268.033
 20
-71.7538
 10
-267.7869
 20
-71.6236
 10
-267.5489
 20
-71.4821
 10
-267.319
 20
-71.3293
 10
-267.0971
 20
-71.1652
 10
-266.8833
 20
-70.9898
 10
-266.6776
 20
-70.803
 10
-266.4799
 20
-70.605
 10
-266.2902
 20
-70.3957
 10
-266.1096
 20
-70.1761
 10
-265.9388
 20
-69.947
 10
-265.7777
 20
-69.7086
 10
-265.6263
 20
-69.4609
 10
-265.4847
 20
-69.2038
 10
-265.3529
 20
-68.9375
 10
-265.2309
 20
-68.6618
 10
-265.1187
 20
-68.3768
 10
-265.0179
 20
-68.0847
 10
-264.9305
 20
-67.788
 10
-264.8566
 20
-67.4868
 10
-264.7961
 20
-67.1812
 10
-264.7491
 20
-66.871
 10
-264.7155
 20
-66.5564
 10
-264.6953
 20
-66.2373
 10
-264.6886
 20
-65.9137
 10
-264.6886
 20
-65.9137
  0
LWPOLYLINE
  5
379
330
1F
100
AcDbEntity
  8
Layer 1
 62
     7
370
     9
100
AcDbPolyline
 90
       35
 70
     1
 43
0.0
 10
-272.9081
 20
-69.8463
 10
-266.7594
 20
-62.7321
 10
-266.5305
 20
-63.08
 10
-266.3321
 20
-63.442
 10
-266.1642
 20
-63.8183
 10
-266.0269
 20
-64.2087
 10
-265.9201
 20
-64.6134
 10
-265.8438
 20
-65.0325
 10
-265.7981
 20
-65.4659
 10
-265.7828
 20
-65.9137
 10
-265.8028
 20
-66.4291
 10
-265.8629
 20
-66.9254
 10
-265.9629
 20
-67.4025
 10
-266.103
 20
-67.8604
 10
-266.2832
 20
-68.299
 10
-266.5034
 20
-68.7184
 10
-266.7636
 20
-69.1185
 10
-267.0639
 20
-69.4993
 10
-267.3925
 20
-69.8473
 10
-267.7378
 20
-70.149
 10
-268.0996
 20
-70.4042
 10
-268.478
 20
-70.6131
 10
-268.873
 20
-70.7756
 10
-269.2846
 20
-70.8917
 10
-269.7128
 20
-70.9614
 10
-270.1575
 20
-70.9846
 10
-270.5449
 20
-70.9668
 10
-270.9199
 20
-70.9133
 10
-271.2824
 20
-70.8241
 10
-271.6325
 20
-70.6995
 10
-271.9701
 20
-70.5393
 10
-272.2952
 20
-70.3437
 10
-272.6079
 20
-70.1127
 10
-272.9081
 20
-69.8463
 10
-272.9081
 20
-69.8463
  0
LWPOLYLINE
  5
37A
330
1F
100
AcDbEntity
  8
Layer 1
 62
     7
370
     9
100
AcDbPolyline
 90
       34
 70
     1
 43
0.0
 10
-273.5202
 20
-69.1429
 10
-273.7537
 20
-68.7916
 10
-273.9561
 20
-68.4254
 10
-274.1275
 20
-68.0444
 10
-274.2677
 20
-67.6483
 10
-274.3768
 20
-67.2373
 10
-274.4548
 20
-66.8112
 10
-274.5016
 20
-66.3701
 10
-274.5172
 20
-65.9137
 10
-274.4972
 20
-65.4023
 10
-274.4372
 20
-64.9096
 10
-274.3371
 20
-64.4356
 10
-274.197
 20
-63.9803
 10
-274.0169
 20
-63.5437
 10
-273.7967
 20
-63.1259
 10
-273.5364
 20
-62.7267
 10
-273.2361
 20
-62.3462
 10
-272.9077
 20
-61.998
 10
-272.5632
 20
-61.6963
 10
-272.2026
 20
-61.441
 10
-271.8259
 20
-61.2322
 10
-271.433
 20
-61.0698
 10
-271.024
 20
-60.9538
 10
-270.5988
 20
-60.8842
 10
-270.1575
 20
-60.861
 10
-269.7628
 20
-60.8791
 10
-269.3812
 20
-60.9335
 10
-269.0127
 20
-61.0242
 10
-268.6573
 20
-61.1512
 10
-268.315
 20
-61.3145
 10
-267.9857
 20
-61.5143
 10
-267.6694
 20
-61.7504
 10
-267.3661
 20
-62.023
 10
-273.5202
 20
-69.1429
  0
LWPOLYLINE
  5
37B
330
1F
100
AcDbEntity
  8
Layer 1
 62
     7
370
     9
100
AcDbPolyline
 90
        4
 70
     1
 43
0.0
 10
-257.7507
 20
-61.1685
 10
-257.7507
 20
-68.2859
 10
-261.814
 20
-68.2859
 10
-257.7507
 20
-61.1685
  0
LWPOLYLINE
  5
37C
330
1F
100
AcDbEntity
  8
Layer 1
 62
     7
370
     9
100
AcDbPolyline
 90
       11
 70
     1
 43
0.0
 10
-256.6098
 20
-69.5901
 10
-255.2664
 20
-69.5901
 10
-255.2664
 20
-68.2859
 10
-256.6098
 20
-68.2859
 10
-256.6259
 20
-59.7923
 10
-258.1571
 20
-59.7923
 10
-263.7512
 20
-69.5901
 10
-257.7507
 20
-69.5901
 10
-257.7507
 20
-72.1071
 10
-256.6098
 20
-72.1071
 10
-256.6098
 20
-69.5901
  0
LWPOLYLINE
  5
37D
330
1F
100
AcDbEntity
  8
Layer 1
 62
     7
370
     9
100
AcDbPolyline
 90
       87
 70
     1
 43
0.0
 10
-253.5473
 20
-72.1071
 10
-246.0628
 20
-72.1071
 10
-246.0628
 20
-70.8392
 10
-250.9068
 20
-70.8392
 10
-247.2032
 20
-66.5833
 10
-246.9614
 20
-66.2769
 10
-246.7519
 20
-65.9552
 10
-246.5746
 20
-65.6182
 10
-246.4296
 20
-65.2659
 10
-246.3168
 20
-64.8984
 10
-246.2362
 20
-64.5156
 10
-246.1879
 20
-64.1176
 10
-246.1718
 20
-63.7043
 10
-246.1883
 20
-63.2815
 10
-246.2377
 20
-62.8757
 10
-246.3202
 20
-62.4868
 10
-246.4356
 20
-62.115
 10
-246.5839
 20
-61.7601
 10
-246.7653
 20
-61.4223
 10
-246.9795
 20
-61.1015
 10
-247.2268
 20
-60.7977
 10
-247.5015
 20
-60.5154
 10
-247.7884
 20
-60.2707
 10
-248.0874
 20
-60.0636
 10
-248.3987
 20
-59.8942
 10
-248.7221
 20
-59.7625
 10
-249.0578
 20
-59.6684
 10
-249.4057
 20
-59.6119
 10
-249.7658
 20
-59.5931
 10
-250.1398
 20
-59.6129
 10
-250.4998
 20
-59.6724
 10
-250.8459
 20
-59.7714
 10
-251.1781
 20
-59.9101
 10
-251.4964
 20
-60.0884
 10
-251.8007
 20
-60.3064
 10
-252.0912
 20
-60.5639
 10
-252.3677
 20
-60.861
 10
-252.6138
 20
-61.1806
 10
-252.8251
 20
-61.5169
 10
-253.0015
 20
-61.8698
 10
-253.1431
 20
-62.2395
 10
-253.2497
 20
-62.6259
 10
-253.3214
 20
-63.029
 10
-253.3581
 20
-63.4488
 10
-253.3599
 20
-63.8853
 10
-252.2501
 20
-63.8853
 10
-252.2594
 20
-63.6022
 10
-252.2424
 20
-63.3256
 10
-252.1989
 20
-63.0555
 10
-252.129
 20
-62.792
 10
-252.0328
 20
-62.5349
 10
-251.9102
 20
-62.2843
 10
-251.7613
 20
-62.0401
 10
-251.586
 20
-61.8025
 10
-251.3985
 20
-61.5904
 10
-251.2013
 20
-61.4065
 10
-250.9943
 20
-61.251
 10
-250.7776
 20
-61.1237
 10
-250.5511
 20
-61.0246
 10
-250.3148
 20
-60.9539
 10
-250.0686
 20
-60.9115
 10
-249.8126
 20
-60.8973
 10
-249.5616
 20
-60.91
 10
-249.32
 20
-60.9482
 10
-249.088
 20
-61.0118
 10
-248.8654
 20
-61.1009
 10
-248.6524
 20
-61.2155
 10
-248.4489
 20
-61.3555
 10
-248.255
 20
-61.5212
 10
-248.0708
 20
-61.7123
 10
-247.9005
 20
-61.9234
 10
-247.7529
 20
-62.1446
 10
-247.628
 20
-62.3761
 10
-247.5257
 20
-62.6177
 10
-247.4462
 20
-62.8695
 10
-247.3894
 20
-63.1315
 10
-247.3553
 20
-63.4037
 10
-247.3439
 20
-63.6861
 10
-247.3549
 20
-63.9748
 10
-247.3878
 20
-64.2521
 10
-247.4427
 20
-64.5181
 10
-247.5195
 20
-64.7728
 10
-247.6184
 20
-65.0161
 10
-247.7392
 20
-65.2481
 10
-247.8819
 20
-65.4688
 10
-248.0467
 20
-65.6781
 10
-253.5473
 20
-72.1071
  0
LWPOLYLINE
  5
37E
330
1F
100
AcDbEntity
  8
Layer 1
 62
     7
370
     9
100
AcDbPolyline
 90
      136
 70
     1
 43
0.0
 10
-304.8261
 20
-96.4762
 10
-304.8328
 20
-96.1524
 10
-304.853
 20
-95.8332
 10
-304.8865
 20
-95.5186
 10
-304.9335
 20
-95.2085
 10
-304.9939
 20
-94.9029
 10
-305.0678
 20
-94.6018
 10
-305.155
 20
-94.3052
 10
-305.2556
 20
-94.0131
 10
-305.3425
 20
-93.7896
 10
-305.4352
 20
-93.5721
 10
-305.5338
 20
-93.3606
 10
-305.6383
 20
-93.1551
 10
-305.7486
 20
-92.9555
 10
-305.8649
 20
-92.7619
 10
-305.9871
 20
-92.5742
 10
-306.1152
 20
-92.3925
 10
-305.4505
 20
-91.6227
 10
-306.0604
 20
-90.9161
 10
-306.7245
 20
-91.6859
 10
-306.8873
 20
-91.5321
 10
-307.0552
 20
-91.3853
 10
-307.2282
 20
-91.2457
 10
-307.4063
 20
-91.1131
 10
-307.5895
 20
-90.9876
 10
-307.7779
 20
-90.8692
 10
-307.9713
 20
-90.7579
 10
-308.1699
 20
-90.6536
 10
-308.4217
 20
-90.5369
 10
-308.6776
 20
-90.4357
 10
-308.9373
 20
-90.3501
 10
-309.201
 20
-90.2801
 10
-309.4687
 20
-90.2256
 10
-309.7402
 20
-90.1867
 10
-310.0157
 20
-90.1634
 10
-310.295
 20
-90.1556
 10
-310.5742
 20
-90.1634
 10
-310.8493
 20
-90.1867
 10
-311.1202
 20
-90.2256
 10
-311.387
 20
-90.2801
 10
-311.6496
 20
-90.3501
 10
-311.9081
 20
-90.4357
 10
-312.1624
 20
-90.5369
 10
-312.4125
 20
-90.6536
 10
-312.6566
 20
-90.7836
 10
-312.8929
 20
-90.9247
 10
-313.1214
 20
-91.0768
 10
-313.342
 20
-91.2399
 10
-313.5549
 20
-91.4141
 10
-313.7599
 20
-91.5993
 10
-313.9572
 20
-91.7956
 10
-314.1467
 20
-92.0029
 10
-314.3273
 20
-92.2205
 10
-314.4981
 20
-92.4478
 10
-314.6593
 20
-92.6847
 10
-314.8107
 20
-92.9312
 10
-314.9523
 20
-93.1873
 10
-315.0842
 20
-93.453
 10
-315.2064
 20
-93.7282
 10
-315.3188
 20
-94.0131
 10
-315.4194
 20
-94.3052
 10
-315.5067
 20
-94.6018
 10
-315.5805
 20
-94.9029
 10
-315.6409
 20
-95.2085
 10
-315.6879
 20
-95.5186
 10
-315.7214
 20
-95.8332
 10
-315.7416
 20
-96.1524
 10
-315.7483
 20
-96.4762
 10
-315.7416
 20
-96.7998
 10
-315.7214
 20
-97.1189
 10
-315.6879
 20
-97.4335
 10
-315.6409
 20
-97.7437
 10
-315.5805
 20
-98.0493
 10
-315.5067
 20
-98.3505
 10
-315.4194
 20
-98.6472
 10
-315.3188
 20
-98.9393
 10
-315.2296
 20
-99.1681
 10
-315.1342
 20
-99.3907
 10
-315.0325
 20
-99.6073
 10
-314.9245
 20
-99.818
 10
-314.8103
 20
-100.0227
 10
-314.6899
 20
-100.2215
 10
-314.5634
 20
-100.4145
 10
-314.4308
 20
-100.6018
 10
-315.1234
 20
-101.4017
 10
-314.514
 20
-102.1083
 10
-313.8208
 20
-101.3053
 10
-313.6614
 20
-101.4567
 10
-313.4972
 20
-101.6008
 10
-313.3284
 20
-101.7376
 10
-313.1547
 20
-101.8674
 10
-312.9763
 20
-101.9901
 10
-312.7932
 20
-102.1057
 10
-312.6052
 20
-102.2144
 10
-312.4125
 20
-102.3163
 10
-312.1624
 20
-102.433
 10
-311.9081
 20
-102.5342
 10
-311.6496
 20
-102.6198
 10
-311.387
 20
-102.6898
 10
-311.1202
 20
-102.7443
 10
-310.8493
 20
-102.7832
 10
-310.5742
 20
-102.8065
 10
-310.295
 20
-102.8143
 10
-310.0157
 20
-102.8065
 10
-309.7402
 20
-102.7832
 10
-309.4687
 20
-102.7443
 10
-309.201
 20
-102.6898
 10
-308.9373
 20
-102.6198
 10
-308.6776
 20
-102.5342
 10
-308.4217
 20
-102.433
 10
-308.1699
 20
-102.3163
 10
-307.9239
 20
-102.1861
 10
-307.686
 20
-102.0446
 10
-307.4561
 20
-101.8918
 10
-307.2344
 20
-101.7277
 10
-307.0206
 20
-101.5523
 10
-306.8149
 20
-101.3655
 10
-306.6173
 20
-101.1675
 10
-306.4276
 20
-100.9582
 10
-306.2469
 20
-100.7386
 10
-306.076
 20
-100.5095
 10
-305.9148
 20
-100.2711
 10
-305.7635
 20
-100.0234
 10
-305.6219
 20
-99.7663
 10
-305.4901
 20
-99.5
 10
-305.368
 20
-99.2243
 10
-305.2556
 20
-98.9393
 10
-305.155
 20
-98.6472
 10
-305.0678
 20
-98.3505
 10
-304.9939
 20
-98.0493
 10
-304.9335
 20
-97.7437
 10
-304.8865
 20
-97.4335
 10
-304.853
 20
-97.1189
 10
-304.8328
 20
-96.7998
 10
-304.8261
 20
-96.4762
 10
-304.8261
 20
-96.4762
  0
LWPOLYLINE
  5
37F
330
1F
100
AcDbEntity
  8
Layer 1
 62
     7
370
     9
100
AcDbPolyline
 90
       35
 70
     1
 43
0.0
 10
-313.0455
 20
-100.4089
 10
-306.8964
 20
-93.2946
 10
-306.6674
 20
-93.6425
 10
-306.469
 20
-94.0045
 10
-306.3012
 20
-94.3808
 10
-306.1638
 20
-94.7712
 10
-306.057
 20
-95.1759
 10
-305.9807
 20
-95.595
 10
-305.935
 20
-96.0284
 10
-305.9197
 20
-96.4762
 10
-305.9397
 20
-96.9916
 10
-305.9998
 20
-97.4879
 10
-306.1
 20
-97.965
 10
-306.2401
 20
-98.4229
 10
-306.4203
 20
-98.8615
 10
-306.6405
 20
-99.2809
 10
-306.9006
 20
-99.681
 10
-307.2008
 20
-100.0618
 10
-307.5296
 20
-100.4098
 10
-307.875
 20
-100.7115
 10
-308.2369
 20
-100.9667
 10
-308.6154
 20
-101.1756
 10
-309.0104
 20
-101.3381
 10
-309.4221
 20
-101.4542
 10
-309.8502
 20
-101.5239
 10
-310.295
 20
-101.5471
 10
-310.6824
 20
-101.5293
 10
-311.0573
 20
-101.4758
 10
-311.4197
 20
-101.3866
 10
-311.7697
 20
-101.262
 10
-312.1073
 20
-101.1018
 10
-312.4324
 20
-100.9062
 10
-312.7452
 20
-100.6752
 10
-313.0455
 20
-100.4089
 10
-313.0455
 20
-100.4089
  0
LWPOLYLINE
  5
380
330
1F
100
AcDbEntity
  8
Layer 1
 62
     7
370
     9
100
AcDbPolyline
 90
       34
 70
     1
 43
0.0
 10
-313.6571
 20
-99.7054
 10
-313.8906
 20
-99.3541
 10
-314.0931
 20
-98.9879
 10
-314.2646
 20
-98.6069
 10
-314.4049
 20
-98.2108
 10
-314.5141
 20
-97.7998
 10
-314.5921
 20
-97.3737
 10
-314.639
 20
-96.9326
 10
-314.6546
 20
-96.4762
 10
-314.6346
 20
-95.9648
 10
-314.5745
 20
-95.4721
 10
-314.4744
 20
-94.9981
 10
-314.3342
 20
-94.5428
 10
-314.1541
 20
-94.1062
 10
-313.9339
 20
-93.6884
 10
-313.6737
 20
-93.2892
 10
-313.3736
 20
-92.9087
 10
-313.045
 20
-92.5605
 10
-312.7004
 20
-92.2588
 10
-312.3397
 20
-92.0035
 10
-311.9629
 20
-91.7947
 10
-311.5701
 20
-91.6323
 10
-311.1611
 20
-91.5163
 10
-310.7361
 20
-91.4467
 10
-310.295
 20
-91.4235
 10
-309.9001
 20
-91.4416
 10
-309.5185
 20
-91.496
 10
-309.1499
 20
-91.5867
 10
-308.7945
 20
-91.7137
 10
-308.4522
 20
-91.877
 10
-308.1229
 20
-92.0768
 10
-307.8065
 20
-92.3129
 10
-307.5031
 20
-92.5855
 10
-313.6571
 20
-99.7054
  0
LWPOLYLINE
  5
381
330
1F
100
AcDbEntity
  8
Layer 1
 62
     7
370
     9
100
AcDbPolyline
 90
      136
 70
     1
 43
0.0
 10
-301.3254
 20
-94.9189
 10
-300.6065
 20
-91.6227
 10
-296.7628
 20
-91.6227
 10
-296.7628
 20
-90.3548
 10
-301.435
 20
-90.3548
 10
-302.6537
 20
-95.8786
 10
-301.4661
 20
-96.4943
 10
-301.2941
 20
-96.3584
 10
-301.1134
 20
-96.2407
 10
-300.9241
 20
-96.1411
 10
-300.7262
 20
-96.0597
 10
-300.5197
 20
-95.9963
 10
-300.3047
 20
-95.9511
 10
-300.081
 20
-95.9239
 10
-299.8489
 20
-95.9149
 10
-299.6155
 20
-95.9282
 10
-299.3899
 20
-95.968
 10
-299.1721
 20
-96.0344
 10
-298.9622
 20
-96.1274
 10
-298.7601
 20
-96.247
 10
-298.5658
 20
-96.3932
 10
-298.3793
 20
-96.5661
 10
-298.2006
 20
-96.7656
 10
-298.0322
 20
-96.9882
 10
-297.8862
 20
-97.219
 10
-297.7627
 20
-97.458
 10
-297.6616
 20
-97.7052
 10
-297.5829
 20
-97.9605
 10
-297.5267
 20
-98.2241
 10
-297.4929
 20
-98.4959
 10
-297.4817
 20
-98.7758
 10
-297.4932
 20
-99.0655
 10
-297.5276
 20
-99.3436
 10
-297.585
 20
-99.61
 10
-297.6653
 20
-99.8648
 10
-297.7686
 20
-100.108
 10
-297.8948
 20
-100.3396
 10
-298.044
 20
-100.5595
 10
-298.2162
 20
-100.7678
 10
-298.3038
 20
-100.8605
 10
-298.3945
 20
-100.9484
 10
-298.4884
 20
-101.0315
 10
-298.5855
 20
-101.1098
 10
-298.6857
 20
-101.1833
 10
-298.7891
 20
-101.2519
 10
-298.8957
 20
-101.3158
 10
-299.0055
 20
-101.3748
 10
-299.1198
 20
-101.4279
 10
-299.2406
 20
-101.4738
 10
-299.3678
 20
-101.5127
 10
-299.5013
 20
-101.5445
 10
-299.6413
 20
-101.5692
 10
-299.7876
 20
-101.5868
 10
-299.9402
 20
-101.5974
 10
-300.0991
 20
-101.6009
 10
-300.2612
 20
-101.593
 10
-300.4231
 20
-101.5692
 10
-300.5846
 20
-101.5296
 10
-300.7459
 20
-101.4742
 10
-300.9069
 20
-101.4029
 10
-301.0676
 20
-101.3158
 10
-301.228
 20
-101.2129
 10
-301.3882
 20
-101.0942
 10
-301.5424
 20
-100.9625
 10
-301.685
 20
-100.8213
 10
-301.8159
 20
-100.6705
 10
-301.935
 20
-100.51
 10
-302.0425
 20
-100.3399
 10
-302.1382
 20
-100.1602
 10
-302.2222
 20
-99.9708
 10
-302.2945
 20
-99.7718
 10
-303.3571
 20
-100.1702
 10
-303.2526
 20
-100.4683
 10
-303.1309
 20
-100.7515
 10
-302.9918
 20
-101.0196
 10
-302.8355
 20
-101.2728
 10
-302.6618
 20
-101.5109
 10
-302.4708
 20
-101.7341
 10
-302.2625
 20
-101.9422
 10
-302.0368
 20
-102.1353
 10
-301.7968
 20
-102.3115
 10
-301.5514
 20
-102.4642
 10
-301.3006
 20
-102.5934
 10
-301.0446
 20
-102.6991
 10
-300.7831
 20
-102.7813
 10
-300.5163
 20
-102.84
 10
-300.2441
 20
-102.8753
 10
-299.9665
 20
-102.887
 10
-299.5965
 20
-102.8676
 10
-299.2408
 20
-102.8095
 10
-298.8992
 20
-102.7126
 10
-298.5718
 20
-102.5769
 10
-298.2586
 20
-102.4025
 10
-297.9596
 20
-102.1893
 10
-297.6747
 20
-101.9374
 10
-297.4039
 20
-101.6467
 10
-297.1584
 20
-101.3309
 10
-296.9456
 20
-100.9996
 10
-296.7657
 20
-100.6528
 10
-296.6185
 20
-100.2904
 10
-296.504
 20
-99.9125
 10
-296.4223
 20
-99.519
 10
-296.3732
 20
-99.1101
 10
-296.3569
 20
-98.6856
 10
-296.373
 20
-98.2632
 10
-296.4213
 20
-97.8587
 10
-296.5019
 20
-97.472
 10
-296.6147
 20
-97.1032
 10
-296.7597
 20
-96.7521
 10
-296.937
 20
-96.4189
 10
-297.1465
 20
-96.1035
 10
-297.3883
 20
-95.8059
 10
-297.5118
 20
-95.6736
 10
-297.6401
 20
-95.5484
 10
-297.7733
 20
-95.4303
 10
-297.9114
 20
-95.3192
 10
-298.0545
 20
-95.2152
 10
-298.2024
 20
-95.1183
 10
-298.3553
 20
-95.0285
 10
-298.5131
 20
-94.9458
 10
-298.6741
 20
-94.8716
 10
-298.8364
 20
-94.8072
 10
-299.0002
 20
-94.7528
 10
-299.1653
 20
-94.7082
 10
-299.3317
 20
-94.6735
 10
-299.4994
 20
-94.6487
 10
-299.6684
 20
-94.6339
 10
-299.8387
 20
-94.6289
 10
-300.0124
 20
-94.6334
 10
-300.1894
 20
-94.647
 10
-300.3699
 20
-94.6696
 10
-300.5539
 20
-94.7013
 10
-300.7414
 20
-94.7421
 10
-300.9324
 20
-94.7919
 10
-301.1271
 20
-94.8509
 10
-301.3254
 20
-94.9189
  0
LWPOLYLINE
  5
382
330
1F
100
AcDbEntity
  8
Layer 1
 62
     7
370
     9
100
AcDbPolyline
 90
       92
 70
     1
 43
0.0
 10
-290.3022
 20
-91.7855
 10
-290.1217
 20
-91.9276
 10
-289.9534
 20
-92.0889
 10
-289.7973
 20
-92.2694
 10
-289.6535
 20
-92.4692
 10
-289.5218
 20
-92.6882
 10
-289.4023
 20
-92.9264
 10
-289.2951
 20
-93.1839
 10
-289.2
 20
-93.4606
 10
-289.0939
 20
-93.8278
 10
-289.0019
 20
-94.2004
 10
-288.9241
 20
-94.5784
 10
-288.8605
 20
-94.9617
 10
-288.811
 20
-95.3503
 10
-288.7756
 20
-95.7442
 10
-288.7544
 20
-96.1435
 10
-288.7473
 20
-96.5482
 10
-288.7941
 20
-97.4446
 10
-288.8483
 20
-97.9315
 10
-288.919
 20
-98.3915
 10
-289.0064
 20
-98.8247
 10
-289.1103
 20
-99.2309
 10
-289.2308
 20
-99.6102
 10
-289.368
 20
-99.9626
 10
-289.5218
 20
-100.2882
 10
-289.6923
 20
-100.5868
 10
-289.8478
 20
-100.8119
 10
-290.0117
 20
-101.0069
 10
-290.1839
 20
-101.172
 10
-290.3644
 20
-101.307
 10
-290.5531
 20
-101.4121
 10
-290.7502
 20
-101.4871
 10
-290.9556
 20
-101.5321
 10
-291.1693
 20
-101.5471
 10
-291.4078
 20
-101.5322
 10
-291.6347
 20
-101.4877
 10
-291.8502
 20
-101.4134
 10
-292.0541
 20
-101.3094
 10
-292.2465
 20
-101.1756
 10
-292.4274
 20
-101.0122
 10
-292.5968
 20
-100.8191
 10
-292.7548
 20
-100.5962
 10
-292.8858
 20
-100.3766
 10
-293.005
 20
-100.1434
 10
-293.1125
 20
-99.8966
 10
-293.2085
 20
-99.6365
 10
-293.2929
 20
-99.3675
 10
-293.3665
 20
-99.0952
 10
-293.4294
 20
-98.8197
 10
-293.4818
 20
-98.5409
 10
-293.6149
 20
-97.454
 10
-293.6536
 20
-96.2438
 10
-293.6509
 20
-96.0677
 10
-293.6429
 20
-95.8814
 10
-293.6295
 20
-95.6848
 10
-293.6108
 20
-95.478
 10
-293.5867
 20
-95.2609
 10
-293.5571
 20
-95.0335
 10
-293.5222
 20
-94.7956
 10
-293.4818
 20
-94.5474
 10
-293.4299
 20
-94.2718
 10
-293.3683
 20
-93.9973
 10
-293.297
 20
-93.724
 10
-293.216
 20
-93.4518
 10
-293.1237
 20
-93.187
 10
-293.0188
 20
-92.9356
 10
-292.9011
 20
-92.698
 10
-292.7704
 20
-92.474
 10
-292.7004
 20
-92.3679
 10
-292.627
 20
-92.2672
 10
-292.5501
 20
-92.172
 10
-292.4697
 20
-92.0821
 10
-292.386
 20
-91.9977
 10
-292.2988
 20
-91.9186
 10
-292.2082
 20
-91.845
 10
-292.1143
 20
-91.7768
 10
-292.0164
 20
-91.7151
 10
-291.9141
 20
-91.6617
 10
-291.8075
 20
-91.6165
 10
-291.6964
 20
-91.5795
 10
-291.5809
 20
-91.5507
 10
-291.461
 20
-91.5301
 10
-291.3367
 20
-91.5178
 10
-291.208
 20
-91.5137
 10
-291.0795
 20
-91.518
 10
-290.9553
 20
-91.5307
 10
-290.8355
 20
-91.552
 10
-290.72
 20
-91.5817
 10
-290.609
 20
-91.62
 10
-290.5023
 20
-91.6667
 10
-290.4
 20
-91.7219
 10
-290.3022
 20
-91.7855
  0
LWPOLYLINE
  5
383
330
1F
100
AcDbEntity
  8
Layer 1
 62
     7
370
     9
100
AcDbPolyline
 90
       65
 70
     1
 43
0.0
 10
-291.1532
 20
-102.8325
 10
-290.6972
 20
-102.799
 10
-290.2702
 20
-102.6984
 10
-289.8721
 20
-102.5307
 10
-289.5031
 20
-102.296
 10
-289.1631
 20
-101.9942
 10
-288.8522
 20
-101.6253
 10
-288.5702
 20
-101.1894
 10
-288.3173
 20
-100.6864
 10
-288.1397
 20
-100.2476
 10
-287.9858
 20
-99.7845
 10
-287.8556
 20
-99.2969
 10
-287.7491
 20
-98.7851
 10
-287.6662
 20
-98.2489
 10
-287.607
 20
-97.6883
 10
-287.5715
 20
-97.1035
 10
-287.5597
 20
-96.4943
 10
-287.5715
 20
-95.8849
 10
-287.607
 20
-95.3
 10
-287.6662
 20
-94.7395
 10
-287.7491
 20
-94.2033
 10
-287.8556
 20
-93.6914
 10
-287.9858
 20
-93.2039
 10
-288.1397
 20
-92.7407
 10
-288.3173
 20
-92.3017
 10
-288.5702
 20
-91.7987
 10
-288.8522
 20
-91.3628
 10
-289.1631
 20
-90.9939
 10
-289.5031
 20
-90.6921
 10
-289.8721
 20
-90.4574
 10
-290.2702
 20
-90.2897
 10
-290.6972
 20
-90.1891
 10
-291.1532
 20
-90.1556
 10
-291.6096
 20
-90.1891
 10
-292.0369
 20
-90.2897
 10
-292.435
 20
-90.4574
 10
-292.8041
 20
-90.6921
 10
-293.144
 20
-90.9939
 10
-293.4549
 20
-91.3628
 10
-293.7366
 20
-91.7987
 10
-293.9891
 20
-92.3017
 10
-294.1669
 20
-92.7407
 10
-294.321
 20
-93.2039
 10
-294.4514
 20
-93.6914
 10
-294.5581
 20
-94.2033
 10
-294.6411
 20
-94.7395
 10
-294.7004
 20
-95.3
 10
-294.7359
 20
-95.8849
 10
-294.7478
 20
-96.4943
 10
-294.7359
 20
-97.1035
 10
-294.7004
 20
-97.6883
 10
-294.6411
 20
-98.2489
 10
-294.5581
 20
-98.7851
 10
-294.4514
 20
-99.2969
 10
-294.321
 20
-99.7845
 10
-294.1669
 20
-100.2476
 10
-293.9891
 20
-100.6864
 10
-293.7366
 20
-101.1894
 10
-293.4549
 20
-101.6253
 10
-293.144
 20
-101.9942
 10
-292.8041
 20
-102.296
 10
-292.435
 20
-102.5307
 10
-292.0369
 20
-102.6984
 10
-291.6096
 20
-102.799
 10
-291.1532
 20
-102.8325
  0
ENDSEC
  0
SECTION
  2
OBJECTS
  0
DICTIONARY
  5
C
330
0
100
AcDbDictionary
281
     1
  3
ACAD_DETAILVIEWSTYLE
350
38B
  3
ACAD_GROUP
350
D
  3
ACAD_LAYOUT
350
1A
  3
ACAD_MATERIAL
350
43
  3
ACAD_MLEADERSTYLE
350
5B
  3
ACAD_MLINESTYLE
350
17
  3
ACAD_PLOTSETTINGS
350
19
  3
ACAD_PLOTSTYLENAME
350
E
  3
ACAD_SCALELIST
350
47
  3
ACAD_SECTIONVIEWSTYLE
350
38C
  3
ACAD_TABLESTYLE
350
59
  3
ACAD_VISUALSTYLE
350
2A
  3
ACDB_RECOMPOSE_DATA
350
388
  3
AcDbVariableDictionary
350
384
  0
SUN
  5
5D
330
29
100
AcDbSun
 90
        1
290
     0
 63
     7
421
 16777215
 40
1.0
291
     1
 91
  2455826
 92
 54000000
292
     0
 70
     2
 71
   256
280
     1
  0
DICTIONARY
  5
38B
102
{ACAD_REACTORS
330
C
102
}
330
C
100
AcDbDictionary
281
     1
  0
DICTIONARY
  5
D
102
{ACAD_REACTORS
330
C
102
}
330
C
100
AcDbDictionary
281
     1
  0
DICTIONARY
  5
1A
102
{ACAD_REACTORS
330
C
102
}
330
C
100
AcDbDictionary
281
     1
  3
Layout1
350
1E
  3
Layout2
350
26
  3
Model
350
22
  0
DICTIONARY
  5
43
102
{ACAD_REACTORS
330
C
102
}
330
C
100
AcDbDictionary
281
     1
  3
ByBlock
350
45
  3
ByLayer
350
44
  3
Global
350
46
  0
DICTIONARY
  5
5B
102
{ACAD_REACTORS
330
C
102
}
330
C
100
AcDbDictionary
281
     1
  3
Standard
350
5C
  0
DICTIONARY
  5
17
102
{ACAD_REACTORS
330
C
102
}
330
C
100
AcDbDictionary
281
     1
  3
Standard
350
18
  0
DICTIONARY
  5
19
102
{ACAD_REACTORS
330
C
102
}
330
C
100
AcDbDictionary
281
     1
  0
ACDBDICTIONARYWDFLT
  5
E
102
{ACAD_REACTORS
330
C
102
}
330
C
100
AcDbDictionary
281
     1
  3
Normal
350
F
100
AcDbDictionaryWithDefault
340
F
  0
DICTIONARY
  5
47
102
{ACAD_REACTORS
330
C
102
}
330
C
100
AcDbDictionary
281
     1
  3
A0
350
48
  3
A1
350
49
  3
A2
350
4A
  3
A3
350
4B
  3
A4
350
4C
  3
A5
350
4D
  3
A6
350
4E
  3
A7
350
4F
  3
A8
350
50
  3
A9
350
51
  3
B1
350
52
  3
B2
350
53
  3
B3
350
54
  3
B4
350
55
  3
B5
350
56
  3
B6
350
57
  3
B7
350
58
  0
DICTIONARY
  5
38C
102
{ACAD_REACTORS
330
C
102
}
330
C
100
AcDbDictionary
281
     1
  0
DICTIONARY
  5
59
102
{ACAD_REACTORS
330
C
102
}
330
C
100
AcDbDictionary
281
     1
  3
Standard
350
5A
  0
DICTIONARY
  5
2A
102
{ACAD_REACTORS
330
C
102
}
330
C
100
AcDbDictionary
281
     1
  3
2dWireframe
350
2F
  3
Basic
350
32
  3
Brighten
350
36
  3
ColorChange
350
3A
  3
Conceptual
350
34
  3
Dim
350
35
  3
EdgeColorOff
350
3D
  3
Facepattern
350
39
  3
Flat
350
2B
  3
FlatWithEdges
350
2C
  3
Gouraud
350
2D
  3
GouraudWithEdges
350
2E
  3
Hidden
350
31
  3
JitterOff
350
3B
  3
Linepattern
350
38
  3
OverhangOff
350
3C
  3
Realistic
350
33
  3
Shaded
350
42
  3
Shaded with edges
350
41
  3
Shades of Gray
350
3E
  3
Sketchy
350
3F
  3
Thicken
350
37
  3
Wireframe
350
30
  3
X-Ray
350
40
  0
XRECORD
  5
388
102
{ACAD_REACTORS
330
C
102
}
330
C
100
AcDbXrecord
280
     1
 90
        1
330
5A
  0
DICTIONARY
  5
384
102
{ACAD_REACTORS
330
C
102
}
330
C
100
AcDbDictionary
281
     1
  3
CANNOSCALE
350
385
  3
CMLEADERSTYLE
350
38A
  3
CTABLESTYLE
350
389
  0
LAYOUT
  5
1E
102
{ACAD_REACTORS
330
1A
102
}
330
1A
100
AcDbPlotSettings
  1

  2
none_device
  4

  6

 40
0.0
 41
0.0
 42
0.0
 43
0.0
 44
0.0
 45
0.0
 46
0.0
 47
0.0
 48
0.0
 49
0.0
140
0.0
141
0.0
142
1.0
143
1.0
 70
   688
 72
     0
 73
     0
 74
     5
  7

 75
    16
 76
     0
 77
     2
 78
   300
147
1.0
148
0.0
149
0.0
100
AcDbLayout
  1
Layout1
 70
     1
 71
     1
 10
0.0
 20
0.0
 11
12.0
 21
9.0
 12
0.0
 22
0.0
 32
0.0
 14
1.000000000000000E+20
 24
1.000000000000000E+20
 34
1.000000000000000E+20
 15
-1.000000000000000E+20
 25
-1.000000000000000E+20
 35
-1.000000000000000E+20
146
0.0
 13
0.0
 23
0.0
 33
0.0
 16
1.0
 26
0.0
 36
0.0
 17
0.0
 27
1.0
 37
0.0
 76
     0
330
1B
  0
LAYOUT
  5
26
102
{ACAD_REACTORS
330
1A
102
}
330
1A
100
AcDbPlotSettings
  1

  2
none_device
  4

  6

 40
0.0
 41
0.0
 42
0.0
 43
0.0
 44
0.0
 45
0.0
 46
0.0
 47
0.0
 48
0.0
 49
0.0
140
0.0
141
0.0
142
1.0
143
1.0
 70
   688
 72
     0
 73
     0
 74
     5
  7

 75
    16
 76
     0
 77
     2
 78
   300
147
1.0
148
0.0
149
0.0
100
AcDbLayout
  1
Layout2
 70
     1
 71
     2
 10
0.0
 20
0.0
 11
0.0
 21
0.0
 12
0.0
 22
0.0
 32
0.0
 14
0.0
 24
0.0
 34
0.0
 15
0.0
 25
0.0
 35
0.0
146
0.0
 13
0.0
 23
0.0
 33
0.0
 16
1.0
 26
0.0
 36
0.0
 17
0.0
 27
1.0
 37
0.0
 76
     0
330
23
  0
LAYOUT
  5
22
102
{ACAD_REACTORS
330
1A
102
}
330
1A
100
AcDbPlotSettings
  1

  2
none_device
  4
Letter_(8.50_x_11.00_Inches)
  6

 40
6.35
 41
6.35
 42
6.35000508
 43
6.35000508
 44
215.9
 45
279.4
 46
0.0
 47
0.0
 48
0.0
 49
0.0
140
0.0
141
0.0
142
1.0
143
1.0
 70
  1712
 72
     0
 73
     0
 74
     0
  7

 75
     0
 76
     0
 77
     2
 78
   300
147
1.0
148
0.0
149
0.0
100
AcDbLayout
  1
Model
 70
     1
 71
     0
 10
0.0
 20
0.0
 11
12.0
 21
9.0
 12
0.0
 22
0.0
 32
0.0
 14
-492.0049
 24
-160.2214
 34
0.0
 15
-163.5157
 25
262.5024
 35
0.0
146
0.0
 13
0.0
 23
0.0
 33
0.0
 16
1.0
 26
0.0
 36
0.0
 17
0.0
 27
1.0
 37
0.0
 76
     0
330
1F
331
29
  0
MATERIAL
  5
45
102
{ACAD_REACTORS
330
43
102
}
330
43
100
AcDbMaterial
  1
ByBlock
 72
     1
 94
      127
  0
MATERIAL
  5
44
102
{ACAD_REACTORS
330
43
102
}
330
43
100
AcDbMaterial
  1
ByLayer
 72
     1
 94
      127
  0
MATERIAL
  5
46
102
{ACAD_REACTORS
330
43
102
}
330
43
100
AcDbMaterial
  1
Global
 72
     1
 94
      127
  0
MLEADERSTYLE
  5
5C
102
{ACAD_REACTORS
330
5B
102
}
330
5B
100
AcDbMLeaderStyle
179
     2
170
     2
171
     1
172
     0
 90
        2
 40
0.0
 41
0.0
173
     1
 91
-1056964608
340
14
 92
       -2
290
     1
 42
0.09
291
     1
 43
0.36
  3
Standard
341
0
 44
0.18
300

342
11
174
     1
178
     6
175
     1
176
     0
 93
-1056964608
 45
0.18
292
     0
297
     0
 46
0.18
343
0
 94
-1056964608
 47
1.0
 49
1.0
140
1.0
293
     1
141
0.0
294
     1
177
     0
142
1.0
295
     0
296
     0
143
0.125
271
     0
272
     9
273
     9
298
     0
  0
MLINESTYLE
  5
18
102
{ACAD_REACTORS
330
17
102
}
330
17
100
AcDbMlineStyle
  2
Standard
 70
     0
  3

 62
   256
 51
90.0
 52
90.0
 71
     2
 49
0.5
 62
   256
  6
BYLAYER
 49
-0.5
 62
   256
  6
BYLAYER
  0
ACDBPLACEHOLDER
  5
F
102
{ACAD_REACTORS
330
E
102
}
330
E
  0
SCALE
  5
48
102
{ACAD_REACTORS
330
47
102
}
330
47
100
AcDbScale
 70
     0
300
1:1
140
1.0
141
1.0
290
     1
  0
SCALE
  5
49
102
{ACAD_REACTORS
330
47
102
}
330
47
100
AcDbScale
 70
     0
300
1/128" = 1'-0"
140
0.0078125
141
12.0
290
     0
  0
SCALE
  5
4A
102
{ACAD_REACTORS
330
47
102
}
330
47
100
AcDbScale
 70
     0
300
1/64" = 1'-0"
140
0.015625
141
12.0
290
     0
  0
SCALE
  5
4B
102
{ACAD_REACTORS
330
47
102
}
330
47
100
AcDbScale
 70
     0
300
1/32" = 1'-0"
140
0.03125
141
12.0
290
     0
  0
SCALE
  5
4C
102
{ACAD_REACTORS
330
47
102
}
330
47
100
AcDbScale
 70
     0
300
1/16" = 1'-0"
140
0.0625
141
12.0
290
     0
  0
SCALE
  5
4D
102
{ACAD_REACTORS
330
47
102
}
330
47
100
AcDbScale
 70
     0
300
3/32" = 1'-0"
140
0.09375
141
12.0
290
     0
  0
SCALE
  5
4E
102
{ACAD_REACTORS
330
47
102
}
330
47
100
AcDbScale
 70
     0
300
1/8" = 1'-0"
140
0.125
141
12.0
290
     0
  0
SCALE
  5
4F
102
{ACAD_REACTORS
330
47
102
}
330
47
100
AcDbScale
 70
     0
300
3/16" = 1'-0"
140
0.1875
141
12.0
290
     0
  0
SCALE
  5
50
102
{ACAD_REACTORS
330
47
102
}
330
47
100
AcDbScale
 70
     0
300
1/4" = 1'-0"
140
0.25
141
12.0
290
     0
  0
SCALE
  5
51
102
{ACAD_REACTORS
330
47
102
}
330
47
100
AcDbScale
 70
     0
300
3/8" = 1'-0"
140
0.375
141
12.0
290
     0
  0
SCALE
  5
52
102
{ACAD_REACTORS
330
47
102
}
330
47
100
AcDbScale
 70
     0
300
1/2" = 1'-0"
140
0.5
141
12.0
290
     0
  0
SCALE
  5
53
102
{ACAD_REACTORS
330
47
102
}
330
47
100
AcDbScale
 70
     0
300
3/4" = 1'-0"
140
0.75
141
12.0
290
     0
  0
SCALE
  5
54
102
{ACAD_REACTORS
330
47
102
}
330
47
100
AcDbScale
 70
     0
300
1" = 1'-0"
140
1.0
141
12.0
290
     0
  0
SCALE
  5
55
102
{ACAD_REACTORS
330
47
102
}
330
47
100
AcDbScale
 70
     0
300
1-1/2" = 1'-0"
140
1.5
141
12.0
290
     0
  0
SCALE
  5
56
102
{ACAD_REACTORS
330
47
102
}
330
47
100
AcDbScale
 70
     0
300
3" = 1'-0"
140
3.0
141
12.0
290
     0
  0
SCALE
  5
57
102
{ACAD_REACTORS
330
47
102
}
330
47
100
AcDbScale
 70
     0
300
6" = 1'-0"
140
6.0
141
12.0
290
     0
  0
SCALE
  5
58
102
{ACAD_REACTORS
330
47
102
}
330
47
100
AcDbScale
 70
     0
300
1'-0" = 1'-0"
140
12.0
141
12.0
290
     0
  0
TABLESTYLE
  5
5A
102
{ACAD_REACTORS
330
59
102
}
102
{ACAD_XDICTIONARY
360
386
102
}
330
59
100
AcDbTableStyle
  3
Standard
 70
     0
 71
     0
 40
0.06
 41
0.06
280
     0
281
     0
  7
Standard
140
0.18
170
     2
 62
     0
 63
   257
283
     0
 90
        4
 91
        0
  1

274
    -2
284
     1
 64
     0
275
    -2
285
     1
 65
     0
276
    -2
286
     1
 66
     0
277
    -2
287
     1
 67
     0
278
    -2
288
     1
 68
     0
279
    -2
289
     1
 69
     0
  7
Standard
140
0.25
170
     5
 62
     0
 63
   257
283
     0
 90
        4
 91
        0
  1

274
    -2
284
     1
 64
     0
275
    -2
285
     1
 65
     0
276
    -2
286
     1
 66
     0
277
    -2
287
     1
 67
     0
278
    -2
288
     1
 68
     0
279
    -2
289
     1
 69
     0
  7
Standard
140
0.18
170
     5
 62
     0
 63
   257
283
     0
 90
        4
 91
        0
  1

274
    -2
284
     1
 64
     0
275
    -2
285
     1
 65
     0
276
    -2
286
     1
 66
     0
277
    -2
287
     1
 67
     0
278
    -2
288
     1
 68
     0
279
    -2
289
     1
 69
     0
  0
VISUALSTYLE
  5
2F
102
{ACAD_REACTORS
330
2A
102
}
330
2A
100
AcDbVisualStyle
  2
2dWireframe
 70
     4
177
     3
291
     0
 70
    58
 90
        0
176
     1
 90
        2
176
     1
 90
        0
176
     1
 90
        0
176
     1
 40
0.6
176
     1
 40
30.0
176
     1
 62
     7
420
 16777215
176
     1
 90
        1
176
     1
 90
        4
176
     1
 62
     7
176
     1
 62
   257
176
     1
 90
        1
176
     1
 90
        1
176
     1
 40
1.0
176
     1
 90
        0
176
     1
 62
   257
176
     1
 40
1.0
176
     1
 90
        1
176
     1
 90
        6
176
     1
 90
        2
176
     1
 62
     7
176
     1
 90
        5
176
     1
 90
        0
176
     1
 90
        0
176
     1
290
     0
176
     1
 90
        1
176
     1
 40
0.0
176
     1
 90
        0
176
     1
290
     1
176
     1
290
     1
176
     1
290
     0
176
     1
290
     0
176
     1
290
     0
176
     1
290
     0
176
     1
290
     0
176
     1
290
     0
176
     1
290
     0
176
     1
 90
       50
176
     1
 40
0.0
176
     1
 40
1.0
176
     1
 90
        0
176
     1
 62
    18
420
        0
176
     1
 90
       50
176
     1
 90
        3
176
     1
 62
     5
420
      255
176
     1
290
     0
176
     1
 90
       50
176
     1
 90
       50
176
     1
 90
       50
176
     1
290
     0
176
     1
 90
       50
176
     1
 62
   256
176
     0
 40
1.0
176
     0
 90
        2
176
     1
  1
strokes_ogs.tif
176
     1
290
     0
176
     1
 40
1.0
176
     1
 40
1.0
176
     1
  0
VISUALSTYLE
  5
32
102
{ACAD_REACTORS
330
2A
102
}
330
2A
100
AcDbVisualStyle
  2
Basic
 70
     7
177
     3
291
     1
 70
    58
 90
        1
176
     1
 90
        0
176
     1
 90
        1
176
     1
 90
        0
176
     1
 40
0.6
176
     1
 40
30.0
176
     1
 62
     7
420
 16777215
176
     1
 90
        0
176
     1
 90
        4
176
     1
 62
     7
176
     1
 62
   257
176
     1
 90
        1
176
     1
 90
        1
176
     1
 40
1.0
176
     1
 90
        8
176
     1
 62
     7
176
     1
 40
1.0
176
     1
 90
        1
176
     1
 90
        6
176
     1
 90
        2
176
     1
 62
     7
176
     1
 90
        5
176
     1
 90
        0
176
     1
 90
        0
176
     1
290
     0
176
     1
 90
        1
176
     1
 40
0.0
176
     1
 90
        0
176
     1
290
     0
176
     1
290
     1
176
     1
290
     1
176
     1
290
     0
176
     1
290
     0
176
     1
290
     0
176
     1
290
     0
176
     1
290
     0
176
     1
290
     0
176
     1
 90
       50
176
     1
 40
0.0
176
     1
 40
1.0
176
     1
 90
        0
176
     1
 62
    18
420
        0
176
     1
 90
       50
176
     1
 90
        3
176
     1
 62
     5
420
      255
176
     1
290
     0
176
     1
 90
       50
176
     1
 90
       50
176
     1
 90
       50
176
     1
290
     0
176
     1
 90
       50
176
     1
 62
   256
176
     0
 40
1.0
176
     0
 90
        2
176
     1
  1
strokes_ogs.tif
176
     1
290
     0
176
     1
 40
1.0
176
     1
 40
1.0
176
     1
  0
VISUALSTYLE
  5
36
102
{ACAD_REACTORS
330
2A
102
}
330
2A
100
AcDbVisualStyle
  2
Brighten
 70
    12
177
     3
291
     1
 70
    58
 90
        2
176
     1
 90
        2
176
     1
 90
        0
176
     1
 90
        0
176
     1
 40
0.6
176
     1
 40
30.0
176
     1
 62
     7
420
 16777215
176
     1
 90
        1
176
     1
 90
        4
176
     1
 62
     7
176
     1
 62
   257
176
     1
 90
        1
176
     1
 90
        1
176
     1
 40
1.0
176
     1
 90
        8
176
     1
 62
     7
176
     1
 40
1.0
176
     1
 90
        1
176
     1
 90
        6
176
     1
 90
        2
176
     1
 62
     7
176
     1
 90
        5
176
     1
 90
        0
176
     1
 90
        0
176
     1
290
     0
176
     1
 90
        1
176
     1
 40
50.0
176
     1
 90
        0
176
     1
290
     0
176
     1
290
     1
176
     1
290
     1
176
     1
290
     0
176
     1
290
     0
176
     1
290
     0
176
     1
290
     0
176
     1
290
     0
176
     1
290
     0
176
     1
 90
       50
176
     1
 40
0.0
176
     1
 40
1.0
176
     1
 90
        0
176
     1
 62
    18
420
        0
176
     1
 90
       50
176
     1
 90
        3
176
     1
 62
     5
420
      255
176
     1
290
     0
176
     1
 90
       50
176
     1
 90
       50
176
     1
 90
       50
176
     1
290
     0
176
     1
 90
       50
176
     1
 62
   256
176
     0
 40
1.0
176
     0
 90
        2
176
     1
  1
strokes_ogs.tif
176
     1
290
     0
176
     1
 40
1.0
176
     1
 40
1.0
176
     1
  0
VISUALSTYLE
  5
3A
102
{ACAD_REACTORS
330
2A
102
}
330
2A
100
AcDbVisualStyle
  2
ColorChange
 70
    16
177
     3
291
     1
 70
    58
 90
        2
176
     1
 90
        2
176
     1
 90
        3
176
     1
 90
        0
176
     1
 40
0.6
176
     1
 40
30.0
176
     1
 62
     8
420
  8421504
176
     1
 90
        1
176
     1
 90
        4
176
     1
 62
     7
176
     1
 62
   257
176
     1
 90
        1
176
     1
 90
        1
176
     1
 40
1.0
176
     1
 90
        8
176
     1
 62
     8
420
  8421504
176
     1
 40
1.0
176
     1
 90
        1
176
     1
 90
        6
176
     1
 90
        2
176
     1
 62
     7
176
     1
 90
        5
176
     1
 90
        0
176
     1
 90
        0
176
     1
290
     0
176
     1
 90
        1
176
     1
 40
0.0
176
     1
 90
        0
176
     1
290
     0
176
     1
290
     1
176
     1
290
     1
176
     1
290
     0
176
     1
290
     0
176
     1
290
     0
176
     1
290
     0
176
     1
290
     0
176
     1
290
     0
176
     1
 90
       50
176
     1
 40
0.0
176
     1
 40
1.0
176
     1
 90
        0
176
     1
 62
    18
420
        0
176
     1
 90
       50
176
     1
 90
        3
176
     1
 62
     5
420
      255
176
     1
290
     0
176
     1
 90
       50
176
     1
 90
       50
176
     1
 90
       50
176
     1
290
     0
176
     1
 90
       50
176
     1
 62
   256
176
     0
 40
1.0
176
     0
 90
        2
176
     1
  1
strokes_ogs.tif
176
     1
290
     0
176
     1
 40
1.0
176
     1
 40
1.0
176
     1
  0
VISUALSTYLE
  5
34
102
{ACAD_REACTORS
330
2A
102
}
330
2A
100
AcDbVisualStyle
  2
Conceptual
 70
     9
177
     3
291
     0
 70
    58
 90
        3
176
     1
 90
        2
176
     1
 90
        0
176
     1
 90
        0
176
     1
 40
0.6
176
     1
 40
30.0
176
     1
 62
     7
420
 16777215
176
     1
 90
        2
176
     1
 90
        2
176
     1
 62
     7
176
     1
 62
   257
176
     1
 90
        1
176
     1
 90
        1
176
     1
 40
179.0
176
     1
 90
        8
176
     1
 62
     7
176
     1
 40
1.0
176
     1
 90
        1
176
     1
 90
        6
176
     1
 90
        2
176
     1
 62
     7
176
     1
 90
        3
176
     1
 90
        0
176
     1
 90
        0
176
     1
290
     0
176
     1
 90
        1
176
     1
 40
0.0
176
     1
 90
        0
176
     1
290
     0
176
     1
290
     1
176
     1
290
     1
176
     1
290
     0
176
     1
290
     0
176
     1
290
     0
176
     1
290
     0
176
     1
290
     0
176
     1
290
     0
176
     1
 90
       50
176
     1
 40
0.0
176
     1
 40
1.0
176
     1
 90
        0
176
     1
 62
    18
420
        0
176
     1
 90
       50
176
     1
 90
        3
176
     1
 62
     5
420
      255
176
     1
290
     0
176
     1
 90
       50
176
     1
 90
       50
176
     1
 90
       50
176
     1
290
     0
176
     1
 90
       50
176
     1
 62
   256
176
     0
 40
1.0
176
     0
 90
        2
176
     1
  1
strokes_ogs.tif
176
     1
290
     0
176
     1
 40
1.0
176
     1
 40
1.0
176
     1
  0
VISUALSTYLE
  5
35
102
{ACAD_REACTORS
330
2A
102
}
330
2A
100
AcDbVisualStyle
  2
Dim
 70
    11
177
     3
291
     1
 70
    58
 90
        2
176
     1
 90
        2
176
     1
 90
        0
176
     1
 90
        0
176
     1
 40
0.6
176
     1
 40
30.0
176
     1
 62
     7
420
 16777215
176
     1
 90
        1
176
     1
 90
        4
176
     1
 62
     7
176
     1
 62
   257
176
     1
 90
        1
176
     1
 90
        1
176
     1
 40
1.0
176
     1
 90
        8
176
     1
 62
     7
176
     1
 40
1.0
176
     1
 90
        1
176
     1
 90
        6
176
     1
 90
        2
176
     1
 62
     7
176
     1
 90
        5
176
     1
 90
        0
176
     1
 90
        0
176
     1
290
     0
176
     1
 90
        1
176
     1
 40
-50.0
176
     1
 90
        0
176
     1
290
     0
176
     1
290
     1
176
     1
290
     1
176
     1
290
     0
176
     1
290
     0
176
     1
290
     0
176
     1
290
     0
176
     1
290
     0
176
     1
290
     0
176
     1
 90
       50
176
     1
 40
0.0
176
     1
 40
1.0
176
     1
 90
        0
176
     1
 62
    18
420
        0
176
     1
 90
       50
176
     1
 90
        3
176
     1
 62
     5
420
      255
176
     1
290
     0
176
     1
 90
       50
176
     1
 90
       50
176
     1
 90
       50
176
     1
290
     0
176
     1
 90
       50
176
     1
 62
   256
176
     0
 40
1.0
176
     0
 90
        2
176
     1
  1
strokes_ogs.tif
176
     1
290
     0
176
     1
 40
1.0
176
     1
 40
1.0
176
     1
  0
VISUALSTYLE
  5
3D
102
{ACAD_REACTORS
330
2A
102
}
330
2A
100
AcDbVisualStyle
  2
EdgeColorOff
 70
    22
177
     3
291
     1
 70
    58
 90
        2
176
     0
 90
        2
176
     0
 90
        0
176
     0
 90
        0
176
     0
 40
0.6
176
     0
 40
30.0
176
     0
 62
     7
420
 16777215
176
     0
 90
        1
176
     0
 90
        4
176
     0
 62
     7
176
     0
 62
   257
176
     0
 90
        1
176
     0
 90
        1
176
     0
 40
1.0
176
     0
 90
        8
176
     2
 62
     7
176
     0
 40
1.0
176
     0
 90
        1
176
     0
 90
        6
176
     0
 90
        2
176
     0
 62
     7
176
     0
 90
        5
176
     0
 90
        0
176
     0
 90
        0
176
     0
290
     0
176
     0
 90
        1
176
     0
 40
0.0
176
     0
 90
        0
176
     0
290
     0
176
     0
290
     1
176
     0
290
     1
176
     0
290
     0
176
     0
290
     0
176
     0
290
     0
176
     0
290
     0
176
     0
290
     0
176
     0
290
     0
176
     0
 90
       50
176
     0
 40
0.0
176
     0
 40
1.0
176
     0
 90
        0
176
     0
 62
    18
420
        0
176
     0
 90
       50
176
     0
 90
        3
176
     0
 62
     5
420
      255
176
     0
290
     0
176
     0
 90
       50
176
     0
 90
       50
176
     0
 90
       50
176
     0
290
     0
176
     0
 90
       50
176
     0
 62
   256
176
     0
 40
1.0
176
     0
 90
        2
176
     0
  1
strokes_ogs.tif
176
     0
290
     0
176
     0
 40
1.0
176
     0
 40
1.0
176
     0
  0
VISUALSTYLE
  5
39
102
{ACAD_REACTORS
330
2A
102
}
330
2A
100
AcDbVisualStyle
  2
Facepattern
 70
    15
177
     3
291
     1
 70
    58
 90
        2
176
     1
 90
        2
176
     1
 90
        0
176
     1
 90
        0
176
     1
 40
0.6
176
     1
 40
30.0
176
     1
 62
     7
420
 16777215
176
     1
 90
        1
176
     1
 90
        4
176
     1
 62
     7
176
     1
 62
   257
176
     1
 90
        1
176
     1
 90
        1
176
     1
 40
1.0
176
     1
 90
        8
176
     1
 62
     7
176
     1
 40
1.0
176
     1
 90
        1
176
     1
 90
        6
176
     1
 90
        2
176
     1
 62
     7
176
     1
 90
        5
176
     1
 90
        0
176
     1
 90
        0
176
     1
290
     0
176
     1
 90
        1
176
     1
 40
0.0
176
     1
 90
        0
176
     1
290
     0
176
     1
290
     1
176
     1
290
     1
176
     1
290
     0
176
     1
290
     0
176
     1
290
     0
176
     1
290
     0
176
     1
290
     0
176
     1
290
     0
176
     1
 90
       50
176
     1
 40
0.0
176
     1
 40
1.0
176
     1
 90
        0
176
     1
 62
    18
420
        0
176
     1
 90
       50
176
     1
 90
        3
176
     1
 62
     5
420
      255
176
     1
290
     0
176
     1
 90
       50
176
     1
 90
       50
176
     1
 90
       50
176
     1
290
     0
176
     1
 90
       50
176
     1
 62
   256
176
     0
 40
1.0
176
     0
 90
        2
176
     1
  1
strokes_ogs.tif
176
     1
290
     0
176
     1
 40
1.0
176
     1
 40
1.0
176
     1
  0
VISUALSTYLE
  5
2B
102
{ACAD_REACTORS
330
2A
102
}
330
2A
100
AcDbVisualStyle
  2
Flat
 70
     0
177
     3
291
     1
 70
    58
 90
        2
176
     1
 90
        1
176
     1
 90
        1
176
     1
 90
        2
176
     1
 40
0.6
176
     1
 40
30.0
176
     1
 62
     7
420
 16777215
176
     1
 90
        0
176
     1
 90
        0
176
     1
 62
     7
176
     1
 62
   257
176
     1
 90
        1
176
     1
 90
        1
176
     1
 40
1.0
176
     1
 90
        8
176
     1
 62
     7
176
     1
 40
1.0
176
     1
 90
        1
176
     1
 90
        6
176
     1
 90
        2
176
     1
 62
     7
176
     1
 90
        5
176
     1
 90
        0
176
     1
 90
        0
176
     1
290
     0
176
     1
 90
       13
176
     1
 40
0.0
176
     1
 90
        0
176
     1
290
     0
176
     1
290
     1
176
     1
290
     1
176
     1
290
     0
176
     1
290
     0
176
     1
290
     0
176
     1
290
     0
176
     1
290
     0
176
     1
290
     0
176
     1
 90
       50
176
     1
 40
0.0
176
     1
 40
1.0
176
     1
 90
        0
176
     1
 62
    18
420
        0
176
     1
 90
       50
176
     1
 90
        3
176
     1
 62
     5
420
      255
176
     1
290
     0
176
     1
 90
       50
176
     1
 90
       50
176
     1
 90
       50
176
     1
290
     0
176
     1
 90
       50
176
     1
 62
   256
176
     0
 40
1.0
176
     0
 90
        2
176
     1
  1
strokes_ogs.tif
176
     1
290
     0
176
     1
 40
1.0
176
     1
 40
1.0
176
     1
  0
VISUALSTYLE
  5
2C
102
{ACAD_REACTORS
330
2A
102
}
330
2A
100
AcDbVisualStyle
  2
FlatWithEdges
 70
     1
177
     3
291
     1
 70
    58
 90
        2
176
     1
 90
        1
176
     1
 90
        1
176
     1
 90
        2
176
     1
 40
0.6
176
     1
 40
30.0
176
     1
 62
     7
420
 16777215
176
     1
 90
        1
176
     1
 90
        0
176
     1
 62
     7
176
     1
 62
   257
176
     1
 90
        1
176
     1
 90
        1
176
     1
 40
1.0
176
     1
 90
        0
176
     1
 62
   257
176
     1
 40
1.0
176
     1
 90
        1
176
     1
 90
        6
176
     1
 90
        2
176
     1
 62
     7
176
     1
 90
        5
176
     1
 90
        0
176
     1
 90
        0
176
     1
290
     0
176
     1
 90
       13
176
     1
 40
0.0
176
     1
 90
        0
176
     1
290
     0
176
     1
290
     1
176
     1
290
     1
176
     1
290
     0
176
     1
290
     0
176
     1
290
     0
176
     1
290
     0
176
     1
290
     0
176
     1
290
     0
176
     1
 90
       50
176
     1
 40
0.0
176
     1
 40
1.0
176
     1
 90
        0
176
     1
 62
    18
420
        0
176
     1
 90
       50
176
     1
 90
        3
176
     1
 62
     5
420
      255
176
     1
290
     0
176
     1
 90
       50
176
     1
 90
       50
176
     1
 90
       50
176
     1
290
     0
176
     1
 90
       50
176
     1
 62
   256
176
     0
 40
1.0
176
     0
 90
        2
176
     1
  1
strokes_ogs.tif
176
     1
290
     0
176
     1
 40
1.0
176
     1
 40
1.0
176
     1
  0
VISUALSTYLE
  5
2D
102
{ACAD_REACTORS
330
2A
102
}
330
2A
100
AcDbVisualStyle
  2
Gouraud
 70
     2
177
     3
291
     1
 70
    58
 90
        2
176
     1
 90
        2
176
     1
 90
        1
176
     1
 90
        2
176
     1
 40
0.6
176
     1
 40
30.0
176
     1
 62
     7
420
 16777215
176
     1
 90
        0
176
     1
 90
        0
176
     1
 62
     7
176
     1
 62
   257
176
     1
 90
        1
176
     1
 90
        1
176
     1
 40
1.0
176
     1
 90
        0
176
     1
 62
     7
176
     1
 40
1.0
176
     1
 90
        1
176
     1
 90
        6
176
     1
 90
        2
176
     1
 62
     7
176
     1
 90
        5
176
     1
 90
        0
176
     1
 90
        0
176
     1
290
     0
176
     1
 90
       13
176
     1
 40
0.0
176
     1
 90
        0
176
     1
290
     0
176
     1
290
     1
176
     1
290
     1
176
     1
290
     0
176
     1
290
     0
176
     1
290
     0
176
     1
290
     0
176
     1
290
     0
176
     1
290
     0
176
     1
 90
       50
176
     1
 40
0.0
176
     1
 40
1.0
176
     1
 90
        0
176
     1
 62
    18
420
        0
176
     1
 90
       50
176
     1
 90
        3
176
     1
 62
     5
420
      255
176
     1
290
     0
176
     1
 90
       50
176
     1
 90
       50
176
     1
 90
       50
176
     1
290
     0
176
     1
 90
       50
176
     1
 62
   256
176
     0
 40
1.0
176
     0
 90
        2
176
     1
  1
strokes_ogs.tif
176
     1
290
     0
176
     1
 40
1.0
176
     1
 40
1.0
176
     1
  0
VISUALSTYLE
  5
2E
102
{ACAD_REACTORS
330
2A
102
}
330
2A
100
AcDbVisualStyle
  2
GouraudWithEdges
 70
     3
177
     3
291
     1
 70
    58
 90
        2
176
     1
 90
        2
176
     1
 90
        1
176
     1
 90
        2
176
     1
 40
0.6
176
     1
 40
30.0
176
     1
 62
     7
420
 16777215
176
     1
 90
        1
176
     1
 90
        0
176
     1
 62
     7
176
     1
 62
   257
176
     1
 90
        1
176
     1
 90
        1
176
     1
 40
1.0
176
     1
 90
        0
176
     1
 62
   257
176
     1
 40
1.0
176
     1
 90
        1
176
     1
 90
        6
176
     1
 90
        2
176
     1
 62
     7
176
     1
 90
        5
176
     1
 90
        0
176
     1
 90
        0
176
     1
290
     0
176
     1
 90
       13
176
     1
 40
0.0
176
     1
 90
        0
176
     1
290
     0
176
     1
290
     1
176
     1
290
     1
176
     1
290
     0
176
     1
290
     0
176
     1
290
     0
176
     1
290
     0
176
     1
290
     0
176
     1
290
     0
176
     1
 90
       50
176
     1
 40
0.0
176
     1
 40
1.0
176
     1
 90
        0
176
     1
 62
    18
420
        0
176
     1
 90
       50
176
     1
 90
        3
176
     1
 62
     5
420
      255
176
     1
290
     0
176
     1
 90
       50
176
     1
 90
       50
176
     1
 90
       50
176
     1
290
     0
176
     1
 90
       50
176
     1
 62
   256
176
     0
 40
1.0
176
     0
 90
        2
176
     1
  1
strokes_ogs.tif
176
     1
290
     0
176
     1
 40
1.0
176
     1
 40
1.0
176
     1
  0
VISUALSTYLE
  5
31
102
{ACAD_REACTORS
330
2A
102
}
330
2A
100
AcDbVisualStyle
  2
Hidden
 70
     6
177
     3
291
     0
 70
    58
 90
        1
176
     1
 90
        2
176
     1
 90
        2
176
     1
 90
        0
176
     1
 40
0.6
176
     1
 40
30.0
176
     1
 62
     7
420
 16777215
176
     1
 90
        2
176
     1
 90
        2
176
     1
 62
     7
176
     1
 62
   257
176
     1
 90
        2
176
     1
 90
        1
176
     1
 40
40.0
176
     1
 90
        0
176
     1
 62
   257
176
     1
 40
1.0
176
     1
 90
        1
176
     1
 90
        6
176
     1
 90
        2
176
     1
 62
     7
176
     1
 90
        3
176
     1
 90
        0
176
     1
 90
        0
176
     1
290
     0
176
     1
 90
        1
176
     1
 40
0.0
176
     1
 90
        0
176
     1
290
     0
176
     1
290
     1
176
     1
290
     1
176
     1
290
     0
176
     1
290
     0
176
     1
290
     0
176
     1
290
     0
176
     1
290
     0
176
     1
290
     0
176
     1
 90
       50
176
     1
 40
0.0
176
     1
 40
1.0
176
     1
 90
        0
176
     1
 62
    18
420
        0
176
     1
 90
       50
176
     1
 90
        3
176
     1
 62
     5
420
      255
176
     1
290
     0
176
     1
 90
       50
176
     1
 90
       50
176
     1
 90
       50
176
     1
290
     0
176
     1
 90
       50
176
     1
 62
   256
176
     0
 40
1.0
176
     0
 90
        2
176
     1
  1
strokes_ogs.tif
176
     1
290
     0
176
     1
 40
1.0
176
     1
 40
1.0
176
     1
  0
VISUALSTYLE
  5
3B
102
{ACAD_REACTORS
330
2A
102
}
330
2A
100
AcDbVisualStyle
  2
JitterOff
 70
    20
177
     3
291
     1
 70
    58
 90
        2
176
     0
 90
        2
176
     0
 90
        0
176
     0
 90
        0
176
     0
 40
0.6
176
     0
 40
30.0
176
     0
 62
     7
420
 16777215
176
     0
 90
        1
176
     0
 90
        4
176
     0
 62
     7
176
     0
 62
   257
176
     0
 90
        1
176
     0
 90
        1
176
     0
 40
1.0
176
     0
 90
       10
176
     2
 62
     7
176
     0
 40
1.0
176
     0
 90
        1
176
     0
 90
        6
176
     0
 90
        2
176
     0
 62
     7
176
     0
 90
        5
176
     0
 90
        0
176
     0
 90
        0
176
     0
290
     0
176
     0
 90
        1
176
     0
 40
0.0
176
     0
 90
        0
176
     0
290
     0
176
     0
290
     1
176
     0
290
     1
176
     0
290
     0
176
     0
290
     0
176
     0
290
     0
176
     0
290
     0
176
     0
290
     0
176
     0
290
     0
176
     0
 90
       50
176
     0
 40
0.0
176
     0
 40
1.0
176
     0
 90
        0
176
     0
 62
    18
420
        0
176
     0
 90
       50
176
     0
 90
        3
176
     0
 62
     5
420
      255
176
     0
290
     0
176
     0
 90
       50
176
     0
 90
       50
176
     0
 90
       50
176
     0
290
     0
176
     0
 90
       50
176
     0
 62
   256
176
     0
 40
1.0
176
     0
 90
        2
176
     0
  1
strokes_ogs.tif
176
     0
290
     0
176
     0
 40
1.0
176
     0
 40
1.0
176
     0
  0
VISUALSTYLE
  5
38
102
{ACAD_REACTORS
330
2A
102
}
330
2A
100
AcDbVisualStyle
  2
Linepattern
 70
    14
177
     3
291
     1
 70
    58
 90
        2
176
     1
 90
        2
176
     1
 90
        0
176
     1
 90
        0
176
     1
 40
0.6
176
     1
 40
30.0
176
     1
 62
     7
420
 16777215
176
     1
 90
        1
176
     1
 90
        4
176
     1
 62
     7
176
     1
 62
   257
176
     1
 90
        7
176
     1
 90
        7
176
     1
 40
1.0
176
     1
 90
        8
176
     1
 62
     7
176
     1
 40
1.0
176
     1
 90
        1
176
     1
 90
        6
176
     1
 90
        2
176
     1
 62
     7
176
     1
 90
        5
176
     1
 90
        0
176
     1
 90
        0
176
     1
290
     0
176
     1
 90
        1
176
     1
 40
0.0
176
     1
 90
        0
176
     1
290
     0
176
     1
290
     1
176
     1
290
     1
176
     1
290
     0
176
     1
290
     0
176
     1
290
     0
176
     1
290
     0
176
     1
290
     0
176
     1
290
     0
176
     1
 90
       50
176
     1
 40
0.0
176
     1
 40
1.0
176
     1
 90
        0
176
     1
 62
    18
420
        0
176
     1
 90
       50
176
     1
 90
        3
176
     1
 62
     5
420
      255
176
     1
290
     0
176
     1
 90
       50
176
     1
 90
       50
176
     1
 90
       50
176
     1
290
     0
176
     1
 90
       50
176
     1
 62
   256
176
     0
 40
1.0
176
     0
 90
        2
176
     1
  1
strokes_ogs.tif
176
     1
290
     0
176
     1
 40
1.0
176
     1
 40
1.0
176
     1
  0
VISUALSTYLE
  5
3C
102
{ACAD_REACTORS
330
2A
102
}
330
2A
100
AcDbVisualStyle
  2
OverhangOff
 70
    21
177
     3
291
     1
 70
    58
 90
        2
176
     0
 90
        2
176
     0
 90
        0
176
     0
 90
        0
176
     0
 40
0.6
176
     0
 40
30.0
176
     0
 62
     7
420
 16777215
176
     0
 90
        1
176
     0
 90
        4
176
     0
 62
     7
176
     0
 62
   257
176
     0
 90
        1
176
     0
 90
        1
176
     0
 40
1.0
176
     0
 90
        9
176
     2
 62
     7
176
     0
 40
1.0
176
     0
 90
        1
176
     0
 90
        6
176
     0
 90
        2
176
     0
 62
     7
176
     0
 90
        5
176
     0
 90
        0
176
     0
 90
        0
176
     0
290
     0
176
     0
 90
        1
176
     0
 40
0.0
176
     0
 90
        0
176
     0
290
     0
176
     0
290
     1
176
     0
290
     1
176
     0
290
     0
176
     0
290
     0
176
     0
290
     0
176
     0
290
     0
176
     0
290
     0
176
     0
290
     0
176
     0
 90
       50
176
     0
 40
0.0
176
     0
 40
1.0
176
     0
 90
        0
176
     0
 62
    18
420
        0
176
     0
 90
       50
176
     0
 90
        3
176
     0
 62
     5
420
      255
176
     0
290
     0
176
     0
 90
       50
176
     0
 90
       50
176
     0
 90
       50
176
     0
290
     0
176
     0
 90
       50
176
     0
 62
   256
176
     0
 40
1.0
176
     0
 90
        2
176
     0
  1
strokes_ogs.tif
176
     0
290
     0
176
     0
 40
1.0
176
     0
 40
1.0
176
     0
  0
VISUALSTYLE
  5
33
102
{ACAD_REACTORS
330
2A
102
}
330
2A
100
AcDbVisualStyle
  2
Realistic
 70
     8
177
     3
291
     0
 70
    58
 90
        2
176
     1
 90
        3
176
     1
 90
        0
176
     1
 90
        2
176
     1
 40
0.6
176
     1
 40
30.0
176
     1
 62
     7
420
 16777215
176
     1
 90
        0
176
     1
 90
        0
176
     1
 62
     7
176
     1
 62
   257
176
     1
 90
        1
176
     1
 90
        1
176
     1
 40
1.0
176
     1
 90
        8
176
     1
 62
   257
176
     1
 40
1.0
176
     1
 90
        1
176
     1
 90
        6
176
     1
 90
        2
176
     1
 62
     7
176
     1
 90
        3
176
     1
 90
        0
176
     1
 90
        0
176
     1
290
     0
176
     1
 90
       13
176
     1
 40
0.0
176
     1
 90
        0
176
     1
290
     0
176
     1
290
     1
176
     1
290
     1
176
     1
290
     0
176
     1
290
     0
176
     1
290
     0
176
     1
290
     0
176
     1
290
     0
176
     1
290
     0
176
     1
 90
       50
176
     1
 40
0.0
176
     1
 40
1.0
176
     1
 90
        0
176
     1
 62
    18
420
        0
176
     1
 90
       50
176
     1
 90
        3
176
     1
 62
     5
420
      255
176
     1
290
     0
176
     1
 90
       50
176
     1
 90
       50
176
     1
 90
       50
176
     1
290
     0
176
     1
 90
       50
176
     1
 62
   256
176
     0
 40
1.0
176
     0
 90
        2
176
     1
  1
strokes_ogs.tif
176
     1
290
     0
176
     1
 40
1.0
176
     1
 40
1.0
176
     1
  0
VISUALSTYLE
  5
42
102
{ACAD_REACTORS
330
2A
102
}
330
2A
100
AcDbVisualStyle
  2
Shaded
 70
    27
177
     3
291
     0
 70
    58
 90
        2
176
     1
 90
        2
176
     1
 90
        1
176
     1
 90
        2
176
     1
 40
0.6
176
     1
 40
30.0
176
     1
 62
     7
420
 16777215
176
     1
 90
        0
176
     1
 90
        4
176
     1
 62
     7
176
     1
 62
   257
176
     1
 90
        1
176
     1
 90
        1
176
     1
 40
1.0
176
     1
 90
        8
176
     1
 62
   257
176
     1
 40
1.0
176
     1
 90
        1
176
     1
 90
        6
176
     1
 90
        2
176
     1
 62
     8
420
  7895160
176
     1
 90
        3
176
     1
 90
        0
176
     1
 90
        0
176
     1
290
     0
176
     1
 90
        5
176
     1
 40
0.0
176
     1
 90
        0
176
     1
290
     0
176
     1
290
     1
176
     1
290
     1
176
     1
290
     0
176
     1
290
     0
176
     1
290
     0
176
     1
290
     0
176
     1
290
     0
176
     1
290
     0
176
     1
 90
       50
176
     1
 40
0.0
176
     1
 40
1.0
176
     1
 90
        0
176
     1
 62
    18
420
        0
176
     1
 90
       50
176
     1
 90
        3
176
     1
 62
     5
420
      255
176
     1
290
     0
176
     1
 90
       50
176
     1
 90
       50
176
     1
 90
       50
176
     1
290
     0
176
     1
 90
       50
176
     1
 62
   256
176
     0
 40
1.0
176
     0
 90
        2
176
     1
  1
strokes_ogs.tif
176
     1
290
     0
176
     1
 40
1.0
176
     1
 40
1.0
176
     1
  0
VISUALSTYLE
  5
41
102
{ACAD_REACTORS
330
2A
102
}
330
2A
100
AcDbVisualStyle
  2
Shaded with edges
 70
    26
177
     3
291
     0
 70
    58
 90
        2
176
     1
 90
        2
176
     1
 90
        1
176
     1
 90
        2
176
     1
 40
0.6
176
     1
 40
30.0
176
     1
 62
     7
420
 16777215
176
     1
 90
        1
176
     1
 90
       10
176
     1
 62
     7
176
     1
 62
   257
176
     1
 90
        2
176
     1
 90
        1
176
     1
 40
1.0
176
     1
 90
        8
176
     1
 62
   257
176
     1
 40
1.0
176
     1
 90
        1
176
     1
 90
        6
176
     1
 90
        2
176
     1
 62
     7
176
     1
 90
        3
176
     1
 90
        0
176
     1
 90
        0
176
     1
290
     0
176
     1
 90
        5
176
     1
 40
0.0
176
     1
 90
        0
176
     1
290
     0
176
     1
290
     1
176
     1
290
     1
176
     1
290
     0
176
     1
290
     0
176
     1
290
     0
176
     1
290
     0
176
     1
290
     0
176
     1
290
     0
176
     1
 90
       50
176
     1
 40
0.0
176
     1
 40
1.0
176
     1
 90
        0
176
     1
 62
    18
420
        0
176
     1
 90
       50
176
     1
 90
        3
176
     1
 62
     5
420
      255
176
     1
290
     0
176
     1
 90
       50
176
     1
 90
       50
176
     1
 90
       50
176
     1
290
     0
176
     1
 90
       50
176
     1
 62
   256
176
     0
 40
1.0
176
     0
 90
        2
176
     1
  1
strokes_ogs.tif
176
     1
290
     0
176
     1
 40
1.0
176
     1
 40
1.0
176
     1
  0
VISUALSTYLE
  5
3E
102
{ACAD_REACTORS
330
2A
102
}
330
2A
100
AcDbVisualStyle
  2
Shades of Gray
 70
    23
177
     3
291
     0
 70
    58
 90
        2
176
     1
 90
        2
176
     1
 90
        3
176
     1
 90
        0
176
     1
 40
0.6
176
     1
 40
30.0
176
     1
 62
     7
420
 16777215
176
     1
 90
        2
176
     1
 90
        2
176
     1
 62
     7
176
     1
 62
     7
176
     1
 90
        1
176
     1
 90
        1
176
     1
 40
40.0
176
     1
 90
        8
176
     1
 62
     7
176
     1
 40
1.0
176
     1
 90
        1
176
     1
 90
        6
176
     1
 90
        2
176
     1
 62
     7
176
     1
 90
        3
176
     1
 90
        0
176
     1
 90
        0
176
     1
290
     0
176
     1
 90
        1
176
     1
 40
0.0
176
     1
 90
        0
176
     1
290
     0
176
     1
290
     1
176
     1
290
     1
176
     1
290
     0
176
     1
290
     0
176
     1
290
     0
176
     1
290
     0
176
     1
290
     0
176
     1
290
     0
176
     1
 90
       50
176
     1
 40
0.0
176
     1
 40
1.0
176
     1
 90
        0
176
     1
 62
    18
420
        0
176
     1
 90
       50
176
     1
 90
        3
176
     1
 62
     5
420
      255
176
     1
290
     0
176
     1
 90
       50
176
     1
 90
       50
176
     1
 90
       50
176
     1
290
     0
176
     1
 90
       50
176
     1
 62
   256
176
     0
 40
1.0
176
     0
 90
        2
176
     1
  1
strokes_ogs.tif
176
     1
290
     0
176
     1
 40
1.0
176
     1
 40
1.0
176
     1
  0
VISUALSTYLE
  5
3F
102
{ACAD_REACTORS
330
2A
102
}
330
2A
100
AcDbVisualStyle
  2
Sketchy
 70
    24
177
     3
291
     0
 70
    58
 90
        1
176
     1
 90
        2
176
     1
 90
        2
176
     1
 90
        0
176
     1
 40
0.6
176
     1
 40
30.0
176
     1
 62
     7
420
 16777215
176
     1
 90
        2
176
     1
 90
        2
176
     1
 62
     7
176
     1
 62
     7
176
     1
 90
        1
176
     1
 90
        1
176
     1
 40
40.0
176
     1
 90
       11
176
     1
 62
     7
176
     1
 40
1.0
176
     1
 90
        1
176
     1
 90
        6
176
     1
 90
        2
176
     1
 62
     7
176
     1
 90
        6
176
     1
 90
        0
176
     1
 90
        0
176
     1
290
     0
176
     1
 90
        1
176
     1
 40
0.0
176
     1
 90
        0
176
     1
290
     0
176
     1
290
     1
176
     1
290
     1
176
     1
290
     0
176
     1
290
     0
176
     1
290
     0
176
     1
290
     0
176
     1
290
     0
176
     1
290
     0
176
     1
 90
       50
176
     1
 40
0.0
176
     1
 40
1.0
176
     1
 90
        0
176
     1
 62
    18
420
        0
176
     1
 90
       50
176
     1
 90
        3
176
     1
 62
     5
420
      255
176
     1
290
     0
176
     1
 90
       50
176
     1
 90
       50
176
     1
 90
       50
176
     1
290
     0
176
     1
 90
       50
176
     1
 62
   256
176
     0
 40
1.0
176
     0
 90
        2
176
     1
  1
strokes_ogs.tif
176
     1
290
     0
176
     1
 40
1.0
176
     1
 40
1.0
176
     1
  0
VISUALSTYLE
  5
37
102
{ACAD_REACTORS
330
2A
102
}
330
2A
100
AcDbVisualStyle
  2
Thicken
 70
    13
177
     3
291
     1
 70
    58
 90
        2
176
     1
 90
        2
176
     1
 90
        0
176
     1
 90
        0
176
     1
 40
0.6
176
     1
 40
30.0
176
     1
 62
     7
420
 16777215
176
     1
 90
        1
176
     1
 90
        4
176
     1
 62
     7
176
     1
 62
   257
176
     1
 90
        1
176
     1
 90
        1
176
     1
 40
1.0
176
     1
 90
       12
176
     1
 62
     7
176
     1
 40
1.0
176
     1
 90
        1
176
     1
 90
        6
176
     1
 90
        2
176
     1
 62
     7
176
     1
 90
        5
176
     1
 90
        0
176
     1
 90
        0
176
     1
290
     0
176
     1
 90
        1
176
     1
 40
0.0
176
     1
 90
        0
176
     1
290
     0
176
     1
290
     1
176
     1
290
     1
176
     1
290
     0
176
     1
290
     0
176
     1
290
     0
176
     1
290
     0
176
     1
290
     0
176
     1
290
     0
176
     1
 90
       50
176
     1
 40
0.0
176
     1
 40
1.0
176
     1
 90
        0
176
     1
 62
    18
420
        0
176
     1
 90
       50
176
     1
 90
        3
176
     1
 62
     5
420
      255
176
     1
290
     0
176
     1
 90
       50
176
     1
 90
       50
176
     1
 90
       50
176
     1
290
     0
176
     1
 90
       50
176
     1
 62
   256
176
     0
 40
1.0
176
     0
 90
        2
176
     1
  1
strokes_ogs.tif
176
     1
290
     0
176
     1
 40
1.0
176
     1
 40
1.0
176
     1
  0
VISUALSTYLE
  5
30
102
{ACAD_REACTORS
330
2A
102
}
330
2A
100
AcDbVisualStyle
  2
Wireframe
 70
     5
177
     3
291
     0
 70
    58
 90
        0
176
     1
 90
        2
176
     1
 90
        0
176
     1
 90
        0
176
     1
 40
0.6
176
     1
 40
30.0
176
     1
 62
     7
420
 16777215
176
     1
 90
        1
176
     1
 90
        4
176
     1
 62
     7
176
     1
 62
   257
176
     1
 90
        1
176
     1
 90
        1
176
     1
 40
1.0
176
     1
 90
        0
176
     1
 62
   257
176
     1
 40
1.0
176
     1
 90
        1
176
     1
 90
        6
176
     1
 90
        2
176
     1
 62
     7
176
     1
 90
        3
176
     1
 90
        0
176
     1
 90
        0
176
     1
290
     0
176
     1
 90
        1
176
     1
 40
0.0
176
     1
 90
        0
176
     1
290
     0
176
     1
290
     1
176
     1
290
     1
176
     1
290
     0
176
     1
290
     0
176
     1
290
     0
176
     1
290
     0
176
     1
290
     0
176
     1
290
     0
176
     1
 90
       50
176
     1
 40
0.0
176
     1
 40
1.0
176
     1
 90
        0
176
     1
 62
    18
420
        0
176
     1
 90
       50
176
     1
 90
        3
176
     1
 62
     5
420
      255
176
     1
290
     0
176
     1
 90
       50
176
     1
 90
       50
176
     1
 90
       50
176
     1
290
     0
176
     1
 90
       50
176
     1
 62
   256
176
     0
 40
1.0
176
     0
 90
        2
176
     1
  1
strokes_ogs.tif
176
     1
290
     0
176
     1
 40
1.0
176
     1
 40
1.0
176
     1
  0
VISUALSTYLE
  5
40
102
{ACAD_REACTORS
330
2A
102
}
330
2A
100
AcDbVisualStyle
  2
X-Ray
 70
    25
177
     3
291
     0
 70
    58
 90
        2
176
     1
 90
        2
176
     1
 90
        1
176
     1
 90
        1
176
     1
 40
0.5
176
     1
 40
30.0
176
     1
 62
     7
420
 16777215
176
     1
 90
        1
176
     1
 90
        0
176
     1
 62
     7
176
     1
 62
   257
176
     1
 90
        1
176
     1
 90
        1
176
     1
 40
1.0
176
     1
 90
        8
176
     1
 62
     7
176
     1
 40
1.0
176
     1
 90
        1
176
     1
 90
        6
176
     1
 90
        2
176
     1
 62
     7
176
     1
 90
        3
176
     1
 90
        0
176
     1
 90
        0
176
     1
290
     0
176
     1
 90
       13
176
     1
 40
0.0
176
     1
 90
        0
176
     1
290
     0
176
     1
290
     1
176
     1
290
     1
176
     1
290
     0
176
     1
290
     0
176
     1
290
     0
176
     1
290
     0
176
     1
290
     0
176
     1
290
     0
176
     1
 90
       50
176
     1
 40
0.0
176
     1
 40
1.0
176
     1
 90
        0
176
     1
 62
    18
420
        0
176
     1
 90
       50
176
     1
 90
        3
176
     1
 62
     5
420
      255
176
     1
290
     0
176
     1
 90
       50
176
     1
 90
       50
176
     1
 90
       50
176
     1
290
     0
176
     1
 90
       50
176
     1
 62
   256
176
     0
 40
1.0
176
     0
 90
        2
176
     1
  1
strokes_ogs.tif
176
     1
290
     0
176
     1
 40
1.0
176
     1
 40
1.0
176
     1
  0
DICTIONARYVAR
  5
385
102
{ACAD_REACTORS
330
384
102
}
330
384
100
DictionaryVariables
280
     0
  1
1:1
  0
DICTIONARYVAR
  5
38A
102
{ACAD_REACTORS
330
384
102
}
330
384
100
DictionaryVariables
280
     0
  1
Standard
  0
DICTIONARYVAR
  5
389
102
{ACAD_REACTORS
330
384
102
}
330
384
100
DictionaryVariables
280
     0
  1
Standard
  0
DICTIONARY
  5
386
330
5A
100
AcDbDictionary
280
     1
281
     1
  3
ACAD_ROUNDTRIP_2008_TABLESTYLE_CELLSTYLEMAP
360
387
  0
CELLSTYLEMAP
  5
387
102
{ACAD_REACTORS
330
386
102
}
330
386
100
AcDbCellStyleMap
 90
        3
300
CELLSTYLE
  1
TABLEFORMAT_BEGIN
 90
        5
170
     1
 91
        0
 92
    32768
 62
   257
 93
        1
300
CONTENTFORMAT
  1
CONTENTFORMAT_BEGIN
 90
        0
 91
        0
 92
        4
 93
        0
300

 40
0.0
140
1.0
 94
        5
 62
     0
340
11
144
0.25
309
CONTENTFORMAT_END
171
     1
301
MARGIN
  1
CELLMARGIN_BEGIN
 40
0.06
 40
0.06
 40
0.06
 40
0.06
 40
0.06
 40
0.06
309
CELLMARGIN_END
 94
        6
 95
        1
302
GRIDFORMAT
  1
GRIDFORMAT_BEGIN
 90
        0
 91
        1
 62
     0
 92
       -2
340
14
 93
        0
 40
0.045
309
GRIDFORMAT_END
 95
        2
302
GRIDFORMAT
  1
GRIDFORMAT_BEGIN
 90
        0
 91
        1
 62
     0
 92
       -2
340
14
 93
        0
 40
0.045
309
GRIDFORMAT_END
 95
        4
302
GRIDFORMAT
  1
GRIDFORMAT_BEGIN
 90
        0
 91
        1
 62
     0
 92
       -2
340
14
 93
        0
 40
0.045
309
GRIDFORMAT_END
 95
        8
302
GRIDFORMAT
  1
GRIDFORMAT_BEGIN
 90
        0
 91
        1
 62
     0
 92
       -2
340
14
 93
        0
 40
0.045
309
GRIDFORMAT_END
 95
       16
302
GRIDFORMAT
  1
GRIDFORMAT_BEGIN
 90
        0
 91
        1
 62
     0
 92
       -2
340
14
 93
        0
 40
0.045
309
GRIDFORMAT_END
 95
       32
302
GRIDFORMAT
  1
GRIDFORMAT_BEGIN
 90
        0
 91
        1
 62
     0
 92
       -2
340
14
 93
        0
 40
0.045
309
GRIDFORMAT_END
309
TABLEFORMAT_END
  1
CELLSTYLE_BEGIN
 90
        1
 91
        1
300
_TITLE
309
CELLSTYLE_END
300
CELLSTYLE
  1
TABLEFORMAT_BEGIN
 90
        5
170
     1
 91
        0
 92
        0
 62
   257
 93
        1
300
CONTENTFORMAT
  1
CONTENTFORMAT_BEGIN
 90
        0
 91
        0
 92
        4
 93
        0
300

 40
0.0
140
1.0
 94
        5
 62
     0
340
11
144
0.18
309
CONTENTFORMAT_END
171
     1
301
MARGIN
  1
CELLMARGIN_BEGIN
 40
0.06
 40
0.06
 40
0.06
 40
0.06
 40
0.06
 40
0.06
309
CELLMARGIN_END
 94
        6
 95
        1
302
GRIDFORMAT
  1
GRIDFORMAT_BEGIN
 90
        0
 91
        1
 62
     0
 92
       -2
340
14
 93
        0
 40
0.045
309
GRIDFORMAT_END
 95
        2
302
GRIDFORMAT
  1
GRIDFORMAT_BEGIN
 90
        0
 91
        1
 62
     0
 92
       -2
340
14
 93
        0
 40
0.045
309
GRIDFORMAT_END
 95
        4
302
GRIDFORMAT
  1
GRIDFORMAT_BEGIN
 90
        0
 91
        1
 62
     0
 92
       -2
340
14
 93
        0
 40
0.045
309
GRIDFORMAT_END
 95
        8
302
GRIDFORMAT
  1
GRIDFORMAT_BEGIN
 90
        0
 91
        1
 62
     0
 92
       -2
340
14
 93
        0
 40
0.045
309
GRIDFORMAT_END
 95
       16
302
GRIDFORMAT
  1
GRIDFORMAT_BEGIN
 90
        0
 91
        1
 62
     0
 92
       -2
340
14
 93
        0
 40
0.045
309
GRIDFORMAT_END
 95
       32
302
GRIDFORMAT
  1
GRIDFORMAT_BEGIN
 90
        0
 91
        1
 62
     0
 92
       -2
340
14
 93
        0
 40
0.045
309
GRIDFORMAT_END
309
TABLEFORMAT_END
  1
CELLSTYLE_BEGIN
 90
        2
 91
        1
300
_HEADER
309
CELLSTYLE_END
300
CELLSTYLE
  1
TABLEFORMAT_BEGIN
 90
        5
170
     1
 91
        0
 92
        0
 62
   257
 93
        1
300
CONTENTFORMAT
  1
CONTENTFORMAT_BEGIN
 90
        0
 91
        0
 92
        4
 93
        0
300

 40
0.0
140
1.0
 94
        2
 62
     0
340
11
144
0.18
309
CONTENTFORMAT_END
171
     1
301
MARGIN
  1
CELLMARGIN_BEGIN
 40
0.06
 40
0.06
 40
0.06
 40
0.06
 40
0.06
 40
0.06
309
CELLMARGIN_END
 94
        6
 95
        1
302
GRIDFORMAT
  1
GRIDFORMAT_BEGIN
 90
        0
 91
        1
 62
     0
 92
       -2
340
14
 93
        0
 40
0.045
309
GRIDFORMAT_END
 95
        2
302
GRIDFORMAT
  1
GRIDFORMAT_BEGIN
 90
        0
 91
        1
 62
     0
 92
       -2
340
14
 93
        0
 40
0.045
309
GRIDFORMAT_END
 95
        4
302
GRIDFORMAT
  1
GRIDFORMAT_BEGIN
 90
        0
 91
        1
 62
     0
 92
       -2
340
14
 93
        0
 40
0.045
309
GRIDFORMAT_END
 95
        8
302
GRIDFORMAT
  1
GRIDFORMAT_BEGIN
 90
        0
 91
        1
 62
     0
 92
       -2
340
14
 93
        0
 40
0.045
309
GRIDFORMAT_END
 95
       16
302
GRIDFORMAT
  1
GRIDFORMAT_BEGIN
 90
        0
 91
        1
 62
     0
 92
       -2
340
14
 93
        0
 40
0.045
309
GRIDFORMAT_END
 95
       32
302
GRIDFORMAT
  1
GRIDFORMAT_BEGIN
 90
        0
 91
        1
 62
     0
 92
       -2
340
14
 93
        0
 40
0.045
309
GRIDFORMAT_END
309
TABLEFORMAT_END
  1
CELLSTYLE_BEGIN
 90
        3
 91
        2
300
_DATA
309
CELLSTYLE_END
  0
ENDSEC
  0
EOF
