  0
SECTION
  2
HEADER
  9
$ACADVER
  1
AC1027
  9
$ACADMAINTVER
 70
   105
  9
$DWGCODEPAGE
  3
ANSI_1252
  9
$LASTSAVEDBY
  1
Office Desk
  9
$REQUIREDVERSIONS
160
                 0
  9
$INSBASE
 10
0.0
 20
0.0
 30
0.0
  9
$EXTMIN
 10
-1060.7796
 20
-306.0802
 30
0.0
  9
$EXTMAX
 10
-163.1979
 20
271.6815
 30
0.0
  9
$LIMMIN
 10
0.0
 20
0.0
  9
$LIMMAX
 10
12.0
 20
9.0
  9
$ORTHOMODE
 70
     0
  9
$REGENMODE
 70
     1
  9
$FILLMODE
 70
     1
  9
$QTEXTMODE
 70
     0
  9
$MIRRTEXT
 70
     1
  9
$LTSCALE
 40
1.0
  9
$ATTMODE
 70
     1
  9
$TEXTSIZE
 40
0.2
  9
$TRACEWID
 40
0.05
  9
$TEXTSTYLE
  7
Standard
  9
$CLAYER
  8
0
  9
$CELTYPE
  6
ByLayer
  9
$CECOLOR
 62
   256
  9
$CELTSCALE
 40
1.0
  9
$DISPSILH
 70
     0
  9
$DIMSCALE
 40
1.0
  9
$DIMASZ
 40
0.18
  9
$DIMEXO
 40
0.0625
  9
$DIMDLI
 40
0.38
  9
$DIMRND
 40
0.0
  9
$DIMDLE
 40
0.0
  9
$DIMEXE
 40
0.18
  9
$DIMTP
 40
0.0
  9
$DIMTM
 40
0.0
  9
$DIMTXT
 40
0.18
  9
$DIMCEN
 40
0.09
  9
$DIMTSZ
 40
0.0
  9
$DIMTOL
 70
     0
  9
$DIMLIM
 70
     0
  9
$DIMTIH
 70
     1
  9
$DIMTOH
 70
     1
  9
$DIMSE1
 70
     0
  9
$DIMSE2
 70
     0
  9
$DIMTAD
 70
     0
  9
$DIMZIN
 70
     0
  9
$DIMBLK
  1

  9
$DIMASO
 70
     1
  9
$DIMSHO
 70
     1
  9
$DIMPOST
  1

  9
$DIMAPOST
  1

  9
$DIMALT
 70
     0
  9
$DIMALTD
 70
     2
  9
$DIMALTF
 40
25.4
  9
$DIMLFAC
 40
1.0
  9
$DIMTOFL
 70
     0
  9
$DIMTVP
 40
0.0
  9
$DIMTIX
 70
     0
  9
$DIMSOXD
 70
     0
  9
$DIMSAH
 70
     0
  9
$DIMBLK1
  1

  9
$DIMBLK2
  1

  9
$DIMSTYLE
  2
Standard
  9
$DIMCLRD
 70
     0
  9
$DIMCLRE
 70
     0
  9
$DIMCLRT
 70
     0
  9
$DIMTFAC
 40
1.0
  9
$DIMGAP
 40
0.09
  9
$DIMJUST
 70
     0
  9
$DIMSD1
 70
     0
  9
$DIMSD2
 70
     0
  9
$DIMTOLJ
 70
     1
  9
$DIMTZIN
 70
     0
  9
$DIMALTZ
 70
     0
  9
$DIMALTTZ
 70
     0
  9
$DIMUPT
 70
     0
  9
$DIMDEC
 70
     4
  9
$DIMTDEC
 70
     4
  9
$DIMALTU
 70
     2
  9
$DIMALTTD
 70
     2
  9
$DIMTXSTY
  7
Standard
  9
$DIMAUNIT
 70
     0
  9
$DIMADEC
 70
     0
  9
$DIMALTRND
 40
0.0
  9
$DIMAZIN
 70
     0
  9
$DIMDSEP
 70
    46
  9
$DIMATFIT
 70
     3
  9
$DIMFRAC
 70
     0
  9
$DIMLDRBLK
  1

  9
$DIMLUNIT
 70
     2
  9
$DIMLWD
 70
    -2
  9
$DIMLWE
 70
    -2
  9
$DIMTMOVE
 70
     0
  9
$DIMFXL
 40
1.0
  9
$DIMFXLON
 70
     0
  9
$DIMJOGANG
 40
0.7853981633974483
  9
$DIMTFILL
 70
     0
  9
$DIMTFILLCLR
 70
     0
  9
$DIMARCSYM
 70
     0
  9
$DIMLTYPE
  6

  9
$DIMLTEX1
  6

  9
$DIMLTEX2
  6

  9
$DIMTXTDIRECTION
 70
     0
  9
$LUNITS
 70
     2
  9
$LUPREC
 70
     4
  9
$SKETCHINC
 40
0.1
  9
$FILLETRAD
 40
0.0
  9
$AUNITS
 70
     0
  9
$AUPREC
 70
     0
  9
$MENU
  1
.
  9
$ELEVATION
 40
0.0
  9
$PELEVATION
 40
0.0
  9
$THICKNESS
 40
0.0
  9
$LIMCHECK
 70
     0
  9
$CHAMFERA
 40
0.0
  9
$CHAMFERB
 40
0.0
  9
$CHAMFERC
 40
0.0
  9
$CHAMFERD
 40
0.0
  9
$SKPOLY
 70
     0
  9
$TDCREATE
 40
2461013.685102951
  9
$TDUCREATE
 40
2461013.455936285
  9
$TDUPDATE
 40
2461013.685103102
  9
$TDUUPDATE
 40
2461013.455936435
  9
$TDINDWG
 40
0.0000000116
  9
$TDUSRTIMER
 40
0.0000000116
  9
$USRTIMER
 70
     1
  9
$ANGBASE
 50
0.0
  9
$ANGDIR
 70
     0
  9
$PDMODE
 70
     0
  9
$PDSIZE
 40
0.0
  9
$PLINEWID
 40
0.0
  9
$SPLFRAME
 70
     0
  9
$SPLINETYPE
 70
     6
  9
$SPLINESEGS
 70
     8
  9
$HANDSEED
  5
AA
  9
$SURFTAB1
 70
     6
  9
$SURFTAB2
 70
     6
  9
$SURFTYPE
 70
     6
  9
$SURFU
 70
     6
  9
$SURFV
 70
     6
  9
$UCSBASE
  2

  9
$UCSNAME
  2

  9
$UCSORG
 10
0.0
 20
0.0
 30
0.0
  9
$UCSXDIR
 10
1.0
 20
0.0
 30
0.0
  9
$UCSYDIR
 10
0.0
 20
1.0
 30
0.0
  9
$UCSORTHOREF
  2

  9
$UCSORTHOVIEW
 70
     0
  9
$UCSORGTOP
 10
0.0
 20
0.0
 30
0.0
  9
$UCSORGBOTTOM
 10
0.0
 20
0.0
 30
0.0
  9
$UCSORGLEFT
 10
0.0
 20
0.0
 30
0.0
  9
$UCSORGRIGHT
 10
0.0
 20
0.0
 30
0.0
  9
$UCSORGFRONT
 10
0.0
 20
0.0
 30
0.0
  9
$UCSORGBACK
 10
0.0
 20
0.0
 30
0.0
  9
$PUCSBASE
  2

  9
$PUCSNAME
  2

  9
$PUCSORG
 10
0.0
 20
0.0
 30
0.0
  9
$PUCSXDIR
 10
1.0
 20
0.0
 30
0.0
  9
$PUCSYDIR
 10
0.0
 20
1.0
 30
0.0
  9
$PUCSORTHOREF
  2

  9
$PUCSORTHOVIEW
 70
     0
  9
$PUCSORGTOP
 10
0.0
 20
0.0
 30
0.0
  9
$PUCSORGBOTTOM
 10
0.0
 20
0.0
 30
0.0
  9
$PUCSORGLEFT
 10
0.0
 20
0.0
 30
0.0
  9
$PUCSORGRIGHT
 10
0.0
 20
0.0
 30
0.0
  9
$PUCSORGFRONT
 10
0.0
 20
0.0
 30
0.0
  9
$PUCSORGBACK
 10
0.0
 20
0.0
 30
0.0
  9
$USERI1
 70
     0
  9
$USERI2
 70
     0
  9
$USERI3
 70
     0
  9
$USERI4
 70
     0
  9
$USERI5
 70
     0
  9
$USERR1
 40
0.0
  9
$USERR2
 40
0.0
  9
$USERR3
 40
0.0
  9
$USERR4
 40
0.0
  9
$USERR5
 40
0.0
  9
$WORLDVIEW
 70
     1
  9
$SHADEDGE
 70
     3
  9
$SHADEDIF
 70
    70
  9
$TILEMODE
 70
     1
  9
$MAXACTVP
 70
    64
  9
$PINSBASE
 10
0.0
 20
0.0
 30
0.0
  9
$PLIMCHECK
 70
     0
  9
$PEXTMIN
 10
1.000000000000000E+20
 20
1.000000000000000E+20
 30
1.000000000000000E+20
  9
$PEXTMAX
 10
-1.000000000000000E+20
 20
-1.000000000000000E+20
 30
-1.000000000000000E+20
  9
$PLIMMIN
 10
0.0
 20
0.0
  9
$PLIMMAX
 10
12.0
 20
9.0
  9
$UNITMODE
 70
     0
  9
$VISRETAIN
 70
     1
  9
$PLINEGEN
 70
     0
  9
$PSLTSCALE
 70
     1
  9
$TREEDEPTH
 70
  3020
  9
$CMLSTYLE
  2
Standard
  9
$CMLJUST
 70
     0
  9
$CMLSCALE
 40
1.0
  9
$PROXYGRAPHICS
 70
     1
  9
$MEASUREMENT
 70
     0
  9
$CELWEIGHT
370
    -1
  9
$ENDCAPS
280
     0
  9
$JOINSTYLE
280
     0
  9
$LWDISPLAY
290
     0
  9
$INSUNITS
 70
     4
  9
$HYPERLINKBASE
  1

  9
$STYLESHEET
  1

  9
$XEDIT
290
     1
  9
$CEPSNTYPE
380
     0
  9
$PSTYLEMODE
290
     1
  9
$FINGERPRINTGUID
  2
{a3971f73-9150-436a-ace2-b4b3760bba64}
  9
$VERSIONGUID
  2
{FAEB1C32-E019-11D5-929B-00C0DF256EC4}
  9
$EXTNAMES
290
     1
  9
$PSVPSCALE
 40
0.0
  9
$OLESTARTUP
290
     0
  9
$SORTENTS
280
   127
  9
$INDEXCTL
280
     0
  9
$HIDETEXT
280
     1
  9
$XCLIPFRAME
280
     2
  9
$HALOGAP
280
     0
  9
$OBSCOLOR
 70
   257
  9
$OBSLTYPE
280
     0
  9
$INTERSECTIONDISPLAY
280
     0
  9
$INTERSECTIONCOLOR
 70
   257
  9
$DIMASSOC
280
     2
  9
$PROJECTNAME
  1

  9
$CAMERADISPLAY
290
     0
  9
$LENSLENGTH
 40
50.0
  9
$CAMERAHEIGHT
 40
0.0
  9
$STEPSPERSEC
 40
2.0
  9
$STEPSIZE
 40
6.0
  9
$3DDWFPREC
 40
2.0
  9
$PSOLWIDTH
 40
0.25
  9
$PSOLHEIGHT
 40
4.0
  9
$LOFTANG1
 40
1.570796326794897
  9
$LOFTANG2
 40
1.570796326794897
  9
$LOFTMAG1
 40
0.0
  9
$LOFTMAG2
 40
0.0
  9
$LOFTPARAM
 70
     7
  9
$LOFTNORMALS
280
     1
  9
$LATITUDE
 40
37.795
  9
$LONGITUDE
 40
-122.394
  9
$NORTHDIRECTION
 40
0.0
  9
$TIMEZONE
 70
 -8000
  9
$LIGHTGLYPHDISPLAY
280
     1
  9
$TILEMODELIGHTSYNCH
280
     1
  9
$CMATERIAL
347
44
  9
$SOLIDHIST
280
     0
  9
$SHOWHIST
280
     1
  9
$DWFFRAME
280
     2
  9
$DGNFRAME
280
     2
  9
$REALWORLDSCALE
290
     1
  9
$INTERFERECOLOR
 62
   256
  9
$CSHADOW
280
     0
  9
$SHADOWPLANELOCATION
 40
0.0
  0
ENDSEC
  0
SECTION
  2
CLASSES
  0
CLASS
  1
ACDBDICTIONARYWDFLT
  2
AcDbDictionaryWithDefault
  3
ObjectDBX Classes
 90
        0
 91
        3
280
     0
281
     0
  0
CLASS
  1
VISUALSTYLE
  2
AcDbVisualStyle
  3
ObjectDBX Classes
 90
     4095
 91
        3
280
     0
281
     0
  0
CLASS
  1
MATERIAL
  2
AcDbMaterial
  3
ObjectDBX Classes
 90
     1153
 91
        3
280
     0
281
     0
  0
CLASS
  1
SCALE
  2
AcDbScale
  3
ObjectDBX Classes
 90
     1153
 91
        3
280
     0
281
     0
  0
CLASS
  1
TABLESTYLE
  2
AcDbTableStyle
  3
ObjectDBX Classes
 90
     4095
 91
        3
280
     0
281
     0
  0
CLASS
  1
MLEADERSTYLE
  2
AcDbMLeaderStyle
  3
ACDB_MLEADERSTYLE_CLASS
 90
     4095
 91
        3
280
     0
281
     0
  0
CLASS
  1
SUN
  2
AcDbSun
  3
SCENEOE
 90
     1153
 91
        3
280
     0
281
     0
  0
CLASS
  1
DICTIONARYVAR
  2
AcDbDictionaryVar
  3
ObjectDBX Classes
 90
        0
 91
        3
280
     0
281
     0
  0
CLASS
  1
CELLSTYLEMAP
  2
AcDbCellStyleMap
  3
ObjectDBX Classes
 90
     1152
 91
        3
280
     0
281
     0
  0
ENDSEC
  0
SECTION
  2
TABLES
  0
TABLE
  2
VPORT
  5
8
330
0
100
AcDbSymbolTable
 70
     1
  0
VPORT
  5
29
330
8
100
AcDbSymbolTableRecord
100
AcDbViewportTableRecord
  2
*Active
 70
     0
 10
0.0
 20
0.0
 11
1.0
 21
1.0
 12
10.42990654205607
 22
4.5
 13
0.0
 23
0.0
 14
0.5
 24
0.5
 15
0.5
 25
0.5
 16
0.0
 26
0.0
 36
1.0
 17
0.0
 27
0.0
 37
0.0
 40
9.0
 41
1.972972972850329
 42
50.0
 43
0.0
 44
0.0
 50
0.0
 51
0.0
 71
     0
 72
   100
 73
     1
 74
     3
 75
     0
 76
     0
 77
     0
 78
     0
281
     0
 65
     1
110
0.0
120
0.0
130
0.0
111
1.0
121
0.0
131
0.0
112
0.0
122
1.0
132
0.0
 79
     0
146
0.0
348
2F
 60
     3
 61
     5
292
     1
282
     1
141
0.0
142
0.0
 63
   250
361
5D
  0
ENDTAB
  0
TABLE
  2
LTYPE
  5
5
330
0
100
AcDbSymbolTable
 70
     1
  0
LTYPE
  5
14
330
5
100
AcDbSymbolTableRecord
100
AcDbLinetypeTableRecord
  2
ByBlock
 70
     0
  3

 72
    65
 73
     0
 40
0.0
  0
LTYPE
  5
15
330
5
100
AcDbSymbolTableRecord
100
AcDbLinetypeTableRecord
  2
ByLayer
 70
     0
  3

 72
    65
 73
     0
 40
0.0
  0
LTYPE
  5
16
330
5
100
AcDbSymbolTableRecord
100
AcDbLinetypeTableRecord
  2
Continuous
 70
     0
  3
Solid line
 72
    65
 73
     0
 40
0.0
  0
ENDTAB
  0
TABLE
  2
LAYER
  5
2
330
0
100
AcDbSymbolTable
 70
     2
  0
LAYER
  5
10
330
2
100
AcDbSymbolTableRecord
100
AcDbLayerTableRecord
  2
0
 70
     0
 62
     7
  6
Continuous
370
    -3
390
F
347
46
348
0
  0
LAYER
  5
5F
330
2
100
AcDbSymbolTableRecord
100
AcDbLayerTableRecord
  2
Layer 1
 70
     0
 62
     7
  6
Continuous
370
    -3
390
F
347
46
348
0
  0
ENDTAB
  0
TABLE
  2
STYLE
  5
3
330
0
100
AcDbSymbolTable
 70
     1
  0
STYLE
  5
11
330
3
100
AcDbSymbolTableRecord
100
AcDbTextStyleTableRecord
  2
Standard
 70
     0
 40
0.0
 41
1.0
 50
0.0
 71
     0
 42
0.2
  3
txt
  4

  0
ENDTAB
  0
TABLE
  2
VIEW
  5
6
330
0
100
AcDbSymbolTable
 70
     0
  0
ENDTAB
  0
TABLE
  2
UCS
  5
7
330
0
100
AcDbSymbolTable
 70
     0
  0
ENDTAB
  0
TABLE
  2
APPID
  5
9
330
0
100
AcDbSymbolTable
 70
     2
  0
APPID
  5
12
330
9
100
AcDbSymbolTableRecord
100
AcDbRegAppTableRecord
  2
ACAD
 70
     0
  0
APPID
  5
5E
330
9
100
AcDbSymbolTableRecord
100
AcDbRegAppTableRecord
  2
ODA
 70
     0
  0
ENDTAB
  0
TABLE
  2
DIMSTYLE
  5
A
330
0
100
AcDbSymbolTable
 70
     1
100
AcDbDimStyleTable
  0
DIMSTYLE
105
27
330
A
100
AcDbSymbolTableRecord
100
AcDbDimStyleTableRecord
  2
Standard
 70
     0
178
     0
340
11
  0
ENDTAB
  0
TABLE
  2
BLOCK_RECORD
  5
1
330
0
100
AcDbSymbolTable
 70
     1
  0
BLOCK_RECORD
  5
1F
330
1
100
AcDbSymbolTableRecord
100
AcDbBlockTableRecord
  2
*Model_Space
340
22
 70
     0
280
     1
281
     0
  0
BLOCK_RECORD
  5
1B
330
1
100
AcDbSymbolTableRecord
100
AcDbBlockTableRecord
  2
*Paper_Space
340
1E
 70
     0
280
     1
281
     0
  0
BLOCK_RECORD
  5
23
330
1
100
AcDbSymbolTableRecord
100
AcDbBlockTableRecord
  2
*Paper_Space0
340
26
 70
     0
280
     1
281
     0
  0
ENDTAB
  0
ENDSEC
  0
SECTION
  2
BLOCKS
  0
BLOCK
  5
20
330
1F
100
AcDbEntity
  8
0
100
AcDbBlockBegin
  2
*Model_Space
 70
     0
 10
0.0
 20
0.0
 30
0.0
  3
*Model_Space
  1

  0
ENDBLK
  5
21
330
1F
100
AcDbEntity
  8
0
100
AcDbBlockEnd
  0
BLOCK
  5
1C
330
1B
100
AcDbEntity
 67
     1
  8
0
100
AcDbBlockBegin
  2
*Paper_Space
 70
     0
 10
0.0
 20
0.0
 30
0.0
  3
*Paper_Space
  1

  0
ENDBLK
  5
1D
330
1B
100
AcDbEntity
 67
     1
  8
0
100
AcDbBlockEnd
  0
BLOCK
  5
24
330
23
100
AcDbEntity
  8
0
100
AcDbBlockBegin
  2
*Paper_Space0
 70
     0
 10
0.0
 20
0.0
 30
0.0
  3
*Paper_Space0
  1

  0
ENDBLK
  5
25
330
23
100
AcDbEntity
  8
0
100
AcDbBlockEnd
  0
ENDSEC
  0
SECTION
  2
ENTITIES
  0
LWPOLYLINE
  5
60
330
1F
100
AcDbEntity
  8
Layer 1
 62
   250
370
    18
100
AcDbPolyline
 90
        5
 70
     1
 43
0.0
 10
-1060.6914
 20
-305.9919
 10
-163.2862
 20
-305.9919
 10
-163.2862
 20
271.5933
 10
-1060.6914
 20
271.5933
 10
-1060.6914
 20
-305.9919
  0
LWPOLYLINE
  5
61
330
1F
100
AcDbEntity
  8
Layer 1
 62
     7
370
    35
100
AcDbPolyline
 90
     1254
 70
     1
 43
0.0
 10
-685.9636
 20
136.2621
 10
-686.1046
 20
136.237
 10
-686.312
 20
136.2207
 10
-686.5632
 20
136.211
 10
-686.8357
 20
136.2057
 10
-687.1066
 20
136.2026
 10
-687.3533
 20
136.1994
 10
-687.5532
 20
136.194
 10
-687.6837
 20
136.1841
 10
-688.7324
 20
136.1056
 10
-688.9065
 20
136.0621
 10
-689.0857
 20
136.0283
 10
-689.2665
 20
135.994
 10
-689.4456
 20
135.949
 10
-689.5715
 20
135.9409
 10
-689.6694
 20
135.9207
 10
-689.7603
 20
135.8853
 10
-689.8652
 20
135.8315
 10
-689.9961
 20
135.8203
 10
-690.1249
 20
135.7951
 10
-690.2519
 20
135.7602
 10
-690.3775
 20
135.7202
 10
-690.502
 20
135.6794
 10
-690.6257
 20
135.6423
 10
-690.7489
 20
135.6132
 10
-690.8721
 20
135.5965
 10
-690.9568
 20
135.5583
 10
-691.0684
 20
135.518
 10
-691.1985
 20
135.4772
 10
-691.339
 20
135.4376
 10
-691.6177
 20
135.3681
 10
-691.8377
 20
135.3224
 10
-691.9131
 20
135.2656
 10
-691.939
 20
135.2449
 10
-691.9771
 20
135.2434
 10
-692.089
 20
135.2444
 10
-692.3005
 20
135.1306
 10
-692.4674
 20
135.1095
 10
-692.6793
 20
135.0667
 10
-692.8902
 20
135.0157
 10
-693.0541
 20
134.9704
 10
-694.9419
 20
134.7353
 10
-695.0206
 20
134.7107
 10
-695.0616
 20
134.7001
 10
-695.1057
 20
134.6974
 10
-695.1938
 20
134.6963
 10
-695.8652
 20
134.6178
 10
-696.1904
 20
134.5717
 10
-696.5307
 20
134.5229
 10
-696.8784
 20
134.4659
 10
-697.226
 20
134.3955
 10
-697.5662
 20
134.3064
 10
-697.8913
 20
134.1933
 10
-698.1938
 20
134.0508
 10
-698.4662
 20
133.8737
 10
-698.8017
 20
133.5607
 10
-698.974
 20
133.4629
 10
-699.1393
 20
133.379
 10
-699.3036
 20
133.2979
 10
-699.4731
 20
133.2086
 10
-699.6257
 20
133.1869
 10
-699.815
 20
133.1449
 10
-700.0301
 20
133.0882
 10
-700.2599
 20
133.0228
 10
-700.4937
 20
132.9545
 10
-700.7205
 20
132.8892
 10
-700.9292
 20
132.8327
 10
-701.1091
 20
132.7909
 10
-701.3421
 20
132.7437
 10
-701.5637
 20
132.6962
 10
-701.7762
 20
132.6452
 10
-701.9822
 20
132.5876
 10
-702.184
 20
132.5204
 10
-702.3838
 20
132.4404
 10
-702.5842
 20
132.3444
 10
-702.7874
 20
132.2295
 10
-703.2906
 20
131.7989
 10
-703.6143
 20
131.6213
 10
-703.9493
 20
131.4711
 10
-704.2931
 20
131.3419
 10
-704.6433
 20
131.227
 10
-704.9974
 20
131.12
 10
-705.3531
 20
131.0144
 10
-705.7079
 20
130.9037
 10
-706.0594
 20
130.7812
 10
-706.6049
 20
130.3502
 10
-706.8064
 20
130.098
 10
-706.929
 20
129.9381
 10
-706.997
 20
129.8733
 10
-707.0887
 20
129.8081
 10
-707.2188
 20
129.7348
 10
-707.4017
 20
129.6455
 10
-707.6103
 20
129.5569
 10
-707.8359
 20
129.4627
 10
-708.0718
 20
129.3628
 10
-708.311
 20
129.2576
 10
-708.5467
 20
129.1469
 10
-708.772
 20
129.031
 10
-708.9801
 20
128.91
 10
-709.1642
 20
128.7839
 10
-709.2956
 20
128.7211
 10
-709.3895
 20
128.6737
 10
-709.4563
 20
128.6348
 10
-709.5066
 20
128.5969
 10
-709.5995
 20
128.4961
 10
-709.752
 20
128.3139
 10
-709.833
 20
128.2278
 10
-709.9311
 20
128.135
 10
-710.0419
 20
128.0393
 10
-710.1611
 20
127.9444
 10
-710.2841
 20
127.8541
 10
-710.4067
 20
127.7721
 10
-710.5244
 20
127.7022
 10
-710.6329
 20
127.6483
 10
-710.7867
 20
127.6085
 10
-710.9567
 20
127.5487
 10
-711.1368
 20
127.4734
 10
-711.3209
 20
127.387
 10
-711.6766
 20
127.1994
 10
-711.9753
 20
127.0221
 10
-712.0823
 20
126.9275
 10
-712.1761
 20
126.8231
 10
-712.2616
 20
126.7119
 10
-712.3436
 20
126.597
 10
-712.4267
 20
126.4814
 10
-712.5156
 20
126.368
 10
-712.6153
 20
126.2601
 10
-712.7303
 20
126.1605
 10
-712.9089
 20
126.0535
 10
-713.1385
 20
125.9412
 10
-713.2714
 20
125.8731
 10
-713.4158
 20
125.7917
 10
-713.5712
 20
125.6932
 10
-713.7372
 20
125.5734
 10
-713.9178
 20
125.4154
 10
-714.0634
 20
125.2531
 10
-714.1838
 20
125.0897
 10
-714.2886
 20
124.928
 10
-714.3873
 20
124.7712
 10
-714.4898
 20
124.6222
 10
-714.6055
 20
124.484
 10
-714.7441
 20
124.3597
 10
-714.9029
 20
124.2491
 10
-715.0544
 20
124.1588
 10
-715.2013
 20
124.079
 10
-715.3463
 20
124.0
 10
-715.492
 20
123.9121
 10
-715.6412
 20
123.8057
 10
-715.7966
 20
123.6709
 10
-715.961
 20
123.4981
 10
-716.0535
 20
123.3805
 10
-716.1342
 20
123.2591
 10
-716.2086
 20
123.1357
 10
-716.282
 20
123.0123
 10
-716.3599
 20
122.8909
 10
-716.4476
 20
122.7735
 10
-716.5506
 20
122.6621
 10
-716.6742
 20
122.5585
 10
-716.8062
 20
122.4727
 10
-716.9354
 20
122.4037
 10
-717.0654
 20
122.3406
 10
-717.1997
 20
122.2727
 10
-717.3417
 20
122.1891
 10
-717.4949
 20
122.0791
 10
-717.6628
 20
121.9317
 10
-717.8488
 20
121.7363
 10
-717.9481
 20
121.6126
 10
-718.0396
 20
121.4811
 10
-718.1274
 20
121.3451
 10
-718.2153
 20
121.2082
 10
-718.3072
 20
121.0736
 10
-718.407
 20
120.9449
 10
-718.5185
 20
120.8254
 10
-718.6457
 20
120.7186
 10
-718.8238
 20
120.6037
 10
-719.0137
 20
120.4943
 10
-719.1076
 20
120.4382
 10
-719.1979
 20
120.3795
 10
-719.2824
 20
120.3167
 10
-719.3589
 20
120.2486
 10
-719.5845
 20
119.8719
 10
-719.7855
 20
119.5107
 10
-719.9829
 20
119.1564
 10
-720.198
 20
118.8003
 10
-720.3097
 20
118.6801
 10
-720.431
 20
118.5704
 10
-720.5575
 20
118.4692
 10
-720.6851
 20
118.3743
 10
-720.8095
 20
118.2838
 10
-720.9265
 20
118.1955
 10
-721.0319
 20
118.1073
 10
-721.1213
 20
118.0172
 10
-721.2361
 20
117.8514
 10
-721.3454
 20
117.6784
 10
-721.3941
 20
117.5893
 10
-721.4369
 20
117.4986
 10
-721.4722
 20
117.4061
 10
-721.4986
 20
117.3121
 10
-722.3795
 20
115.7854
 10
-722.4388
 20
115.7209
 10
-722.5029
 20
115.6623
 10
-722.5706
 20
115.608
 10
-722.6408
 20
115.5568
 10
-722.7844
 20
115.458
 10
-722.925
 20
115.3548
 10
-723.0966
 20
115.163
 10
-723.2367
 20
114.9783
 10
-723.3678
 20
114.7958
 10
-723.5123
 20
114.6107
 10
-723.5556
 20
114.4576
 10
-723.6166
 20
114.2894
 10
-723.6892
 20
114.1118
 10
-723.7675
 20
113.9303
 10
-723.8453
 20
113.7507
 10
-723.9167
 20
113.5787
 10
-723.9756
 20
113.4198
 10
-724.016
 20
113.2799
 10
-724.081
 20
113.1742
 10
-724.1664
 20
113.0657
 10
-724.2663
 20
112.9562
 10
-724.3745
 20
112.8475
 10
-724.5921
 20
112.6397
 10
-724.771
 20
112.4573
 10
-724.9732
 20
112.185
 10
-725.1363
 20
111.8876
 10
-725.2679
 20
111.5713
 10
-725.3757
 20
111.2418
 10
-725.4674
 20
110.9052
 10
-725.5505
 20
110.5674
 10
-725.6328
 20
110.2343
 10
-725.7218
 20
109.912
 10
-725.797
 20
109.6719
 10
-725.8716
 20
109.4581
 10
-725.9496
 20
109.2644
 10
-726.0351
 20
109.0849
 10
-726.1321
 20
108.9133
 10
-726.2448
 20
108.7436
 10
-726.3772
 20
108.5696
 10
-726.5335
 20
108.3852
 10
-726.6596
 20
108.2532
 10
-726.782
 20
108.1301
 10
-726.8402
 20
108.0662
 10
-726.8955
 20
107.9975
 10
-726.9473
 20
107.9219
 10
-726.9948
 20
107.8371
 10
-727.0443
 20
107.6779
 10
-727.1284
 20
107.4462
 10
-727.2191
 20
107.2044
 10
-727.2885
 20
107.015
 10
-727.7081
 20
104.9401
 10
-727.7984
 20
104.6246
 10
-727.8711
 20
104.2992
 10
-727.9082
 20
104.1351
 10
-727.9498
 20
103.9713
 10
-727.9986
 20
103.8086
 10
-728.0578
 20
103.648
 10
-728.1768
 20
103.3309
 10
-728.3125
 20
102.9524
 10
-728.3831
 20
102.764
 10
-728.4537
 20
102.5889
 10
-728.5228
 20
102.4367
 10
-728.589
 20
102.3168
 10
-728.6063
 20
102.2054
 10
-728.6311
 20
102.121
 10
-728.6558
 20
102.0366
 10
-728.6731
 20
101.9252
 10
-729.0927
 20
100.4765
 10
-729.1763
 20
99.7328
 10
-729.2027
 20
99.6594
 10
-729.2141
 20
99.6212
 10
-729.2171
 20
99.58
 10
-729.2186
 20
99.4978
 10
-729.2463
 20
99.4166
 10
-729.2583
 20
99.3671
 10
-729.2609
 20
99.3146
 10
-729.2604
 20
99.2238
 10
-729.3445
 20
98.5191
 10
-729.377
 20
98.2326
 10
-729.396
 20
97.9139
 10
-729.4101
 20
97.6238
 10
-729.4282
 20
97.423
 10
-729.5123
 20
96.4828
 10
-729.5427
 20
96.3843
 10
-729.5544
 20
96.3126
 10
-729.5555
 20
96.2379
 10
-729.5541
 20
96.1303
 10
-729.5848
 20
96.0163
 10
-729.6032
 20
95.8939
 10
-729.6116
 20
95.7653
 10
-729.6128
 20
95.633
 10
-729.6035
 20
95.3663
 10
-729.5959
 20
95.1126
 10
-729.6281
 20
94.9815
 10
-729.6471
 20
94.8214
 10
-729.6558
 20
94.6412
 10
-729.6567
 20
94.4495
 10
-729.6465
 20
94.0664
 10
-729.6382
 20
93.7419
 10
-729.6711
 20
93.5794
 10
-729.6904
 20
93.3412
 10
-729.699
 20
93.0506
 10
-729.6997
 20
92.7309
 10
-729.6953
 20
92.4055
 10
-729.6887
 20
92.0977
 10
-729.6826
 20
91.8308
 10
-729.68
 20
91.6281
 10
-729.7134
 20
91.4609
 10
-729.733
 20
91.2141
 10
-729.7417
 20
90.9122
 10
-729.7422
 20
90.5797
 10
-729.7376
 20
90.2412
 10
-729.7308
 20
89.9212
 10
-729.7245
 20
89.6444
 10
-729.7218
 20
89.4352
 10
-729.7236
 20
75.7703
 10
-729.7281
 20
50.5406
 10
-729.7336
 20
17.8682
 10
-729.7386
 20
-18.1251
 10
-729.7415
 20
-53.3172
 10
-729.7407
 20
-83.5861
 10
-729.7347
 20
-104.8099
 10
-729.7218
 20
-112.8666
 10
-729.6889
 20
-113.0292
 10
-729.6696
 20
-113.2675
 10
-729.661
 20
-113.5581
 10
-729.6603
 20
-113.8778
 10
-729.6647
 20
-114.2033
 10
-729.6713
 20
-114.5113
 10
-729.6774
 20
-114.7784
 10
-729.68
 20
-114.9814
 10
-729.6474
 20
-115.1154
 10
-729.6282
 20
-115.2798
 10
-729.6197
 20
-115.4654
 10
-729.6189
 20
-115.6629
 10
-729.6297
 20
-116.0576
 10
-729.6382
 20
-116.3906
 10
-729.6149
 20
-116.5633
 10
-729.6019
 20
-116.7345
 10
-729.5958
 20
-116.9039
 10
-729.5934
 20
-117.0715
 10
-729.5913
 20
-117.2372
 10
-729.5863
 20
-117.4009
 10
-729.575
 20
-117.5625
 10
-729.5541
 20
-117.7218
 10
-729.47
 20
-118.7005
 10
-729.4387
 20
-118.807
 10
-729.4271
 20
-118.8904
 10
-729.4265
 20
-118.9767
 10
-729.4282
 20
-119.092
 10
-729.395
 20
-119.3826
 10
-729.3781
 20
-119.689
 10
-729.3653
 20
-119.971
 10
-729.3445
 20
-120.1882
 10
-729.2186
 20
-121.0108
 10
-729.1906
 20
-121.092
 10
-729.1785
 20
-121.1415
 10
-729.1758
 20
-121.1941
 10
-729.1763
 20
-121.2849
 10
-729.0509
 20
-122.107
 10
-728.9813
 20
-122.3173
 10
-728.9168
 20
-122.5292
 10
-728.8553
 20
-122.7426
 10
-728.7947
 20
-122.9575
 10
-728.7329
 20
-123.1736
 10
-728.6679
 20
-123.3911
 10
-728.5975
 20
-123.6096
 10
-728.5197
 20
-123.8293
 10
-728.4291
 20
-124.0717
 10
-728.3188
 20
-124.3689
 10
-728.1972
 20
-124.7028
 10
-728.0725
 20
-125.0557
 10
-727.953
 20
-125.4094
 10
-727.8469
 20
-125.7461
 10
-727.7625
 20
-126.0477
 10
-727.7081
 20
-126.2962
 10
-727.2885
 20
-128.4495
 10
-727.2256
 20
-128.6188
 10
-727.1517
 20
-128.8102
 10
-727.0835
 20
-128.9975
 10
-727.0371
 20
-129.1541
 10
-726.973
 20
-129.2725
 10
-726.8991
 20
-129.383
 10
-726.8177
 20
-129.4874
 10
-726.7306
 20
-129.5873
 10
-726.5474
 20
-129.7804
 10
-726.3657
 20
-129.9763
 10
-726.0715
 20
-130.4656
 10
-725.8568
 20
-130.9557
 10
-725.696
 20
-131.4448
 10
-725.5638
 20
-131.9312
 10
-725.4348
 20
-132.413
 10
-725.2836
 20
-132.8886
 10
-725.0848
 20
-133.3561
 10
-724.8129
 20
-133.8138
 10
-724.3933
 20
-134.2054
 10
-724.1552
 20
-134.5134
 10
-723.9785
 20
-134.8152
 10
-723.8418
 20
-135.114
 10
-723.7237
 20
-135.413
 10
-723.6028
 20
-135.7151
 10
-723.4577
 20
-136.0235
 10
-723.2669
 20
-136.3414
 10
-723.0091
 20
-136.6718
 10
-722.8368
 20
-136.8471
 10
-722.7112
 20
-136.9434
 10
-722.6111
 20
-137.0038
 10
-722.5153
 20
-137.0715
 10
-722.4026
 20
-137.1895
 10
-722.2516
 20
-137.401
 10
-722.0413
 20
-137.7492
 10
-721.7504
 20
-138.277
 10
-721.7047
 20
-138.3697
 10
-721.6591
 20
-138.4571
 10
-721.6068
 20
-138.5424
 10
-721.5409
 20
-138.6291
 10
-721.4058
 20
-138.9245
 10
-721.288
 20
-139.1759
 10
-721.2172
 20
-139.293
 10
-721.1288
 20
-139.4085
 10
-721.0153
 20
-139.5256
 10
-720.8694
 20
-139.6473
 10
-720.6951
 20
-139.7725
 10
-720.5256
 20
-139.8923
 10
-720.4424
 20
-139.9563
 10
-720.3602
 20
-140.0265
 10
-720.2788
 20
-140.1054
 10
-720.198
 20
-140.1954
 10
-720.0595
 20
-140.3882
 10
-719.9448
 20
-140.5931
 10
-719.8416
 20
-140.8066
 10
-719.7375
 20
-141.0252
 10
-719.6202
 20
-141.2452
 10
-719.4773
 20
-141.4633
 10
-719.2964
 20
-141.6757
 10
-719.0652
 20
-141.8791
 10
-718.893
 20
-141.9935
 10
-718.7161
 20
-142.0972
 10
-718.6295
 20
-142.151
 10
-718.546
 20
-142.2093
 10
-718.4671
 20
-142.2744
 10
-718.3943
 20
-142.3487
 10
-718.2647
 20
-142.5093
 10
-718.1565
 20
-142.6625
 10
-718.0596
 20
-142.8107
 10
-717.9637
 20
-142.9564
 10
-717.8587
 20
-143.102
 10
-717.7345
 20
-143.2499
 10
-717.5808
 20
-143.4026
 10
-717.3874
 20
-143.5624
 10
-717.1268
 20
-143.734
 10
-716.8606
 20
-143.8875
 10
-716.7307
 20
-143.9674
 10
-716.606
 20
-144.0547
 10
-716.4885
 20
-144.1532
 10
-716.3805
 20
-144.267
 10
-716.2727
 20
-144.407
 10
-716.1885
 20
-144.5339
 10
-716.1159
 20
-144.6533
 10
-716.0426
 20
-144.7705
 10
-715.9565
 20
-144.8908
 10
-715.8454
 20
-145.0196
 10
-715.6972
 20
-145.1623
 10
-715.4996
 20
-145.3242
 10
-715.2429
 20
-145.4937
 10
-714.9766
 20
-145.6471
 10
-714.8459
 20
-145.7273
 10
-714.72
 20
-145.8151
 10
-714.6015
 20
-145.9143
 10
-714.4927
 20
-146.0288
 10
-714.2853
 20
-146.3087
 10
-714.117
 20
-146.5634
 10
-714.0251
 20
-146.6882
 10
-713.9163
 20
-146.8151
 10
-713.7815
 20
-146.9468
 10
-713.6117
 20
-147.086
 10
-713.4653
 20
-147.187
 10
-713.3149
 20
-147.2756
 10
-713.1623
 20
-147.3575
 10
-713.0096
 20
-147.4385
 10
-712.8587
 20
-147.5245
 10
-712.7116
 20
-147.6211
 10
-712.5703
 20
-147.7342
 10
-712.4366
 20
-147.8695
 10
-712.3065
 20
-148.0319
 10
-712.1818
 20
-148.1964
 10
-712.1171
 20
-148.2767
 10
-712.0483
 20
-148.3541
 10
-711.9737
 20
-148.4276
 10
-711.8916
 20
-148.4961
 10
-711.7406
 20
-148.5848
 10
-711.614
 20
-148.6526
 10
-711.504
 20
-148.705
 10
-711.4027
 20
-148.7479
 10
-711.1945
 20
-148.8272
 10
-710.9266
 20
-148.9359
 10
-710.7745
 20
-149.0056
 10
-710.6445
 20
-149.0725
 10
-710.53
 20
-149.1382
 10
-710.4245
 20
-149.2047
 10
-710.2143
 20
-149.347
 10
-709.9615
 20
-149.5138
 10
-709.8858
 20
-149.5827
 10
-709.8189
 20
-149.6573
 10
-709.7577
 20
-149.7355
 10
-709.6985
 20
-149.815
 10
-709.6382
 20
-149.8936
 10
-709.5732
 20
-149.969
 10
-709.5003
 20
-150.039
 10
-709.416
 20
-150.1014
 10
-707.6959
 20
-150.9235
 10
-707.3232
 20
-151.1079
 10
-707.0797
 20
-151.2514
 10
-706.9284
 20
-151.3686
 10
-706.8327
 20
-151.4736
 10
-706.7558
 20
-151.5807
 10
-706.6608
 20
-151.7044
 10
-706.5109
 20
-151.859
 10
-706.2694
 20
-152.0587
 10
-706.1003
 20
-152.1525
 10
-705.9482
 20
-152.2237
 10
-705.7993
 20
-152.2907
 10
-705.6398
 20
-152.3718
 10
-705.534
 20
-152.3851
 10
-705.4278
 20
-152.4077
 10
-705.3207
 20
-152.4366
 10
-705.2124
 20
-152.4688
 10
-705.1025
 20
-152.501
 10
-704.9905
 20
-152.5303
 10
-704.8761
 20
-152.5536
 10
-704.7589
 20
-152.5678
 10
-703.4583
 20
-153.1159
 10
-703.3726
 20
-153.1757
 10
-703.2933
 20
-153.2429
 10
-703.2183
 20
-153.3151
 10
-703.1453
 20
-153.3898
 10
-703.072
 20
-153.4645
 10
-702.9964
 20
-153.5367
 10
-702.9162
 20
-153.6041
 10
-702.8292
 20
-153.664
 10
-702.5247
 20
-153.7974
 10
-702.0665
 20
-153.9402
 10
-701.5054
 20
-154.0911
 10
-700.8919
 20
-154.2485
 10
-700.2767
 20
-154.4112
 10
-699.7105
 20
-154.5777
 10
-699.2439
 20
-154.7467
 10
-698.9276
 20
-154.9167
 10
-698.7229
 20
-155.0868
 10
-698.5091
 20
-155.2736
 10
-698.3982
 20
-155.3643
 10
-698.2843
 20
-155.4484
 10
-698.1672
 20
-155.5222
 10
-698.0467
 20
-155.5823
 10
-696.0329
 20
-156.0129
 10
-693.5996
 20
-156.2874
 10
-692.2149
 20
-156.6004
 10
-691.9819
 20
-156.6864
 10
-691.66
 20
-156.7955
 10
-691.276
 20
-156.9185
 10
-690.8566
 20
-157.0463
 10
-690.4288
 20
-157.1697
 10
-690.0191
 20
-157.2797
 10
-689.6544
 20
-157.367
 10
-689.3615
 20
-157.4226
 10
-688.6488
 20
-157.5011
 10
-688.282
 20
-157.5382
 10
-687.8691
 20
-157.5621
 10
-687.5314
 20
-157.575
 10
-687.3901
 20
-157.5791
 10
-687.2725
 20
-157.6069
 10
-687.1464
 20
-157.6235
 10
-687.014
 20
-157.6314
 10
-686.8778
 20
-157.6327
 10
-686.6031
 20
-157.6248
 10
-686.3409
 20
-157.6181
 10
-686.2233
 20
-157.6459
 10
-686.0973
 20
-157.6626
 10
-685.965
 20
-157.6705
 10
-685.8289
 20
-157.6719
 10
-685.5543
 20
-157.6642
 10
-685.2922
 20
-157.6576
 10
-685.069
 20
-157.6892
 10
-684.6903
 20
-157.7077
 10
-684.2043
 20
-157.7157
 10
-683.6592
 20
-157.7162
 10
-683.1032
 20
-157.7117
 10
-682.5845
 20
-157.7052
 10
-682.1513
 20
-157.6992
 10
-681.852
 20
-157.6966
 10
-681.6245
 20
-157.7286
 10
-681.2368
 20
-157.7472
 10
-680.7385
 20
-157.7553
 10
-680.1794
 20
-157.7557
 10
-679.6091
 20
-157.7511
 10
-679.0773
 20
-157.7444
 10
-678.6338
 20
-157.7383
 10
-678.3282
 20
-157.7356
 10
-652.7444
 20
-157.7373
 10
-605.4327
 20
-157.7415
 10
-544.137
 20
-157.7468
 10
-476.6012
 20
-157.7515
 10
-410.5693
 20
-157.7542
 10
-353.7854
 20
-157.7534
 10
-313.9933
 20
-157.7477
 10
-298.9371
 20
-157.7356
 10
-298.7246
 20
-157.7048
 10
-298.3684
 20
-157.6867
 10
-297.913
 20
-157.6787
 10
-297.403
 20
-157.6781
 10
-296.8828
 20
-157.6822
 10
-296.3971
 20
-157.6884
 10
-295.9902
 20
-157.6941
 10
-295.7069
 20
-157.6966
 10
-295.5848
 20
-157.6679
 10
-295.4535
 20
-157.6508
 10
-295.3158
 20
-157.6429
 10
-295.1739
 20
-157.6418
 10
-294.888
 20
-157.6505
 10
-294.6159
 20
-157.6576
 10
-294.4198
 20
-157.6358
 10
-294.1847
 20
-157.6202
 10
-293.928
 20
-157.6094
 10
-293.6674
 20
-157.602
 10
-293.4205
 20
-157.5966
 10
-293.205
 20
-157.592
 10
-293.0383
 20
-157.5866
 10
-292.9381
 20
-157.5791
 10
-291.3852
 20
-157.3836
 10
-291.2228
 20
-157.3319
 10
-291.0584
 20
-157.2853
 10
-290.8895
 20
-157.2488
 10
-290.7138
 20
-157.227
 10
-290.6319
 20
-157.1794
 10
-290.5966
 20
-157.1597
 10
-290.5571
 20
-157.154
 10
-290.4625
 20
-157.1485
 10
-290.2924
 20
-157.0788
 10
-290.0543
 20
-157.005
 10
-289.8106
 20
-156.9442
 10
-289.6233
 20
-156.9135
 10
-289.4535
 20
-156.8328
 10
-289.2611
 20
-156.7614
 10
-289.1611
 20
-156.7317
 10
-289.061
 20
-156.7073
 10
-288.9628
 20
-156.6892
 10
-288.8683
 20
-156.6785
 10
-288.7802
 20
-156.6198
 10
-288.7152
 20
-156.5874
 10
-288.6428
 20
-156.5712
 10
-288.5323
 20
-156.5614
 10
-288.4554
 20
-156.5237
 10
-288.3864
 20
-156.4968
 10
-288.3225
 20
-156.4779
 10
-288.2611
 20
-156.4642
 10
-288.1352
 20
-156.4409
 10
-287.9873
 20
-156.4044
 10
-287.8531
 20
-156.3908
 10
-287.69
 20
-156.3604
 10
-287.5287
 20
-156.3227
 10
-287.4
 20
-156.2874
 10
-286.6027
 20
-156.2089
 10
-286.2672
 20
-156.1304
 10
-284.9667
 20
-156.0129
 10
-283.0365
 20
-155.6218
 10
-282.8688
 20
-155.5043
 10
-282.7259
 20
-155.4351
 10
-282.6287
 20
-155.3845
 10
-282.5635
 20
-155.3452
 10
-282.5166
 20
-155.3103
 10
-282.4233
 20
-155.2253
 10
-282.2397
 20
-155.0732
 10
-282.1032
 20
-154.9677
 10
-281.9593
 20
-154.8613
 10
-281.8088
 20
-154.763
 10
-281.6524
 20
-154.6821
 10
-281.2857
 20
-154.6008
 10
-280.9033
 20
-154.5016
 10
-280.5101
 20
-154.3903
 10
-280.1107
 20
-154.273
 10
-279.71
 20
-154.1554
 10
-279.3127
 20
-154.0434
 10
-278.9237
 20
-153.943
 10
-278.5476
 20
-153.86
 10
-278.4715
 20
-153.7997
 10
-278.4601
 20
-153.7884
 10
-278.4505
 20
-153.7932
 10
-278.3799
 20
-153.7815
 10
-278.1753
 20
-153.6667
 10
-278.0014
 20
-153.5399
 10
-277.8392
 20
-153.4039
 10
-277.6694
 20
-153.2615
 10
-277.4731
 20
-153.1155
 10
-277.2311
 20
-152.969
 10
-276.9244
 20
-152.8246
 10
-276.5339
 20
-152.6853
 10
-276.303
 20
-152.6184
 10
-276.0603
 20
-152.5535
 10
-275.8118
 20
-152.4872
 10
-275.5632
 20
-152.4164
 10
-275.3206
 20
-152.3375
 10
-275.0898
 20
-152.2473
 10
-274.8767
 20
-152.1425
 10
-274.6873
 20
-152.0197
 10
-274.56
 20
-151.9192
 10
-274.4673
 20
-151.8379
 10
-274.3997
 20
-151.7694
 10
-274.3477
 20
-151.7072
 10
-274.2515
 20
-151.576
 10
-274.102
 20
-151.3927
 10
-273.9723
 20
-151.2806
 10
-273.8482
 20
-151.1918
 10
-273.7834
 20
-151.1558
 10
-273.7143
 20
-151.1252
 10
-273.6388
 20
-151.1
 10
-273.555
 20
-151.0801
 10
-273.4357
 20
-151.0069
 10
-273.2414
 20
-150.9031
 10
-272.9967
 20
-150.7805
 10
-272.7261
 20
-150.651
 10
-272.4542
 20
-150.5261
 10
-272.2056
 20
-150.4176
 10
-272.0049
 20
-150.3373
 10
-271.8767
 20
-150.2969
 10
-271.7084
 20
-150.2088
 10
-271.5664
 20
-150.1073
 10
-271.4438
 20
-149.9957
 10
-271.3333
 20
-149.8771
 10
-271.2277
 20
-149.7547
 10
-271.1201
 20
-149.6316
 10
-271.0032
 20
-149.5111
 10
-270.8699
 20
-149.3963
 10
-270.5944
 20
-149.2312
 10
-270.3576
 20
-149.1035
 10
-270.1252
 20
-148.9852
 10
-269.863
 20
-148.8482
 10
-269.6925
 20
-148.7943
 10
-269.5318
 20
-148.7331
 10
-269.3801
 20
-148.6633
 10
-269.2366
 20
-148.5837
 10
-269.1007
 20
-148.4932
 10
-268.9715
 20
-148.3904
 10
-268.8482
 20
-148.2743
 10
-268.7302
 20
-148.1436
 10
-268.6208
 20
-148.0007
 10
-268.5178
 20
-147.8577
 10
-268.4638
 20
-147.788
 10
-268.4056
 20
-147.7206
 10
-268.3412
 20
-147.6562
 10
-268.2688
 20
-147.5955
 10
-268.1064
 20
-147.4869
 10
-267.9277
 20
-147.3869
 10
-267.7363
 20
-147.2859
 10
-267.536
 20
-147.1739
 10
-267.3302
 20
-147.0411
 10
-267.1226
 20
-146.8778
 10
-266.9168
 20
-146.6742
 10
-266.7164
 20
-146.4204
 10
-266.6553
 20
-146.3193
 10
-266.581
 20
-146.188
 10
-266.5379
 20
-146.117
 10
-266.4904
 20
-146.0456
 10
-266.4383
 20
-145.9763
 10
-266.381
 20
-145.9113
 10
-266.2348
 20
-145.8024
 10
-266.0993
 20
-145.7099
 10
-265.9579
 20
-145.6301
 10
-265.7937
 20
-145.5592
 10
-265.1222
 20
-145.0111
 10
-264.9902
 20
-144.8411
 10
-264.8696
 20
-144.6926
 10
-264.8135
 20
-144.6175
 10
-264.76
 20
-144.537
 10
-264.7091
 20
-144.4475
 10
-264.6608
 20
-144.3455
 10
-264.5242
 20
-144.1969
 10
-264.3376
 20
-144.05
 10
-264.1141
 20
-143.8988
 10
-263.8668
 20
-143.737
 10
-263.6086
 20
-143.5582
 10
-263.3525
 20
-143.3562
 10
-263.1116
 20
-143.1248
 10
-262.8989
 20
-142.8578
 10
-262.7951
 20
-142.6908
 10
-262.6964
 20
-142.5266
 10
-262.6429
 20
-142.4475
 10
-262.5835
 20
-142.3713
 10
-262.5157
 20
-142.299
 10
-262.4371
 20
-142.2312
 10
-262.2096
 20
-142.0712
 10
-261.9785
 20
-141.9194
 10
-261.8655
 20
-141.8407
 10
-261.7564
 20
-141.7571
 10
-261.6527
 20
-141.6662
 10
-261.5561
 20
-141.5656
 10
-261.4262
 20
-141.3703
 10
-261.3111
 20
-141.1805
 10
-261.2055
 20
-140.9939
 10
-261.1041
 20
-140.8086
 10
-261.0015
 20
-140.6225
 10
-260.8924
 20
-140.4335
 10
-260.7714
 20
-140.2396
 10
-260.6333
 20
-140.0388
 10
-260.4937
 20
-139.9473
 10
-260.365
 20
-139.8597
 10
-260.2341
 20
-139.7735
 10
-260.0878
 20
-139.6863
 10
-259.9558
 20
-139.5438
 10
-259.7913
 20
-139.3015
 10
-259.6053
 20
-138.9898
 10
-259.4091
 20
-138.6391
 10
-259.2138
 20
-138.2799
 10
-259.0307
 20
-137.9425
 10
-258.8709
 20
-137.6574
 10
-258.7455
 20
-137.4549
 10
-258.6461
 20
-137.3202
 10
-258.5614
 20
-137.2227
 10
-258.4862
 20
-137.1511
 10
-258.4155
 20
-137.0942
 10
-258.3441
 20
-137.0408
 10
-258.2668
 20
-136.9797
 10
-258.1785
 20
-136.8996
 10
-258.0741
 20
-136.7893
 10
-257.9075
 20
-136.6037
 10
-257.7835
 20
-136.4574
 10
-257.7269
 20
-136.3804
 10
-257.6684
 20
-136.291
 10
-257.6037
 20
-136.1818
 10
-257.5286
 20
-136.0452
 10
-257.4109
 20
-135.7965
 10
-257.3215
 20
-135.5874
 10
-257.2481
 20
-135.4042
 10
-257.1784
 20
-135.2334
 10
-257.0999
 20
-135.0613
 10
-257.0005
 20
-134.8742
 10
-256.8678
 20
-134.6586
 10
-256.6894
 20
-134.4009
 10
-256.4874
 20
-134.1939
 10
-256.2834
 20
-133.9982
 10
-256.1857
 20
-133.8967
 10
-256.0935
 20
-133.7886
 10
-256.0089
 20
-133.6707
 10
-255.9339
 20
-133.5398
 10
-255.8745
 20
-133.3974
 10
-255.8056
 20
-133.1956
 10
-255.7314
 20
-132.9528
 10
-255.6561
 20
-132.6878
 10
-255.5838
 20
-132.4192
 10
-255.5186
 20
-132.1656
 10
-255.4647
 20
-131.9457
 10
-255.4263
 20
-131.778
 10
-255.3564
 20
-131.4959
 10
-255.2773
 20
-131.2499
 10
-255.1872
 20
-131.0301
 10
-255.0843
 20
-130.8265
 10
-254.9666
 20
-130.6293
 10
-254.8326
 20
-130.4285
 10
-254.6803
 20
-130.2141
 10
-254.5079
 20
-129.9763
 10
-254.3397
 20
-129.8197
 10
-254.149
 20
-129.5254
 10
-254.0127
 20
-129.2691
 10
-253.9174
 20
-129.0383
 10
-253.8497
 20
-128.8203
 10
-253.796
 20
-128.6024
 10
-253.7429
 20
-128.372
 10
-253.677
 20
-128.1163
 10
-253.5847
 20
-127.8229
 10
-253.5771
 20
-127.7288
 10
-253.5599
 20
-127.6176
 10
-253.5352
 20
-127.4952
 10
-253.5052
 20
-127.3676
 10
-253.4378
 20
-127.1202
 10
-253.3751
 20
-126.9223
 10
-252.9595
 20
-125.3937
 10
-252.9444
 20
-125.2918
 10
-252.9224
 20
-125.2269
 10
-252.8865
 20
-125.1676
 10
-252.8296
 20
-125.0825
 10
-252.8079
 20
-124.9491
 10
-252.7692
 20
-124.8203
 10
-252.719
 20
-124.694
 10
-252.663
 20
-124.568
 10
-252.6069
 20
-124.4402
 10
-252.5563
 20
-124.3086
 10
-252.5168
 20
-124.171
 10
-252.4942
 20
-124.0253
 10
-252.326
 20
-123.7123
 10
-252.0323
 20
-122.4986
 10
-251.9844
 20
-122.3258
 10
-251.9485
 20
-122.146
 10
-251.9125
 20
-121.9663
 10
-251.8646
 20
-121.7935
 10
-251.781
 20
-120.7758
 10
-251.753
 20
-120.6946
 10
-251.7408
 20
-120.6451
 10
-251.7381
 20
-120.5925
 10
-251.7386
 20
-120.5017
 10
-251.655
 20
-119.8361
 10
-251.6141
 20
-119.507
 10
-251.5884
 20
-119.1623
 10
-251.575
 20
-118.8902
 10
-251.5709
 20
-118.779
 10
-251.4032
 20
-117.1737
 10
-251.3773
 20
-116.9633
 10
-251.36
 20
-116.7089
 10
-251.3491
 20
-116.4296
 10
-251.3427
 20
-116.1448
 10
-251.3385
 20
-115.8735
 10
-251.3346
 20
-115.635
 10
-251.3288
 20
-115.4486
 10
-251.3191
 20
-115.3334
 10
-251.2882
 20
-115.2159
 10
-251.2698
 20
-115.0851
 10
-251.2613
 20
-114.945
 10
-251.2602
 20
-114.7993
 10
-251.2696
 20
-114.5065
 10
-251.2773
 20
-114.2373
 10
-251.2458
 20
-114.1137
 10
-251.2272
 20
-113.9704
 10
-251.2187
 20
-113.8131
 10
-251.2177
 20
-113.6478
 10
-251.2275
 20
-113.3163
 10
-251.2355
 20
-113.0231
 10
-251.2046
 20
-112.898
 10
-251.1861
 20
-112.7469
 10
-251.1776
 20
-112.5776
 10
-251.1763
 20
-112.3979
 10
-251.1856
 20
-112.0386
 10
-251.1932
 20
-111.7314
 10
-251.1914
 20
-98.0065
 10
-251.1869
 20
-72.6576
 10
-251.1814
 20
-39.8273
 10
-251.1764
 20
-3.6584
 10
-251.1735
 20
31.7064
 10
-251.1743
 20
62.1245
 10
-251.1803
 20
83.4531
 10
-251.1932
 20
91.5496
 10
-251.2248
 20
91.6732
 10
-251.2436
 20
91.8165
 10
-251.2522
 20
91.9738
 10
-251.2532
 20
92.1391
 10
-251.2435
 20
92.4703
 10
-251.2355
 20
92.7633
 10
-251.2616
 20
92.9708
 10
-251.2791
 20
93.2132
 10
-251.2899
 20
93.4742
 10
-251.2963
 20
93.7374
 10
-251.3003
 20
93.9866
 10
-251.304
 20
94.2053
 10
-251.3096
 20
94.3772
 10
-251.3191
 20
94.486
 10
-251.3456
 20
94.6918
 10
-251.363
 20
94.9241
 10
-251.3734
 20
95.1695
 10
-251.3792
 20
95.4149
 10
-251.3828
 20
95.6469
 10
-251.3865
 20
95.8524
 10
-251.3925
 20
96.0179
 10
-251.4032
 20
96.1303
 10
-251.4873
 20
96.7959
 10
-251.5134
 20
96.9825
 10
-251.5335
 20
97.1864
 10
-251.5492
 20
97.3988
 10
-251.562
 20
97.6111
 10
-251.5845
 20
98.0002
 10
-251.6127
 20
98.2841
 10
-251.8646
 20
100.3984
 10
-252.322
 20
102.1621
 10
-252.3385
 20
102.2508
 10
-252.3693
 20
102.3603
 10
-252.4102
 20
102.4849
 10
-252.457
 20
102.6192
 10
-252.5516
 20
102.8937
 10
-252.6196
 20
103.1389
 10
-252.6633
 20
103.1993
 10
-252.702
 20
103.2629
 10
-252.7358
 20
103.3293
 10
-252.7647
 20
103.398
 10
-252.7885
 20
103.4685
 10
-252.8073
 20
103.5405
 10
-252.821
 20
103.6135
 10
-252.8296
 20
103.687
 10
-252.9339
 20
103.8724
 10
-253.0143
 20
104.06
 10
-253.0768
 20
104.2495
 10
-253.1275
 20
104.4406
 10
-253.1724
 20
104.6329
 10
-253.2176
 20
104.8262
 10
-253.269
 20
105.0201
 10
-253.3328
 20
105.2142
 10
-253.5847
 20
106.3494
 10
-253.6099
 20
106.6643
 10
-253.6681
 20
106.9689
 10
-253.7556
 20
107.2638
 10
-253.8689
 20
107.5499
 10
-254.0043
 20
107.8278
 10
-254.1584
 20
108.0984
 10
-254.3274
 20
108.3622
 10
-254.5079
 20
108.6202
 10
-254.8852
 20
109.0118
 10
-254.9911
 20
109.2552
 10
-255.086
 20
109.4716
 10
-255.1713
 20
109.6712
 10
-255.2487
 20
109.8641
 10
-255.3198
 20
110.0607
 10
-255.386
 20
110.271
 10
-255.449
 20
110.5052
 10
-255.5104
 20
110.7736
 10
-255.5643
 20
111.0123
 10
-255.6259
 20
111.2484
 10
-255.6963
 20
111.4812
 10
-255.777
 20
111.7102
 10
-255.8692
 20
111.9347
 10
-255.9742
 20
112.1541
 10
-256.0934
 20
112.3677
 10
-256.228
 20
112.5749
 10
-256.3295
 20
112.6644
 10
-256.4391
 20
112.7465
 10
-256.5479
 20
112.831
 10
-256.6471
 20
112.9274
 10
-256.8681
 20
113.2272
 10
-257.0555
 20
113.5617
 10
-257.2223
 20
113.9167
 10
-257.3815
 20
114.2784
 10
-257.5459
 20
114.6327
 10
-257.7285
 20
114.9656
 10
-257.9423
 20
115.2632
 10
-258.2
 20
115.5113
 10
-258.3433
 20
115.6232
 10
-258.4464
 20
115.7084
 10
-258.5202
 20
115.7768
 10
-258.5754
 20
115.8385
 10
-258.6739
 20
115.9811
 10
-258.8291
 20
116.2159
 10
-258.9085
 20
116.2926
 10
-258.9501
 20
116.3377
 10
-258.9732
 20
116.3903
 10
-258.9973
 20
116.49
 10
-259.1352
 20
116.6726
 10
-259.2507
 20
116.8615
 10
-259.3503
 20
117.0547
 10
-259.4405
 20
117.2503
 10
-259.5276
 20
117.4463
 10
-259.6183
 20
117.6407
 10
-259.7189
 20
117.8317
 10
-259.836
 20
118.0172
 10
-259.941
 20
118.1257
 10
-260.0549
 20
118.2249
 10
-260.1747
 20
118.3181
 10
-260.2974
 20
118.4082
 10
-260.4202
 20
118.4984
 10
-260.5401
 20
118.5918
 10
-260.6541
 20
118.6914
 10
-260.7593
 20
118.8003
 10
-260.8574
 20
118.9232
 10
-260.9339
 20
119.0391
 10
-260.9937
 20
119.1498
 10
-261.042
 20
119.2576
 10
-261.124
 20
119.4725
 10
-261.2206
 20
119.7005
 10
-261.2677
 20
119.7836
 10
-261.3329
 20
119.8799
 10
-261.4118
 20
119.9844
 10
-261.4996
 20
120.0916
 10
-261.5918
 20
120.1965
 10
-261.684
 20
120.2938
 10
-261.7715
 20
120.3782
 10
-261.8498
 20
120.4446
 10
-262.0445
 20
120.5751
 10
-262.3273
 20
120.7639
 10
-262.475
 20
120.8732
 10
-262.6126
 20
120.9888
 10
-262.7295
 20
121.1079
 10
-262.8148
 20
121.2277
 10
-262.8358
 20
121.3013
 10
-262.8628
 20
121.3654
 10
-262.8948
 20
121.4224
 10
-262.9314
 20
121.4753
 10
-263.0151
 20
121.5788
 10
-263.1085
 20
121.6973
 10
-263.3192
 20
121.9138
 10
-263.5226
 20
122.0862
 10
-263.717
 20
122.2245
 10
-263.9006
 20
122.3388
 10
-264.0717
 20
122.4389
 10
-264.2287
 20
122.5349
 10
-264.3697
 20
122.6368
 10
-264.4931
 20
122.7545
 10
-264.6291
 20
122.9183
 10
-264.7443
 20
123.0727
 10
-264.8485
 20
123.2208
 10
-264.9512
 20
123.3655
 10
-265.0623
 20
123.5096
 10
-265.1912
 20
123.6562
 10
-265.3479
 20
123.808
 10
-265.5418
 20
123.9682
 10
-265.7627
 20
124.1115
 10
-265.997
 20
124.2406
 10
-266.1127
 20
124.3075
 10
-266.224
 20
124.3802
 10
-266.3282
 20
124.4618
 10
-266.4228
 20
124.5553
 10
-266.5372
 20
124.695
 10
-266.6289
 20
124.8244
 10
-266.7078
 20
124.9469
 10
-266.7841
 20
125.0659
 10
-266.8676
 20
125.1847
 10
-266.9684
 20
125.3066
 10
-267.0965
 20
125.4351
 10
-267.2619
 20
125.5734
 10
-267.454
 20
125.7104
 10
-267.6299
 20
125.8184
 10
-267.7936
 20
125.9084
 10
-267.9489
 20
125.9915
 10
-268.0995
 20
126.0785
 10
-268.2494
 20
126.1806
 10
-268.4025
 20
126.3086
 10
-268.5624
 20
126.4736
 10
-268.6724
 20
126.6138
 10
-268.7766
 20
126.7589
 10
-268.8308
 20
126.83
 10
-268.8889
 20
126.8985
 10
-268.9527
 20
126.9629
 10
-269.0238
 20
127.0221
 10
-269.2431
 20
127.1657
 10
-269.4749
 20
127.2875
 10
-269.7145
 20
127.3945
 10
-269.9574
 20
127.494
 10
-270.1989
 20
127.5933
 10
-270.4346
 20
127.6995
 10
-270.6598
 20
127.82
 10
-270.8699
 20
127.9618
 10
-270.978
 20
128.0574
 10
-271.0775
 20
128.1659
 10
-271.1723
 20
128.2817
 10
-271.2662
 20
128.3996
 10
-271.363
 20
128.5141
 10
-271.4665
 20
128.6199
 10
-271.5806
 20
128.7116
 10
-271.709
 20
128.7839
 10
-271.8638
 20
128.8314
 10
-272.0438
 20
128.912
 10
-272.2421
 20
129.015
 10
-272.4516
 20
129.1296
 10
-272.6652
 20
129.245
 10
-272.876
 20
129.3506
 10
-273.0769
 20
129.4355
 10
-273.2609
 20
129.489
 10
-273.3602
 20
129.5587
 10
-273.4357
 20
129.5986
 10
-273.5183
 20
129.6229
 10
-273.6387
 20
129.6455
 10
-273.7944
 20
129.7331
 10
-273.9449
 20
129.8541
 10
-274.0939
 20
129.9997
 10
-274.2447
 20
130.1609
 10
-274.4012
 20
130.3285
 10
-274.5667
 20
130.4938
 10
-274.7451
 20
130.6477
 10
-274.9397
 20
130.7812
 10
-275.067
 20
130.8325
 10
-275.313
 20
130.9151
 10
-275.6408
 20
131.0192
 10
-276.0131
 20
131.1353
 10
-276.3928
 20
131.2535
 10
-276.7428
 20
131.3643
 10
-277.026
 20
131.4579
 10
-277.2053
 20
131.5248
 10
-278.1281
 20
132.1904
 10
-278.6037
 20
132.4339
 10
-279.0996
 20
132.6133
 10
-279.6095
 20
132.7503
 10
-280.1274
 20
132.8667
 10
-280.6471
 20
132.9842
 10
-281.1624
 20
133.1246
 10
-281.6673
 20
133.3095
 10
-282.1556
 20
133.5607
 10
-282.617
 20
133.9522
 10
-282.7997
 20
134.0606
 10
-283.0438
 20
134.1638
 10
-283.3306
 20
134.2601
 10
-283.6416
 20
134.3478
 10
-283.9582
 20
134.4252
 10
-284.262
 20
134.4906
 10
-284.5343
 20
134.5423
 10
-284.7566
 20
134.5788
 10
-285.6799
 20
134.6568
 10
-285.7585
 20
134.6814
 10
-285.7993
 20
134.692
 10
-285.8433
 20
134.6949
 10
-285.9312
 20
134.6963
 10
-287.19
 20
134.8528
 10
-287.4836
 20
134.9309
 10
-287.945
 20
134.9704
 10
-288.1091
 20
135.0156
 10
-288.3201
 20
135.0662
 10
-288.5323
 20
135.108
 10
-288.7
 20
135.1269
 10
-288.7881
 20
135.1855
 10
-288.8531
 20
135.218
 10
-288.9255
 20
135.2343
 10
-289.036
 20
135.2444
 10
-289.2264
 20
135.3259
 10
-289.4852
 20
135.4119
 10
-289.6208
 20
135.4504
 10
-289.7501
 20
135.4827
 10
-289.8654
 20
135.5062
 10
-289.9588
 20
135.5185
 10
-290.0409
 20
135.5658
 10
-290.0762
 20
135.5854
 10
-290.1158
 20
135.591
 10
-290.2106
 20
135.5965
 10
-290.2915
 20
135.6341
 10
-290.3938
 20
135.6724
 10
-290.5109
 20
135.7098
 10
-290.6363
 20
135.7448
 10
-290.8863
 20
135.8018
 10
-291.0916
 20
135.8315
 10
-291.1745
 20
135.874
 10
-291.236
 20
135.9002
 10
-291.2987
 20
135.9215
 10
-291.3852
 20
135.949
 10
-293.819
 20
136.1841
 10
-293.9229
 20
136.2088
 10
-294.0338
 20
136.2241
 10
-294.1498
 20
136.2317
 10
-294.269
 20
136.2337
 10
-294.5099
 20
136.2283
 10
-294.7418
 20
136.2231
 10
-294.8831
 20
136.2521
 10
-295.0627
 20
136.2693
 10
-295.2691
 20
136.2772
 10
-295.4905
 20
136.2782
 10
-295.7154
 20
136.2748
 10
-295.932
 20
136.2694
 10
-296.1289
 20
136.2643
 10
-296.2942
 20
136.2621
 10
-296.4412
 20
136.292
 10
-296.6301
 20
136.3097
 10
-296.8483
 20
136.3178
 10
-297.0828
 20
136.3187
 10
-297.3211
 20
136.315
 10
-297.5502
 20
136.3092
 10
-297.7575
 20
136.3039
 10
-297.9302
 20
136.3016
 10
-682.3139
 20
136.3016
 10
-682.7755
 20
136.2999
 10
-683.2326
 20
136.2954
 10
-683.6866
 20
136.2891
 10
-684.1391
 20
136.2819
 10
-684.5915
 20
136.2746
 10
-685.0454
 20
136.2683
 10
-685.5022
 20
136.2638
 10
-685.9636
 20
136.2621
  0
LWPOLYLINE
  5
62
330
1F
100
AcDbEntity
  8
Layer 1
 62
     7
370
    35
100
AcDbPolyline
 90
      637
 70
     1
 43
0.0
 10
-690.243
 20
118.4478
 10
-692.2149
 20
118.2518
 10
-692.302
 20
118.2259
 10
-692.3549
 20
118.2147
 10
-692.4113
 20
118.2122
 10
-692.5086
 20
118.2127
 10
-692.6705
 20
118.1801
 10
-692.8743
 20
118.1262
 10
-693.1058
 20
118.0566
 10
-693.3511
 20
117.9767
 10
-693.5958
 20
117.8921
 10
-693.8261
 20
117.8082
 10
-694.0279
 20
117.7306
 10
-694.1869
 20
117.6647
 10
-694.26
 20
117.6085
 10
-694.2999
 20
117.5808
 10
-694.3463
 20
117.5656
 10
-694.4387
 20
117.5471
 10
-694.5679
 20
117.4721
 10
-694.7326
 20
117.3735
 10
-694.8597
 20
117.315
 10
-695.0334
 20
117.2504
 10
-695.2663
 20
117.1795
 10
-695.571
 20
117.1023
 10
-695.8204
 20
117.0457
 10
-696.1535
 20
116.9716
 10
-696.5401
 20
116.8853
 10
-696.9499
 20
116.7918
 10
-697.3525
 20
116.6965
 10
-697.7177
 20
116.6044
 10
-698.0151
 20
116.5209
 10
-698.2144
 20
116.451
 10
-698.5917
 20
116.2159
 10
-698.71
 20
116.1167
 10
-698.819
 20
116.0124
 10
-698.923
 20
115.9057
 10
-699.0262
 20
115.7994
 10
-699.1327
 20
115.6962
 10
-699.2469
 20
115.5989
 10
-699.3729
 20
115.5102
 10
-699.5149
 20
115.4328
 10
-699.6737
 20
115.3631
 10
-699.8803
 20
115.2777
 10
-700.1188
 20
115.1812
 10
-700.3733
 20
115.078
 10
-700.628
 20
114.9727
 10
-700.8671
 20
114.8699
 10
-701.0747
 20
114.7738
 10
-701.235
 20
114.6892
 10
-701.3581
 20
114.5962
 10
-701.498
 20
114.5106
 10
-701.6428
 20
114.436
 10
-701.7805
 20
114.3761
 10
-701.8746
 20
114.2645
 10
-702.0763
 20
114.024
 10
-702.2163
 20
113.8712
 10
-702.3818
 20
113.705
 10
-702.5723
 20
113.5319
 10
-702.7874
 20
113.358
 10
-702.9382
 20
113.2545
 10
-703.0998
 20
113.1596
 10
-703.2678
 20
113.069
 10
-703.4376
 20
112.9787
 10
-703.6047
 20
112.8843
 10
-703.7648
 20
112.7818
 10
-703.9132
 20
112.6669
 10
-704.0456
 20
112.5354
 10
-704.1706
 20
112.3808
 10
-704.2756
 20
112.2324
 10
-704.37
 20
112.0883
 10
-704.4631
 20
111.9463
 10
-704.5643
 20
111.8046
 10
-704.6831
 20
111.6611
 10
-704.8287
 20
111.5138
 10
-705.0107
 20
111.3607
 10
-705.3098
 20
111.143
 10
-705.5166
 20
111.0107
 10
-705.6577
 20
110.927
 10
-705.7598
 20
110.8553
 10
-705.8496
 20
110.7586
 10
-705.9536
 20
110.6002
 10
-706.0986
 20
110.3435
 10
-706.3112
 20
109.9515
 10
-706.3983
 20
109.7869
 10
-706.5023
 20
109.5881
 10
-706.6194
 20
109.3684
 10
-706.7462
 20
109.1412
 10
-706.8789
 20
108.9198
 10
-707.0139
 20
108.7177
 10
-707.1476
 20
108.548
 10
-707.2763
 20
108.4242
 10
-707.5082
 20
108.2503
 10
-707.6956
 20
108.0971
 10
-707.7799
 20
108.0117
 10
-707.8621
 20
107.9118
 10
-707.9449
 20
107.7906
 10
-708.0314
 20
107.6416
 10
-708.1289
 20
107.4579
 10
-708.189
 20
107.3363
 10
-708.221
 20
107.2596
 10
-708.234
 20
107.2102
 10
-708.2407
 20
107.1235
 10
-708.2832
 20
106.9365
 10
-708.3479
 20
106.8106
 10
-708.3989
 20
106.672
 10
-708.4412
 20
106.524
 10
-708.4801
 20
106.3701
 10
-708.5206
 20
106.2135
 10
-708.5678
 20
106.0578
 10
-708.6268
 20
105.9063
 10
-708.7028
 20
105.7623
 10
-708.7228
 20
105.6524
 10
-708.7621
 20
105.5335
 10
-708.8157
 20
105.4091
 10
-708.8786
 20
105.2825
 10
-709.0121
 20
105.0365
 10
-709.1223
 20
104.8226
 10
-709.2891
 20
104.6503
 10
-709.418
 20
104.491
 10
-709.5184
 20
104.3404
 10
-709.5996
 20
104.1943
 10
-709.7418
 20
103.8985
 10
-709.9197
 20
103.5695
 10
-710.4229
 20
99.7328
 10
-710.4586
 20
99.4094
 10
-710.4817
 20
99.0263
 10
-710.4964
 20
98.6931
 10
-710.507
 20
98.5191
 10
-710.5273
 20
98.4507
 10
-710.5407
 20
98.3842
 10
-710.5485
 20
98.3187
 10
-710.5521
 20
98.2532
 10
-710.5513
 20
98.118
 10
-710.5488
 20
97.971
 10
-710.5755
 20
97.8739
 10
-710.5919
 20
97.7704
 10
-710.6002
 20
97.6622
 10
-710.6024
 20
97.5509
 10
-710.5967
 20
97.326
 10
-710.5911
 20
97.1094
 10
-710.6197
 20
97.0038
 10
-710.6371
 20
96.8908
 10
-710.6454
 20
96.7724
 10
-710.6471
 20
96.6506
 10
-710.6395
 20
96.4047
 10
-710.6329
 20
96.1693
 10
-710.6348
 20
81.6912
 10
-710.6394
 20
54.9431
 10
-710.6451
 20
20.2977
 10
-710.6503
 20
-17.8725
 10
-710.6532
 20
-55.1948
 10
-710.6524
 20
-87.2967
 10
-710.6462
 20
-109.8054
 10
-710.6329
 20
-118.3484
 10
-710.6105
 20
-118.5214
 10
-710.5945
 20
-118.7242
 10
-710.5832
 20
-118.943
 10
-710.5754
 20
-119.1642
 10
-710.564
 20
-119.5584
 10
-710.5488
 20
-119.7971
 10
-710.5142
 20
-120.1145
 10
-710.492
 20
-120.493
 10
-710.4773
 20
-120.8269
 10
-710.4652
 20
-121.0108
 10
-710.4318
 20
-121.1388
 10
-710.4202
 20
-121.2578
 10
-710.4206
 20
-121.3804
 10
-710.4229
 20
-121.5194
 10
-710.3393
 20
-121.833
 10
-710.1715
 20
-123.5947
 10
-710.136
 20
-123.8169
 10
-710.1026
 20
-124.0382
 10
-710.0677
 20
-124.2589
 10
-710.0276
 20
-124.4791
 10
-709.9786
 20
-124.6988
 10
-709.917
 20
-124.9182
 10
-709.8393
 20
-125.1374
 10
-709.7416
 20
-125.3565
 10
-709.668
 20
-125.4951
 10
-709.5823
 20
-125.6404
 10
-709.487
 20
-125.7895
 10
-709.3847
 20
-125.9396
 10
-709.1688
 20
-126.2311
 10
-708.9546
 20
-126.4917
 10
-708.9138
 20
-126.6372
 10
-708.8566
 20
-126.7983
 10
-708.7877
 20
-126.9717
 10
-708.712
 20
-127.1539
 10
-708.6341
 20
-127.3414
 10
-708.5589
 20
-127.5308
 10
-708.4912
 20
-127.7186
 10
-708.4357
 20
-127.9014
 10
-708.3697
 20
-128.1366
 10
-708.2984
 20
-128.363
 10
-708.2192
 20
-128.5815
 10
-708.1294
 20
-128.793
 10
-708.0264
 20
-128.9982
 10
-707.9076
 20
-129.198
 10
-707.7702
 20
-129.3932
 10
-707.6118
 20
-129.5847
 10
-707.5122
 20
-129.6714
 10
-707.4272
 20
-129.7362
 10
-707.34
 20
-129.7937
 10
-707.234
 20
-129.8588
 10
-707.1283
 20
-129.9823
 10
-706.9898
 20
-130.1757
 10
-706.832
 20
-130.4164
 10
-706.6684
 20
-130.682
 10
-706.5126
 20
-130.9499
 10
-706.3781
 20
-131.1977
 10
-706.2785
 20
-131.4029
 10
-706.2271
 20
-131.543
 10
-706.1347
 20
-131.6633
 10
-706.0729
 20
-131.769
 10
-706.0254
 20
-131.8791
 10
-705.9758
 20
-132.0126
 10
-705.7658
 20
-132.2476
 10
-705.6618
 20
-132.3413
 10
-705.5899
 20
-132.3959
 10
-705.5116
 20
-132.4351
 10
-705.3885
 20
-132.4826
 10
-705.2883
 20
-132.5456
 10
-705.1821
 20
-132.6199
 10
-705.073
 20
-132.7026
 10
-704.964
 20
-132.7911
 10
-704.7587
 20
-132.9745
 10
-704.5911
 20
-133.1482
 10
-704.3969
 20
-133.413
 10
-704.186
 20
-133.7315
 10
-704.0707
 20
-133.8916
 10
-703.947
 20
-134.0421
 10
-703.8133
 20
-134.1752
 10
-703.6684
 20
-134.2834
 10
-703.518
 20
-134.3448
 10
-703.3838
 20
-134.4092
 10
-703.2614
 20
-134.4768
 10
-703.1459
 20
-134.5479
 10
-702.9175
 20
-134.7011
 10
-702.6615
 20
-134.8705
 10
-702.116
 20
-135.3796
 10
-702.0375
 20
-135.4836
 10
-701.964
 20
-135.5855
 10
-701.925
 20
-135.6348
 10
-701.8825
 20
-135.6824
 10
-701.8349
 20
-135.728
 10
-701.7805
 20
-135.7712
 10
-701.5984
 20
-135.8698
 10
-701.3909
 20
-135.9811
 10
-701.1894
 20
-136.0951
 10
-701.025
 20
-136.2017
 10
-700.9166
 20
-136.226
 10
-700.8444
 20
-136.2528
 10
-700.7786
 20
-136.2933
 10
-700.6895
 20
-136.3587
 10
-700.437
 20
-136.4693
 10
-700.191
 20
-136.5666
 10
-699.952
 20
-136.6589
 10
-699.7207
 20
-136.7546
 10
-699.4977
 20
-136.862
 10
-699.2837
 20
-136.9893
 10
-699.0794
 20
-137.145
 10
-698.8853
 20
-137.3374
 10
-698.634
 20
-137.6114
 10
-698.0885
 20
-137.9245
 10
-697.9402
 20
-137.9477
 10
-697.6999
 20
-137.9986
 10
-697.3973
 20
-138.069
 10
-697.0622
 20
-138.151
 10
-696.7243
 20
-138.2365
 10
-696.4132
 20
-138.3175
 10
-696.1587
 20
-138.3858
 10
-695.9906
 20
-138.4336
 10
-695.6004
 20
-138.4843
 10
-695.2008
 20
-138.6051
 10
-694.7983
 20
-138.7728
 10
-694.3993
 20
-138.9637
 10
-694.0105
 20
-139.1544
 10
-693.6384
 20
-139.3215
 10
-693.2893
 20
-139.4414
 10
-692.97
 20
-139.4907
 10
-692.8931
 20
-139.5284
 10
-692.8241
 20
-139.5554
 10
-692.7603
 20
-139.5743
 10
-692.699
 20
-139.588
 10
-692.5731
 20
-139.6111
 10
-692.425
 20
-139.6473
 10
-690.998
 20
-139.7648
 10
-690.8236
 20
-139.7843
 10
-690.6104
 20
-139.7994
 10
-690.3758
 20
-139.8108
 10
-690.137
 20
-139.8194
 10
-689.9115
 20
-139.8261
 10
-689.7165
 20
-139.8317
 10
-689.5694
 20
-139.837
 10
-689.4875
 20
-139.8428
 10
-689.283
 20
-139.875
 10
-688.9567
 20
-139.8937
 10
-688.5462
 20
-139.9019
 10
-688.0893
 20
-139.9023
 10
-687.6236
 20
-139.8978
 10
-687.1868
 20
-139.891
 10
-686.8167
 20
-139.885
 10
-686.5509
 20
-139.8823
 10
-686.3417
 20
-139.9147
 10
-686.0063
 20
-139.9335
 10
-685.5836
 20
-139.9417
 10
-685.1128
 20
-139.9419
 10
-684.6329
 20
-139.9372
 10
-684.1832
 20
-139.9303
 10
-683.8026
 20
-139.924
 10
-683.5303
 20
-139.9213
 10
-657.2977
 20
-139.9231
 10
-608.7836
 20
-139.9274
 10
-545.9292
 20
-139.9327
 10
-476.6755
 20
-139.9375
 10
-408.9637
 20
-139.9403
 10
-350.7348
 20
-139.9395
 10
-309.9301
 20
-139.9337
 10
-294.4905
 20
-139.9213
 10
-294.2813
 20
-139.8888
 10
-293.9458
 20
-139.8699
 10
-293.5231
 20
-139.8618
 10
-293.0522
 20
-139.8615
 10
-292.5723
 20
-139.8663
 10
-292.1225
 20
-139.8733
 10
-291.7418
 20
-139.8796
 10
-291.4693
 20
-139.8823
 10
-291.2524
 20
-139.8561
 10
-291.0111
 20
-139.836
 10
-290.758
 20
-139.8205
 10
-290.5055
 20
-139.8082
 10
-290.2659
 20
-139.7979
 10
-290.0517
 20
-139.7881
 10
-289.8753
 20
-139.7775
 10
-289.7492
 20
-139.7648
 10
-288.5746
 20
-139.6473
 10
-288.4105
 20
-139.602
 10
-288.1994
 20
-139.5513
 10
-287.9871
 20
-139.5095
 10
-287.8191
 20
-139.4907
 10
-287.6076
 20
-139.3769
 10
-287.4924
 20
-139.3568
 10
-287.3749
 20
-139.3194
 10
-287.2553
 20
-139.2698
 10
-287.1343
 20
-139.2132
 10
-287.0123
 20
-139.1548
 10
-286.8897
 20
-139.0998
 10
-286.7669
 20
-139.0534
 10
-286.6445
 20
-139.0207
 10
-286.4632
 20
-138.9263
 10
-286.2758
 20
-138.8142
 10
-286.1804
 20
-138.7587
 10
-286.084
 20
-138.7075
 10
-285.987
 20
-138.6633
 10
-285.8894
 20
-138.6291
 10
-285.0921
 20
-138.4336
 10
-284.854
 20
-138.4104
 10
-284.5924
 20
-138.3568
 10
-284.3156
 20
-138.2827
 10
-284.032
 20
-138.1986
 10
-283.7497
 20
-138.1144
 10
-283.4772
 20
-138.0403
 10
-283.2228
 20
-137.9867
 10
-282.9947
 20
-137.9635
 10
-282.8633
 20
-137.8904
 10
-282.7257
 20
-137.8163
 10
-282.5862
 20
-137.7473
 10
-282.4492
 20
-137.6895
 10
-282.3272
 20
-137.6005
 10
-282.2113
 20
-137.4934
 10
-282.0949
 20
-137.3733
 10
-281.9715
 20
-137.245
 10
-281.8343
 20
-137.1135
 10
-281.6769
 20
-136.9839
 10
-281.4925
 20
-136.861
 10
-281.2746
 20
-136.7498
 10
-281.1802
 20
-136.7276
 10
-281.1012
 20
-136.7015
 10
-281.025
 20
-136.6702
 10
-280.9392
 20
-136.6328
 10
-280.7527
 20
-136.5423
 10
-280.5453
 20
-136.4406
 10
-280.3242
 20
-136.3321
 10
-280.0965
 20
-136.2216
 10
-279.8693
 20
-136.1135
 10
-279.6495
 20
-136.0124
 10
-279.4444
 20
-135.923
 10
-279.2609
 20
-135.8497
 10
-279.1599
 20
-135.7724
 10
-279.0567
 20
-135.6689
 10
-278.9511
 20
-135.5465
 10
-278.8429
 20
-135.4126
 10
-278.7319
 20
-135.2745
 10
-278.6179
 20
-135.1399
 10
-278.5006
 20
-135.0159
 10
-278.3799
 20
-134.91
 10
-277.6667
 20
-134.44
 10
-277.5475
 20
-134.407
 10
-277.4482
 20
-134.3618
 10
-277.3532
 20
-134.3068
 10
-277.2471
 20
-134.2444
 10
-277.0594
 20
-134.0855
 10
-276.9188
 20
-133.9243
 10
-276.8052
 20
-133.7581
 10
-276.6989
 20
-133.5842
 10
-276.5797
 20
-133.3999
 10
-276.4279
 20
-133.2023
 10
-276.2235
 20
-132.9888
 10
-275.9466
 20
-132.7567
 10
-275.7415
 20
-132.622
 10
-275.5315
 20
-132.5023
 10
-275.4288
 20
-132.4403
 10
-275.3298
 20
-132.3727
 10
-275.2362
 20
-132.2965
 10
-275.1497
 20
-132.2086
 10
-275.0757
 20
-132.0975
 10
-275.0069
 20
-131.9886
 10
-274.9359
 20
-131.8821
 10
-274.8556
 20
-131.778
 10
-274.8252
 20
-131.6491
 10
-274.7873
 20
-131.5485
 10
-274.7312
 20
-131.4547
 10
-274.646
 20
-131.3465
 10
-274.6005
 20
-131.2166
 10
-274.5205
 20
-131.0561
 10
-274.4156
 20
-130.875
 10
-274.2951
 20
-130.6835
 10
-274.0458
 20
-130.3096
 10
-273.8487
 20
-130.0153
 10
-273.7585
 20
-129.9372
 10
-273.6557
 20
-129.8666
 10
-273.5976
 20
-129.8245
 10
-273.5339
 20
-129.7726
 10
-273.4639
 20
-129.7071
 10
-273.3868
 20
-129.6242
 10
-273.2467
 20
-129.4778
 10
-273.1391
 20
-129.3405
 10
-273.0559
 20
-129.2091
 10
-272.9888
 20
-129.0804
 10
-272.8698
 20
-128.818
 10
-272.7159
 20
-128.5276
 10
-272.6739
 20
-128.223
 10
-272.6042
 20
-127.9435
 10
-272.5126
 20
-127.683
 10
-272.4044
 20
-127.4354
 10
-272.2854
 20
-127.1947
 10
-272.1611
 20
-126.9547
 10
-272.0369
 20
-126.7094
 10
-271.9186
 20
-126.4527
 10
-271.8162
 20
-126.3523
 10
-271.7426
 20
-126.2685
 10
-271.6835
 20
-126.1788
 10
-271.6249
 20
-126.0611
 10
-271.549
 20
-125.9705
 10
-271.4692
 20
-125.8888
 10
-271.3939
 20
-125.8052
 10
-271.3312
 20
-125.7086
 10
-271.2562
 20
-125.5419
 10
-271.1881
 20
-125.3581
 10
-271.1268
 20
-125.1623
 10
-271.0718
 20
-124.9597
 10
-271.0231
 20
-124.7552
 10
-270.9804
 20
-124.554
 10
-270.9433
 20
-124.3612
 10
-270.9117
 20
-124.1818
 10
-270.8281
 20
-123.5162
 10
-270.7904
 20
-123.2163
 10
-270.7671
 20
-122.9115
 10
-270.7429
 20
-122.6055
 10
-270.7021
 20
-122.3025
 10
-270.5344
 20
-120.7368
 10
-270.5016
 20
-120.4495
 10
-270.4809
 20
-120.1212
 10
-270.4659
 20
-119.8265
 10
-270.4503
 20
-119.6401
 10
-270.3662
 20
-118.9355
 10
-270.3353
 20
-118.818
 10
-270.3169
 20
-118.6873
 10
-270.3084
 20
-118.5472
 10
-270.3073
 20
-118.4015
 10
-270.3167
 20
-118.1087
 10
-270.3244
 20
-117.8393
 10
-270.2936
 20
-117.7192
 10
-270.2753
 20
-117.5805
 10
-270.2668
 20
-117.4286
 10
-270.2657
 20
-117.2691
 10
-270.2749
 20
-116.9491
 10
-270.2826
 20
-116.6647
 10
-270.2807
 20
-102.2833
 10
-270.2759
 20
-75.7195
 10
-270.2701
 20
-41.3149
 10
-270.2649
 20
-3.411
 10
-270.2618
 20
33.6505
 10
-270.2626
 20
65.5282
 10
-270.269
 20
87.8805
 10
-270.2826
 20
96.3658
 10
-270.3057
 20
96.5419
 10
-270.3184
 20
96.7205
 10
-270.324
 20
96.9003
 10
-270.3261
 20
97.0802
 10
-270.3278
 20
97.2589
 10
-270.3329
 20
97.4351
 10
-270.3445
 20
97.6075
 10
-270.3662
 20
97.775
 10
-270.7021
 20
100.9855
 10
-270.7314
 20
101.1733
 10
-270.7534
 20
101.3631
 10
-270.7706
 20
101.5544
 10
-270.7854
 20
101.7466
 10
-270.8003
 20
101.9391
 10
-270.8177
 20
102.1313
 10
-270.8401
 20
102.3227
 10
-270.8699
 20
102.5128
 10
-270.8963
 20
102.5861
 10
-270.9076
 20
102.6242
 10
-270.9105
 20
102.6652
 10
-270.9117
 20
102.7473
 10
-271.1251
 20
103.7655
 10
-271.1939
 20
103.9595
 10
-271.279
 20
104.1432
 10
-271.3702
 20
104.3238
 10
-271.4572
 20
104.5091
 10
-271.6827
 20
104.7643
 10
-271.9003
 20
105.0626
 10
-272.1042
 20
105.3928
 10
-272.2887
 20
105.7437
 10
-272.4479
 20
106.1043
 10
-272.5761
 20
106.4634
 10
-272.6673
 20
106.8098
 10
-272.7159
 20
107.1325
 10
-272.853
 20
107.3766
 10
-272.9676
 20
107.607
 10
-273.0267
 20
107.7237
 10
-273.0925
 20
107.8449
 10
-273.1692
 20
107.9732
 10
-273.2609
 20
108.1112
 10
-273.4538
 20
108.3178
 10
-273.569
 20
108.4147
 10
-273.6395
 20
108.4537
 10
-273.6984
 20
108.4868
 10
-273.7787
 20
108.566
 10
-273.9134
 20
108.7431
 10
-274.1356
 20
109.0701
 10
-274.4783
 20
109.5989
 10
-274.6132
 20
109.8397
 10
-274.7473
 20
110.1098
 10
-274.8149
 20
110.2433
 10
-274.8832
 20
110.3691
 10
-274.9525
 20
110.4822
 10
-275.0233
 20
110.5776
 10
-275.0699
 20
110.6879
 10
-275.1068
 20
110.7712
 10
-275.1379
 20
110.8147
 10
-275.186
 20
110.8655
 10
-275.2577
 20
110.9286
 10
-275.3593
 20
111.0086
 10
-275.5528
 20
111.1268
 10
-275.7926
 20
111.2605
 10
-275.9329
 20
111.3532
 10
-276.0884
 20
111.4739
 10
-276.2605
 20
111.6305
 10
-276.4502
 20
111.8312
 10
-276.5651
 20
111.9729
 10
-276.6519
 20
112.101
 10
-276.7209
 20
112.2188
 10
-276.7825
 20
112.3298
 10
-276.8472
 20
112.4371
 10
-276.9253
 20
112.5442
 10
-277.0273
 20
112.6543
 10
-277.1635
 20
112.7709
 10
-277.4148
 20
112.9664
 10
-277.5123
 20
112.9932
 10
-277.6184
 20
113.035
 10
-277.7298
 20
113.0881
 10
-277.8434
 20
113.149
 10
-278.064
 20
113.2794
 10
-278.254
 20
113.397
 10
-278.4368
 20
113.5507
 10
-278.6011
 20
113.7141
 10
-278.7508
 20
113.8807
 10
-278.8904
 20
114.044
 10
-279.0237
 20
114.1974
 10
-279.1551
 20
114.3343
 10
-279.2887
 20
114.4482
 10
-279.4286
 20
114.5326
 10
-279.5355
 20
114.5662
 10
-279.6274
 20
114.6091
 10
-279.7144
 20
114.6627
 10
-279.8064
 20
114.7282
 10
-280.0661
 20
114.8405
 10
-280.3566
 20
114.9554
 10
-280.6652
 20
115.0758
 10
-280.9791
 20
115.2046
 10
-281.2853
 20
115.3449
 10
-281.571
 20
115.4996
 10
-281.8234
 20
115.6716
 10
-282.0297
 20
115.8639
 10
-282.4492
 20
116.2554
 10
-282.7136
 20
116.382
 10
-283.1031
 20
116.5252
 10
-283.578
 20
116.6754
 10
-284.0988
 20
116.8231
 10
-284.6257
 20
116.9585
 10
-285.1193
 20
117.072
 10
-285.5398
 20
117.1541
 10
-285.8476
 20
117.1951
 10
-286.0303
 20
117.2636
 10
-286.2253
 20
117.3561
 10
-286.4203
 20
117.4562
 10
-286.6027
 20
117.5471
 10
-288.0291
 20
118.1347
 10
-290.672
 20
118.4088
 10
-290.8158
 20
118.4392
 10
-290.9921
 20
118.4571
 10
-291.1911
 20
118.4651
 10
-291.403
 20
118.4658
 10
-291.6179
 20
118.4618
 10
-291.8261
 20
118.4558
 10
-292.0178
 20
118.4502
 10
-292.1831
 20
118.4478
 10
-292.3271
 20
118.4773
 10
-292.5114
 20
118.4947
 10
-292.7236
 20
118.5027
 10
-292.9516
 20
118.5036
 10
-293.1831
 20
118.5
 10
-293.4061
 20
118.4943
 10
-293.6081
 20
118.4891
 10
-293.7772
 20
118.4868
 10
-687.3478
 20
118.4868
 10
-687.7155
 20
118.4851
 10
-688.0783
 20
118.4807
 10
-688.438
 20
118.4745
 10
-688.796
 20
118.4673
 10
-689.1539
 20
118.4601
 10
-689.5133
 20
118.4539
 10
-689.8758
 20
118.4495
 10
-690.243
 20
118.4478
  0
LWPOLYLINE
  5
63
330
1F
100
AcDbEntity
  8
Layer 1
 62
     7
370
    35
100
AcDbPolyline
 90
       29
 70
     0
 43
0.0
 10
-251.4032
 20
167.6235
 10
-251.3818
 20
167.7478
 10
-251.3644
 20
167.9016
 10
-251.3506
 20
168.0712
 10
-251.3399
 20
168.2432
 10
-251.3261
 20
168.5392
 10
-251.3191
 20
168.6807
 10
-251.2985
 20
168.7515
 10
-251.285
 20
168.8223
 10
-251.2771
 20
168.8935
 10
-251.2737
 20
168.9655
 10
-251.2746
 20
169.113
 10
-251.2773
 20
169.2678
 10
-251.2466
 20
169.3522
 10
-251.2364
 20
169.3855
 10
-251.2466
 20
169.4186
 10
-251.2773
 20
169.5028
 10
-251.2382
 20
169.8813
 10
-251.216
 20
170.6927
 10
-251.207
 20
171.8021
 10
-251.2077
 20
173.0746
 10
-251.2145
 20
174.3754
 10
-251.2238
 20
175.5696
 10
-251.232
 20
176.5223
 10
-251.2355
 20
177.0985
 10
-251.3025
 20
177.2755
 10
-251.3748
 20
177.4694
 10
-251.4404
 20
177.6638
 10
-251.4873
 20
177.8426
  0
LWPOLYLINE
  5
64
330
1F
100
AcDbEntity
  8
Layer 1
 62
     7
370
    35
100
AcDbPolyline
 90
       48
 70
     0
 43
0.0
 10
-449.5106
 20
177.6461
 10
-449.4161
 20
177.6772
 10
-449.3509
 20
177.6882
 10
-449.2816
 20
177.6881
 10
-449.1752
 20
177.6861
 10
-449.0845
 20
177.7147
 10
-449.0489
 20
177.7243
 10
-449.0134
 20
177.7147
 10
-448.9233
 20
177.6861
 10
-448.8586
 20
177.6815
 10
-448.7996
 20
177.685
 10
-448.7444
 20
177.6939
 10
-448.6911
 20
177.7054
 10
-448.638
 20
177.717
 10
-448.5832
 20
177.7259
 10
-448.5249
 20
177.7295
 10
-448.4614
 20
177.7251
 10
-448.3712
 20
177.6964
 10
-448.3358
 20
177.6869
 10
-448.3003
 20
177.6964
 10
-448.2101
 20
177.7251
 10
-252.0746
 20
177.7251
 10
-251.9777
 20
177.7522
 10
-251.9129
 20
177.7631
 10
-251.8449
 20
177.7646
 10
-251.7386
 20
177.7636
 10
-251.4873
 20
177.8426
 10
-251.4834
 20
177.9349
 10
-251.4727
 20
178.0266
 10
-251.4571
 20
178.1172
 10
-251.438
 20
178.2066
 10
-251.3964
 20
178.3808
 10
-251.3614
 20
178.5472
 10
-251.2773
 20
179.2913
 10
-251.2242
 20
179.7938
 10
-251.1954
 20
180.8093
 10
-251.1856
 20
182.1781
 10
-251.1894
 20
183.7404
 10
-251.2016
 20
185.3362
 10
-251.2169
 20
186.8058
 10
-251.23
 20
187.9892
 10
-251.2355
 20
188.7268
 10
-251.2762
 20
189.0284
 10
-251.3183
 20
189.3811
 10
-251.3429
 20
189.5562
 10
-251.3714
 20
189.7198
 10
-251.405
 20
189.8636
 10
-251.445
 20
189.9795
  0
LWPOLYLINE
  5
65
330
1F
100
AcDbEntity
  8
Layer 1
 62
     7
370
    35
100
AcDbPolyline
 90
       22
 70
     0
 43
0.0
 10
-729.5541
 20
167.545
 10
-729.5523
 20
167.6375
 10
-729.5527
 20
167.6904
 10
-729.5643
 20
167.7391
 10
-729.5959
 20
167.8195
 10
-729.5825
 20
167.9018
 10
-729.574
 20
168.0205
 10
-729.5707
 20
168.1639
 10
-729.5728
 20
168.3201
 10
-729.5804
 20
168.4774
 10
-729.5937
 20
168.6238
 10
-729.6129
 20
168.7477
 10
-729.6382
 20
168.8372
 10
-729.6072
 20
168.9214
 10
-729.5969
 20
168.9547
 10
-729.6072
 20
168.988
 10
-729.6382
 20
169.0722
 10
-729.6382
 20
176.981
 10
-729.5908
 20
177.1736
 10
-729.5154
 20
177.3982
 10
-729.4279
 20
177.6198
 10
-729.3445
 20
177.8036
  0
LWPOLYLINE
  5
66
330
1F
100
AcDbEntity
  8
Layer 1
 62
     7
370
    35
100
AcDbPolyline
 90
       33
 70
     0
 43
0.0
 10
-531.5308
 20
177.6861
 10
-531.6187
 20
177.687
 10
-531.6627
 20
177.6897
 10
-531.7036
 20
177.7004
 10
-531.7821
 20
177.7251
 10
-728.8827
 20
177.7251
 10
-729.0092
 20
177.7535
 10
-729.1136
 20
177.764
 10
-729.218
 20
177.7747
 10
-729.3445
 20
177.8036
 10
-729.3708
 20
177.9379
 10
-729.3997
 20
178.0817
 10
-729.4323
 20
178.2235
 10
-729.47
 20
178.3517
 10
-729.5541
 20
179.0953
 10
-729.5845
 20
179.1939
 10
-729.5962
 20
179.2657
 10
-729.5973
 20
179.3405
 10
-729.5959
 20
179.4479
 10
-729.6495
 20
179.9579
 10
-729.6787
 20
180.9902
 10
-729.6886
 20
182.382
 10
-729.6847
 20
183.9707
 10
-729.6724
 20
185.5935
 10
-729.657
 20
187.0878
 10
-729.6438
 20
188.2908
 10
-729.6382
 20
189.0399
 10
-729.6034
 20
189.3474
 10
-729.5765
 20
189.7159
 10
-729.5634
 20
189.8932
 10
-729.549
 20
190.0499
 10
-729.5324
 20
190.174
 10
-729.5123
 20
190.2536
  0
LWPOLYLINE
  5
67
330
1F
100
AcDbEntity
  8
Layer 1
 62
     7
370
    35
100
AcDbPolyline
 90
        3
 70
     0
 43
0.0
 10
-774.151
 20
135.2444
 10
-773.0605
 20
135.5185
 10
-763.3689
 20
135.5185
  0
LWPOLYLINE
  5
68
330
1F
100
AcDbEntity
  8
Layer 1
 62
     7
370
    35
100
AcDbPolyline
 90
       11
 70
     0
 43
0.0
 10
-774.1091
 20
28.4352
 10
-774.1091
 20
134.4613
 10
-774.1336
 20
134.5499
 10
-774.1491
 20
134.6439
 10
-774.1572
 20
134.742
 10
-774.1598
 20
134.8427
 10
-774.1556
 20
135.0466
 10
-774.151
 20
135.2444
 10
-775.1578
 20
135.44
 10
-775.4933
 20
135.5185
 10
-785.3949
 20
135.5185
  0
LWPOLYLINE
  5
69
330
1F
100
AcDbEntity
  8
Layer 1
 62
     7
370
    35
100
AcDbPolyline
 90
        2
 70
     0
 43
0.0
 10
-206.8063
 20
28.8662
 10
-206.8063
 20
119.1134
  0
LWPOLYLINE
  5
6A
330
1F
100
AcDbEntity
  8
Layer 1
 62
     7
370
    35
100
AcDbPolyline
 90
       36
 70
     0
 43
0.0
 10
-195.5206
 20
119.3484
 10
-196.5275
 20
119.3484
 10
-196.6177
 20
119.3771
 10
-196.6532
 20
119.3867
 10
-196.6886
 20
119.3771
 10
-196.7788
 20
119.3484
 10
-196.8425
 20
119.3438
 10
-196.9003
 20
119.347
 10
-196.9536
 20
119.3554
 10
-197.0036
 20
119.3665
 10
-197.0993
 20
119.3867
 10
-197.1984
 20
119.3874
 10
-197.3661
 20
119.3484
 10
-197.4892
 20
119.3806
 10
-197.5971
 20
119.3933
 10
-197.6501
 20
119.3914
 10
-197.7049
 20
119.3836
 10
-197.7636
 20
119.3694
 10
-197.828
 20
119.3484
 10
-198.255
 20
119.3909
 10
-199.0973
 20
119.4145
 10
-200.2255
 20
119.4233
 10
-201.5104
 20
119.4213
 10
-202.8227
 20
119.4126
 10
-204.0332
 20
119.4013
 10
-205.0126
 20
119.3916
 10
-205.6317
 20
119.3874
 10
-206.8063
 20
119.1134
 10
-207.9391
 20
119.3874
 10
-217.8397
 20
119.3874
 10
-217.9156
 20
119.3681
 10
-217.9915
 20
119.3554
 10
-218.0678
 20
119.348
 10
-218.1449
 20
119.3448
 10
-218.3032
 20
119.3458
 10
-218.4693
 20
119.3484
  0
LWPOLYLINE
  5
6B
330
1F
100
AcDbEntity
  8
Layer 1
 62
     7
370
    35
100
AcDbPolyline
 90
      848
 70
     0
 43
0.0
 10
-472.8371
 20
-10.6
 10
-472.8588
 20
-10.6533
 10
-472.8878
 20
-10.7014
 10
-472.9217
 20
-10.7462
 10
-472.9582
 20
-10.7899
 10
-472.9949
 20
-10.8345
 10
-473.0295
 20
-10.8821
 10
-473.0597
 20
-10.9347
 10
-473.083
 20
-10.9943
 10
-473.2567
 20
-11.7352
 10
-473.4662
 20
-13.732
 10
-473.5098
 20
-13.9907
 10
-473.5546
 20
-14.2365
 10
-473.6066
 20
-14.4722
 10
-473.6721
 20
-14.7012
 10
-473.7574
 20
-14.9265
 10
-473.8687
 20
-15.1512
 10
-474.0122
 20
-15.3785
 10
-474.1942
 20
-15.6113
 10
-474.3289
 20
-15.7742
 10
-474.4503
 20
-15.9335
 10
-474.5598
 20
-16.0916
 10
-474.6587
 20
-16.2507
 10
-474.7485
 20
-16.4131
 10
-474.8305
 20
-16.581
 10
-474.9061
 20
-16.7567
 10
-474.9768
 20
-16.9425
 10
-475.097
 20
-17.3178
 10
-475.2061
 20
-17.7087
 10
-475.3173
 20
-18.1064
 10
-475.4436
 20
-18.5017
 10
-475.5981
 20
-18.8856
 10
-475.7937
 20
-19.2492
 10
-476.0437
 20
-19.5835
 10
-476.3609
 20
-19.8794
 10
-476.5951
 20
-20.0739
 10
-476.82
 20
-20.2864
 10
-477.0357
 20
-20.5107
 10
-477.2419
 20
-20.7406
 10
-477.4225
 20
-20.9798
 10
-477.5908
 20
-21.2331
 10
-477.6787
 20
-21.3571
 10
-477.7735
 20
-21.475
 10
-477.8784
 20
-21.5838
 10
-477.9969
 20
-21.6802
 10
-479.3398
 20
-22.7764
 10
-479.55
 20
-23.0263
 10
-479.6821
 20
-23.2012
 10
-479.7699
 20
-23.3224
 10
-479.847
 20
-23.4114
 10
-479.9473
 20
-23.4896
 10
-480.1044
 20
-23.5782
 10
-480.352
 20
-23.6988
 10
-480.7239
 20
-23.8726
 10
-480.9414
 20
-23.9774
 10
-481.1715
 20
-24.0816
 10
-481.4107
 20
-24.1846
 10
-481.6551
 20
-24.2856
 10
-481.9011
 20
-24.384
 10
-482.145
 20
-24.4789
 10
-482.3831
 20
-24.5697
 10
-482.6117
 20
-24.6557
 10
-482.8641
 20
-24.8907
 10
-482.9566
 20
-24.9494
 10
-483.0097
 20
-24.9896
 10
-483.0527
 20
-25.039
 10
-483.1154
 20
-25.1253
 10
-483.314
 20
-25.2463
 10
-483.6177
 20
-25.3769
 10
-483.9945
 20
-25.5104
 10
-484.4118
 20
-25.6401
 10
-484.8376
 20
-25.7593
 10
-485.2396
 20
-25.8613
 10
-485.5854
 20
-25.9394
 10
-485.8429
 20
-25.9869
 10
-487.9403
 20
-26.4175
 10
-488.011
 20
-26.46
 10
-488.0735
 20
-26.4892
 10
-488.1308
 20
-26.5085
 10
-488.1859
 20
-26.5212
 10
-488.3014
 20
-26.5405
 10
-488.444
 20
-26.574
 10
-488.6243
 20
-26.5904
 10
-488.8009
 20
-26.5937
 10
-488.9774
 20
-26.5969
 10
-489.1572
 20
-26.613
 10
-489.2355
 20
-26.6326
 10
-489.316
 20
-26.6455
 10
-489.3984
 20
-26.653
 10
-489.4823
 20
-26.6562
 10
-489.6538
 20
-26.6551
 10
-489.8281
 20
-26.6525
 10
-489.9542
 20
-26.6813
 10
-490.0944
 20
-26.6985
 10
-490.2446
 20
-26.7064
 10
-490.4007
 20
-26.7075
 10
-490.7145
 20
-26.6987
 10
-491.0032
 20
-26.6915
 10
-492.1778
 20
-26.613
 10
-492.5133
 20
-26.535
 10
-492.7651
 20
-26.535
 10
-492.8596
 20
-26.5112
 10
-493.0276
 20
-26.4615
 10
-493.2489
 20
-26.3937
 10
-493.5031
 20
-26.316
 10
-493.77
 20
-26.2362
 10
-494.0291
 20
-26.1624
 10
-494.2602
 20
-26.1027
 10
-494.443
 20
-26.0649
 10
-495.2821
 20
-25.9479
 10
-495.6146
 20
-25.8568
 10
-495.9307
 20
-25.7841
 10
-496.2353
 20
-25.7196
 10
-496.5333
 20
-25.6532
 10
-496.8296
 20
-25.5747
 10
-497.1291
 20
-25.4739
 10
-497.4366
 20
-25.3406
 10
-497.7572
 20
-25.1648
 10
-497.9001
 20
-25.0428
 10
-498.0511
 20
-24.9004
 10
-498.2019
 20
-24.7629
 10
-498.3446
 20
-24.6557
 10
-498.6294
 20
-24.5487
 10
-498.9585
 20
-24.4224
 10
-499.3149
 20
-24.2801
 10
-499.6812
 20
-24.1249
 10
-500.0405
 20
-23.9603
 10
-500.3755
 20
-23.7894
 10
-500.6692
 20
-23.6156
 10
-500.9043
 20
-23.442
 10
-500.9997
 20
-23.3877
 10
-501.0801
 20
-23.3441
 10
-501.1565
 20
-23.2907
 10
-501.2403
 20
-23.207
 10
-501.4474
 20
-22.9602
 10
-501.6549
 20
-22.7156
 10
-501.7628
 20
-22.5969
 10
-501.8754
 20
-22.4819
 10
-501.9943
 20
-22.3716
 10
-502.1212
 20
-22.2673
 10
-502.2465
 20
-22.1795
 10
-502.3587
 20
-22.0857
 10
-502.4676
 20
-21.9847
 10
-502.5826
 20
-21.8758
 10
-502.8244
 20
-21.6889
 10
-502.9828
 20
-21.5631
 10
-503.0836
 20
-21.4756
 10
-503.1529
 20
-21.4038
 10
-503.2163
 20
-21.3249
 10
-503.3
 20
-21.2162
 10
-503.4296
 20
-21.055
 10
-503.6313
 20
-20.8186
 10
-504.3863
 20
-19.9574
 10
-504.6192
 20
-19.7167
 10
-504.8636
 20
-19.4831
 10
-504.9841
 20
-19.3644
 10
-505.1002
 20
-19.242
 10
-505.2095
 20
-19.1141
 10
-505.3096
 20
-18.9788
 10
-505.4748
 20
-18.5912
 10
-505.6084
 20
-18.254
 10
-505.6679
 20
-18.0856
 10
-505.725
 20
-17.9073
 10
-505.7815
 20
-17.7116
 10
-505.8393
 20
-17.491
 10
-505.8936
 20
-17.2999
 10
-505.9609
 20
-17.0999
 10
-506.0363
 20
-16.8956
 10
-506.1147
 20
-16.6912
 10
-506.1911
 20
-16.4914
 10
-506.2605
 20
-16.3005
 10
-506.3179
 20
-16.1231
 10
-506.3583
 20
-15.9634
 10
-506.4331
 20
-15.8384
 10
-506.5436
 20
-15.6947
 10
-506.6784
 20
-15.5352
 10
-506.8262
 20
-15.3624
 10
-506.9759
 20
-15.1792
 10
-507.1161
 20
-14.988
 10
-507.2357
 20
-14.7918
 10
-507.3233
 20
-14.5931
 10
-507.5329
 20
-13.2229
 10
-507.5544
 20
-13.147
 10
-507.5684
 20
-13.0671
 10
-507.5763
 20
-12.9843
 10
-507.5797
 20
-12.8994
 10
-507.5782
 20
-12.727
 10
-507.5752
 20
-12.5573
 10
-507.6073
 20
-12.4304
 10
-507.6263
 20
-12.2826
 10
-507.6349
 20
-12.1201
 10
-507.6357
 20
-11.949
 10
-507.6253
 20
-11.6064
 10
-507.617
 20
-11.3046
 10
-507.6485
 20
-11.181
 10
-507.6671
 20
-11.0377
 10
-507.6756
 20
-10.8804
 10
-507.6766
 20
-10.7152
 10
-507.6668
 20
-10.3839
 10
-507.6588
 20
-10.0909
 10
-507.6267
 20
-9.964
 10
-507.6077
 20
-9.8162
 10
-507.5991
 20
-9.6536
 10
-507.5983
 20
-9.4826
 10
-507.6087
 20
-9.1398
 10
-507.617
 20
-8.8377
 10
-507.5843
 20
-8.5572
 10
-507.5692
 20
-8.2756
 10
-507.557
 20
-8.011
 10
-507.5329
 20
-7.781
 10
-507.3233
 20
-6.7239
 10
-507.1051
 20
-6.3763
 10
-506.9019
 20
-6.0562
 10
-506.795
 20
-5.8982
 10
-506.6787
 20
-5.7371
 10
-506.5485
 20
-5.5697
 10
-506.4001
 20
-5.3927
 10
-506.3598
 20
-5.2468
 10
-506.3029
 20
-5.0819
 10
-506.2342
 20
-4.9025
 10
-506.1586
 20
-4.7131
 10
-506.0807
 20
-4.518
 10
-506.0054
 20
-4.3219
 10
-505.9374
 20
-4.129
 10
-505.8816
 20
-3.9439
 10
-505.8344
 20
-3.7553
 10
-505.79
 20
-3.5676
 10
-505.7429
 20
-3.3822
 10
-505.6873
 20
-3.2003
 10
-505.6151
 20
-3.0166
 10
-505.5283
 20
-2.8183
 10
-505.4474
 20
-2.6249
 10
-505.3932
 20
-2.4562
 10
-504.0509
 20
-0.968
 10
-503.902
 20
-0.7709
 10
-503.7062
 20
-0.5248
 10
-503.5044
 20
-0.2851
 10
-503.3376
 20
-0.1068
 10
-503.2186
 20
0.1314
 10
-503.1071
 20
0.2252
 10
-503.0151
 20
0.293
 10
-502.9183
 20
0.3476
 10
-502.7921
 20
0.4022
 10
-502.6536
 20
0.4997
 10
-502.4801
 20
0.6391
 10
-502.2849
 20
0.8078
 10
-502.0813
 20
0.9933
 10
-501.8827
 20
1.1833
 10
-501.7024
 20
1.3651
 10
-501.5536
 20
1.5265
 10
-501.4498
 20
1.6549
 10
-501.3622
 20
1.7875
 10
-501.2743
 20
1.9168
 10
-501.225
 20
1.9771
 10
-501.1692
 20
2.0327
 10
-501.105
 20
2.0824
 10
-501.0302
 20
2.125
 10
-500.9476
 20
2.1432
 10
-500.9193
 20
2.1514
 10
-500.894
 20
2.1757
 10
-500.8202
 20
2.2425
 10
-500.5719
 20
2.3731
 10
-500.2623
 20
2.5172
 10
-499.9155
 20
2.669
 10
-499.5557
 20
2.8226
 10
-499.2071
 20
2.9723
 10
-498.8939
 20
3.112
 10
-498.6403
 20
3.2361
 10
-498.4705
 20
3.3387
 10
-497.9255
 20
3.8083
 10
-497.6867
 20
3.9466
 10
-497.3543
 20
4.0822
 10
-496.9553
 20
4.2119
 10
-496.5166
 20
4.3329
 10
-496.0652
 20
4.4422
 10
-495.6282
 20
4.5368
 10
-495.2324
 20
4.6137
 10
-494.9048
 20
4.6699
 10
-494.8068
 20
4.6763
 10
-494.7164
 20
4.6898
 10
-494.6309
 20
4.708
 10
-494.548
 20
4.7287
 10
-494.4651
 20
4.7493
 10
-494.3797
 20
4.7675
 10
-494.2894
 20
4.781
 10
-494.1916
 20
4.7874
 10
-494.1159
 20
4.8443
 10
-494.0897
 20
4.865
 10
-494.0515
 20
4.8664
 10
-493.9398
 20
4.8654
 10
-493.8532
 20
4.9072
 10
-493.7678
 20
4.9403
 10
-493.6828
 20
4.9678
 10
-493.597
 20
4.9932
 10
-493.5095
 20
5.0197
 10
-493.4192
 20
5.0507
 10
-493.3253
 20
5.0895
 10
-493.2265
 20
5.1395
 10
-491.2546
 20
5.3355
 10
-491.1174
 20
5.3649
 10
-490.9508
 20
5.3823
 10
-490.7635
 20
5.3902
 10
-490.5646
 20
5.3912
 10
-490.1668
 20
5.382
 10
-489.8281
 20
5.3745
 10
-489.4768
 20
5.3424
 10
-489.0368
 20
5.321
 10
-488.6464
 20
5.3069
 10
-488.444
 20
5.2965
 10
-488.2887
 20
5.2485
 10
-488.1142
 20
5.2008
 10
-487.9367
 20
5.1617
 10
-487.7726
 20
5.1395
 10
-487.5606
 20
5.0257
 10
-487.4426
 20
5.0077
 10
-487.3529
 20
4.9836
 10
-487.2628
 20
4.9601
 10
-487.1434
 20
4.9439
 10
-487.0677
 20
4.887
 10
-487.0415
 20
4.8661
 10
-487.0033
 20
4.8645
 10
-486.8916
 20
4.8654
 10
-486.8112
 20
4.828
 10
-486.7254
 20
4.7978
 10
-486.6358
 20
4.773
 10
-486.5437
 20
4.752
 10
-486.3575
 20
4.7141
 10
-486.1784
 20
4.6699
 10
-486.0615
 20
4.662
 10
-485.9414
 20
4.6448
 10
-485.8245
 20
4.6205
 10
-485.717
 20
4.5914
 10
-485.5493
 20
4.5914
 10
-485.2651
 20
4.5119
 10
-484.9792
 20
4.4417
 10
-484.6925
 20
4.3762
 10
-484.4061
 20
4.3111
 10
-484.1209
 20
4.2418
 10
-483.8381
 20
4.1641
 10
-483.5585
 20
4.0734
 10
-483.2832
 20
3.9653
 10
-483.1535
 20
3.8951
 10
-483.0341
 20
3.8128
 10
-482.922
 20
3.7217
 10
-482.814
 20
3.6255
 10
-482.707
 20
3.5277
 10
-482.5978
 20
3.4318
 10
-482.4833
 20
3.3415
 10
-482.3604
 20
3.2602
 10
-482.171
 20
3.1828
 10
-481.9379
 20
3.0791
 10
-481.6771
 20
2.9593
 10
-481.4046
 20
2.8336
 10
-481.1361
 20
2.7123
 10
-480.8876
 20
2.6057
 10
-480.6751
 20
2.524
 10
-480.5144
 20
2.4775
 10
-480.4112
 20
2.4051
 10
-480.3173
 20
2.3515
 10
-480.217
 20
2.3118
 10
-480.0948
 20
2.2815
 10
-480.0215
 20
2.2458
 10
-479.9458
 20
2.2018
 10
-479.8695
 20
2.1512
 10
-479.7948
 20
2.0955
 10
-479.7234
 20
2.0361
 10
-479.6574
 20
1.9745
 10
-479.5987
 20
1.9123
 10
-479.5493
 20
1.8509
 10
-479.4997
 20
1.7694
 10
-479.4305
 20
1.648
 10
-479.3367
 20
1.5008
 10
-479.2138
 20
1.3419
 10
-479.0172
 20
1.1406
 10
-478.7939
 20
0.9487
 10
-478.5577
 20
0.7678
 10
-478.3222
 20
0.5997
 10
-478.1011
 20
0.446
 10
-477.9082
 20
0.3086
 10
-477.7571
 20
0.1891
 10
-477.6615
 20
0.0892
 10
-477.6127
 20
-0.0126
 10
-477.5573
 20
-0.1091
 10
-477.4966
 20
-0.2018
 10
-477.4318
 20
-0.292
 10
-477.2953
 20
-0.4703
 10
-477.1583
 20
-0.6549
 10
-476.8639
 20
-0.9503
 10
-476.4444
 20
-1.3385
 10
-476.0671
 20
-1.6786
 10
-475.8995
 20
-1.8296
 10
-475.7852
 20
-2.0652
 10
-475.6661
 20
-2.2809
 10
-475.6067
 20
-2.3903
 10
-475.5484
 20
-2.5058
 10
-475.492
 20
-2.6309
 10
-475.4382
 20
-2.7693
 10
-475.3565
 20
-3.0165
 10
-475.2887
 20
-3.2544
 10
-475.226
 20
-3.4944
 10
-475.1598
 20
-3.7484
 10
-475.0709
 20
-4.0608
 10
-474.9829
 20
-4.3275
 10
-474.8905
 20
-4.5617
 10
-474.7886
 20
-4.7765
 10
-474.6718
 20
-4.9851
 10
-474.5348
 20
-5.2007
 10
-474.3724
 20
-5.4366
 10
-474.1794
 20
-5.7057
 10
-474.0978
 20
-5.7928
 10
-474.0184
 20
-5.8755
 10
-473.9461
 20
-5.9614
 10
-473.8858
 20
-6.0583
 10
-473.7757
 20
-6.3032
 10
-473.6645
 20
-6.596
 10
-473.6138
 20
-6.7471
 10
-473.5694
 20
-6.8941
 10
-473.5334
 20
-7.0316
 10
-473.508
 20
-7.1544
 10
-473.4662
 20
-7.7025
 10
-473.4371
 20
-7.7927
 10
-473.4252
 20
-7.8532
 10
-473.4234
 20
-7.9166
 10
-473.4244
 20
-8.0156
 10
-473.379
 20
-8.3813
 10
-473.3489
 20
-8.7745
 10
-473.3251
 20
-9.1309
 10
-473.2985
 20
-9.3863
 10
-473.2374
 20
-9.5857
 10
-473.1563
 20
-9.8801
 10
-473.0833
 20
-10.1723
 10
-473.0466
 20
-10.3649
 10
-472.9765
 20
-10.4299
 10
-472.9286
 20
-10.4771
 10
-472.8873
 20
-10.527
 10
-472.8371
 20
-10.6
 10
-471.2847
 20
-10.6
 10
-470.8758
 20
-10.5585
 10
-470.0736
 20
-10.5353
 10
-469.0007
 20
-10.5265
 10
-467.7794
 20
-10.5282
 10
-466.5321
 20
-10.5364
 10
-465.3812
 20
-10.5472
 10
-464.4491
 20
-10.5565
 10
-463.8583
 20
-10.5605
 10
-456.4329
 20
-10.5605
 10
-456.2413
 20
-10.5817
 10
-456.0421
 20
-10.5926
 10
-455.8388
 20
-10.5967
 10
-455.6347
 20
-10.5975
 10
-455.4334
 20
-10.5986
 10
-455.2383
 20
-10.6036
 10
-455.0529
 20
-10.6158
 10
-454.8805
 20
-10.639
 10
-454.7546
 20
-11.1086
 10
-454.7128
 20
-11.5786
 10
-454.6291
 20
-11.8917
 10
-454.6617
 20
-12.0259
 10
-454.6809
 20
-12.1904
 10
-454.6895
 20
-12.376
 10
-454.6902
 20
-12.5737
 10
-454.6795
 20
-12.9684
 10
-454.6709
 20
-13.3014
 10
-454.6967
 20
-13.4923
 10
-454.7127
 20
-13.6867
 10
-454.7222
 20
-13.8835
 10
-454.7289
 20
-14.0817
 10
-454.7362
 20
-14.2802
 10
-454.7477
 20
-14.478
 10
-454.7667
 20
-14.674
 10
-454.7969
 20
-14.8672
 10
-454.886
 20
-15.1356
 10
-454.9716
 20
-15.4375
 10
-455.0562
 20
-15.7596
 10
-455.1423
 20
-16.089
 10
-455.2324
 20
-16.4125
 10
-455.3291
 20
-16.717
 10
-455.4347
 20
-16.9893
 10
-455.5519
 20
-17.2165
 10
-455.592
 20
-17.434
 10
-455.6814
 20
-17.8133
 10
-455.7795
 20
-18.1977
 10
-455.8456
 20
-18.4307
 10
-455.9297
 20
-19.0963
 10
-455.9558
 20
-19.1696
 10
-455.967
 20
-19.2078
 10
-455.97
 20
-19.2488
 10
-455.9715
 20
-19.3309
 10
-456.2651
 20
-20.9361
 10
-456.304
 20
-21.1449
 10
-456.3475
 20
-21.3542
 10
-456.3991
 20
-21.5625
 10
-456.462
 20
-21.7685
 10
-456.5396
 20
-21.9708
 10
-456.6353
 20
-22.168
 10
-456.7524
 20
-22.3586
 10
-456.8942
 20
-22.5414
 10
-457.0102
 20
-22.6604
 10
-457.1314
 20
-22.7707
 10
-457.2493
 20
-22.8839
 10
-457.3556
 20
-23.0114
 10
-457.4533
 20
-23.2316
 10
-457.5461
 20
-23.4317
 10
-457.6339
 20
-23.6197
 10
-457.7169
 20
-23.8034
 10
-457.7949
 20
-23.991
 10
-457.868
 20
-24.1902
 10
-457.9362
 20
-24.4091
 10
-457.9995
 20
-24.6557
 10
-458.0614
 20
-24.9154
 10
-458.1298
 20
-25.1765
 10
-458.2073
 20
-25.4361
 10
-458.2965
 20
-25.6915
 10
-458.4002
 20
-25.9397
 10
-458.5209
 20
-26.1779
 10
-458.6614
 20
-26.4033
 10
-458.8244
 20
-26.613
 10
-459.0032
 20
-26.7986
 10
-459.1915
 20
-26.9755
 10
-459.2847
 20
-27.0648
 10
-459.3747
 20
-27.1571
 10
-459.4596
 20
-27.2539
 10
-459.5376
 20
-27.3571
 10
-459.5955
 20
-27.4725
 10
-459.6686
 20
-27.5979
 10
-459.7496
 20
-27.7203
 10
-459.8313
 20
-27.8267
 10
-459.9056
 20
-27.9914
 10
-459.9651
 20
-28.1508
 10
-460.018
 20
-28.3069
 10
-460.0721
 20
-28.4622
 10
-460.1353
 20
-28.6187
 10
-460.2159
 20
-28.7789
 10
-460.3215
 20
-28.9448
 10
-460.4604
 20
-29.1189
 10
-460.5779
 20
-29.2366
 10
-460.7061
 20
-29.3426
 10
-460.841
 20
-29.4412
 10
-460.9782
 20
-29.537
 10
-461.1137
 20
-29.6343
 10
-461.2431
 20
-29.7377
 10
-461.3624
 20
-29.8516
 10
-461.4673
 20
-29.9805
 10
-461.5514
 20
-30.2151
 10
-461.6073
 20
-30.2901
 10
-461.6632
 20
-30.3804
 10
-461.7189
 20
-30.4817
 10
-461.774
 20
-30.5894
 10
-461.8808
 20
-30.807
 10
-461.9808
 20
-30.9982
 10
-462.1278
 20
-31.2353
 10
-462.2718
 20
-31.4333
 10
-462.4149
 20
-31.6024
 10
-462.559
 20
-31.7527
 10
-462.8587
 20
-32.0374
 10
-463.1874
 20
-32.3684
 10
-465.0334
 20
-34.2092
 10
-465.1666
 20
-34.3022
 10
-465.3092
 20
-34.4168
 10
-465.4575
 20
-34.5471
 10
-465.6083
 20
-34.6872
 10
-465.9031
 20
-34.973
 10
-466.1662
 20
-35.2269
 10
-466.3768
 20
-35.4523
 10
-466.6022
 20
-35.6732
 10
-466.8404
 20
-35.8863
 10
-467.0895
 20
-36.0885
 10
-468.3059
 20
-36.9106
 10
-468.4398
 20
-36.9788
 10
-468.5882
 20
-37.0402
 10
-468.6618
 20
-37.0717
 10
-468.7318
 20
-37.1054
 10
-468.7958
 20
-37.1426
 10
-468.8514
 20
-37.1847
 10
-468.9397
 20
-37.2729
 10
-469.022
 20
-37.3706
 10
-469.1028
 20
-37.4753
 10
-469.1868
 20
-37.5842
 10
-469.2787
 20
-37.6945
 10
-469.3832
 20
-37.8035
 10
-469.505
 20
-37.9085
 10
-469.6487
 20
-38.0068
 10
-469.8259
 20
-38.0966
 10
-470.0519
 20
-38.1905
 10
-470.3123
 20
-38.2926
 10
-470.5924
 20
-38.4068
 10
-470.8778
 20
-38.5371
 10
-471.1539
 20
-38.6874
 10
-471.4062
 20
-38.8617
 10
-471.6202
 20
-39.064
 10
-471.7957
 20
-39.2786
 10
-471.933
 20
-39.4422
 10
-472.0095
 20
-39.5137
 10
-472.1029
 20
-39.5831
 10
-472.222
 20
-39.6539
 10
-472.3757
 20
-39.7296
 10
-472.5911
 20
-39.8181
 10
-472.888
 20
-39.933
 10
-473.239
 20
-40.0638
 10
-473.6168
 20
-40.2001
 10
-473.9942
 20
-40.3314
 10
-474.3438
 20
-40.4473
 10
-474.6384
 20
-40.5372
 10
-474.8508
 20
-40.5907
 10
-475.0652
 20
-40.7092
 10
-475.2241
 20
-40.8399
 10
-475.3712
 20
-40.9824
 10
-475.5499
 20
-41.1363
 10
-475.8038
 20
-41.3012
 10
-476.1764
 20
-41.4768
 10
-476.7112
 20
-41.6625
 10
-477.4519
 20
-41.8581
 10
-477.6295
 20
-41.8966
 10
-477.8614
 20
-41.9436
 10
-478.1281
 20
-41.9966
 10
-478.41
 20
-42.0536
 10
-478.6875
 20
-42.1121
 10
-478.941
 20
-42.1699
 10
-479.151
 20
-42.2248
 10
-479.2979
 20
-42.2745
 10
-479.4061
 20
-42.3448
 10
-479.5172
 20
-42.3991
 10
-479.634
 20
-42.4399
 10
-479.7593
 20
-42.47
 10
-479.9006
 20
-42.5605
 10
-480.0319
 20
-42.6268
 10
-480.1632
 20
-42.6931
 10
-480.3048
 20
-42.7835
 10
-480.466
 20
-42.827
 10
-480.6147
 20
-42.8822
 10
-480.7658
 20
-42.9369
 10
-480.9339
 20
-42.9791
 10
-481.2705
 20
-43.1146
 10
-481.5584
 20
-43.2181
 10
-481.7033
 20
-43.2611
 10
-481.8592
 20
-43.3
 10
-482.0337
 20
-43.336
 10
-482.2345
 20
-43.3706
 10
-482.3882
 20
-43.3839
 10
-482.5757
 20
-43.4134
 10
-482.7605
 20
-43.4509
 10
-482.9059
 20
-43.4882
 10
-485.2974
 20
-43.7227
 10
-485.403
 20
-43.7511
 10
-485.48
 20
-43.7623
 10
-485.5601
 20
-43.7635
 10
-485.6752
 20
-43.7622
 10
-487.5207
 20
-43.9187
 10
-487.6266
 20
-43.9471
 10
-487.7037
 20
-43.9581
 10
-487.7837
 20
-43.9591
 10
-487.8985
 20
-43.9578
 10
-488.9472
 20
-44.0362
 10
-489.1597
 20
-44.0614
 10
-489.4408
 20
-44.0854
 10
-489.767
 20
-44.1067
 10
-490.1149
 20
-44.1237
 10
-490.4611
 20
-44.1345
 10
-490.782
 20
-44.1377
 10
-491.0543
 20
-44.1315
 10
-491.2546
 20
-44.1143
 10
-492.2197
 20
-44.0362
 10
-492.4857
 20
-44.01
 10
-492.7626
 20
-43.9975
 10
-493.0407
 20
-43.9848
 10
-493.3106
 20
-43.9578
 10
-493.6221
 20
-43.9226
 10
-493.9374
 20
-43.8995
 10
-494.2538
 20
-43.8762
 10
-494.5689
 20
-43.8402
 10
-498.3027
 20
-43.4491
 10
-498.6387
 20
-43.3706
 10
-498.9244
 20
-43.3454
 10
-499.1985
 20
-43.2879
 10
-499.4628
 20
-43.2075
 10
-499.7189
 20
-43.1132
 10
-499.9685
 20
-43.0145
 10
-500.2132
 20
-42.9204
 10
-500.4548
 20
-42.8404
 10
-500.6948
 20
-42.7835
 10
-500.7835
 20
-42.7181
 10
-500.849
 20
-42.6776
 10
-500.9213
 20
-42.6508
 10
-501.0302
 20
-42.6265
 10
-501.203
 20
-42.5073
 10
-501.4189
 20
-42.4017
 10
-501.6653
 20
-42.3082
 10
-501.9297
 20
-42.225
 10
-502.1996
 20
-42.1504
 10
-502.4627
 20
-42.0827
 10
-502.7063
 20
-42.0201
 10
-502.9181
 20
-41.9609
 10
-503.2015
 20
-41.9381
 10
-503.4969
 20
-41.8851
 10
-503.7991
 20
-41.8083
 10
-504.1027
 20
-41.7142
 10
-504.4025
 20
-41.6094
 10
-504.6931
 20
-41.5003
 10
-504.9692
 20
-41.3934
 10
-505.2255
 20
-41.2953
 10
-505.308
 20
-41.241
 10
-505.3844
 20
-41.1806
 10
-505.4564
 20
-41.1158
 10
-505.5258
 20
-41.0483
 10
-505.6639
 20
-40.9123
 10
-505.8128
 20
-40.7867
 10
-506.1499
 20
-40.5936
 10
-506.5734
 20
-40.4213
 10
-507.0509
 20
-40.2618
 10
-507.5505
 20
-40.1072
 10
-508.0401
 20
-39.9494
 10
-508.4874
 20
-39.7804
 10
-508.8605
 20
-39.5923
 10
-509.1271
 20
-39.377
 10
-509.3779
 20
-39.024
 10
-509.5868
 20
-38.8617
 10
-509.8178
 20
-38.7109
 10
-510.0652
 20
-38.5708
 10
-510.3235
 20
-38.4407
 10
-510.5868
 20
-38.3199
 10
-510.8496
 20
-38.2078
 10
-511.1062
 20
-38.1037
 10
-511.3509
 20
-38.0068
 10
-511.4742
 20
-37.9166
 10
-511.5848
 20
-37.8133
 10
-511.6864
 20
-37.701
 10
-511.7827
 20
-37.5836
 10
-511.8775
 20
-37.4654
 10
-511.9743
 20
-37.3502
 10
-512.0771
 20
-37.2423
 10
-512.1895
 20
-37.1456
 10
-513.616
 20
-36.284
 10
-513.8536
 20
-36.0808
 10
-514.0906
 20
-35.8537
 10
-514.2897
 20
-35.6558
 10
-514.4133
 20
-35.5404
 10
-514.58
 20
-35.4212
 10
-514.7749
 20
-35.2599
 10
-514.9886
 20
-35.0689
 10
-515.2117
 20
-34.8601
 10
-515.4345
 20
-34.6459
 10
-515.6478
 20
-34.4383
 10
-515.8419
 20
-34.2495
 10
-516.0075
 20
-34.0917
 10
-516.1549
 20
-33.9359
 10
-516.3134
 20
-33.7856
 10
-516.4796
 20
-33.6388
 10
-516.6501
 20
-33.4932
 10
-516.8216
 20
-33.3465
 10
-516.9908
 20
-33.1964
 10
-517.1542
 20
-33.0409
 10
-517.3085
 20
-32.8775
 10
-517.386
 20
-32.7789
 10
-517.463
 20
-32.6957
 10
-517.5466
 20
-32.6153
 10
-517.644
 20
-32.525
 10
-517.7747
 20
-32.364
 10
-517.9006
 20
-32.1992
 10
-517.9658
 20
-32.1185
 10
-518.0345
 20
-32.0407
 10
-518.1084
 20
-31.967
 10
-518.189
 20
-31.8988
 10
-518.5627
 20
-31.5669
 10
-518.8502
 20
-31.2288
 10
-519.0719
 20
-30.8932
 10
-519.2483
 20
-30.5685
 10
-519.3998
 20
-30.2633
 10
-519.5469
 20
-29.986
 10
-519.71
 20
-29.7453
 10
-519.9096
 20
-29.5495
 10
-520.0836
 20
-29.428
 10
-520.2599
 20
-29.3116
 10
-520.3459
 20
-29.2511
 10
-520.4289
 20
-29.1869
 10
-520.5076
 20
-29.1174
 10
-520.581
 20
-29.0409
 10
-520.7157
 20
-28.8522
 10
-520.8462
 20
-28.6131
 10
-520.9779
 20
-28.3359
 10
-521.1161
 20
-28.0329
 10
-521.2659
 20
-27.7164
 10
-521.4329
 20
-27.3987
 10
-521.6222
 20
-27.0921
 10
-521.8392
 20
-26.809
 10
-521.9757
 20
-26.6713
 10
-522.1214
 20
-26.542
 10
-522.1933
 20
-26.4768
 10
-522.2623
 20
-26.4092
 10
-522.3267
 20
-26.3378
 10
-522.3847
 20
-26.2609
 10
-522.49
 20
-26.0215
 10
-522.5837
 20
-25.8153
 10
-522.6681
 20
-25.6299
 10
-522.7455
 20
-25.4528
 10
-522.8181
 20
-25.2715
 10
-522.8882
 20
-25.0734
 10
-522.9579
 20
-24.8462
 10
-523.0296
 20
-24.5772
 10
-523.095
 20
-24.3304
 10
-523.1608
 20
-24.1091
 10
-523.2284
 20
-23.9059
 10
-523.2993
 20
-23.713
 10
-523.3748
 20
-23.523
 10
-523.4564
 20
-23.3282
 10
-523.5455
 20
-23.121
 10
-523.6435
 20
-22.8939
 10
-524.0207
 20
-22.5024
 10
-524.2187
 20
-22.2395
 10
-524.3863
 20
-21.9461
 10
-524.5268
 20
-21.6294
 10
-524.6438
 20
-21.297
 10
-524.7405
 20
-20.9562
 10
-524.8205
 20
-20.6144
 10
-524.8872
 20
-20.279
 10
-524.944
 20
-19.9574
 10
-524.9858
 20
-19.4879
 10
-525.0137
 20
-19.4064
 10
-525.0257
 20
-19.3568
 10
-525.0282
 20
-19.3042
 10
-525.0276
 20
-19.2134
 10
-525.4472
 20
-17.021
 10
-525.5084
 20
-16.9078
 10
-525.5522
 20
-16.8055
 10
-525.596
 20
-16.7031
 10
-525.6572
 20
-16.59
 10
-525.6682
 20
-16.502
 10
-525.6813
 20
-16.4374
 10
-525.6927
 20
-16.3708
 10
-525.699
 20
-16.2769
 10
-525.7398
 20
-16.2024
 10
-525.7725
 20
-16.1265
 10
-525.799
 20
-16.0493
 10
-525.8214
 20
-15.971
 10
-525.8616
 20
-15.8118
 10
-525.9091
 20
-15.6503
 10
-526.2863
 20
-13.3794
 10
-526.3154
 20
-13.1601
 10
-526.3323
 20
-12.9368
 10
-526.341
 20
-12.7107
 10
-526.346
 20
-12.4828
 10
-526.3513
 20
-12.2545
 10
-526.3613
 20
-12.0269
 10
-526.3802
 20
-11.8012
 10
-526.4123
 20
-11.5786
 10
-526.48
 20
-11.3438
 10
-526.536
 20
-11.0952
 10
-526.5931
 20
-10.8437
 10
-526.6641
 20
-10.6
  0
LWPOLYLINE
  5
6C
330
1F
100
AcDbEntity
  8
Layer 1
 62
     7
370
    35
100
AcDbPolyline
 90
      463
 70
     0
 43
0.0
 10
-425.0514
 20
-10.5605
 10
-425.1597
 20
-10.5801
 10
-425.198
 20
-10.5867
 10
-425.2364
 20
-10.5801
 10
-425.345
 20
-10.5605
 10
-425.467
 20
-10.5905
 10
-425.5689
 20
-10.6014
 10
-425.6742
 20
-10.6018
 10
-425.8064
 20
-10.6
 10
-425.9369
 20
-10.583
 10
-426.0338
 20
-10.5787
 10
-426.1067
 20
-10.5832
 10
-426.1647
 20
-10.5926
 10
-426.2172
 20
-10.6028
 10
-426.2736
 20
-10.6101
 10
-426.3433
 20
-10.6105
 10
-426.4355
 20
-10.6
 10
-426.5636
 20
-10.5834
 10
-426.66
 20
-10.5788
 10
-426.7335
 20
-10.5827
 10
-426.7929
 20
-10.5914
 10
-426.847
 20
-10.6011
 10
-426.9046
 20
-10.6082
 10
-426.9743
 20
-10.6091
 10
-427.0651
 20
-10.6
 10
-427.4395
 20
-10.5606
 10
-428.1656
 20
-10.5384
 10
-429.1338
 20
-10.5298
 10
-430.2348
 20
-10.531
 10
-431.3591
 20
-10.5384
 10
-432.3974
 20
-10.5482
 10
-433.2401
 20
-10.5568
 10
-433.7778
 20
-10.5605
 10
-435.4569
 20
-10.5588
 10
-438.0974
 20
-10.5546
 10
-441.3384
 20
-10.5495
 10
-444.819
 20
-10.5448
 10
-448.178
 20
-10.5421
 10
-451.0545
 20
-10.5429
 10
-453.0874
 20
-10.5485
 10
-453.9159
 20
-10.5605
 10
-454.0198
 20
-10.5854
 10
-454.1306
 20
-10.6008
 10
-454.2465
 20
-10.6085
 10
-454.3657
 20
-10.6106
 10
-454.6066
 20
-10.6052
 10
-454.8387
 20
-10.6
 10
-454.7128
 20
-9.7774
 10
-454.6291
 20
-9.4643
 10
-454.66
 20
-9.3392
 10
-454.6784
 20
-9.1881
 10
-454.6869
 20
-9.0188
 10
-454.688
 20
-8.8391
 10
-454.6786
 20
-8.4796
 10
-454.6709
 20
-8.1721
 10
-454.6978
 20
-7.9716
 10
-454.7139
 20
-7.7674
 10
-454.7229
 20
-7.5607
 10
-454.7288
 20
-7.3526
 10
-454.7353
 20
-7.1441
 10
-454.7462
 20
-6.9364
 10
-454.7655
 20
-6.7307
 10
-454.7969
 20
-6.5279
 10
-454.8651
 20
-6.3198
 10
-454.9338
 20
-6.0724
 10
-455.0036
 20
-5.801
 10
-455.0749
 20
-5.5205
 10
-455.1481
 20
-5.246
 10
-455.2238
 20
-4.9926
 10
-455.3023
 20
-4.7754
 10
-455.3842
 20
-4.6095
 10
-455.4241
 20
-4.4383
 10
-455.5063
 20
-4.1917
 10
-455.6008
 20
-3.9486
 10
-455.6778
 20
-3.7874
 10
-455.6778
 20
-3.6309
 10
-455.7242
 20
-3.4685
 10
-455.7617
 20
-3.2979
 10
-455.7991
 20
-3.1274
 10
-455.8456
 20
-2.9653
 10
-456.3069
 20
-0.2239
 10
-456.3239
 20
-0.059
 10
-456.3646
 20
0.1141
 10
-456.4243
 20
0.2914
 10
-456.4987
 20
0.4692
 10
-456.5832
 20
0.6434
 10
-456.6733
 20
0.8104
 10
-456.7646
 20
0.9661
 10
-456.8524
 20
1.1068
 10
-456.9769
 20
1.2368
 10
-457.1096
 20
1.3564
 10
-457.1756
 20
1.4163
 10
-457.2395
 20
1.4785
 10
-457.3
 20
1.5445
 10
-457.3556
 20
1.6159
 10
-457.4616
 20
1.8626
 10
-457.601
 20
2.1814
 10
-457.7436
 20
2.4914
 10
-457.8593
 20
2.7121
 10
-457.8938
 20
2.9493
 10
-457.9548
 20
3.2029
 10
-458.0347
 20
3.4667
 10
-458.1257
 20
3.7339
 10
-458.22
 20
3.9983
 10
-458.3101
 20
4.2532
 10
-458.3882
 20
4.4923
 10
-458.4466
 20
4.7089
 10
-458.4939
 20
4.7929
 10
-458.5494
 20
4.8753
 10
-458.6111
 20
4.956
 10
-458.6774
 20
5.0351
 10
-458.8158
 20
5.1885
 10
-458.9498
 20
5.3355
 10
-459.0275
 20
5.4341
 10
-459.1047
 20
5.5173
 10
-459.1884
 20
5.5975
 10
-459.2858
 20
5.6876
 10
-459.4073
 20
5.8544
 10
-459.5391
 20
6.0379
 10
-459.6736
 20
6.2337
 10
-459.8035
 20
6.4378
 10
-459.9211
 20
6.646
 10
-460.0188
 20
6.8542
 10
-460.0893
 20
7.0582
 10
-460.1249
 20
7.2538
 10
-460.1613
 20
7.3279
 10
-460.2196
 20
7.418
 10
-460.2941
 20
7.518
 10
-460.3791
 20
7.6219
 10
-460.4691
 20
7.7239
 10
-460.5583
 20
7.818
 10
-460.6413
 20
7.8981
 10
-460.7122
 20
7.9584
 10
-460.8875
 20
8.088
 10
-461.0623
 20
8.2163
 10
-461.1473
 20
8.2829
 10
-461.2297
 20
8.3527
 10
-461.3086
 20
8.4268
 10
-461.3832
 20
8.5065
 10
-461.5717
 20
8.8083
 10
-461.8021
 20
9.2175
 10
-462.0224
 20
9.6334
 10
-462.1805
 20
9.9553
 10
-462.258
 20
10.0465
 10
-462.3803
 20
10.173
 10
-462.5342
 20
10.3243
 10
-462.7063
 20
10.49
 10
-463.0526
 20
10.8236
 10
-463.3133
 20
11.0909
 10
-463.4313
 20
11.2338
 10
-463.5677
 20
11.3717
 10
-463.7132
 20
11.5062
 10
-463.8583
 20
11.639
 10
-464.1871
 20
11.9953
 10
-464.5856
 20
12.4018
 10
-465.0356
 20
12.8412
 10
-465.5191
 20
13.2962
 10
-466.0179
 20
13.7497
 10
-466.5139
 20
14.1843
 10
-466.9889
 20
14.5828
 10
-467.4249
 20
14.928
 10
-468.8514
 20
15.7887
 10
-469.0127
 20
15.9763
 10
-469.233
 20
16.2523
 10
-469.3986
 20
16.4099
 10
-469.619
 20
16.5731
 10
-469.9076
 20
16.7367
 10
-470.2778
 20
16.895
 10
-470.4763
 20
16.9691
 10
-470.6671
 20
17.0438
 10
-470.8505
 20
17.1226
 10
-471.0266
 20
17.2094
 10
-471.1957
 20
17.3076
 10
-471.3579
 20
17.421
 10
-471.5134
 20
17.5532
 10
-471.6625
 20
17.7079
 10
-471.7886
 20
17.8609
 10
-471.9055
 20
18.003
 10
-471.9679
 20
18.07
 10
-472.0371
 20
18.1345
 10
-472.116
 20
18.1965
 10
-472.2075
 20
18.256
 10
-475.1022
 20
19.3132
 10
-475.2414
 20
19.4184
 10
-475.3959
 20
19.5584
 10
-475.5503
 20
19.7029
 10
-475.6895
 20
19.8218
 10
-475.9844
 20
19.9835
 10
-476.2772
 20
20.1117
 10
-476.5694
 20
20.2139
 10
-476.8628
 20
20.2979
 10
-477.1589
 20
20.3713
 10
-477.4596
 20
20.4418
 10
-477.7664
 20
20.5171
 10
-478.081
 20
20.6049
 10
-478.3335
 20
20.6248
 10
-478.5684
 20
20.6692
 10
-478.789
 20
20.7316
 10
-478.999
 20
20.805
 10
-479.2017
 20
20.8828
 10
-479.4006
 20
20.9582
 10
-479.5993
 20
21.0245
 10
-479.8011
 20
21.075
 10
-480.0948
 20
21.2705
 10
-481.3953
 20
21.7796
 10
-481.6464
 20
21.8196
 10
-482.0215
 20
21.8985
 10
-482.3982
 20
21.9865
 10
-482.6545
 20
22.0536
 10
-483.2
 20
22.0927
 10
-483.2786
 20
22.1173
 10
-483.3194
 20
22.1279
 10
-483.3634
 20
22.1307
 10
-483.4514
 20
22.1321
 10
-483.5384
 20
22.158
 10
-483.5912
 20
22.1692
 10
-483.6475
 20
22.1716
 10
-483.745
 20
22.1711
 10
-485.1715
 20
22.3277
 10
-485.417
 20
22.353
 10
-485.6726
 20
22.3666
 10
-485.9293
 20
22.3804
 10
-486.1784
 20
22.4062
 10
-487.2694
 20
22.4842
 10
-487.3913
 20
22.5141
 10
-487.4932
 20
22.5249
 10
-487.5985
 20
22.5251
 10
-487.7307
 20
22.5232
 10
-488.0662
 20
22.6017
 10
-488.6117
 20
22.6017
 10
-488.8058
 20
22.6234
 10
-489.035
 20
22.6388
 10
-489.2833
 20
22.6493
 10
-489.5345
 20
22.6565
 10
-489.7726
 20
22.6617
 10
-489.9816
 20
22.6664
 10
-490.1453
 20
22.6721
 10
-490.2477
 20
22.6802
 10
-490.3697
 20
22.7101
 10
-490.4718
 20
22.7209
 10
-490.5773
 20
22.7211
 10
-490.7096
 20
22.7192
 10
-490.7829
 20
22.7003
 10
-490.8541
 20
22.6878
 10
-490.9242
 20
22.6804
 10
-490.9944
 20
22.6772
 10
-491.1392
 20
22.6778
 10
-491.2969
 20
22.6802
 10
-491.4942
 20
22.6585
 10
-491.7362
 20
22.6427
 10
-492.0033
 20
22.6314
 10
-492.2754
 20
22.6234
 10
-492.5327
 20
22.6177
 10
-492.7553
 20
22.613
 10
-492.9234
 20
22.608
 10
-493.017
 20
22.6017
 10
-493.3106
 20
22.5232
 10
-494.653
 20
22.4452
 10
-494.74
 20
22.4192
 10
-494.793
 20
22.408
 10
-494.8493
 20
22.4056
 10
-494.9466
 20
22.4062
 10
-495.2335
 20
22.3767
 10
-495.5255
 20
22.362
 10
-495.8008
 20
22.3497
 10
-496.0376
 20
22.3277
 10
-498.5546
 20
22.0146
 10
-498.8284
 20
21.9371
 10
-499.1357
 20
21.8566
 10
-499.4634
 20
21.7709
 10
-499.7982
 20
21.6779
 10
-500.1271
 20
21.5757
 10
-500.4369
 20
21.4621
 10
-500.7144
 20
21.335
 10
-500.9466
 20
21.1925
 10
-501.0388
 20
21.174
 10
-501.085
 20
21.1589
 10
-501.1249
 20
21.1312
 10
-501.198
 20
21.075
 10
-501.3694
 20
21.0251
 10
-501.6261
 20
20.9368
 10
-501.8889
 20
20.8417
 10
-502.0789
 20
20.7711
 10
-502.195
 20
20.7321
 10
-502.3074
 20
20.702
 10
-502.4171
 20
20.6783
 10
-502.5252
 20
20.6583
 10
-502.7402
 20
20.6197
 10
-502.9604
 20
20.5659
 10
-503.1281
 20
20.5659
 10
-503.301
 20
20.5303
 10
-503.5549
 20
20.465
 10
-503.8622
 20
20.3774
 10
-504.1951
 20
20.2747
 10
-504.5256
 20
20.1644
 10
-504.826
 20
20.0538
 10
-505.0686
 20
19.9503
 10
-505.2255
 20
19.8613
 10
-505.7292
 20
19.4307
 10
-505.973
 20
19.2952
 10
-506.1853
 20
19.1969
 10
-506.3898
 20
19.1078
 10
-506.6101
 20
18.9997
 10
-506.834
 20
18.9635
 10
-507.1037
 20
18.8895
 10
-507.4041
 20
18.7877
 10
-507.7199
 20
18.6684
 10
-508.036
 20
18.5415
 10
-508.337
 20
18.4171
 10
-508.6079
 20
18.3054
 10
-508.8334
 20
18.2165
 10
-508.9523
 20
18.1343
 10
-509.0538
 20
18.0418
 10
-509.1432
 20
17.9419
 10
-509.2255
 20
17.8376
 10
-509.306
 20
17.7317
 10
-509.3899
 20
17.6272
 10
-509.4823
 20
17.5269
 10
-509.5885
 20
17.4339
 10
-509.8591
 20
17.2545
 10
-510.1427
 20
17.1108
 10
-510.433
 20
16.9887
 10
-510.7239
 20
16.8746
 10
-511.0093
 20
16.7545
 10
-511.2829
 20
16.6146
 10
-511.5387
 20
16.4411
 10
-511.7704
 20
16.2202
 10
-511.895
 20
16.0655
 10
-512.0189
 20
15.9068
 10
-512.0846
 20
15.8302
 10
-512.1549
 20
15.7579
 10
-512.2313
 20
15.6914
 10
-512.3154
 20
15.6326
 10
-512.4626
 20
15.5727
 10
-512.6082
 20
15.5045
 10
-512.7523
 20
15.4295
 10
-512.8947
 20
15.3493
 10
-513.1748
 20
15.1791
 10
-513.4482
 20
15.006
 10
-513.6056
 20
14.8794
 10
-513.7589
 20
14.7449
 10
-513.9042
 20
14.6092
 10
-514.0375
 20
14.479
 10
-514.2523
 20
14.2611
 10
-514.3715
 20
14.1444
 10
-514.6229
 20
13.9879
 10
-516.0075
 20
12.6957
 10
-516.2593
 20
12.3826
 10
-516.5107
 20
12.2261
 10
-516.5667
 20
12.1493
 10
-516.5982
 20
12.1118
 10
-516.6384
 20
12.0826
 10
-516.7207
 20
12.0306
 10
-516.9527
 20
11.8247
 10
-517.2461
 20
11.5342
 10
-517.539
 20
11.2276
 10
-517.7694
 20
10.9734
 10
-517.9715
 20
10.7283
 10
-518.0528
 20
10.622
 10
-518.1604
 20
10.525
 10
-518.4413
 20
10.3078
 10
-518.6315
 20
10.13
 10
-518.7997
 20
9.9161
 10
-518.9499
 20
9.6774
 10
-519.0863
 20
9.4251
 10
-519.2128
 20
9.1706
 10
-519.3336
 20
8.9251
 10
-519.4527
 20
8.7
 10
-519.5741
 20
8.5065
 10
-519.7054
 20
8.351
 10
-519.8554
 20
8.2152
 10
-520.017
 20
8.0917
 10
-520.183
 20
7.9736
 10
-520.3463
 20
7.8535
 10
-520.4998
 20
7.7244
 10
-520.6363
 20
7.579
 10
-520.7487
 20
7.4103
 10
-520.8885
 20
7.1247
 10
-521.0107
 20
6.869
 10
-521.1235
 20
6.6334
 10
-521.2353
 20
6.4081
 10
-521.3545
 20
6.1833
 10
-521.4893
 20
5.9491
 10
-521.6481
 20
5.6958
 10
-521.8392
 20
5.4135
 10
-522.2588
 20
5.022
 10
-522.5388
 20
4.5615
 10
-522.7458
 20
4.104
 10
-522.9033
 20
3.6481
 10
-523.0347
 20
3.1924
 10
-523.1636
 20
2.7354
 10
-523.3134
 20
2.2756
 10
-523.5075
 20
1.8116
 10
-523.7694
 20
1.3419
 10
-523.894
 20
1.2127
 10
-524.0282
 20
1.093
 10
-524.0947
 20
1.0329
 10
-524.1587
 20
0.9705
 10
-524.2186
 20
0.9043
 10
-524.2726
 20
0.8328
 10
-524.3874
 20
0.6334
 10
-524.4922
 20
0.3963
 10
-524.5866
 20
0.1326
 10
-524.6708
 20
-0.147
 10
-524.7445
 20
-0.4313
 10
-524.8077
 20
-0.7094
 10
-524.8603
 20
-0.9705
 10
-524.9022
 20
-1.2035
 10
-524.9858
 20
-1.8691
 10
-525.0137
 20
-1.9503
 10
-525.0257
 20
-1.9997
 10
-525.0282
 20
-2.0523
 10
-525.0276
 20
-2.1431
 10
-525.4472
 20
-4.3745
 10
-525.5585
 20
-4.5704
 10
-525.6616
 20
-4.8401
 10
-525.7576
 20
-5.1613
 10
-525.8472
 20
-5.5119
 10
-525.9313
 20
-5.8695
 10
-526.011
 20
-6.2121
 10
-526.087
 20
-6.5173
 10
-526.1604
 20
-6.7629
 10
-526.2027
 20
-7.1544
 10
-526.2362
 20
-7.4248
 10
-526.2554
 20
-7.7192
 10
-526.2692
 20
-7.9857
 10
-526.2863
 20
-8.1721
 10
-526.307
 20
-8.3318
 10
-526.3229
 20
-8.5246
 10
-526.3349
 20
-8.7356
 10
-526.3441
 20
-8.9499
 10
-526.3574
 20
-9.329
 10
-526.3704
 20
-9.5428
 10
-526.4472
 20
-9.8001
 10
-526.5119
 20
-10.0647
 10
-526.5793
 20
-10.3326
 10
-526.6641
 20
-10.6
 10
-526.8318
 20
-10.5605
 10
-549.9064
 20
-10.5605
 10
-551.573
 20
-10.5548
 10
-554.4676
 20
-10.5412
 10
-558.1509
 20
-10.5252
 10
-562.1836
 20
-10.5123
 10
-566.1264
 20
-10.5078
 10
-569.5402
 20
-10.5173
 10
-571.9856
 20
-10.5462
 10
-573.0234
 20
-10.6
 10
-573.1099
 20
-10.5749
 10
-573.1293
 20
-10.5668
 10
-573.1482
 20
-10.5753
 10
-573.2334
 20
-10.6
 10
-573.32
 20
-10.5749
 10
-573.3393
 20
-10.5668
 10
-573.358
 20
-10.5753
 10
-573.4429
 20
-10.6
 10
-573.6029
 20
-10.5601
 10
-573.774
 20
-10.546
 10
-573.9527
 20
-10.549
 10
-574.1351
 20
-10.5606
 10
-574.3175
 20
-10.5722
 10
-574.4962
 20
-10.5753
 10
-574.6675
 20
-10.5612
 10
-574.8276
 20
-10.5215
  0
LWPOLYLINE
  5
6D
330
1F
100
AcDbEntity
  8
Layer 1
 62
     7
370
    35
100
AcDbPolyline
 90
       40
 70
     0
 43
0.0
 10
-195.6042
 20
-139.0602
 10
-195.7193
 20
-139.0589
 10
-195.7994
 20
-139.0599
 10
-195.8764
 20
-139.0708
 10
-195.982
 20
-139.0992
 10
-196.0444
 20
-139.0781
 10
-196.0983
 20
-139.0638
 10
-196.1464
 20
-139.0559
 10
-196.1916
 20
-139.0541
 10
-196.2851
 20
-139.0669
 10
-196.4016
 20
-139.0992
 10
-196.4773
 20
-139.0712
 10
-196.5166
 20
-139.0602
 10
-196.5614
 20
-139.059
 10
-196.6534
 20
-139.0602
 10
-196.7436
 20
-139.0888
 10
-196.7791
 20
-139.0984
 10
-196.8146
 20
-139.0888
 10
-196.9048
 20
-139.0602
 10
-197.0725
 20
-139.0602
 10
-197.1678
 20
-139.0899
 10
-197.2195
 20
-139.0998
 10
-197.271
 20
-139.0899
 10
-197.3661
 20
-139.0602
 10
-197.4872
 20
-139.0567
 10
-197.6017
 20
-139.0716
 10
-197.6928
 20
-139.0906
 10
-197.7439
 20
-139.0992
 10
-198.1831
 20
-139.0559
 10
-199.0523
 20
-139.0319
 10
-200.2175
 20
-139.0231
 10
-201.545
 20
-139.0253
 10
-202.9007
 20
-139.0343
 10
-204.151
 20
-139.0459
 10
-205.1618
 20
-139.0559
 10
-205.7994
 20
-139.0602
 10
-206.0414
 20
-138.992
 10
-206.297
 20
-138.929
 10
-206.5555
 20
-138.8729
 10
-206.8063
 20
-138.8251
  0
LWPOLYLINE
  5
6E
330
1F
100
AcDbEntity
  8
Layer 1
 62
     7
370
    35
100
AcDbPolyline
 90
       47
 70
     0
 43
0.0
 10
-218.5529
 20
-139.0602
 10
-207.8968
 20
-139.0602
 10
-207.8098
 20
-139.0341
 10
-207.7568
 20
-139.0227
 10
-207.7005
 20
-139.0202
 10
-207.6032
 20
-139.0207
 10
-207.4072
 20
-138.9636
 10
-207.2099
 20
-138.9114
 10
-207.0101
 20
-138.8649
 10
-206.8063
 20
-138.8251
 10
-206.8063
 20
-56.0171
 10
-206.8099
 20
-55.5676
 10
-206.8183
 20
-54.8695
 10
-206.8278
 20
-54.0119
 10
-206.8348
 20
-53.0842
 10
-206.8356
 20
-52.1757
 10
-206.8266
 20
-51.3756
 10
-206.8041
 20
-50.7731
 10
-206.7645
 20
-50.4577
 10
-206.787
 20
-50.3975
 10
-206.8022
 20
-50.3426
 10
-206.8106
 20
-50.2913
 10
-206.8127
 20
-50.2418
 10
-206.799
 20
-50.1411
 10
-206.7645
 20
-50.0262
 10
-206.7871
 20
-49.9593
 10
-206.8025
 20
-49.887
 10
-206.811
 20
-49.8109
 10
-206.813
 20
-49.7331
 10
-206.809
 20
-49.6552
 10
-206.7993
 20
-49.5791
 10
-206.7843
 20
-49.5066
 10
-206.7645
 20
-49.4396
 10
-206.8013
 20
-49.3461
 10
-206.8136
 20
-49.2827
 10
-206.8013
 20
-49.2193
 10
-206.7645
 20
-49.1261
 10
-206.7911
 20
-49.0452
 10
-206.7998
 20
-49.027
 10
-206.7907
 20
-49.0093
 10
-206.7645
 20
-48.93
 10
-206.7887
 20
-48.8562
 10
-206.804
 20
-48.777
 10
-206.8121
 20
-48.6936
 10
-206.8147
 20
-48.6076
 10
-206.8108
 20
-48.433
 10
-206.8063
 20
-48.2644
  0
LWPOLYLINE
  5
6F
330
1F
100
AcDbEntity
  8
Layer 1
 62
     7
370
    35
100
AcDbPolyline
 90
        7
 70
     0
 43
0.0
 10
-763.1594
 20
-158.3232
 10
-763.453
 20
-158.4012
 10
-772.9345
 20
-158.4012
 10
-773.2321
 20
-158.3209
 10
-773.5361
 20
-158.2499
 10
-773.8435
 20
-158.1762
 10
-774.151
 20
-158.0882
  0
LWPOLYLINE
  5
70
330
1F
100
AcDbEntity
  8
Layer 1
 62
     7
370
    35
100
AcDbPolyline
 90
       24
 70
     0
 43
0.0
 10
-785.5208
 20
-158.3232
 10
-785.4348
 20
-158.3527
 10
-785.3826
 20
-158.3635
 10
-785.326
 20
-158.3639
 10
-785.2271
 20
-158.3622
 10
-784.7129
 20
-158.4101
 10
-783.6782
 20
-158.4363
 10
-782.2852
 20
-158.4453
 10
-780.696
 20
-158.4421
 10
-779.0726
 20
-158.4313
 10
-777.5773
 20
-158.4178
 10
-776.3721
 20
-158.4061
 10
-775.6192
 20
-158.4012
 10
-774.151
 20
-158.0882
 10
-774.151
 20
-157.6181
 10
-774.107
 20
-157.2422
 10
-774.0824
 20
-156.5062
 10
-774.0731
 20
-155.5223
 10
-774.0749
 20
-154.4024
 10
-774.0836
 20
-153.2588
 10
-774.095
 20
-152.2035
 10
-774.1049
 20
-151.3485
 10
-774.1091
 20
-150.806
 10
-774.1091
 20
-48.4604
  0
LWPOLYLINE
  5
71
330
1F
100
AcDbEntity
  8
Layer 1
 62
     7
370
    35
100
AcDbPolyline
 90
       26
 70
     0
 43
0.0
 10
-270.4503
 20
-199.6292
 10
-270.4174
 20
-199.5384
 10
-270.3938
 20
-199.45
 10
-270.3773
 20
-199.3633
 10
-270.3658
 20
-199.2772
 10
-270.3485
 20
-199.1043
 10
-270.3244
 20
-198.9246
 10
-270.2407
 20
-198.2985
 10
-270.2202
 20
-198.2301
 10
-270.2067
 20
-198.1635
 10
-270.1988
 20
-198.098
 10
-270.1952
 20
-198.0324
 10
-270.1959
 20
-197.8972
 10
-270.1984
 20
-197.7499
 10
-270.1518
 20
-197.3381
 10
-270.1261
 20
-196.5228
 10
-270.1167
 20
-195.4297
 10
-270.119
 20
-194.1843
 10
-270.1287
 20
-192.9124
 10
-270.1412
 20
-191.7394
 10
-270.152
 20
-190.7912
 10
-270.1566
 20
-190.1932
 10
-270.2303
 20
-189.9737
 10
-270.3167
 20
-189.7011
 10
-270.3965
 20
-189.43
 10
-270.4503
 20
-189.2146
  0
LWPOLYLINE
  5
72
330
1F
100
AcDbEntity
  8
Layer 1
 62
     7
370
    35
100
AcDbPolyline
 90
       28
 70
     0
 43
0.0
 10
-449.0492
 20
-189.3711
 10
-448.9744
 20
-189.3495
 10
-448.8945
 20
-189.3358
 10
-448.8107
 20
-189.3283
 10
-448.7242
 20
-189.3256
 10
-448.5484
 20
-189.3284
 10
-448.3773
 20
-189.3321
 10
-448.2763
 20
-189.3055
 10
-448.2102
 20
-189.3008
 10
-448.144
 20
-189.3117
 10
-448.0424
 20
-189.3321
 10
-447.4593
 20
-189.2798
 10
-446.2725
 20
-189.2516
 10
-444.6702
 20
-189.2423
 10
-442.8404
 20
-189.2465
 10
-440.9712
 20
-189.259
 10
-439.2507
 20
-189.2744
 10
-437.8669
 20
-189.2875
 10
-437.008
 20
-189.2931
 10
-270.4503
 20
-189.2146
 10
-270.1566
 20
-187.8443
 10
-270.1566
 20
-178.6829
 10
-270.1886
 20
-178.4648
 10
-270.227
 20
-178.1941
 10
-270.2488
 20
-178.0584
 10
-270.2722
 20
-177.9327
 10
-270.2974
 20
-177.825
 10
-270.3244
 20
-177.7428
  0
LWPOLYLINE
  5
73
330
1F
100
AcDbEntity
  8
Layer 1
 62
     7
370
    35
100
AcDbPolyline
 90
       31
 70
     0
 43
0.0
 10
-710.4229
 20
-199.7467
 10
-710.4652
 20
-199.5902
 10
-710.462
 20
-199.4465
 10
-710.4603
 20
-199.3058
 10
-710.4635
 20
-199.2373
 10
-710.4714
 20
-199.1703
 10
-710.4854
 20
-199.1052
 10
-710.507
 20
-199.0421
 10
-710.4946
 20
-198.9677
 10
-710.487
 20
-198.8627
 10
-710.4842
 20
-198.7368
 10
-710.4866
 20
-198.6001
 10
-710.4941
 20
-198.4623
 10
-710.5069
 20
-198.3333
 10
-710.5251
 20
-198.2231
 10
-710.5488
 20
-198.1415
 10
-710.5242
 20
-197.9077
 10
-710.5127
 20
-197.4872
 10
-710.5112
 20
-196.9375
 10
-710.5167
 20
-196.3162
 10
-710.5262
 20
-195.6807
 10
-710.5368
 20
-195.0888
 10
-710.5453
 20
-194.5978
 10
-710.5488
 20
-194.2654
 10
-710.5488
 20
-190.3502
 10
-710.4647
 20
-190.074
 10
-710.3958
 20
-189.8088
 10
-710.36
 20
-189.6758
 10
-710.3196
 20
-189.5401
 10
-710.2716
 20
-189.4
 10
-710.2133
 20
-189.2536
  0
LWPOLYLINE
  5
74
330
1F
100
AcDbEntity
  8
Layer 1
 62
     7
370
    35
100
AcDbPolyline
 90
       32
 70
     0
 43
0.0
 10
-531.9921
 20
-189.3321
 10
-532.4535
 20
-189.3321
 10
-532.5321
 20
-189.3075
 10
-532.573
 20
-189.2969
 10
-532.6171
 20
-189.2942
 10
-532.7054
 20
-189.2931
 10
-532.7956
 20
-189.3217
 10
-532.8311
 20
-189.3313
 10
-532.8665
 20
-189.3217
 10
-532.9567
 20
-189.2931
 10
-709.8779
 20
-189.2931
 10
-709.9745
 20
-189.2656
 10
-710.0392
 20
-189.2544
 10
-710.107
 20
-189.2527
 10
-710.2133
 20
-189.2536
 10
-710.507
 20
-187.8443
 10
-710.5605
 20
-187.3362
 10
-710.5895
 20
-186.3081
 10
-710.5993
 20
-184.922
 10
-710.5954
 20
-183.3399
 10
-710.583
 20
-181.7238
 10
-710.5676
 20
-180.2356
 10
-710.5544
 20
-179.0373
 10
-710.5488
 20
-178.2909
 10
-710.5305
 20
-178.1459
 10
-710.514
 20
-177.9541
 10
-710.498
 20
-177.7324
 10
-710.4812
 20
-177.4975
 10
-710.4623
 20
-177.2665
 10
-710.4402
 20
-177.056
 10
-710.4136
 20
-176.8829
 10
-710.3811
 20
-176.7641
  0
LWPOLYLINE
  5
75
330
1F
100
AcDbEntity
  8
Layer 1
 62
     7
370
    35
100
AcDbPolyline
 90
        2
 70
     0
 43
0.0
 10
-953.1396
 20
9.7548
 10
-953.0567
 20
9.8239
  0
LWPOLYLINE
  5
76
330
1F
100
AcDbEntity
  8
Layer 1
 62
     7
370
    35
100
AcDbPolyline
 90
        2
 70
     0
 43
0.0
 10
-953.0289
 20
9.8378
 10
-953.0567
 20
9.8239
  0
LWPOLYLINE
  5
77
330
1F
100
AcDbEntity
  8
Layer 1
 62
     7
370
    35
100
AcDbPolyline
 90
        2
 70
     0
 43
0.0
 10
-952.9874
 20
9.8516
 10
-953.0289
 20
9.8378
  0
LWPOLYLINE
  5
78
330
1F
100
AcDbEntity
  8
Layer 1
 62
     7
370
    35
100
AcDbPolyline
 90
        2
 70
     0
 43
0.0
 10
-952.9459
 20
9.8654
 10
-952.9874
 20
9.8516
  0
LWPOLYLINE
  5
79
330
1F
100
AcDbEntity
  8
Layer 1
 62
     7
370
    35
100
AcDbPolyline
 90
        2
 70
     0
 43
0.0
 10
-952.8906
 20
9.8793
 10
-952.9459
 20
9.8654
  0
LWPOLYLINE
  5
7A
330
1F
100
AcDbEntity
  8
Layer 1
 62
     7
370
    35
100
AcDbPolyline
 90
        2
 70
     0
 43
0.0
 10
-952.8491
 20
9.8931
 10
-952.8906
 20
9.8793
  0
LWPOLYLINE
  5
7B
330
1F
100
AcDbEntity
  8
Layer 1
 62
     7
370
    35
100
AcDbPolyline
 90
        2
 70
     0
 43
0.0
 10
-952.78
 20
9.9069
 10
-952.8491
 20
9.8931
  0
LWPOLYLINE
  5
7C
330
1F
100
AcDbEntity
  8
Layer 1
 62
     7
370
    35
100
AcDbPolyline
 90
       15
 70
     0
 43
0.0
 10
-857.656
 20
9.7963
 10
-857.756
 20
9.8441
 10
-857.8267
 20
9.8609
 10
-857.8812
 20
9.8627
 10
-857.9327
 20
9.8654
 10
-858.32
 20
9.8931
 10
-858.4789
 20
9.9093
 10
-858.7965
 20
9.9182
 10
-859.2234
 20
9.9214
 10
-859.7101
 20
9.9204
 10
-860.2072
 20
9.9169
 10
-860.6653
 20
9.9124
 10
-861.035
 20
9.9085
 10
-861.2668
 20
9.9069
 10
-952.78
 20
9.9069
  0
LWPOLYLINE
  5
7D
330
1F
100
AcDbEntity
  8
Layer 1
 62
     7
370
    35
100
AcDbPolyline
 90
      288
 70
     1
 43
0.0
 10
-954.5922
 20
12.9225
 10
-954.7091
 20
12.9037
 10
-954.8776
 20
12.9007
 10
-955.052
 20
12.9051
 10
-955.1871
 20
12.9085
 10
-955.6998
 20
12.8414
 10
-955.7383
 20
12.8361
 10
-955.781
 20
12.8248
 10
-955.8382
 20
12.7868
 10
-955.9202
 20
12.7011
 10
-956.0586
 20
12.535
 10
-956.1554
 20
12.4521
 10
-956.2558
 20
12.3971
 10
-956.3433
 20
12.359
 10
-956.3871
 20
12.335
 10
-956.4337
 20
12.3017
 10
-956.4849
 20
12.2546
 10
-956.5428
 20
12.1892
 10
-956.612
 20
12.0786
 10
-956.6534
 20
11.8573
 10
-956.6811
 20
11.5668
 10
-956.6947
 20
11.4906
 10
-956.7026
 20
11.4462
 10
-956.7031
 20
11.4068
 10
-956.6949
 20
11.3454
 10
-956.6258
 20
10.7369
 10
-956.5856
 20
10.6716
 10
-956.5111
 20
10.5808
 10
-956.4317
 20
10.4954
 10
-956.3768
 20
10.4465
 10
-956.3293
 20
10.4262
 10
-956.2566
 20
10.3943
 10
-956.2115
 20
10.3674
 10
-956.161
 20
10.3297
 10
-956.1053
 20
10.2785
 10
-956.0448
 20
10.2113
 10
-955.9486
 20
10.0899
 10
-955.873
 20
10.0093
 10
-955.8298
 20
9.9804
 10
-955.7761
 20
9.9571
 10
-955.7066
 20
9.9377
 10
-955.616
 20
9.9207
 10
-955.1594
 20
9.9069
 10
-955.0745
 20
9.8909
 10
-954.9645
 20
9.8857
 10
-954.8379
 20
9.8876
 10
-954.7029
 20
9.8931
 10
-954.5679
 20
9.8986
 10
-954.4412
 20
9.9005
 10
-954.3313
 20
9.8953
 10
-954.2464
 20
9.8793
 10
-954.1892
 20
9.8929
 10
-954.1256
 20
9.8964
 10
-954.0601
 20
9.8948
 10
-953.9974
 20
9.8931
 10
-953.8763
 20
9.9089
 10
-953.7483
 20
9.9069
 10
-953.6654
 20
9.9207
 10
-953.5291
 20
9.8795
 10
-953.4054
 20
9.8446
 10
-953.2803
 20
9.8063
 10
-953.1396
 20
9.7548
 10
-953.0775
 20
9.5815
 10
-953.0007
 20
9.3676
 10
-952.9311
 20
9.1605
 10
-952.8906
 20
9.0076
 10
-952.8768
 20
8.8555
 10
-952.78
 20
8.5097
 10
-952.7593
 20
8.4852
 10
-952.7534
 20
8.481
 10
-952.7538
 20
8.4738
 10
-952.7522
 20
8.4405
 10
-952.7109
 20
8.3576
 10
-952.6278
 20
8.15
 10
-952.4895
 20
7.9701
 10
-952.4498
 20
7.8873
 10
-952.4082
 20
7.772
 10
-952.3727
 20
7.6521
 10
-952.3511
 20
7.5553
 10
-952.3373
 20
7.2094
 10
-952.3236
 20
7.1418
 10
-952.3201
 20
7.0679
 10
-952.3217
 20
6.9922
 10
-952.3234
 20
6.9189
 10
-952.3076
 20
6.7661
 10
-952.2989
 20
6.4618
 10
-952.2957
 20
6.0533
 10
-952.2966
 20
5.5877
 10
-952.3
 20
5.1121
 10
-952.3043
 20
4.6737
 10
-952.308
 20
4.3197
 10
-952.3096
 20
4.0971
 10
-952.3096
 20
-15.753
 10
-952.2963
 20
-15.8921
 10
-952.2902
 20
-16.0512
 10
-952.2869
 20
-16.1927
 10
-952.2819
 20
-16.2786
 10
-952.2681
 20
-16.4032
 10
-952.1437
 20
-16.9426
 10
-951.9638
 20
-17.164
 10
-951.9086
 20
-17.2037
 10
-951.8439
 20
-17.2482
 10
-951.7701
 20
-17.3094
 10
-951.6871
 20
-17.3991
 10
-951.6283
 20
-17.4917
 10
-951.5573
 20
-17.6101
 10
-951.5111
 20
-17.6724
 10
-951.4543
 20
-17.7335
 10
-951.3847
 20
-17.7908
 10
-951.2996
 20
-17.8417
 10
-951.1932
 20
-17.8936
 10
-951.1285
 20
-17.927
 10
-951.0664
 20
-17.9696
 10
-950.9676
 20
-18.0491
 10
-950.8291
 20
-18.2055
 10
-950.7047
 20
-18.3398
 10
-950.4142
 20
-18.4642
 10
-950.3414
 20
-18.4759
 10
-950.2504
 20
-18.4996
 10
-950.1478
 20
-18.5325
 10
-950.0397
 20
-18.5721
 10
-949.833
 20
-18.6598
 10
-949.6811
 20
-18.7408
 10
-949.5427
 20
-18.8792
 10
-949.4333
 20
-18.9534
 10
-949.3153
 20
-19.01
 10
-949.19
 20
-19.0554
 10
-949.0586
 20
-19.0955
 10
-948.6573
 20
-19.1975
 10
-948.5452
 20
-19.2125
 10
-948.4369
 20
-19.2431
 10
-948.3316
 20
-19.2751
 10
-948.2284
 20
-19.2942
 10
-947.9933
 20
-19.405
 10
-947.9116
 20
-19.4441
 10
-947.82
 20
-19.4845
 10
-947.732
 20
-19.5267
 10
-947.6613
 20
-19.571
 10
-947.0527
 20
-19.7232
 10
-946.5408
 20
-19.7647
 10
-946.2226
 20
-19.7922
 10
-946.1311
 20
-19.8084
 10
-946.0211
 20
-19.8116
 10
-945.908
 20
-19.8085
 10
-945.8075
 20
-19.806
 10
-945.6772
 20
-19.8235
 10
-945.4887
 20
-19.8267
 10
-945.2936
 20
-19.8229
 10
-945.1433
 20
-19.82
 10
-945.0071
 20
-19.8347
 10
-944.7397
 20
-19.8429
 10
-944.3819
 20
-19.8459
 10
-943.9746
 20
-19.8453
 10
-943.5586
 20
-19.8424
 10
-943.1748
 20
-19.8385
 10
-942.864
 20
-19.8352
 10
-942.6671
 20
-19.8338
 10
-905.4395
 20
-19.8338
 10
-865.7353
 20
-19.8338
 10
-865.6027
 20
-19.8162
 10
-865.41
 20
-19.8131
 10
-865.2105
 20
-19.817
 10
-865.0573
 20
-19.82
 10
-864.9284
 20
-19.8069
 10
-864.7924
 20
-19.8014
 10
-864.6713
 20
-19.7983
 10
-864.587
 20
-19.7922
 10
-864.4807
 20
-19.7803
 10
-864.3819
 20
-19.7755
 10
-864.2922
 20
-19.7722
 10
-864.2134
 20
-19.7647
 10
-864.1166
 20
-19.7507
 10
-863.6049
 20
-19.6816
 10
-863.2313
 20
-19.5848
 10
-862.9546
 20
-19.4603
 10
-862.8163
 20
-19.3912
 10
-862.7525
 20
-19.354
 10
-862.6716
 20
-19.3207
 10
-862.5787
 20
-19.2907
 10
-862.4788
 20
-19.2634
 10
-862.2783
 20
-19.2146
 10
-862.1107
 20
-19.1696
 10
-862.0119
 20
-19.1613
 10
-861.9087
 20
-19.1417
 10
-861.8034
 20
-19.1123
 10
-861.6982
 20
-19.0749
 10
-861.5953
 20
-19.0312
 10
-861.4969
 20
-18.9829
 10
-861.4051
 20
-18.9316
 10
-861.3223
 20
-18.8792
 10
-861.2255
 20
-18.7824
 10
-861.0672
 20
-18.6893
 10
-860.8794
 20
-18.5989
 10
-860.7816
 20
-18.5599
 10
-860.6848
 20
-18.5277
 10
-860.592
 20
-18.5043
 10
-860.506
 20
-18.4919
 10
-860.2155
 20
-18.3536
 10
-859.9803
 20
-18.1322
 10
-859.8067
 20
-18.0073
 10
-859.6345
 20
-17.8745
 10
-859.4623
 20
-17.7427
 10
-859.2885
 20
-17.6205
 10
-859.2193
 20
-17.5235
 10
-859.1224
 20
-17.3853
 10
-858.998
 20
-17.2331
 10
-858.5277
 20
-16.3894
 10
-858.5139
 20
-16.2371
 10
-858.498
 20
-16.1161
 10
-858.4999
 20
-15.9882
 10
-858.4842
 20
-15.8367
 10
-858.4755
 20
-15.5353
 10
-858.4724
 20
-15.1308
 10
-858.4732
 20
-14.6698
 10
-858.4766
 20
-14.199
 10
-858.4808
 20
-13.765
 10
-858.4845
 20
-13.4144
 10
-858.4861
 20
-13.194
 10
-858.4861
 20
6.4072
 10
-858.4691
 20
6.5127
 10
-858.466
 20
6.648
 10
-858.4695
 20
6.7874
 10
-858.4723
 20
6.9051
 10
-858.4308
 20
7.3339
 10
-858.4031
 20
7.6797
 10
-858.3755
 20
7.7765
 10
-858.3755
 20
7.8458
 10
-858.3063
 20
8.1085
 10
-858.2781
 20
8.249
 10
-858.2474
 20
8.3539
 10
-858.2136
 20
8.4314
 10
-858.1761
 20
8.49
 10
-858.0868
 20
8.5841
 10
-857.9742
 20
8.7034
 10
-857.8917
 20
8.8281
 10
-857.8621
 20
9.0281
 10
-857.7962
 20
9.3158
 10
-857.7192
 20
9.6017
 10
-857.656
 20
9.7963
 10
-857.0612
 20
9.9069
 10
-856.9673
 20
9.9218
 10
-856.8676
 20
9.9207
 10
-856.596
 20
9.8948
 10
-856.2206
 20
9.8765
 10
-855.8609
 20
9.87
 10
-855.6364
 20
9.8793
 10
-855.2906
 20
9.9207
 10
-855.1764
 20
9.9436
 10
-855.0311
 20
9.9841
 10
-854.9581
 20
10.0107
 10
-854.891
 20
10.0414
 10
-854.8343
 20
10.076
 10
-854.7925
 20
10.1145
 10
-854.7012
 20
10.2342
 10
-854.6178
 20
10.3475
 10
-854.5249
 20
10.4584
 10
-854.4051
 20
10.5709
 10
-854.1977
 20
10.7369
 10
-854.1146
 20
11.2763
 10
-854.0998
 20
11.3703
 10
-854.1009
 20
11.47
 10
-854.1699
 20
11.8988
 10
-854.2253
 20
12.0649
 10
-854.2927
 20
12.1286
 10
-854.4391
 20
12.2598
 10
-854.6031
 20
12.4111
 10
-854.7234
 20
12.535
 10
-854.8064
 20
12.6458
 10
-854.8801
 20
12.7055
 10
-854.9682
 20
12.7566
 10
-855.0619
 20
12.7937
 10
-855.1522
 20
12.8117
 10
-855.2691
 20
12.8547
 10
-855.3874
 20
12.8809
 10
-855.5673
 20
12.8947
 10
-855.6855
 20
12.9113
 10
-855.853
 20
12.9144
 10
-856.0263
 20
12.9112
 10
-856.162
 20
12.9085
 10
-856.3269
 20
12.9252
 10
-856.6577
 20
12.9343
 10
-857.1028
 20
12.9375
 10
-857.6105
 20
12.9365
 10
-858.1291
 20
12.9328
 10
-858.6068
 20
12.9282
 10
-858.9921
 20
12.9242
 10
-859.2332
 20
12.9225
 10
-954.5922
 20
12.9225
  0
LWPOLYLINE
  5
7E
330
1F
100
AcDbEntity
  8
Layer 1
 62
     7
370
    35
100
AcDbPolyline
 90
        9
 70
     0
 43
0.0
 10
-973.0332
 20
-19.7369
 10
-972.9017
 20
-19.7231
 10
-972.7703
 20
-19.7092
 10
-972.6596
 20
-19.7092
 10
-969.4501
 20
-19.7092
 10
-969.3264
 20
-19.6705
 10
-969.2447
 20
-19.6422
 10
-969.1654
 20
-19.6024
 10
-969.049
 20
-19.5295
  0
LWPOLYLINE
  5
7F
330
1F
100
AcDbEntity
  8
Layer 1
 62
     7
370
    35
100
AcDbPolyline
 90
       48
 70
     0
 43
0.0
 10
-965.1062
 20
-19.7369
 10
-965.2118
 20
-19.7178
 10
-965.353
 20
-19.715
 10
-965.4987
 20
-19.7197
 10
-965.6181
 20
-19.7232
 10
-965.6493
 20
-19.7142
 10
-965.6661
 20
-19.7124
 10
-965.6831
 20
-19.716
 10
-965.7149
 20
-19.7232
 10
-965.7523
 20
-19.7115
 10
-965.7771
 20
-19.7076
 10
-965.8019
 20
-19.7115
 10
-965.8393
 20
-19.7232
 10
-965.9706
 20
-19.7104
 10
-966.2514
 20
-19.7031
 10
-966.6353
 20
-19.7001
 10
-967.0755
 20
-19.7003
 10
-967.5254
 20
-19.7024
 10
-967.9386
 20
-19.7054
 10
-968.2683
 20
-19.7081
 10
-968.468
 20
-19.7092
 10
-968.6496
 20
-19.6775
 10
-968.7612
 20
-19.6474
 10
-968.8714
 20
-19.6033
 10
-969.049
 20
-19.5295
 10
-969.0766
 20
-19.0728
 10
-969.0878
 20
-18.8533
 10
-969.0944
 20
-18.4154
 10
-969.0973
 20
-17.8272
 10
-969.0974
 20
-17.157
 10
-969.0959
 20
-16.4729
 10
-969.0935
 20
-15.8433
 10
-969.0914
 20
-15.3362
 10
-969.0905
 20
-15.0199
 10
-969.0905
 20
-2.8609
 10
-969.049
 20
-2.5566
 10
-969.049
 20
-2.446
 10
-969.0766
 20
-2.0586
 10
-969.0949
 20
-1.8697
 10
-969.1048
 20
-1.4858
 10
-969.1081
 20
-0.9676
 10
-969.1067
 20
-0.376
 10
-969.1023
 20
0.2284
 10
-969.097
 20
0.7848
 10
-969.0924
 20
1.2324
 10
-969.0905
 20
1.5104
 10
-969.0905
 20
12.2308
 10
-969.0352
 20
12.618
  0
LWPOLYLINE
  5
80
330
1F
100
AcDbEntity
  8
Layer 1
 62
     7
370
    35
100
AcDbPolyline
 90
       27
 70
     0
 43
0.0
 10
-965.2723
 20
12.7426
 10
-965.3511
 20
12.7439
 10
-965.4244
 20
12.7287
 10
-965.4564
 20
12.7403
 10
-965.4651
 20
12.743
 10
-965.4707
 20
12.7385
 10
-965.4935
 20
12.7287
 10
-965.5628
 20
12.7287
 10
-965.8129
 20
12.7416
 10
-966.2602
 20
12.7402
 10
-966.7289
 20
12.733
 10
-967.043
 20
12.7287
 10
-968.5233
 20
12.7287
 10
-968.6339
 20
12.7011
 10
-968.7032
 20
12.7011
 10
-969.0352
 20
12.618
 10
-969.132
 20
12.6458
 10
-969.2543
 20
12.6933
 10
-969.381
 20
12.7287
 10
-969.6298
 20
12.7276
 10
-970.0512
 20
12.7251
 10
-970.5832
 20
12.7223
 10
-971.1643
 20
12.7203
 10
-971.7325
 20
12.7202
 10
-972.2262
 20
12.7232
 10
-972.5835
 20
12.7303
 10
-972.7427
 20
12.7426
  0
LWPOLYLINE
  5
81
330
1F
100
AcDbEntity
  8
Layer 1
 62
     7
370
    18
100
AcDbPolyline
 90
       12
 70
     1
 43
0.0
 10
-550.5928
 20
4.3418
 10
-542.142
 20
21.784
 10
-541.5268
 20
20.9486
 10
-553.6417
 20
20.9486
 10
-552.6073
 20
21.8622
 10
-552.6073
 20
17.5278
 10
-554.5934
 20
17.5278
 10
-554.5934
 20
22.6193
 10
-540.2126
 20
22.6193
 10
-540.2126
 20
21.288
 10
-548.4107
 20
4.3418
 10
-550.5928
 20
4.3418
  0
LWPOLYLINE
  5
82
330
1F
100
AcDbEntity
  8
Layer 1
 62
     7
370
    18
100
AcDbPolyline
 90
      131
 70
     1
 43
0.0
 10
-531.9023
 20
4.1853
 10
-532.4235
 20
4.1953
 10
-532.9387
 20
4.2253
 10
-533.4479
 20
4.2754
 10
-533.9511
 20
4.3454
 10
-534.4483
 20
4.4353
 10
-534.9395
 20
4.5453
 10
-535.4247
 20
4.6752
 10
-535.9039
 20
4.825
 10
-536.3671
 20
4.9915
 10
-536.8059
 20
5.1716
 10
-537.2202
 20
5.3651
 10
-537.6102
 20
5.5721
 10
-537.9756
 20
5.7925
 10
-538.3167
 20
6.0265
 10
-538.6333
 20
6.274
 10
-538.9255
 20
6.5349
 10
-537.9455
 20
8.0237
 10
-537.7041
 20
7.8002
 10
-537.4412
 20
7.5864
 10
-537.1569
 20
7.3823
 10
-536.8511
 20
7.1881
 10
-536.5238
 20
7.0036
 10
-536.1751
 20
6.8291
 10
-535.8049
 20
6.6643
 10
-535.4133
 20
6.5095
 10
-535.0068
 20
6.3686
 10
-534.5921
 20
6.2466
 10
-534.1691
 20
6.1433
 10
-533.7378
 20
6.0589
 10
-533.2983
 20
5.9933
 10
-532.8506
 20
5.9464
 10
-532.3947
 20
5.9183
 10
-531.9306
 20
5.9089
 10
-531.3264
 20
5.925
 10
-530.7595
 20
5.9733
 10
-530.2298
 20
6.0539
 10
-529.7373
 20
6.1666
 10
-529.2821
 20
6.3116
 10
-528.8641
 20
6.4888
 10
-528.4833
 20
6.6982
 10
-528.1397
 20
6.9398
 10
-527.8346
 20
7.2076
 10
-527.5701
 20
7.4954
 10
-527.3464
 20
7.8032
 10
-527.1633
 20
8.131
 10
-527.021
 20
8.4789
 10
-526.9193
 20
8.8468
 10
-526.8582
 20
9.2347
 10
-526.8379
 20
9.6426
 10
-526.8473
 20
9.931
 10
-526.8755
 20
10.2092
 10
-526.9225
 20
10.4773
 10
-526.9883
 20
10.7353
 10
-527.0729
 20
10.9831
 10
-527.1763
 20
11.2208
 10
-527.2985
 20
11.4482
 10
-527.4395
 20
11.6655
 10
-527.6028
 20
11.8717
 10
-527.7919
 20
12.0662
 10
-528.0069
 20
12.2488
 10
-528.2476
 20
12.4196
 10
-528.5142
 20
12.5785
 10
-528.8065
 20
12.7256
 10
-529.1247
 20
12.8608
 10
-529.4686
 20
12.9841
 10
-529.8417
 20
13.0945
 10
-530.2481
 20
13.1901
 10
-530.6877
 20
13.271
 10
-531.1606
 20
13.3371
 10
-531.6668
 20
13.3885
 10
-532.2063
 20
13.4252
 10
-532.7791
 20
13.4473
 10
-533.3853
 20
13.4546
 10
-537.5546
 20
13.4546
 10
-536.5474
 20
22.6193
 10
-525.8307
 20
22.6193
 10
-525.8307
 20
20.9486
 10
-535.7351
 20
20.9486
 10
-534.6996
 20
21.8622
 10
-535.5674
 20
14.1853
 10
-536.6029
 20
15.1254
 10
-532.9367
 20
15.1254
 10
-532.2137
 20
15.1148
 10
-531.5274
 20
15.083
 10
-530.8779
 20
15.0299
 10
-530.2651
 20
14.9557
 10
-529.6891
 20
14.8602
 10
-529.1499
 20
14.7435
 10
-528.6474
 20
14.6056
 10
-528.1816
 20
14.4465
 10
-527.7493
 20
14.2684
 10
-527.3482
 20
14.0736
 10
-526.9782
 20
13.862
 10
-526.6392
 20
13.6337
 10
-526.3313
 20
13.3887
 10
-526.0545
 20
13.1271
 10
-525.8087
 20
12.8487
 10
-525.5939
 20
12.5537
 10
-525.4067
 20
12.2437
 10
-525.2446
 20
11.921
 10
-525.1075
 20
11.5858
 10
-524.9954
 20
11.238
 10
-524.9083
 20
10.8776
 10
-524.846
 20
10.5046
 10
-524.8087
 20
10.119
 10
-524.7963
 20
9.7209
 10
-524.8085
 20
9.3398
 10
-524.8452
 20
8.9674
 10
-524.9063
 20
8.6037
 10
-524.9919
 20
8.2486
 10
-525.102
 20
7.902
 10
-525.2365
 20
7.564
 10
-525.3956
 20
7.2345
 10
-525.5792
 20
6.9134
 10
-525.7873
 20
6.6053
 10
-526.02
 20
6.3139
 10
-526.2771
 20
6.0391
 10
-526.5586
 20
5.781
 10
-526.8646
 20
5.5397
 10
-527.195
 20
5.315
 10
-527.5498
 20
5.1071
 10
-527.9289
 20
4.9159
 10
-528.3337
 20
4.7446
 10
-528.7648
 20
4.5961
 10
-529.2222
 20
4.4705
 10
-529.7057
 20
4.3678
 10
-530.2155
 20
4.288
 10
-530.7515
 20
4.2309
 10
-531.3138
 20
4.1967
 10
-531.9023
 20
4.1853
  0
LWPOLYLINE
  5
83
330
1F
100
AcDbEntity
  8
Layer 1
 62
     7
370
    18
100
AcDbPolyline
 90
       33
 70
     1
 43
0.0
 10
-566.8381
 20
17.3817
 10
-565.228
 20
17.2302
 10
-563.7283
 20
16.7958
 10
-562.3712
 20
16.1083
 10
-561.1888
 20
15.1978
 10
-560.2132
 20
14.0944
 10
-559.4766
 20
12.8279
 10
-559.011
 20
11.4283
 10
-558.8487
 20
9.9257
 10
-559.011
 20
8.4231
 10
-559.4766
 20
7.0235
 10
-560.2132
 20
5.757
 10
-561.1888
 20
4.6536
 10
-562.3712
 20
3.7431
 10
-563.7283
 20
3.0556
 10
-565.228
 20
2.6212
 10
-566.8381
 20
2.4697
 10
-568.4482
 20
2.6212
 10
-569.9479
 20
3.0556
 10
-571.305
 20
3.7431
 10
-572.4875
 20
4.6536
 10
-573.4631
 20
5.757
 10
-574.1997
 20
7.0235
 10
-574.6653
 20
8.4231
 10
-574.8276
 20
9.9257
 10
-574.6653
 20
11.4283
 10
-574.1997
 20
12.8279
 10
-573.4631
 20
14.0944
 10
-572.4875
 20
15.1978
 10
-571.305
 20
16.1083
 10
-569.9479
 20
16.7958
 10
-568.4482
 20
17.2302
 10
-566.8381
 20
17.3817
  0
LWPOLYLINE
  5
84
330
1F
100
AcDbEntity
  8
Layer 1
 62
     7
370
    18
100
AcDbPolyline
 90
        2
 70
     0
 43
0.0
 10
-564.2325
 20
21.9806
 10
-569.4846
 20
-3.0828
  0
LWPOLYLINE
  5
85
330
1F
100
AcDbEntity
  8
Layer 1
 62
     7
370
    18
100
AcDbPolyline
 90
        9
 70
     1
 43
0.0
 10
-427.7134
 20
9.7811
 10
-427.7134
 20
11.1389
 10
-417.3331
 20
23.2538
 10
-415.0955
 20
23.2538
 10
-425.3919
 20
11.1389
 10
-426.483
 20
11.4519
 10
-410.7313
 20
11.4519
 10
-410.7313
 20
9.7811
 10
-427.7134
 20
9.7811
  0
LWPOLYLINE
  5
86
330
1F
100
AcDbEntity
  8
Layer 1
 62
     7
370
    18
100
AcDbPolyline
 90
        7
 70
     1
 43
0.0
 10
-416.6624
 20
4.9762
 10
-416.6624
 20
9.7811
 10
-416.6058
 20
11.4519
 10
-416.6058
 20
15.6816
 10
-414.648
 20
15.6816
 10
-414.648
 20
4.9762
 10
-416.6624
 20
4.9762
  0
LWPOLYLINE
  5
87
330
1F
100
AcDbEntity
  8
Layer 1
 62
     7
370
    18
100
AcDbPolyline
 90
      131
 70
     1
 43
0.0
 10
-402.7563
 20
4.8197
 10
-403.2776
 20
4.8297
 10
-403.7928
 20
4.8597
 10
-404.3019
 20
4.9098
 10
-404.805
 20
4.9798
 10
-405.3021
 20
5.0698
 10
-405.7931
 20
5.1797
 10
-406.278
 20
5.3096
 10
-406.7569
 20
5.4595
 10
-407.2205
 20
5.626
 10
-407.6595
 20
5.806
 10
-408.0741
 20
5.9995
 10
-408.4641
 20
6.2065
 10
-408.8297
 20
6.427
 10
-409.1708
 20
6.6609
 10
-409.4874
 20
6.9084
 10
-409.7796
 20
7.1693
 10
-408.7996
 20
8.6582
 10
-408.5581
 20
8.4346
 10
-408.2951
 20
8.2208
 10
-408.0106
 20
8.0168
 10
-407.7047
 20
7.8225
 10
-407.3774
 20
7.6381
 10
-407.0287
 20
7.4635
 10
-406.6587
 20
7.2987
 10
-406.2674
 20
7.1439
 10
-405.8609
 20
7.003
 10
-405.4462
 20
6.881
 10
-405.0232
 20
6.7778
 10
-404.5919
 20
6.6933
 10
-404.1524
 20
6.6277
 10
-403.7047
 20
6.5808
 10
-403.2488
 20
6.5527
 10
-402.7847
 20
6.5433
 10
-402.1805
 20
6.5594
 10
-401.6135
 20
6.6077
 10
-401.0838
 20
6.6883
 10
-400.5914
 20
6.8011
 10
-400.1362
 20
6.946
 10
-399.7182
 20
7.1233
 10
-399.3374
 20
7.3327
 10
-398.9938
 20
7.5743
 10
-398.6887
 20
7.8421
 10
-398.4242
 20
8.1298
 10
-398.2005
 20
8.4376
 10
-398.0174
 20
8.7655
 10
-397.8751
 20
9.1133
 10
-397.7734
 20
9.4812
 10
-397.7123
 20
9.8691
 10
-397.692
 20
10.2771
 10
-397.7014
 20
10.5655
 10
-397.7296
 20
10.8437
 10
-397.7766
 20
11.1118
 10
-397.8424
 20
11.3698
 10
-397.927
 20
11.6176
 10
-398.0304
 20
11.8552
 10
-398.1526
 20
12.0827
 10
-398.2936
 20
12.2999
 10
-398.4569
 20
12.5061
 10
-398.646
 20
12.7006
 10
-398.8609
 20
12.8832
 10
-399.1017
 20
13.054
 10
-399.3682
 20
13.2129
 10
-399.6606
 20
13.36
 10
-399.9787
 20
13.4952
 10
-400.3227
 20
13.6185
 10
-400.6958
 20
13.7289
 10
-401.1022
 20
13.8245
 10
-401.5418
 20
13.9054
 10
-402.0147
 20
13.9716
 10
-402.5209
 20
14.023
 10
-403.0604
 20
14.0597
 10
-403.6332
 20
14.0818
 10
-404.2394
 20
14.0891
 10
-408.4087
 20
14.0891
 10
-407.4004
 20
23.2538
 10
-396.6848
 20
23.2538
 10
-396.6848
 20
21.583
 10
-406.5892
 20
21.583
 10
-405.5536
 20
22.4967
 10
-406.4215
 20
14.8198
 10
-407.4559
 20
15.7598
 10
-403.7907
 20
15.7598
 10
-403.0677
 20
15.7492
 10
-402.3815
 20
15.7174
 10
-401.732
 20
15.6643
 10
-401.1192
 20
15.5901
 10
-400.5432
 20
15.4946
 10
-400.004
 20
15.3779
 10
-399.5015
 20
15.24
 10
-399.0357
 20
15.0809
 10
-398.6034
 20
14.9028
 10
-398.2023
 20
14.708
 10
-397.8322
 20
14.4965
 10
-397.4931
 20
14.2682
 10
-397.1851
 20
14.0232
 10
-396.908
 20
13.7616
 10
-396.6619
 20
13.4832
 10
-396.4468
 20
13.1882
 10
-396.2597
 20
12.8782
 10
-396.0976
 20
12.5555
 10
-395.9605
 20
12.2203
 10
-395.8484
 20
11.8725
 10
-395.7612
 20
11.5121
 10
-395.699
 20
11.1391
 10
-395.6616
 20
10.7535
 10
-395.6492
 20
10.3553
 10
-395.6614
 20
9.9742
 10
-395.6981
 20
9.6018
 10
-395.7592
 20
9.2381
 10
-395.8448
 20
8.883
 10
-395.9549
 20
8.5364
 10
-396.0894
 20
8.1984
 10
-396.2485
 20
7.8689
 10
-396.4321
 20
7.5479
 10
-396.6406
 20
7.2398
 10
-396.8736
 20
6.9483
 10
-397.1309
 20
6.6736
 10
-397.4126
 20
6.4155
 10
-397.7187
 20
6.1741
 10
-398.0491
 20
5.9495
 10
-398.4039
 20
5.7416
 10
-398.783
 20
5.5504
 10
-399.1878
 20
5.379
 10
-399.6189
 20
5.2306
 10
-400.0762
 20
5.105
 10
-400.5598
 20
5.0022
 10
-401.0696
 20
4.9224
 10
-401.6056
 20
4.8653
 10
-402.1678
 20
4.8311
 10
-402.7563
 20
4.8197
  0
LWPOLYLINE
  5
88
330
1F
100
AcDbEntity
  8
Layer 1
 62
     7
370
    18
100
AcDbPolyline
 90
       33
 70
     1
 43
0.0
 10
-440.6718
 20
19.4014
 10
-438.8905
 20
19.2338
 10
-437.2315
 20
18.7532
 10
-435.7301
 20
17.9927
 10
-434.422
 20
16.9854
 10
-433.3427
 20
15.7647
 10
-432.5277
 20
14.3635
 10
-432.0127
 20
12.8152
 10
-431.8331
 20
11.1529
 10
-432.0127
 20
9.4906
 10
-432.5277
 20
7.9422
 10
-433.3427
 20
6.5411
 10
-434.422
 20
5.3203
 10
-435.7301
 20
4.3131
 10
-437.2315
 20
3.5525
 10
-438.8905
 20
3.0719
 10
-440.6718
 20
2.9043
 10
-442.4531
 20
3.0719
 10
-444.1122
 20
3.5525
 10
-445.6136
 20
4.3131
 10
-446.9217
 20
5.3203
 10
-448.001
 20
6.5411
 10
-448.816
 20
7.9422
 10
-449.331
 20
9.4906
 10
-449.5106
 20
11.1529
 10
-449.331
 20
12.8152
 10
-448.816
 20
14.3635
 10
-448.001
 20
15.7647
 10
-446.9217
 20
16.9854
 10
-445.6136
 20
17.9927
 10
-444.1122
 20
18.7532
 10
-442.4531
 20
19.2338
 10
-440.6718
 20
19.4014
  0
LWPOLYLINE
  5
89
330
1F
100
AcDbEntity
  8
Layer 1
 62
     7
370
    18
100
AcDbPolyline
 90
        2
 70
     0
 43
0.0
 10
-437.7893
 20
24.4893
 10
-443.5996
 20
-3.2384
  0
LWPOLYLINE
  5
8A
330
1F
100
AcDbEntity
  8
Layer 1
 62
     7
370
    18
100
AcDbPolyline
 90
      117
 70
     1
 43
0.0
 10
-763.3461
 20
-24.0871
 10
-763.3569
 20
-24.5813
 10
-763.3892
 20
-25.0685
 10
-763.443
 20
-25.5488
 10
-763.5183
 20
-26.0222
 10
-763.6151
 20
-26.4886
 10
-763.7333
 20
-26.9481
 10
-763.8729
 20
-27.4006
 10
-764.0339
 20
-27.8462
 10
-764.2132
 20
-28.2775
 10
-764.4069
 20
-28.687
 10
-764.6151
 20
-29.0749
 10
-764.8377
 20
-29.4411
 10
-765.0748
 20
-29.7855
 10
-765.3263
 20
-30.1083
 10
-765.5923
 20
-30.4093
 10
-765.8727
 20
-30.6886
 10
-767.4724
 20
-29.7718
 10
-767.2321
 20
-29.5394
 10
-767.0023
 20
-29.2878
 10
-766.783
 20
-29.017
 10
-766.5743
 20
-28.7271
 10
-766.376
 20
-28.4179
 10
-766.1883
 20
-28.0894
 10
-766.011
 20
-27.7417
 10
-765.8443
 20
-27.3746
 10
-765.693
 20
-26.9936
 10
-765.5618
 20
-26.6041
 10
-765.4508
 20
-26.2061
 10
-765.36
 20
-25.7995
 10
-765.2893
 20
-25.3843
 10
-765.2389
 20
-24.9605
 10
-765.2086
 20
-24.5281
 10
-765.1985
 20
-24.0871
 10
-765.2152
 20
-23.5338
 10
-765.2652
 20
-23.0137
 10
-765.3486
 20
-22.5267
 10
-765.4653
 20
-22.0728
 10
-765.6154
 20
-21.6521
 10
-765.7989
 20
-21.2646
 10
-766.0157
 20
-20.9102
 10
-766.2658
 20
-20.5891
 10
-766.544
 20
-20.3036
 10
-766.8449
 20
-20.0562
 10
-767.1686
 20
-19.8468
 10
-767.5151
 20
-19.6755
 10
-767.8843
 20
-19.5423
 10
-768.2763
 20
-19.4471
 10
-768.6911
 20
-19.39
 10
-769.1288
 20
-19.371
 10
-769.5665
 20
-19.3896
 10
-769.9813
 20
-19.4455
 10
-770.3734
 20
-19.5387
 10
-770.7426
 20
-19.6691
 10
-771.089
 20
-19.8367
 10
-771.4127
 20
-20.0415
 10
-771.7136
 20
-20.2835
 10
-771.9918
 20
-20.5627
 10
-772.2419
 20
-20.8824
 10
-772.4585
 20
-21.245
 10
-772.6418
 20
-21.6505
 10
-772.7917
 20
-22.099
 10
-772.9082
 20
-22.5905
 10
-772.9914
 20
-23.1249
 10
-773.0413
 20
-23.7024
 10
-773.0579
 20
-24.3229
 10
-773.0579
 20
-25.632
 10
-774.5478
 20
-25.632
 10
-782.1546
 20
-19.9737
 10
-781.3683
 20
-19.7115
 10
-781.3683
 20
-29.9293
 10
-783.164
 20
-29.9293
 10
-783.164
 20
-18.1401
 10
-781.7331
 20
-18.1401
 10
-774.1263
 20
-23.7984
 10
-774.7721
 20
-24.7152
 10
-774.7721
 20
-24.0078
 10
-774.7475
 20
-23.2086
 10
-774.6738
 20
-22.4615
 10
-774.5508
 20
-21.7663
 10
-774.3787
 20
-21.1231
 10
-774.1574
 20
-20.5319
 10
-773.8869
 20
-19.9926
 10
-773.5673
 20
-19.5051
 10
-773.1984
 20
-19.0696
 10
-772.7914
 20
-18.6859
 10
-772.3563
 20
-18.3534
 10
-771.8932
 20
-18.0721
 10
-771.4021
 20
-17.8419
 10
-770.8829
 20
-17.6629
 10
-770.3357
 20
-17.535
 10
-769.7604
 20
-17.4583
 10
-769.1571
 20
-17.4327
 10
-768.7482
 20
-17.4442
 10
-768.3499
 20
-17.4785
 10
-767.9621
 20
-17.5358
 10
-767.585
 20
-17.6161
 10
-767.2184
 20
-17.7192
 10
-766.8624
 20
-17.8454
 10
-766.5169
 20
-17.9945
 10
-766.182
 20
-18.1666
 10
-765.8607
 20
-18.3615
 10
-765.557
 20
-18.5798
 10
-765.2709
 20
-18.8214
 10
-765.0024
 20
-19.0864
 10
-764.7515
 20
-19.3747
 10
-764.5181
 20
-19.6864
 10
-764.3024
 20
-20.0214
 10
-764.1041
 20
-20.3797
 10
-763.9265
 20
-20.7614
 10
-763.7725
 20
-21.1664
 10
-763.6422
 20
-21.5949
 10
-763.5356
 20
-22.0467
 10
-763.4527
 20
-22.5218
 10
-763.3935
 20
-23.0202
 10
-763.3579
 20
-23.542
 10
-763.3461
 20
-24.0871
  0
LWPOLYLINE
  5
8B
330
1F
100
AcDbEntity
  8
Layer 1
 62
     7
370
    18
100
AcDbPolyline
 90
      180
 70
     1
 43
0.0
 10
-783.3328
 20
-9.0759
 10
-783.3146
 20
-8.4787
 10
-783.26
 20
-7.9051
 10
-783.1689
 20
-7.3553
 10
-783.0415
 20
-6.8293
 10
-782.8777
 20
-6.3269
 10
-782.6775
 20
-5.8483
 10
-782.441
 20
-5.3935
 10
-782.1681
 20
-4.9625
 10
-781.8611
 20
-4.5561
 10
-781.5219
 20
-4.175
 10
-781.1507
 20
-3.8193
 10
-780.7474
 20
-3.489
 10
-780.312
 20
-3.184
 10
-779.8446
 20
-2.9045
 10
-779.345
 20
-2.6503
 10
-778.8134
 20
-2.4215
 10
-778.2517
 20
-2.2189
 10
-777.661
 20
-2.0432
 10
-777.0413
 20
-1.8946
 10
-776.3927
 20
-1.7729
 10
-775.7151
 20
-1.6783
 10
-775.0086
 20
-1.6107
 10
-774.2732
 20
-1.5701
 10
-773.5089
 20
-1.5566
 10
-772.6967
 20
-1.5732
 10
-771.9171
 20
-1.623
 10
-771.17
 20
-1.706
 10
-770.4555
 20
-1.8221
 10
-769.7735
 20
-1.9714
 10
-769.124
 20
-2.1539
 10
-768.5069
 20
-2.3695
 10
-767.9222
 20
-2.6182
 10
-767.3713
 20
-2.8964
 10
-766.8554
 20
-3.2003
 10
-766.3746
 20
-3.53
 10
-765.9289
 20
-3.8855
 10
-765.5183
 20
-4.2668
 10
-765.1428
 20
-4.6738
 10
-764.8024
 20
-5.1066
 10
-764.4972
 20
-5.5652
 10
-764.2275
 20
-6.0461
 10
-763.9938
 20
-6.5458
 10
-763.7959
 20
-7.0644
 10
-763.634
 20
-7.6018
 10
-763.5081
 20
-8.1581
 10
-763.4181
 20
-8.7331
 10
-763.3641
 20
-9.3271
 10
-763.3461
 20
-9.9398
 10
-763.3501
 20
-10.246
 10
-763.362
 20
-10.5485
 10
-763.3818
 20
-10.8472
 10
-763.4096
 20
-11.1422
 10
-763.4451
 20
-11.4335
 10
-763.4886
 20
-11.7211
 10
-763.5398
 20
-12.005
 10
-763.5988
 20
-12.2852
 10
-763.6669
 20
-12.56
 10
-763.7446
 20
-12.8279
 10
-763.8318
 20
-13.0887
 10
-763.9288
 20
-13.3426
 10
-764.0354
 20
-13.5895
 10
-764.1517
 20
-13.8296
 10
-764.2777
 20
-14.0627
 10
-764.4134
 20
-14.289
 10
-766.0415
 20
-13.5298
 10
-765.9196
 20
-13.3494
 10
-765.8069
 20
-13.162
 10
-765.7036
 20
-12.9676
 10
-765.6095
 20
-12.7663
 10
-765.5247
 20
-12.558
 10
-765.4491
 20
-12.3428
 10
-765.3827
 20
-12.1208
 10
-765.3254
 20
-11.8918
 10
-765.276
 20
-11.6584
 10
-765.2332
 20
-11.4229
 10
-765.197
 20
-11.1853
 10
-765.1674
 20
-10.9457
 10
-765.1443
 20
-10.7039
 10
-765.1279
 20
-10.4601
 10
-765.118
 20
-10.2142
 10
-765.1147
 20
-9.9662
 10
-765.1463
 20
-9.2449
 10
-765.2411
 20
-8.5607
 10
-765.399
 20
-7.9138
 10
-765.6201
 20
-7.3041
 10
-765.9044
 20
-6.7315
 10
-766.2518
 20
-6.1962
 10
-766.6623
 20
-5.6982
 10
-767.1359
 20
-5.2374
 10
-767.6722
 20
-4.8229
 10
-768.2709
 20
-4.4638
 10
-768.9319
 20
-4.1599
 10
-769.6552
 20
-3.9113
 10
-770.4408
 20
-3.7179
 10
-771.2887
 20
-3.5799
 10
-772.1988
 20
-3.497
 10
-773.1712
 20
-3.4694
 10
-774.7155
 20
-3.535
 10
-774.9402
 20
-3.5539
 10
-775.1648
 20
-3.5782
 10
-775.3894
 20
-3.6078
 10
-775.6139
 20
-3.6428
 10
-775.8385
 20
-3.6832
 10
-776.063
 20
-3.7289
 10
-776.2877
 20
-3.78
 10
-776.5124
 20
-3.8364
 10
-775.9787
 20
-3.1808
 10
-775.6205
 20
-3.2558
 10
-775.276
 20
-3.3491
 10
-774.9451
 20
-3.4608
 10
-774.6278
 20
-3.5908
 10
-774.3242
 20
-3.7391
 10
-774.0342
 20
-3.9058
 10
-773.7579
 20
-4.0908
 10
-773.4953
 20
-4.2942
 10
-773.2464
 20
-4.5133
 10
-773.0129
 20
-4.7447
 10
-772.7947
 20
-4.9883
 10
-772.592
 20
-5.2442
 10
-772.4047
 20
-5.5123
 10
-772.2328
 20
-5.7927
 10
-772.0763
 20
-6.0852
 10
-771.9352
 20
-6.39
 10
-771.8105
 20
-6.7056
 10
-771.7024
 20
-7.0296
 10
-771.6109
 20
-7.3623
 10
-771.536
 20
-7.7035
 10
-771.4777
 20
-8.0532
 10
-771.436
 20
-8.4116
 10
-771.411
 20
-8.7785
 10
-771.4027
 20
-9.1541
 10
-771.4141
 20
-9.5998
 10
-771.4482
 20
-10.0327
 10
-771.5051
 20
-10.4528
 10
-771.5848
 20
-10.8603
 10
-771.6873
 20
-11.2551
 10
-771.8128
 20
-11.6371
 10
-771.9611
 20
-12.0066
 10
-772.1323
 20
-12.3634
 10
-772.3238
 20
-12.7043
 10
-772.5338
 20
-13.0259
 10
-772.7623
 20
-13.3281
 10
-773.0092
 20
-13.6112
 10
-773.2747
 20
-13.875
 10
-773.5586
 20
-14.1195
 10
-773.861
 20
-14.3449
 10
-774.1819
 20
-14.5512
 10
-774.5194
 20
-14.7353
 10
-774.8717
 20
-14.8948
 10
-775.2389
 20
-15.0299
 10
-775.6209
 20
-15.1404
 10
-776.0178
 20
-15.2263
 10
-776.4297
 20
-15.2878
 10
-776.8567
 20
-15.3246
 10
-777.2986
 20
-15.3369
 10
-777.7538
 20
-15.3242
 10
-778.1932
 20
-15.2861
 10
-778.6168
 20
-15.2227
 10
-779.0246
 20
-15.1339
 10
-779.4166
 20
-15.0197
 10
-779.7929
 20
-14.8801
 10
-780.1534
 20
-14.7151
 10
-780.4982
 20
-14.5248
 10
-780.8257
 20
-14.3122
 10
-781.1342
 20
-14.0803
 10
-781.4239
 20
-13.8292
 10
-781.6947
 20
-13.5589
 10
-781.9467
 20
-13.2693
 10
-782.1798
 20
-12.9605
 10
-782.3941
 20
-12.6325
 10
-782.5896
 20
-12.2852
 10
-782.7637
 20
-11.9228
 10
-782.9146
 20
-11.5492
 10
-783.0423
 20
-11.1646
 10
-783.1469
 20
-10.769
 10
-783.2282
 20
-10.3623
 10
-783.2863
 20
-9.9445
 10
-783.3212
 20
-9.5157
 10
-783.3328
 20
-9.0759
  0
LWPOLYLINE
  5
8C
330
1F
100
AcDbEntity
  8
Layer 1
 62
     7
370
    18
100
AcDbPolyline
 90
       89
 70
     1
 43
0.0
 10
-781.6209
 20
-8.9966
 10
-781.6128
 20
-9.3194
 10
-781.5884
 20
-9.6328
 10
-781.5478
 20
-9.9368
 10
-781.4911
 20
-10.2314
 10
-781.4181
 20
-10.5165
 10
-781.3289
 20
-10.7923
 10
-781.2235
 20
-11.0586
 10
-781.102
 20
-11.3155
 10
-780.9652
 20
-11.5609
 10
-780.8148
 20
-11.7929
 10
-780.6508
 20
-12.0113
 10
-780.4733
 20
-12.2163
 10
-780.2823
 20
-12.4077
 10
-780.0777
 20
-12.5855
 10
-779.8596
 20
-12.7499
 10
-779.628
 20
-12.9006
 10
-779.3836
 20
-13.0356
 10
-779.1277
 20
-13.1526
 10
-778.8605
 20
-13.2516
 10
-778.582
 20
-13.3327
 10
-778.2921
 20
-13.3958
 10
-777.9908
 20
-13.4408
 10
-777.6782
 20
-13.4679
 10
-777.3542
 20
-13.4769
 10
-776.8822
 20
-13.4575
 10
-776.4348
 20
-13.3992
 10
-776.012
 20
-13.302
 10
-775.6138
 20
-13.1659
 10
-775.2402
 20
-12.9909
 10
-774.8912
 20
-12.777
 10
-774.5667
 20
-12.5241
 10
-774.2668
 20
-12.2323
 10
-773.9971
 20
-11.9077
 10
-773.7632
 20
-11.5555
 10
-773.5652
 20
-11.1758
 10
-773.4031
 20
-10.7687
 10
-773.2769
 20
-10.3342
 10
-773.1868
 20
-9.8723
 10
-773.1326
 20
-9.383
 10
-773.1146
 20
-8.8665
 10
-773.1234
 20
-8.5183
 10
-773.1497
 20
-8.1811
 10
-773.1936
 20
-7.855
 10
-773.2551
 20
-7.5399
 10
-773.3342
 20
-7.2358
 10
-773.431
 20
-6.9428
 10
-773.5455
 20
-6.6609
 10
-773.6777
 20
-6.39
 10
-773.8245
 20
-6.1321
 10
-773.9845
 20
-5.889
 10
-774.1576
 20
-5.6606
 10
-774.3439
 20
-5.447
 10
-774.5433
 20
-5.248
 10
-774.756
 20
-5.0638
 10
-774.9818
 20
-4.8943
 10
-775.2208
 20
-4.7394
 10
-775.4699
 20
-4.6015
 10
-775.726
 20
-4.4819
 10
-775.9891
 20
-4.3806
 10
-776.2593
 20
-4.2978
 10
-776.5365
 20
-4.2333
 10
-776.8209
 20
-4.1873
 10
-777.1123
 20
-4.1596
 10
-777.4108
 20
-4.1504
 10
-777.6822
 20
-4.159
 10
-777.9493
 20
-4.1847
 10
-778.212
 20
-4.2276
 10
-778.4703
 20
-4.2877
 10
-778.7241
 20
-4.365
 10
-778.9736
 20
-4.4596
 10
-779.2186
 20
-4.5713
 10
-779.4592
 20
-4.7003
 10
-779.6924
 20
-4.8461
 10
-779.9147
 20
-5.0082
 10
-780.1259
 20
-5.1867
 10
-780.3261
 20
-5.3815
 10
-780.5153
 20
-5.5927
 10
-780.6935
 20
-5.8203
 10
-780.8608
 20
-6.0642
 10
-781.0171
 20
-6.3245
 10
-781.1585
 20
-6.6015
 10
-781.2811
 20
-6.8947
 10
-781.3849
 20
-7.2043
 10
-781.4698
 20
-7.5301
 10
-781.5359
 20
-7.8722
 10
-781.5831
 20
-8.2307
 10
-781.6115
 20
-8.6055
 10
-781.6209
 20
-8.9966
  0
LWPOLYLINE
  5
8D
330
1F
100
AcDbEntity
  8
Layer 1
 62
     7
370
    18
100
AcDbPolyline
 90
       97
 70
     1
 43
0.0
 10
-763.3461
 20
8.4773
 10
-763.3647
 20
7.9541
 10
-763.4207
 20
7.4456
 10
-763.5139
 20
6.9518
 10
-763.6444
 20
6.4727
 10
-763.8122
 20
6.0085
 10
-764.0172
 20
5.559
 10
-764.2596
 20
5.1243
 10
-764.5392
 20
4.7045
 10
-764.8537
 20
4.3028
 10
-765.2007
 20
3.9233
 10
-765.5801
 20
3.5659
 10
-765.992
 20
3.2307
 10
-766.4364
 20
2.9176
 10
-766.9132
 20
2.6265
 10
-767.4225
 20
2.3576
 10
-767.9641
 20
2.1106
 10
-768.5362
 20
1.8897
 10
-769.1367
 20
1.6982
 10
-769.7658
 20
1.5361
 10
-770.4234
 20
1.4035
 10
-771.1094
 20
1.3002
 10
-771.824
 20
1.2264
 10
-772.5672
 20
1.1822
 10
-773.3389
 20
1.1674
 10
-774.111
 20
1.1822
 10
-774.8546
 20
1.2264
 10
-775.5696
 20
1.3002
 10
-776.256
 20
1.4035
 10
-776.9139
 20
1.5361
 10
-777.5432
 20
1.6982
 10
-778.1439
 20
1.8897
 10
-778.716
 20
2.1106
 10
-779.2576
 20
2.3576
 10
-779.7667
 20
2.6265
 10
-780.2433
 20
2.9176
 10
-780.6875
 20
3.2307
 10
-781.0992
 20
3.5659
 10
-781.4785
 20
3.9233
 10
-781.8254
 20
4.3028
 10
-782.1398
 20
4.7045
 10
-782.4194
 20
5.1243
 10
-782.6618
 20
5.559
 10
-782.8668
 20
6.0085
 10
-783.0346
 20
6.4727
 10
-783.1651
 20
6.9518
 10
-783.2582
 20
7.4456
 10
-783.3142
 20
7.9541
 10
-783.3328
 20
8.4773
 10
-783.3142
 20
9.0002
 10
-783.2582
 20
9.5084
 10
-783.1651
 20
10.0021
 10
-783.0346
 20
10.481
 10
-782.8668
 20
10.9452
 10
-782.6618
 20
11.3947
 10
-782.4194
 20
11.8294
 10
-782.1398
 20
12.2492
 10
-781.8254
 20
12.6511
 10
-781.4785
 20
13.0312
 10
-781.0992
 20
13.3895
 10
-780.6875
 20
13.7261
 10
-780.2433
 20
14.041
 10
-779.7667
 20
14.3342
 10
-779.2576
 20
14.6058
 10
-778.716
 20
14.8557
 10
-778.1439
 20
15.0799
 10
-777.5432
 20
15.2742
 10
-776.9139
 20
15.4387
 10
-776.256
 20
15.5733
 10
-775.5696
 20
15.678
 10
-774.8546
 20
15.7528
 10
-774.111
 20
15.7977
 10
-773.3389
 20
15.8127
 10
-772.5672
 20
15.7977
 10
-771.824
 20
15.7528
 10
-771.1094
 20
15.678
 10
-770.4234
 20
15.5733
 10
-769.7658
 20
15.4387
 10
-769.1367
 20
15.2742
 10
-768.5362
 20
15.0799
 10
-767.9641
 20
14.8557
 10
-767.4225
 20
14.6058
 10
-766.9132
 20
14.3342
 10
-766.4364
 20
14.041
 10
-765.992
 20
13.7261
 10
-765.5801
 20
13.3895
 10
-765.2007
 20
13.0312
 10
-764.8537
 20
12.6511
 10
-764.5392
 20
12.2492
 10
-764.2596
 20
11.8294
 10
-764.0172
 20
11.3947
 10
-763.8122
 20
10.9452
 10
-763.6444
 20
10.481
 10
-763.5139
 20
10.0021
 10
-763.4207
 20
9.5084
 10
-763.3647
 20
9.0002
 10
-763.3461
 20
8.4773
  0
LWPOLYLINE
  5
8E
330
1F
100
AcDbEntity
  8
Layer 1
 62
     7
370
    18
100
AcDbPolyline
 90
       97
 70
     1
 43
0.0
 10
-765.1985
 20
8.4773
 10
-765.2132
 20
8.8768
 10
-765.2573
 20
9.2631
 10
-765.3309
 20
9.6362
 10
-765.4338
 20
9.9963
 10
-765.566
 20
10.3433
 10
-765.7277
 20
10.6772
 10
-765.9186
 20
10.998
 10
-766.1389
 20
11.3059
 10
-766.3878
 20
11.5991
 10
-766.6638
 20
11.8759
 10
-766.967
 20
12.1364
 10
-767.2972
 20
12.3804
 10
-767.6546
 20
12.6081
 10
-768.0392
 20
12.8193
 10
-768.4509
 20
13.0141
 10
-768.8898
 20
13.1924
 10
-769.3556
 20
13.3519
 10
-769.8472
 20
13.4902
 10
-770.3646
 20
13.6072
 10
-770.9079
 20
13.703
 10
-771.4769
 20
13.7775
 10
-772.0718
 20
13.8308
 10
-772.6924
 20
13.8627
 10
-773.3389
 20
13.8734
 10
-773.9861
 20
13.8627
 10
-774.6074
 20
13.8308
 10
-775.2026
 20
13.7775
 10
-775.7718
 20
13.703
 10
-776.3151
 20
13.6072
 10
-776.8324
 20
13.4902
 10
-777.3238
 20
13.3519
 10
-777.7892
 20
13.1924
 10
-778.2281
 20
13.0141
 10
-778.6399
 20
12.8193
 10
-779.0246
 20
12.6081
 10
-779.3822
 20
12.3804
 10
-779.7125
 20
12.1364
 10
-780.0156
 20
11.8759
 10
-780.2915
 20
11.5991
 10
-780.5401
 20
11.3059
 10
-780.7604
 20
10.998
 10
-780.9513
 20
10.6772
 10
-781.1129
 20
10.3433
 10
-781.2452
 20
9.9963
 10
-781.3481
 20
9.6362
 10
-781.4216
 20
9.2631
 10
-781.4657
 20
8.8768
 10
-781.4804
 20
8.4773
 10
-781.4657
 20
8.0896
 10
-781.4216
 20
7.7126
 10
-781.3481
 20
7.3462
 10
-781.2452
 20
6.9905
 10
-781.1129
 20
6.6454
 10
-780.9513
 20
6.3109
 10
-780.7604
 20
5.9872
 10
-780.5401
 20
5.6741
 10
-780.2915
 20
5.3746
 10
-780.0156
 20
5.0924
 10
-779.7125
 20
4.8274
 10
-779.3822
 20
4.5797
 10
-779.0246
 20
4.3492
 10
-778.6399
 20
4.136
 10
-778.2281
 20
3.94
 10
-777.7892
 20
3.7612
 10
-777.3238
 20
3.6017
 10
-776.8324
 20
3.4634
 10
-776.3151
 20
3.3464
 10
-775.7718
 20
3.2506
 10
-775.2026
 20
3.1761
 10
-774.6074
 20
3.1228
 10
-773.9861
 20
3.0909
 10
-773.3389
 20
3.0802
 10
-772.6924
 20
3.0909
 10
-772.0718
 20
3.1228
 10
-771.4769
 20
3.1761
 10
-770.9079
 20
3.2506
 10
-770.3646
 20
3.3464
 10
-769.8472
 20
3.4634
 10
-769.3556
 20
3.6017
 10
-768.8898
 20
3.7612
 10
-768.4509
 20
3.94
 10
-768.0392
 20
4.136
 10
-767.6546
 20
4.3492
 10
-767.2972
 20
4.5797
 10
-766.967
 20
4.8274
 10
-766.6638
 20
5.0924
 10
-766.3878
 20
5.3746
 10
-766.1389
 20
5.6741
 10
-765.9186
 20
5.9872
 10
-765.7277
 20
6.3109
 10
-765.566
 20
6.6454
 10
-765.4338
 20
6.9905
 10
-765.3309
 20
7.3462
 10
-765.2573
 20
7.7126
 10
-765.2132
 20
8.0896
 10
-765.1985
 20
8.4773
  0
LWPOLYLINE
  5
8F
330
1F
100
AcDbEntity
  8
Layer 1
 62
     7
370
    18
100
AcDbPolyline
 90
      131
 70
     1
 43
0.0
 10
-509.7607
 20
166.136
 10
-510.282
 20
166.146
 10
-510.7973
 20
166.176
 10
-511.3066
 20
166.2261
 10
-511.8099
 20
166.2961
 10
-512.3072
 20
166.3861
 10
-512.7983
 20
166.496
 10
-513.2834
 20
166.6259
 10
-513.7623
 20
166.7758
 10
-514.2255
 20
166.9423
 10
-514.6643
 20
167.1223
 10
-515.0786
 20
167.3158
 10
-515.4686
 20
167.5228
 10
-515.834
 20
167.7433
 10
-516.1751
 20
167.9772
 10
-516.4917
 20
168.2247
 10
-516.7839
 20
168.4856
 10
-515.8039
 20
169.9745
 10
-515.5625
 20
169.7509
 10
-515.2996
 20
169.5371
 10
-515.0153
 20
169.3331
 10
-514.7096
 20
169.1388
 10
-514.3825
 20
168.9544
 10
-514.034
 20
168.7798
 10
-513.6641
 20
168.615
 10
-513.2729
 20
168.4602
 10
-512.8663
 20
168.3193
 10
-512.4514
 20
168.1973
 10
-512.0282
 20
168.0941
 10
-511.5968
 20
168.0096
 10
-511.1571
 20
167.944
 10
-510.7092
 20
167.8971
 10
-510.2531
 20
167.869
 10
-509.789
 20
167.8596
 10
-509.1848
 20
167.8757
 10
-508.6179
 20
167.924
 10
-508.0882
 20
168.0046
 10
-507.5957
 20
168.1174
 10
-507.1405
 20
168.2623
 10
-506.7225
 20
168.4396
 10
-506.3417
 20
168.649
 10
-505.9981
 20
168.8906
 10
-505.693
 20
169.1584
 10
-505.4285
 20
169.4461
 10
-505.2048
 20
169.754
 10
-505.0217
 20
170.0818
 10
-504.8794
 20
170.4297
 10
-504.7777
 20
170.7976
 10
-504.7166
 20
171.1855
 10
-504.6963
 20
171.5934
 10
-504.7057
 20
171.8818
 10
-504.7339
 20
172.16
 10
-504.7809
 20
172.4281
 10
-504.8467
 20
172.6861
 10
-504.9313
 20
172.9339
 10
-505.0347
 20
173.1715
 10
-505.1569
 20
173.399
 10
-505.2979
 20
173.6162
 10
-505.4612
 20
173.8224
 10
-505.6503
 20
174.0169
 10
-505.8653
 20
174.1995
 10
-506.106
 20
174.3703
 10
-506.3726
 20
174.5292
 10
-506.6649
 20
174.6763
 10
-506.9831
 20
174.8115
 10
-507.3271
 20
174.9348
 10
-507.7002
 20
175.0452
 10
-508.1065
 20
175.1408
 10
-508.5462
 20
175.2217
 10
-509.0192
 20
175.2879
 10
-509.5255
 20
175.3393
 10
-510.0652
 20
175.376
 10
-510.6383
 20
175.3981
 10
-511.2449
 20
175.4054
 10
-515.413
 20
175.4054
 10
-514.4058
 20
184.5701
 10
-503.6891
 20
184.5701
 10
-503.6891
 20
182.8993
 10
-513.5946
 20
182.8993
 10
-512.5591
 20
183.813
 10
-513.427
 20
176.1361
 10
-514.4614
 20
177.0761
 10
-510.7951
 20
177.0761
 10
-510.0721
 20
177.0655
 10
-509.3858
 20
177.0337
 10
-508.7363
 20
176.9806
 10
-508.1235
 20
176.9064
 10
-507.5475
 20
176.8109
 10
-507.0083
 20
176.6943
 10
-506.5058
 20
176.5564
 10
-506.04
 20
176.3973
 10
-505.6078
 20
176.2192
 10
-505.2066
 20
176.0244
 10
-504.8366
 20
175.8128
 10
-504.4976
 20
175.5845
 10
-504.1897
 20
175.3395
 10
-503.9129
 20
175.0779
 10
-503.6671
 20
174.7995
 10
-503.4523
 20
174.5045
 10
-503.2651
 20
174.1945
 10
-503.103
 20
173.8718
 10
-502.9659
 20
173.5366
 10
-502.8538
 20
173.1888
 10
-502.7667
 20
172.8284
 10
-502.7044
 20
172.4554
 10
-502.6671
 20
172.0698
 10
-502.6547
 20
171.6716
 10
-502.6669
 20
171.2905
 10
-502.7036
 20
170.9181
 10
-502.7647
 20
170.5544
 10
-502.8503
 20
170.1993
 10
-502.9604
 20
169.8527
 10
-503.0949
 20
169.5147
 10
-503.254
 20
169.1852
 10
-503.4376
 20
168.8642
 10
-503.6457
 20
168.5561
 10
-503.8784
 20
168.2646
 10
-504.1355
 20
167.9899
 10
-504.417
 20
167.7318
 10
-504.723
 20
167.4904
 10
-505.0534
 20
167.2658
 10
-505.4082
 20
167.0579
 10
-505.7873
 20
166.8667
 10
-506.1921
 20
166.6953
 10
-506.6232
 20
166.5469
 10
-507.0806
 20
166.4213
 10
-507.5641
 20
166.3185
 10
-508.0739
 20
166.2387
 10
-508.6099
 20
166.1816
 10
-509.1722
 20
166.1474
 10
-509.7607
 20
166.136
  0
LWPOLYLINE
  5
90
330
1F
100
AcDbEntity
  8
Layer 1
 62
     7
370
    18
100
AcDbPolyline
 90
      183
 70
     1
 43
0.0
 10
-494.009
 20
184.7266
 10
-493.3712
 20
184.7097
 10
-492.7588
 20
184.659
 10
-492.1718
 20
184.5744
 10
-491.6101
 20
184.4559
 10
-491.0737
 20
184.3035
 10
-490.5627
 20
184.1172
 10
-490.0769
 20
183.8969
 10
-489.6165
 20
183.6427
 10
-489.1826
 20
183.357
 10
-488.7756
 20
183.0415
 10
-488.3955
 20
182.6963
 10
-488.0425
 20
182.3213
 10
-487.7166
 20
181.9165
 10
-487.4178
 20
181.4819
 10
-487.1462
 20
181.0175
 10
-486.9019
 20
180.5233
 10
-486.6856
 20
180.0007
 10
-486.4981
 20
179.4511
 10
-486.3394
 20
178.8746
 10
-486.2095
 20
178.2711
 10
-486.1085
 20
177.6408
 10
-486.0363
 20
176.9835
 10
-485.9929
 20
176.2993
 10
-485.9785
 20
175.5883
 10
-485.9962
 20
174.8329
 10
-486.0493
 20
174.1078
 10
-486.1377
 20
173.413
 10
-486.2616
 20
172.7483
 10
-486.4209
 20
172.1139
 10
-486.6157
 20
171.5098
 10
-486.8458
 20
170.9358
 10
-487.1115
 20
170.3921
 10
-487.4087
 20
169.8795
 10
-487.7335
 20
169.3996
 10
-488.0858
 20
168.9523
 10
-488.4657
 20
168.5378
 10
-488.873
 20
168.1559
 10
-489.3079
 20
167.8067
 10
-489.7702
 20
167.4901
 10
-490.26
 20
167.2061
 10
-490.7736
 20
166.9552
 10
-491.3073
 20
166.7378
 10
-491.8612
 20
166.5539
 10
-492.4352
 20
166.4034
 10
-493.0293
 20
166.2864
 10
-493.6436
 20
166.2028
 10
-494.2779
 20
166.1527
 10
-494.9324
 20
166.136
 10
-495.2589
 20
166.1397
 10
-495.5816
 20
166.1507
 10
-495.9004
 20
166.169
 10
-496.2154
 20
166.1947
 10
-496.5264
 20
166.2277
 10
-496.8336
 20
166.2681
 10
-497.1369
 20
166.3158
 10
-497.4362
 20
166.3708
 10
-497.7295
 20
166.434
 10
-498.0155
 20
166.5062
 10
-498.2941
 20
166.5874
 10
-498.5654
 20
166.6776
 10
-498.8293
 20
166.7767
 10
-499.0857
 20
166.8848
 10
-499.3348
 20
167.0019
 10
-499.5764
 20
167.1279
 10
-498.7652
 20
168.6421
 10
-498.5725
 20
168.529
 10
-498.3724
 20
168.4244
 10
-498.1649
 20
168.3284
 10
-497.95
 20
168.241
 10
-497.7277
 20
168.1621
 10
-497.4979
 20
168.0918
 10
-497.2607
 20
168.0301
 10
-497.0159
 20
167.977
 10
-496.7667
 20
167.931
 10
-496.5152
 20
167.8911
 10
-496.2615
 20
167.8575
 10
-496.0056
 20
167.83
 10
-495.7474
 20
167.8087
 10
-495.4871
 20
167.7935
 10
-495.2244
 20
167.7844
 10
-494.9596
 20
167.7814
 10
-494.1892
 20
167.8107
 10
-493.4587
 20
167.8988
 10
-492.7679
 20
168.0455
 10
-492.1169
 20
168.251
 10
-491.5057
 20
168.5152
 10
-490.9341
 20
168.8382
 10
-490.4022
 20
169.2199
 10
-489.9099
 20
169.6604
 10
-489.4674
 20
170.1596
 10
-489.0838
 20
170.7166
 10
-488.7592
 20
171.3315
 10
-488.4936
 20
172.0042
 10
-488.287
 20
172.7348
 10
-488.1394
 20
173.5234
 10
-488.0508
 20
174.3698
 10
-488.0213
 20
175.2743
 10
-488.0256
 20
175.5895
 10
-488.0384
 20
175.9341
 10
-488.06
 20
176.308
 10
-488.0904
 20
176.7113
 10
-488.1107
 20
176.9199
 10
-488.1367
 20
177.1286
 10
-488.1685
 20
177.3374
 10
-488.206
 20
177.5463
 10
-488.2492
 20
177.7552
 10
-488.2982
 20
177.9641
 10
-488.3529
 20
178.173
 10
-488.4133
 20
178.382
 10
-487.7131
 20
177.8861
 10
-487.793
 20
177.553
 10
-487.8924
 20
177.2324
 10
-488.0115
 20
176.9245
 10
-488.1503
 20
176.6292
 10
-488.3087
 20
176.3466
 10
-488.4869
 20
176.0766
 10
-488.6849
 20
175.8193
 10
-488.9027
 20
175.5746
 10
-489.1366
 20
175.3435
 10
-489.3837
 20
175.1267
 10
-489.6439
 20
174.9242
 10
-489.9172
 20
174.7361
 10
-490.2036
 20
174.5622
 10
-490.5032
 20
174.4025
 10
-490.8158
 20
174.2571
 10
-491.1415
 20
174.1259
 10
-491.4783
 20
174.0096
 10
-491.8242
 20
173.9088
 10
-492.1794
 20
173.8235
 10
-492.5437
 20
173.7538
 10
-492.9171
 20
173.6996
 10
-493.2998
 20
173.6609
 10
-493.6917
 20
173.6377
 10
-494.0928
 20
173.63
 10
-494.5687
 20
173.6406
 10
-495.0309
 20
173.6724
 10
-495.4796
 20
173.7255
 10
-495.9148
 20
173.7997
 10
-496.3364
 20
173.8952
 10
-496.7445
 20
174.0118
 10
-497.139
 20
174.1497
 10
-497.5201
 20
174.3088
 10
-497.8841
 20
174.4871
 10
-498.2275
 20
174.6825
 10
-498.5504
 20
174.8951
 10
-498.8527
 20
175.1248
 10
-499.1346
 20
175.3715
 10
-499.396
 20
175.6354
 10
-499.6369
 20
175.9163
 10
-499.8574
 20
176.2143
 10
-500.0542
 20
176.5282
 10
-500.2247
 20
176.8559
 10
-500.369
 20
177.1975
 10
-500.487
 20
177.5529
 10
-500.5789
 20
177.9221
 10
-500.6444
 20
178.3052
 10
-500.6838
 20
178.702
 10
-500.6969
 20
179.1127
 10
-500.6833
 20
179.5363
 10
-500.6426
 20
179.9452
 10
-500.5747
 20
180.3394
 10
-500.4797
 20
180.7188
 10
-500.3576
 20
181.0835
 10
-500.2085
 20
181.4335
 10
-500.0323
 20
181.7688
 10
-499.8291
 20
182.0894
 10
-499.6017
 20
182.3939
 10
-499.3539
 20
182.681
 10
-499.0855
 20
182.9505
 10
-498.7966
 20
183.2026
 10
-498.4873
 20
183.4371
 10
-498.1574
 20
183.654
 10
-497.8071
 20
183.8533
 10
-497.4362
 20
184.035
 10
-497.0492
 20
184.1971
 10
-496.6503
 20
184.3376
 10
-496.2395
 20
184.4565
 10
-495.817
 20
184.5537
 10
-495.3826
 20
184.6294
 10
-494.9365
 20
184.6834
 10
-494.4786
 20
184.7158
 10
-494.009
 20
184.7266
  0
LWPOLYLINE
  5
91
330
1F
100
AcDbEntity
  8
Layer 1
 62
     7
370
    18
100
AcDbPolyline
 90
       89
 70
     1
 43
0.0
 10
-493.9252
 20
183.1341
 10
-494.2698
 20
183.1266
 10
-494.6043
 20
183.104
 10
-494.9288
 20
183.0662
 10
-495.2432
 20
183.0134
 10
-495.5476
 20
182.9455
 10
-495.842
 20
182.8625
 10
-496.1263
 20
182.7643
 10
-496.4007
 20
182.6509
 10
-496.6628
 20
182.524
 10
-496.9105
 20
182.3843
 10
-497.1438
 20
182.2318
 10
-497.3626
 20
182.0668
 10
-497.567
 20
181.889
 10
-497.7569
 20
181.6987
 10
-497.9324
 20
181.4958
 10
-498.0934
 20
181.2804
 10
-498.2376
 20
181.0531
 10
-498.3625
 20
180.8151
 10
-498.4683
 20
180.5666
 10
-498.5548
 20
180.3075
 10
-498.6221
 20
180.0378
 10
-498.6701
 20
179.7576
 10
-498.699
 20
179.4669
 10
-498.7086
 20
179.1656
 10
-498.6878
 20
178.7265
 10
-498.6255
 20
178.3103
 10
-498.5217
 20
177.9169
 10
-498.3764
 20
177.5463
 10
-498.1895
 20
177.1986
 10
-497.961
 20
176.8737
 10
-497.6911
 20
176.5717
 10
-497.3796
 20
176.2926
 10
-497.0327
 20
176.0417
 10
-496.6567
 20
175.8243
 10
-496.2513
 20
175.6403
 10
-495.8167
 20
175.4899
 10
-495.3527
 20
175.3729
 10
-494.8594
 20
175.2893
 10
-494.3368
 20
175.2392
 10
-493.7847
 20
175.2225
 10
-493.4129
 20
175.2307
 10
-493.0531
 20
175.2552
 10
-492.705
 20
175.296
 10
-492.3688
 20
175.3532
 10
-492.0443
 20
175.4267
 10
-491.7317
 20
175.5164
 10
-491.4307
 20
175.6225
 10
-491.1415
 20
175.7448
 10
-490.866
 20
175.8814
 10
-490.6063
 20
176.0303
 10
-490.3624
 20
176.1914
 10
-490.1343
 20
176.3649
 10
-489.9218
 20
176.5505
 10
-489.7251
 20
176.7484
 10
-489.544
 20
176.9585
 10
-489.3786
 20
177.1808
 10
-489.2312
 20
177.4125
 10
-489.1035
 20
177.6507
 10
-488.9954
 20
177.8955
 10
-488.907
 20
178.1468
 10
-488.8382
 20
178.4046
 10
-488.7891
 20
178.669
 10
-488.7596
 20
178.9399
 10
-488.7498
 20
179.2174
 10
-488.7589
 20
179.47
 10
-488.7864
 20
179.7184
 10
-488.8321
 20
179.9629
 10
-488.8962
 20
180.2032
 10
-488.9787
 20
180.4395
 10
-489.0795
 20
180.6717
 10
-489.1988
 20
180.8998
 10
-489.3366
 20
181.1239
 10
-489.4923
 20
181.3405
 10
-489.6655
 20
181.547
 10
-489.8561
 20
181.7433
 10
-490.0642
 20
181.9296
 10
-490.2897
 20
182.1056
 10
-490.5327
 20
182.2715
 10
-490.7932
 20
182.4271
 10
-491.0712
 20
182.5726
 10
-491.3668
 20
182.7042
 10
-491.6798
 20
182.8182
 10
-492.0104
 20
182.9147
 10
-492.3584
 20
182.9937
 10
-492.724
 20
183.0551
 10
-493.1069
 20
183.099
 10
-493.5073
 20
183.1253
 10
-493.9252
 20
183.1341
  0
LWPOLYLINE
  5
92
330
1F
100
AcDbEntity
  8
Layer 1
 62
     7
370
    18
100
AcDbPolyline
 90
       97
 70
     1
 43
0.0
 10
-475.2629
 20
166.136
 10
-475.8214
 20
166.1533
 10
-476.3644
 20
166.2054
 10
-476.8916
 20
166.2921
 10
-477.4031
 20
166.4135
 10
-477.8989
 20
166.5695
 10
-478.379
 20
166.7601
 10
-478.8433
 20
166.9854
 10
-479.2918
 20
167.2453
 10
-479.7209
 20
167.5379
 10
-480.1263
 20
167.8607
 10
-480.5079
 20
168.2136
 10
-480.8659
 20
168.5968
 10
-481.2002
 20
169.0101
 10
-481.511
 20
169.4536
 10
-481.7982
 20
169.9273
 10
-482.0619
 20
170.4313
 10
-482.2981
 20
170.9636
 10
-482.5027
 20
171.5223
 10
-482.6758
 20
172.1076
 10
-482.8174
 20
172.7194
 10
-482.9276
 20
173.3577
 10
-483.0062
 20
174.0225
 10
-483.0534
 20
174.7139
 10
-483.0691
 20
175.4318
 10
-483.0534
 20
176.1494
 10
-483.0062
 20
176.8407
 10
-482.9276
 20
177.5054
 10
-482.8174
 20
178.1437
 10
-482.6758
 20
178.7555
 10
-482.5027
 20
179.3407
 10
-482.2981
 20
179.8993
 10
-482.0619
 20
180.4313
 10
-481.7982
 20
180.9353
 10
-481.511
 20
181.409
 10
-481.2002
 20
181.8525
 10
-480.8659
 20
182.2658
 10
-480.5079
 20
182.6489
 10
-480.1263
 20
183.0019
 10
-479.7209
 20
183.3247
 10
-479.2918
 20
183.6173
 10
-478.8433
 20
183.8772
 10
-478.379
 20
184.1025
 10
-477.8989
 20
184.2931
 10
-477.4031
 20
184.4492
 10
-476.8916
 20
184.5705
 10
-476.3644
 20
184.6572
 10
-475.8214
 20
184.7093
 10
-475.2629
 20
184.7266
 10
-474.704
 20
184.7093
 10
-474.161
 20
184.6572
 10
-473.6338
 20
184.5705
 10
-473.1223
 20
184.4492
 10
-472.6266
 20
184.2931
 10
-472.1467
 20
184.1025
 10
-471.6825
 20
183.8772
 10
-471.2341
 20
183.6173
 10
-470.8051
 20
183.3247
 10
-470.3992
 20
183.0019
 10
-470.0165
 20
182.6489
 10
-469.657
 20
182.2658
 10
-469.3206
 20
181.8525
 10
-469.0074
 20
181.409
 10
-468.7173
 20
180.9353
 10
-468.4504
 20
180.4313
 10
-468.211
 20
179.8993
 10
-468.0036
 20
179.3407
 10
-467.8282
 20
178.7555
 10
-467.6847
 20
178.1437
 10
-467.5731
 20
177.5054
 10
-467.4933
 20
176.8407
 10
-467.4455
 20
176.1494
 10
-467.4296
 20
175.4318
 10
-467.4455
 20
174.7139
 10
-467.4933
 20
174.0225
 10
-467.5731
 20
173.3577
 10
-467.6847
 20
172.7194
 10
-467.8282
 20
172.1076
 10
-468.0036
 20
171.5223
 10
-468.211
 20
170.9636
 10
-468.4504
 20
170.4313
 10
-468.7173
 20
169.9273
 10
-469.0074
 20
169.4536
 10
-469.3206
 20
169.0101
 10
-469.657
 20
168.5968
 10
-470.0165
 20
168.2136
 10
-470.3992
 20
167.8607
 10
-470.8051
 20
167.5379
 10
-471.2341
 20
167.2453
 10
-471.6825
 20
166.9854
 10
-472.1467
 20
166.7601
 10
-472.6266
 20
166.5695
 10
-473.1223
 20
166.4135
 10
-473.6338
 20
166.2921
 10
-474.161
 20
166.2054
 10
-474.704
 20
166.1533
 10
-475.2629
 20
166.136
  0
LWPOLYLINE
  5
93
330
1F
100
AcDbEntity
  8
Layer 1
 62
     7
370
    18
100
AcDbPolyline
 90
       97
 70
     1
 43
0.0
 10
-475.2629
 20
167.8596
 10
-474.8361
 20
167.8732
 10
-474.4234
 20
167.9142
 10
-474.0247
 20
167.9824
 10
-473.6399
 20
168.078
 10
-473.2692
 20
168.2009
 10
-472.9126
 20
168.3512
 10
-472.5699
 20
168.5289
 10
-472.2413
 20
168.7341
 10
-471.9284
 20
168.9653
 10
-471.6329
 20
169.2218
 10
-471.3549
 20
169.5037
 10
-471.0943
 20
169.811
 10
-470.8512
 20
170.1435
 10
-470.6256
 20
170.5014
 10
-470.4175
 20
170.8846
 10
-470.2269
 20
171.2931
 10
-470.0564
 20
171.7262
 10
-469.9087
 20
172.1833
 10
-469.7837
 20
172.6645
 10
-469.6814
 20
173.1697
 10
-469.6018
 20
173.6991
 10
-469.545
 20
174.2525
 10
-469.5109
 20
174.8301
 10
-469.4995
 20
175.4318
 10
-469.5109
 20
176.0333
 10
-469.545
 20
176.6107
 10
-469.6018
 20
177.1641
 10
-469.6814
 20
177.6934
 10
-469.7837
 20
178.1986
 10
-469.9087
 20
178.6797
 10
-470.0564
 20
179.1367
 10
-470.2269
 20
179.5695
 10
-470.4175
 20
179.978
 10
-470.6256
 20
180.3612
 10
-470.8512
 20
180.719
 10
-471.0943
 20
181.0516
 10
-471.3549
 20
181.3589
 10
-471.6329
 20
181.6408
 10
-471.9284
 20
181.8973
 10
-472.2413
 20
182.1285
 10
-472.5699
 20
182.3337
 10
-472.9126
 20
182.5115
 10
-473.2692
 20
182.662
 10
-473.6399
 20
182.7851
 10
-474.0247
 20
182.8809
 10
-474.4234
 20
182.9493
 10
-474.8361
 20
182.9903
 10
-475.2629
 20
183.004
 10
-475.6767
 20
182.9903
 10
-476.0792
 20
182.9493
 10
-476.4706
 20
182.8809
 10
-476.8506
 20
182.7851
 10
-477.2194
 20
182.662
 10
-477.5768
 20
182.5115
 10
-477.9228
 20
182.3337
 10
-478.2574
 20
182.1285
 10
-478.5767
 20
181.8973
 10
-478.8776
 20
181.6408
 10
-479.1603
 20
181.3589
 10
-479.4248
 20
181.0516
 10
-479.6708
 20
180.719
 10
-479.8986
 20
180.3612
 10
-480.108
 20
179.978
 10
-480.299
 20
179.5695
 10
-480.4695
 20
179.1367
 10
-480.6172
 20
178.6797
 10
-480.7422
 20
178.1986
 10
-480.8445
 20
177.6934
 10
-480.924
 20
177.1641
 10
-480.9808
 20
176.6107
 10
-481.0149
 20
176.0333
 10
-481.0263
 20
175.4318
 10
-481.0149
 20
174.8301
 10
-480.9808
 20
174.2525
 10
-480.924
 20
173.6991
 10
-480.8445
 20
173.1697
 10
-480.7422
 20
172.6645
 10
-480.6172
 20
172.1833
 10
-480.4695
 20
171.7262
 10
-480.299
 20
171.2931
 10
-480.108
 20
170.8846
 10
-479.8986
 20
170.5014
 10
-479.6708
 20
170.1435
 10
-479.4248
 20
169.811
 10
-479.1603
 20
169.5037
 10
-478.8776
 20
169.2218
 10
-478.5767
 20
168.9653
 10
-478.2574
 20
168.7341
 10
-477.9228
 20
168.5289
 10
-477.5768
 20
168.3512
 10
-477.2194
 20
168.2009
 10
-476.8506
 20
168.078
 10
-476.4706
 20
167.9824
 10
-476.0792
 20
167.9142
 10
-475.6767
 20
167.8732
 10
-475.2629
 20
167.8596
  0
LWPOLYLINE
  5
94
330
1F
100
AcDbEntity
  8
Layer 1
 62
     7
370
    18
100
AcDbPolyline
 90
      117
 70
     1
 43
0.0
 10
-198.1502
 20
-24.0871
 10
-198.161
 20
-24.5813
 10
-198.1933
 20
-25.0685
 10
-198.2471
 20
-25.5488
 10
-198.3224
 20
-26.0222
 10
-198.4192
 20
-26.4886
 10
-198.5374
 20
-26.9481
 10
-198.6769
 20
-27.4006
 10
-198.8379
 20
-27.8462
 10
-199.0172
 20
-28.2775
 10
-199.211
 20
-28.687
 10
-199.4191
 20
-29.0749
 10
-199.6418
 20
-29.4411
 10
-199.8788
 20
-29.7855
 10
-200.1303
 20
-30.1083
 10
-200.3963
 20
-30.4093
 10
-200.6767
 20
-30.6886
 10
-202.2765
 20
-29.7718
 10
-202.0362
 20
-29.5394
 10
-201.8064
 20
-29.2878
 10
-201.5871
 20
-29.017
 10
-201.3783
 20
-28.7271
 10
-201.18
 20
-28.4179
 10
-200.9923
 20
-28.0894
 10
-200.8151
 20
-27.7417
 10
-200.6484
 20
-27.3746
 10
-200.4971
 20
-26.9936
 10
-200.3659
 20
-26.6041
 10
-200.2549
 20
-26.2061
 10
-200.1641
 20
-25.7995
 10
-200.0934
 20
-25.3843
 10
-200.043
 20
-24.9605
 10
-200.0127
 20
-24.5281
 10
-200.0026
 20
-24.0871
 10
-200.0193
 20
-23.5338
 10
-200.0693
 20
-23.0137
 10
-200.1527
 20
-22.5267
 10
-200.2694
 20
-22.0728
 10
-200.4195
 20
-21.6521
 10
-200.603
 20
-21.2646
 10
-200.8198
 20
-20.9102
 10
-201.0699
 20
-20.5891
 10
-201.3481
 20
-20.3036
 10
-201.649
 20
-20.0562
 10
-201.9727
 20
-19.8468
 10
-202.3191
 20
-19.6755
 10
-202.6883
 20
-19.5423
 10
-203.0804
 20
-19.4471
 10
-203.4952
 20
-19.39
 10
-203.9329
 20
-19.371
 10
-204.3709
 20
-19.3896
 10
-204.7861
 20
-19.4455
 10
-205.1783
 20
-19.5387
 10
-205.5477
 20
-19.6691
 10
-205.8942
 20
-19.8367
 10
-206.2179
 20
-20.0415
 10
-206.5188
 20
-20.2835
 10
-206.797
 20
-20.5627
 10
-207.0471
 20
-20.8824
 10
-207.2638
 20
-21.245
 10
-207.447
 20
-21.6505
 10
-207.5969
 20
-22.099
 10
-207.7135
 20
-22.5905
 10
-207.7967
 20
-23.1249
 10
-207.8466
 20
-23.7024
 10
-207.8632
 20
-24.3229
 10
-207.8632
 20
-25.632
 10
-209.3519
 20
-25.632
 10
-216.9598
 20
-19.9737
 10
-216.1723
 20
-19.7115
 10
-216.1723
 20
-29.9293
 10
-217.9692
 20
-29.9293
 10
-217.9692
 20
-18.1401
 10
-216.5383
 20
-18.1401
 10
-208.9304
 20
-23.7984
 10
-209.5762
 20
-24.7152
 10
-209.5762
 20
-24.0078
 10
-209.5516
 20
-23.2086
 10
-209.4779
 20
-22.4615
 10
-209.3549
 20
-21.7663
 10
-209.1829
 20
-21.1231
 10
-208.9617
 20
-20.5319
 10
-208.6914
 20
-19.9926
 10
-208.3721
 20
-19.5051
 10
-208.0036
 20
-19.0696
 10
-207.5966
 20
-18.6859
 10
-207.1615
 20
-18.3534
 10
-206.6984
 20
-18.0721
 10
-206.2071
 20
-17.8419
 10
-205.6878
 20
-17.6629
 10
-205.1404
 20
-17.535
 10
-204.5649
 20
-17.4583
 10
-203.9612
 20
-17.4327
 10
-203.5523
 20
-17.4442
 10
-203.154
 20
-17.4785
 10
-202.7662
 20
-17.5358
 10
-202.3891
 20
-17.6161
 10
-202.0225
 20
-17.7192
 10
-201.6665
 20
-17.8454
 10
-201.321
 20
-17.9945
 10
-200.986
 20
-18.1666
 10
-200.6647
 20
-18.3615
 10
-200.361
 20
-18.5798
 10
-200.075
 20
-18.8214
 10
-199.8065
 20
-19.0864
 10
-199.5556
 20
-19.3747
 10
-199.3222
 20
-19.6864
 10
-199.1065
 20
-20.0214
 10
-198.9082
 20
-20.3797
 10
-198.7306
 20
-20.7614
 10
-198.5766
 20
-21.1664
 10
-198.4463
 20
-21.5949
 10
-198.3397
 20
-22.0467
 10
-198.2568
 20
-22.5218
 10
-198.1976
 20
-23.0202
 10
-198.162
 20
-23.542
 10
-198.1502
 20
-24.0871
  0
LWPOLYLINE
  5
95
330
1F
100
AcDbEntity
  8
Layer 1
 62
     7
370
    18
100
AcDbPolyline
 90
        9
 70
     1
 43
0.0
 10
-203.4842
 20
-15.1011
 10
-204.9435
 20
-15.1011
 10
-217.9692
 20
-5.3813
 10
-217.9692
 20
-3.2854
 10
-204.9435
 20
-12.927
 10
-205.2811
 20
-13.9485
 10
-205.2811
 20
0.8004
 10
-203.4842
 20
0.8004
 10
-203.4842
 20
-15.1011
  0
LWPOLYLINE
  5
96
330
1F
100
AcDbEntity
  8
Layer 1
 62
     7
370
    18
100
AcDbPolyline
 90
        7
 70
     1
 43
0.0
 10
-198.319
 20
-4.7531
 10
-203.4842
 20
-4.7531
 10
-205.2811
 20
-4.7003
 10
-209.8289
 20
-4.7003
 10
-209.8289
 20
-2.8667
 10
-198.319
 20
-2.8667
 10
-198.319
 20
-4.7531
  0
LWPOLYLINE
  5
97
330
1F
100
AcDbEntity
  8
Layer 1
 62
     7
370
    18
100
AcDbPolyline
 90
       97
 70
     1
 43
0.0
 10
-198.1502
 20
9.8393
 10
-198.1688
 20
9.3161
 10
-198.2248
 20
8.8076
 10
-198.318
 20
8.3138
 10
-198.4485
 20
7.8347
 10
-198.6162
 20
7.3704
 10
-198.8213
 20
6.9209
 10
-199.0636
 20
6.4862
 10
-199.3432
 20
6.0664
 10
-199.6577
 20
5.6647
 10
-200.0047
 20
5.2852
 10
-200.3842
 20
4.9278
 10
-200.7961
 20
4.5926
 10
-201.2405
 20
4.2795
 10
-201.7173
 20
3.9885
 10
-202.2266
 20
3.7195
 10
-202.7682
 20
3.4726
 10
-203.3403
 20
3.2517
 10
-203.941
 20
3.0602
 10
-204.5702
 20
2.8981
 10
-205.228
 20
2.7654
 10
-205.9143
 20
2.6621
 10
-206.6291
 20
2.5884
 10
-207.3723
 20
2.5441
 10
-208.1441
 20
2.5293
 10
-208.9159
 20
2.5441
 10
-209.6592
 20
2.5884
 10
-210.374
 20
2.6621
 10
-211.0603
 20
2.7654
 10
-211.718
 20
2.8981
 10
-212.3473
 20
3.0602
 10
-212.948
 20
3.2517
 10
-213.5201
 20
3.4726
 10
-214.0617
 20
3.7195
 10
-214.5708
 20
3.9885
 10
-215.0475
 20
4.2795
 10
-215.4918
 20
4.5926
 10
-215.9036
 20
4.9278
 10
-216.2831
 20
5.2852
 10
-216.6302
 20
5.6647
 10
-216.945
 20
6.0664
 10
-217.2246
 20
6.4862
 10
-217.467
 20
6.9209
 10
-217.672
 20
7.3704
 10
-217.8398
 20
7.8347
 10
-217.9703
 20
8.3138
 10
-218.0634
 20
8.8076
 10
-218.1194
 20
9.3161
 10
-218.138
 20
9.8393
 10
-218.1194
 20
10.3622
 10
-218.0634
 20
10.8704
 10
-217.9703
 20
11.3641
 10
-217.8398
 20
11.843
 10
-217.672
 20
12.3072
 10
-217.467
 20
12.7566
 10
-217.2246
 20
13.1913
 10
-216.945
 20
13.6111
 10
-216.6302
 20
14.013
 10
-216.2831
 20
14.3931
 10
-215.9036
 20
14.7515
 10
-215.4918
 20
15.0881
 10
-215.0475
 20
15.403
 10
-214.5708
 20
15.6962
 10
-214.0617
 20
15.9678
 10
-213.5201
 20
16.2177
 10
-212.948
 20
16.4419
 10
-212.3473
 20
16.6362
 10
-211.718
 20
16.8007
 10
-211.0603
 20
16.9353
 10
-210.374
 20
17.0399
 10
-209.6592
 20
17.1147
 10
-208.9159
 20
17.1596
 10
-208.1441
 20
17.1746
 10
-207.3723
 20
17.1596
 10
-206.6291
 20
17.1147
 10
-205.9143
 20
17.0399
 10
-205.228
 20
16.9353
 10
-204.5702
 20
16.8007
 10
-203.941
 20
16.6362
 10
-203.3403
 20
16.4419
 10
-202.7682
 20
16.2177
 10
-202.2266
 20
15.9678
 10
-201.7173
 20
15.6962
 10
-201.2405
 20
15.403
 10
-200.7961
 20
15.0881
 10
-200.3842
 20
14.7515
 10
-200.0047
 20
14.3931
 10
-199.6577
 20
14.013
 10
-199.3432
 20
13.6111
 10
-199.0636
 20
13.1913
 10
-198.8213
 20
12.7566
 10
-198.6162
 20
12.3072
 10
-198.4485
 20
11.843
 10
-198.318
 20
11.3641
 10
-198.2248
 20
10.8704
 10
-198.1688
 20
10.3622
 10
-198.1502
 20
9.8393
  0
LWPOLYLINE
  5
98
330
1F
100
AcDbEntity
  8
Layer 1
 62
     7
370
    18
100
AcDbPolyline
 90
       97
 70
     1
 43
0.0
 10
-200.0026
 20
9.8393
 10
-200.0173
 20
10.2388
 10
-200.0614
 20
10.6251
 10
-200.135
 20
10.9982
 10
-200.2379
 20
11.3583
 10
-200.3701
 20
11.7053
 10
-200.5318
 20
12.0392
 10
-200.7227
 20
12.36
 10
-200.943
 20
12.6679
 10
-201.1919
 20
12.9611
 10
-201.4679
 20
13.2379
 10
-201.7711
 20
13.4983
 10
-202.1013
 20
13.7424
 10
-202.4587
 20
13.97
 10
-202.8432
 20
14.1812
 10
-203.2549
 20
14.376
 10
-203.6938
 20
14.5544
 10
-204.1597
 20
14.7139
 10
-204.6514
 20
14.8522
 10
-205.1691
 20
14.9692
 10
-205.7125
 20
15.065
 10
-206.2818
 20
15.1395
 10
-206.8768
 20
15.1927
 10
-207.4976
 20
15.2246
 10
-208.1441
 20
15.2353
 10
-208.791
 20
15.2246
 10
-209.4119
 20
15.1927
 10
-210.0069
 20
15.1395
 10
-210.576
 20
15.065
 10
-211.1192
 20
14.9692
 10
-211.6365
 20
14.8522
 10
-212.1279
 20
14.7139
 10
-212.5933
 20
14.5544
 10
-213.0322
 20
14.376
 10
-213.444
 20
14.1812
 10
-213.8287
 20
13.97
 10
-214.1862
 20
13.7424
 10
-214.5166
 20
13.4983
 10
-214.8197
 20
13.2379
 10
-215.0955
 20
12.9611
 10
-215.3441
 20
12.6679
 10
-215.5644
 20
12.36
 10
-215.7554
 20
12.0392
 10
-215.917
 20
11.7053
 10
-216.0493
 20
11.3583
 10
-216.1522
 20
10.9982
 10
-216.2257
 20
10.6251
 10
-216.2698
 20
10.2388
 10
-216.2845
 20
9.8393
 10
-216.2698
 20
9.4516
 10
-216.2257
 20
9.0746
 10
-216.1522
 20
8.7082
 10
-216.0493
 20
8.3524
 10
-215.917
 20
8.0073
 10
-215.7554
 20
7.6729
 10
-215.5644
 20
7.3491
 10
-215.3441
 20
7.0361
 10
-215.0955
 20
6.7366
 10
-214.8197
 20
6.4544
 10
-214.5166
 20
6.1894
 10
-214.1862
 20
5.9417
 10
-213.8287
 20
5.7112
 10
-213.444
 20
5.4979
 10
-213.0322
 20
5.3019
 10
-212.5933
 20
5.1232
 10
-212.1279
 20
4.9637
 10
-211.6365
 20
4.8254
 10
-211.1192
 20
4.7084
 10
-210.576
 20
4.6126
 10
-210.0069
 20
4.5381
 10
-209.4119
 20
4.4848
 10
-208.791
 20
4.4529
 10
-208.1441
 20
4.4422
 10
-207.4976
 20
4.4529
 10
-206.8768
 20
4.4848
 10
-206.2818
 20
4.5381
 10
-205.7125
 20
4.6126
 10
-205.1691
 20
4.7084
 10
-204.6514
 20
4.8254
 10
-204.1597
 20
4.9637
 10
-203.6938
 20
5.1232
 10
-203.2549
 20
5.3019
 10
-202.8432
 20
5.4979
 10
-202.4587
 20
5.7112
 10
-202.1013
 20
5.9417
 10
-201.7711
 20
6.1894
 10
-201.4679
 20
6.4544
 10
-201.1919
 20
6.7366
 10
-200.943
 20
7.0361
 10
-200.7227
 20
7.3491
 10
-200.5318
 20
7.6729
 10
-200.3701
 20
8.0073
 10
-200.2379
 20
8.3524
 10
-200.135
 20
8.7082
 10
-200.0614
 20
9.0746
 10
-200.0173
 20
9.4516
 10
-200.0026
 20
9.8393
  0
LWPOLYLINE
  5
99
330
1F
100
AcDbEntity
  8
Layer 1
 62
     7
370
    18
100
AcDbPolyline
 90
      131
 70
     1
 43
0.0
 10
-509.7607
 20
-197.4622
 10
-510.282
 20
-197.4522
 10
-510.7973
 20
-197.4222
 10
-511.3066
 20
-197.3721
 10
-511.8099
 20
-197.3021
 10
-512.3072
 20
-197.2122
 10
-512.7983
 20
-197.1022
 10
-513.2834
 20
-196.9723
 10
-513.7623
 20
-196.8225
 10
-514.2255
 20
-196.656
 10
-514.6643
 20
-196.4759
 10
-515.0786
 20
-196.2824
 10
-515.4686
 20
-196.0754
 10
-515.834
 20
-195.855
 10
-516.1751
 20
-195.621
 10
-516.4917
 20
-195.3735
 10
-516.7839
 20
-195.1126
 10
-515.8039
 20
-193.6238
 10
-515.5625
 20
-193.8473
 10
-515.2996
 20
-194.0612
 10
-515.0153
 20
-194.2652
 10
-514.7096
 20
-194.4594
 10
-514.3825
 20
-194.6439
 10
-514.034
 20
-194.8184
 10
-513.6641
 20
-194.9832
 10
-513.2729
 20
-195.138
 10
-512.8663
 20
-195.2789
 10
-512.4514
 20
-195.4009
 10
-512.0282
 20
-195.5042
 10
-511.5968
 20
-195.5886
 10
-511.1571
 20
-195.6542
 10
-510.7092
 20
-195.7011
 10
-510.2531
 20
-195.7292
 10
-509.789
 20
-195.7386
 10
-509.1848
 20
-195.7225
 10
-508.6179
 20
-195.6742
 10
-508.0882
 20
-195.5936
 10
-507.5957
 20
-195.4809
 10
-507.1405
 20
-195.3359
 10
-506.7225
 20
-195.1587
 10
-506.3417
 20
-194.9493
 10
-505.9981
 20
-194.7076
 10
-505.693
 20
-194.4399
 10
-505.4285
 20
-194.1521
 10
-505.2048
 20
-193.8443
 10
-505.0217
 20
-193.5165
 10
-504.8794
 20
-193.1686
 10
-504.7777
 20
-192.8007
 10
-504.7166
 20
-192.4128
 10
-504.6963
 20
-192.0049
 10
-504.7057
 20
-191.7165
 10
-504.7339
 20
-191.4383
 10
-504.7809
 20
-191.1701
 10
-504.8467
 20
-190.9122
 10
-504.9313
 20
-190.6643
 10
-505.0347
 20
-190.4267
 10
-505.1569
 20
-190.1992
 10
-505.2979
 20
-189.982
 10
-505.4612
 20
-189.7758
 10
-505.6503
 20
-189.5813
 10
-505.8653
 20
-189.3987
 10
-506.106
 20
-189.2279
 10
-506.3726
 20
-189.069
 10
-506.6649
 20
-188.9219
 10
-506.9831
 20
-188.7867
 10
-507.3271
 20
-188.6634
 10
-507.7002
 20
-188.553
 10
-508.1065
 20
-188.4574
 10
-508.5462
 20
-188.3765
 10
-509.0192
 20
-188.3104
 10
-509.5255
 20
-188.259
 10
-510.0652
 20
-188.2223
 10
-510.6383
 20
-188.2002
 10
-511.2449
 20
-188.1929
 10
-515.413
 20
-188.1929
 10
-514.4058
 20
-179.0282
 10
-503.6891
 20
-179.0282
 10
-503.6891
 20
-180.6989
 10
-513.5946
 20
-180.6989
 10
-512.5591
 20
-179.7853
 10
-513.427
 20
-187.4622
 10
-514.4614
 20
-186.5221
 10
-510.7951
 20
-186.5221
 10
-510.0721
 20
-186.5327
 10
-509.3858
 20
-186.5645
 10
-508.7363
 20
-186.6176
 10
-508.1235
 20
-186.6918
 10
-507.5475
 20
-186.7873
 10
-507.0083
 20
-186.904
 10
-506.5058
 20
-187.0419
 10
-506.04
 20
-187.201
 10
-505.6078
 20
-187.3791
 10
-505.2066
 20
-187.5739
 10
-504.8366
 20
-187.7855
 10
-504.4976
 20
-188.0138
 10
-504.1897
 20
-188.2588
 10
-503.9129
 20
-188.5204
 10
-503.6671
 20
-188.7988
 10
-503.4523
 20
-189.0938
 10
-503.2651
 20
-189.4038
 10
-503.103
 20
-189.7265
 10
-502.9659
 20
-190.0617
 10
-502.8538
 20
-190.4095
 10
-502.7667
 20
-190.7699
 10
-502.7044
 20
-191.1429
 10
-502.6671
 20
-191.5285
 10
-502.6547
 20
-191.9266
 10
-502.6669
 20
-192.3077
 10
-502.7036
 20
-192.6801
 10
-502.7647
 20
-193.0438
 10
-502.8503
 20
-193.3989
 10
-502.9604
 20
-193.7455
 10
-503.0949
 20
-194.0835
 10
-503.254
 20
-194.413
 10
-503.4376
 20
-194.7341
 10
-503.6457
 20
-195.0422
 10
-503.8784
 20
-195.3336
 10
-504.1355
 20
-195.6084
 10
-504.417
 20
-195.8665
 10
-504.723
 20
-196.1078
 10
-505.0534
 20
-196.3325
 10
-505.4082
 20
-196.5404
 10
-505.7873
 20
-196.7316
 10
-506.1921
 20
-196.9029
 10
-506.6232
 20
-197.0514
 10
-507.0806
 20
-197.177
 10
-507.5641
 20
-197.2797
 10
-508.0739
 20
-197.3595
 10
-508.6099
 20
-197.4166
 10
-509.1722
 20
-197.4508
 10
-509.7607
 20
-197.4622
  0
LWPOLYLINE
  5
9A
330
1F
100
AcDbEntity
  8
Layer 1
 62
     7
370
    18
100
AcDbPolyline
 90
        9
 70
     1
 43
0.0
 10
-500.4443
 20
-192.5008
 10
-500.4443
 20
-191.1431
 10
-490.064
 20
-179.0282
 10
-487.8253
 20
-179.0282
 10
-498.1217
 20
-191.1431
 10
-499.2127
 20
-190.8301
 10
-483.4611
 20
-190.8301
 10
-483.4611
 20
-192.5008
 10
-500.4443
 20
-192.5008
  0
LWPOLYLINE
  5
9B
330
1F
100
AcDbEntity
  8
Layer 1
 62
     7
370
    18
100
AcDbPolyline
 90
        7
 70
     1
 43
0.0
 10
-489.3933
 20
-197.3057
 10
-489.3933
 20
-192.5008
 10
-489.3366
 20
-190.8301
 10
-489.3366
 20
-186.6004
 10
-487.3777
 20
-186.6004
 10
-487.3777
 20
-197.3057
 10
-489.3933
 20
-197.3057
  0
LWPOLYLINE
  5
9C
330
1F
100
AcDbEntity
  8
Layer 1
 62
     7
370
    18
100
AcDbPolyline
 90
       97
 70
     1
 43
0.0
 10
-473.8082
 20
-197.4622
 10
-474.3667
 20
-197.4449
 10
-474.9094
 20
-197.3928
 10
-475.4365
 20
-197.3061
 10
-475.9479
 20
-197.1848
 10
-476.4437
 20
-197.0288
 10
-476.9237
 20
-196.8381
 10
-477.3882
 20
-196.6129
 10
-477.837
 20
-196.353
 10
-478.2661
 20
-196.0604
 10
-478.6715
 20
-195.7376
 10
-479.0531
 20
-195.3846
 10
-479.4111
 20
-195.0015
 10
-479.7455
 20
-194.5881
 10
-480.0562
 20
-194.1446
 10
-480.3434
 20
-193.6709
 10
-480.6071
 20
-193.167
 10
-480.8433
 20
-192.6347
 10
-481.0479
 20
-192.0759
 10
-481.2211
 20
-191.4906
 10
-481.3627
 20
-190.8788
 10
-481.4728
 20
-190.2405
 10
-481.5514
 20
-189.5757
 10
-481.5986
 20
-188.8843
 10
-481.6143
 20
-188.1664
 10
-481.5986
 20
-187.4488
 10
-481.5514
 20
-186.7576
 10
-481.4728
 20
-186.0928
 10
-481.3627
 20
-185.4545
 10
-481.2211
 20
-184.8427
 10
-481.0479
 20
-184.2575
 10
-480.8433
 20
-183.6989
 10
-480.6071
 20
-183.1669
 10
-480.3434
 20
-182.663
 10
-480.0562
 20
-182.1893
 10
-479.7455
 20
-181.7458
 10
-479.4111
 20
-181.3324
 10
-479.0531
 20
-180.9493
 10
-478.6715
 20
-180.5963
 10
-478.2661
 20
-180.2735
 10
-477.837
 20
-179.9809
 10
-477.3882
 20
-179.721
 10
-476.9237
 20
-179.4958
 10
-476.4437
 20
-179.3051
 10
-475.9479
 20
-179.1491
 10
-475.4365
 20
-179.0278
 10
-474.9094
 20
-178.9411
 10
-474.3667
 20
-178.889
 10
-473.8082
 20
-178.8717
 10
-473.2493
 20
-178.889
 10
-472.7063
 20
-178.9411
 10
-472.179
 20
-179.0278
 10
-471.6676
 20
-179.1491
 10
-471.1719
 20
-179.3051
 10
-470.692
 20
-179.4958
 10
-470.2278
 20
-179.721
 10
-469.7794
 20
-179.9809
 10
-469.3504
 20
-180.2735
 10
-468.9445
 20
-180.5963
 10
-468.5618
 20
-180.9493
 10
-468.2023
 20
-181.3324
 10
-467.8659
 20
-181.7458
 10
-467.5526
 20
-182.1893
 10
-467.2625
 20
-182.663
 10
-466.9956
 20
-183.1669
 10
-466.7562
 20
-183.6989
 10
-466.5488
 20
-184.2575
 10
-466.3734
 20
-184.8427
 10
-466.2299
 20
-185.4545
 10
-466.1183
 20
-186.0928
 10
-466.0385
 20
-186.7576
 10
-465.9907
 20
-187.4488
 10
-465.9748
 20
-188.1664
 10
-465.9907
 20
-188.8843
 10
-466.0385
 20
-189.5757
 10
-466.1183
 20
-190.2405
 10
-466.2299
 20
-190.8788
 10
-466.3734
 20
-191.4906
 10
-466.5488
 20
-192.0759
 10
-466.7562
 20
-192.6347
 10
-466.9956
 20
-193.167
 10
-467.2625
 20
-193.6709
 10
-467.5526
 20
-194.1446
 10
-467.8659
 20
-194.5881
 10
-468.2023
 20
-195.0015
 10
-468.5618
 20
-195.3846
 10
-468.9445
 20
-195.7376
 10
-469.3504
 20
-196.0604
 10
-469.7794
 20
-196.353
 10
-470.2278
 20
-196.6129
 10
-470.692
 20
-196.8381
 10
-471.1719
 20
-197.0288
 10
-471.6676
 20
-197.1848
 10
-472.179
 20
-197.3061
 10
-472.7063
 20
-197.3928
 10
-473.2493
 20
-197.4449
 10
-473.8082
 20
-197.4622
  0
LWPOLYLINE
  5
9D
330
1F
100
AcDbEntity
  8
Layer 1
 62
     7
370
    18
100
AcDbPolyline
 90
       97
 70
     1
 43
0.0
 10
-473.8082
 20
-195.7386
 10
-473.3814
 20
-195.725
 10
-472.9687
 20
-195.684
 10
-472.5699
 20
-195.6158
 10
-472.1852
 20
-195.5202
 10
-471.8145
 20
-195.3973
 10
-471.4579
 20
-195.247
 10
-471.1152
 20
-195.0693
 10
-470.7866
 20
-194.8641
 10
-470.4737
 20
-194.6329
 10
-470.1782
 20
-194.3764
 10
-469.9002
 20
-194.0945
 10
-469.6396
 20
-193.7873
 10
-469.3965
 20
-193.4547
 10
-469.1709
 20
-193.0969
 10
-468.9627
 20
-192.7137
 10
-468.7721
 20
-192.3052
 10
-468.6016
 20
-191.8721
 10
-468.4539
 20
-191.4149
 10
-468.3289
 20
-190.9338
 10
-468.2266
 20
-190.4285
 10
-468.1471
 20
-189.8992
 10
-468.0903
 20
-189.3457
 10
-468.0562
 20
-188.7681
 10
-468.0448
 20
-188.1664
 10
-468.0562
 20
-187.565
 10
-468.0903
 20
-186.9876
 10
-468.1471
 20
-186.4342
 10
-468.2266
 20
-185.9049
 10
-468.3289
 20
-185.3996
 10
-468.4539
 20
-184.9185
 10
-468.6016
 20
-184.4615
 10
-468.7721
 20
-184.0287
 10
-468.9627
 20
-183.6202
 10
-469.1709
 20
-183.237
 10
-469.3965
 20
-182.8792
 10
-469.6396
 20
-182.5466
 10
-469.9002
 20
-182.2394
 10
-470.1782
 20
-181.9575
 10
-470.4737
 20
-181.701
 10
-470.7866
 20
-181.4698
 10
-471.1152
 20
-181.2646
 10
-471.4579
 20
-181.0867
 10
-471.8145
 20
-180.9362
 10
-472.1852
 20
-180.8131
 10
-472.5699
 20
-180.7173
 10
-472.9687
 20
-180.6489
 10
-473.3814
 20
-180.6079
 10
-473.8082
 20
-180.5942
 10
-474.2219
 20
-180.6079
 10
-474.6243
 20
-180.6489
 10
-475.0155
 20
-180.7173
 10
-475.3953
 20
-180.8131
 10
-475.7639
 20
-180.9362
 10
-476.1211
 20
-181.0867
 10
-476.467
 20
-181.2646
 10
-476.8015
 20
-181.4698
 10
-477.1212
 20
-181.701
 10
-477.4224
 20
-181.9575
 10
-477.7053
 20
-182.2394
 10
-477.9699
 20
-182.5466
 10
-478.216
 20
-182.8792
 10
-478.4438
 20
-183.237
 10
-478.6532
 20
-183.6202
 10
-478.8442
 20
-184.0287
 10
-479.0147
 20
-184.4615
 10
-479.1624
 20
-184.9185
 10
-479.2874
 20
-185.3996
 10
-479.3897
 20
-185.9049
 10
-479.4693
 20
-186.4342
 10
-479.5261
 20
-186.9876
 10
-479.5602
 20
-187.565
 10
-479.5716
 20
-188.1664
 10
-479.5602
 20
-188.7681
 10
-479.5261
 20
-189.3457
 10
-479.4693
 20
-189.8992
 10
-479.3897
 20
-190.4285
 10
-479.2874
 20
-190.9338
 10
-479.1624
 20
-191.4149
 10
-479.0147
 20
-191.8721
 10
-478.8442
 20
-192.3052
 10
-478.6532
 20
-192.7137
 10
-478.4438
 20
-193.0969
 10
-478.216
 20
-193.4547
 10
-477.9699
 20
-193.7873
 10
-477.7053
 20
-194.0945
 10
-477.4224
 20
-194.3764
 10
-477.1212
 20
-194.6329
 10
-476.8015
 20
-194.8641
 10
-476.467
 20
-195.0693
 10
-476.1211
 20
-195.247
 10
-475.7639
 20
-195.3973
 10
-475.3953
 20
-195.5202
 10
-475.0155
 20
-195.6158
 10
-474.6243
 20
-195.684
 10
-474.2219
 20
-195.725
 10
-473.8082
 20
-195.7386
  0
LWPOLYLINE
  5
9E
330
1F
100
AcDbEntity
  8
Layer 1
 62
     7
370
    18
100
AcDbPolyline
 90
        8
 70
     1
 43
0.0
 10
-974.7131
 20
-8.23
 10
-978.8757
 20
-8.23
 10
-978.6646
 20
-8.0312
 10
-978.6646
 20
-9.2551
 10
-979.062
 20
-9.2551
 10
-979.062
 20
-7.7827
 10
-974.7131
 20
-7.7827
 10
-974.7131
 20
-8.23
  0
LWPOLYLINE
  5
9F
330
1F
100
AcDbEntity
  8
Layer 1
 62
     7
370
    18
100
AcDbPolyline
 90
       89
 70
     1
 43
0.0
 10
-974.7131
 20
-6.8261
 10
-975.0303
 20
-6.8261
 10
-976.8006
 20
-5.0182
 10
-976.9181
 20
-4.9018
 10
-977.0282
 20
-4.8009
 10
-977.1308
 20
-4.7154
 10
-977.2261
 20
-4.6456
 10
-977.3165
 20
-4.5884
 10
-977.4041
 20
-4.5414
 10
-977.489
 20
-4.5045
 10
-977.5711
 20
-4.4778
 10
-977.8755
 20
-4.4342
 10
-977.9678
 20
-4.4382
 10
-978.055
 20
-4.4503
 10
-978.1371
 20
-4.4705
 10
-978.2142
 20
-4.4987
 10
-978.2862
 20
-4.535
 10
-978.3532
 20
-4.5793
 10
-978.4151
 20
-4.6317
 10
-978.472
 20
-4.6922
 10
-978.523
 20
-4.7605
 10
-978.5671
 20
-4.8364
 10
-978.6045
 20
-4.9201
 10
-978.6351
 20
-5.0114
 10
-978.6588
 20
-5.1103
 10
-978.6758
 20
-5.217
 10
-978.686
 20
-5.3313
 10
-978.6894
 20
-5.4533
 10
-978.682
 20
-5.6402
 10
-978.6599
 20
-5.8158
 10
-978.623
 20
-5.9802
 10
-978.5713
 20
-6.1333
 10
-978.5041
 20
-6.2757
 10
-978.4207
 20
-6.4075
 10
-978.321
 20
-6.5289
 10
-978.205
 20
-6.6398
 10
-978.4783
 20
-6.9565
 10
-978.5507
 20
-6.8906
 10
-978.6188
 20
-6.8202
 10
-978.6826
 20
-6.7454
 10
-978.7422
 20
-6.6661
 10
-978.7976
 20
-6.5823
 10
-978.8486
 20
-6.4941
 10
-978.8954
 20
-6.4014
 10
-978.9379
 20
-6.3043
 10
-978.9757
 20
-6.2034
 10
-979.0085
 20
-6.0997
 10
-979.0363
 20
-5.993
 10
-979.059
 20
-5.8834
 10
-979.0767
 20
-5.7709
 10
-979.0893
 20
-5.6555
 10
-979.0969
 20
-5.5371
 10
-979.0994
 20
-5.4159
 10
-979.0907
 20
-5.2027
 10
-979.0645
 20
-5.0043
 10
-979.0448
 20
-4.9106
 10
-979.0208
 20
-4.8207
 10
-978.9924
 20
-4.7344
 10
-978.9597
 20
-4.6519
 10
-978.9228
 20
-4.5734
 10
-978.8818
 20
-4.4995
 10
-978.8369
 20
-4.4301
 10
-978.7881
 20
-4.3653
 10
-978.7352
 20
-4.305
 10
-978.6784
 20
-4.2493
 10
-978.6176
 20
-4.1982
 10
-978.5528
 20
-4.1516
 10
-978.4846
 20
-4.1101
 10
-978.4134
 20
-4.0741
 10
-978.3394
 20
-4.0437
 10
-978.2624
 20
-4.0188
 10
-978.1825
 20
-3.9995
 10
-978.0997
 20
-3.9856
 10
-978.014
 20
-3.9774
 10
-977.9254
 20
-3.9746
 10
-977.5092
 20
-4.0335
 10
-977.4052
 20
-4.0689
 10
-977.2985
 20
-4.1159
 10
-977.1892
 20
-4.1746
 10
-977.0771
 20
-4.2449
 10
-976.96
 20
-4.3297
 10
-976.8356
 20
-4.432
 10
-976.7038
 20
-4.5518
 10
-976.5646
 20
-4.689
 10
-974.937
 20
-6.3477
 10
-975.111
 20
-6.472
 10
-975.111
 20
-3.7758
 10
-974.7131
 20
-3.7758
 10
-974.7131
 20
-6.8261
  0
LWPOLYLINE
  5
A0
330
1F
100
AcDbEntity
  8
Layer 1
 62
     7
370
    18
100
AcDbPolyline
 90
      113
 70
     1
 43
0.0
 10
-974.6757
 20
-1.8438
 10
-974.6852
 20
-2.074
 10
-974.7138
 20
-2.2989
 10
-974.7614
 20
-2.5183
 10
-974.8279
 20
-2.7322
 10
-974.8677
 20
-2.8351
 10
-974.9106
 20
-2.9325
 10
-974.9567
 20
-3.0245
 10
-975.006
 20
-3.1111
 10
-975.0585
 20
-3.1922
 10
-975.1142
 20
-3.268
 10
-975.1731
 20
-3.3382
 10
-975.2351
 20
-3.4031
 10
-975.5892
 20
-3.1858
 10
-975.4852
 20
-3.0737
 10
-975.3905
 20
-2.9427
 10
-975.305
 20
-2.7926
 10
-975.2289
 20
-2.6236
 10
-975.1664
 20
-2.4413
 10
-975.1217
 20
-2.2516
 10
-975.0949
 20
-2.0545
 10
-975.086
 20
-1.85
 10
-975.0898
 20
-1.7159
 10
-975.1014
 20
-1.5901
 10
-975.1206
 20
-1.4725
 10
-975.1474
 20
-1.3631
 10
-975.1819
 20
-1.262
 10
-975.2241
 20
-1.1692
 10
-975.2739
 20
-1.0846
 10
-975.3314
 20
-1.0083
 10
-975.3952
 20
-0.9406
 10
-975.4637
 20
-0.8819
 10
-975.5369
 20
-0.8323
 10
-975.6149
 20
-0.7916
 10
-975.6976
 20
-0.76
 10
-975.7851
 20
-0.7375
 10
-975.8773
 20
-0.7239
 10
-975.9743
 20
-0.7194
 10
-976.1094
 20
-0.7278
 10
-976.2346
 20
-0.7528
 10
-976.3501
 20
-0.7946
 10
-976.4558
 20
-0.8531
 10
-976.5049
 20
-0.8893
 10
-976.5511
 20
-0.9313
 10
-976.5946
 20
-0.979
 10
-976.6352
 20
-1.0325
 10
-976.673
 20
-1.0916
 10
-976.7081
 20
-1.1565
 10
-976.7403
 20
-1.2271
 10
-976.7697
 20
-1.3034
 10
-976.7959
 20
-1.3863
 10
-976.8186
 20
-1.4765
 10
-976.8378
 20
-1.5742
 10
-976.8534
 20
-1.6792
 10
-976.8743
 20
-1.9115
 10
-976.8813
 20
-2.1732
 10
-976.8813
 20
-3.0987
 10
-979.062
 20
-2.8751
 10
-979.062
 20
-0.4957
 10
-978.6646
 20
-0.4957
 10
-978.6646
 20
-2.695
 10
-978.882
 20
-2.4651
 10
-977.0553
 20
-2.6577
 10
-977.279
 20
-2.8876
 10
-977.279
 20
-2.0737
 10
-977.2765
 20
-1.9131
 10
-977.2689
 20
-1.7607
 10
-977.2563
 20
-1.6164
 10
-977.2386
 20
-1.4804
 10
-977.2159
 20
-1.3524
 10
-977.1881
 20
-1.2326
 10
-977.1553
 20
-1.121
 10
-977.1175
 20
-1.0175
 10
-977.0751
 20
-0.9216
 10
-977.0287
 20
-0.8325
 10
-976.9784
 20
-0.7504
 10
-976.9241
 20
-0.6751
 10
-976.8658
 20
-0.6067
 10
-976.8036
 20
-0.5453
 10
-976.7374
 20
-0.4907
 10
-976.6672
 20
-0.4431
 10
-976.5935
 20
-0.4016
 10
-976.5167
 20
-0.3656
 10
-976.437
 20
-0.3352
 10
-976.3542
 20
-0.3103
 10
-976.2685
 20
-0.291
 10
-976.1797
 20
-0.2771
 10
-976.088
 20
-0.2689
 10
-975.9932
 20
-0.2661
 10
-975.9025
 20
-0.2688
 10
-975.8139
 20
-0.277
 10
-975.7273
 20
-0.2905
 10
-975.6428
 20
-0.3095
 10
-975.5603
 20
-0.334
 10
-975.4799
 20
-0.3638
 10
-975.4015
 20
-0.3991
 10
-975.3252
 20
-0.4398
 10
-975.2519
 20
-0.486
 10
-975.1825
 20
-0.5377
 10
-975.1172
 20
-0.5948
 10
-975.0558
 20
-0.6573
 10
-974.9984
 20
-0.7252
 10
-974.9449
 20
-0.7986
 10
-974.8954
 20
-0.8774
 10
-974.8498
 20
-0.9616
 10
-974.809
 20
-1.0515
 10
-974.7737
 20
-1.1472
 10
-974.7438
 20
-1.2488
 10
-974.7193
 20
-1.3562
 10
-974.7002
 20
-1.4693
 10
-974.6866
 20
-1.5884
 10
-974.6784
 20
-1.7132
 10
-974.6757
 20
-1.8438
  0
ENDSEC
  0
SECTION
  2
OBJECTS
  0
DICTIONARY
  5
C
330
0
100
AcDbDictionary
281
     1
  3
ACAD_DETAILVIEWSTYLE
350
A8
  3
ACAD_GROUP
350
D
  3
ACAD_LAYOUT
350
1A
  3
ACAD_MATERIAL
350
43
  3
ACAD_MLEADERSTYLE
350
5B
  3
ACAD_MLINESTYLE
350
17
  3
ACAD_PLOTSETTINGS
350
19
  3
ACAD_PLOTSTYLENAME
350
E
  3
ACAD_SCALELIST
350
47
  3
ACAD_SECTIONVIEWSTYLE
350
A9
  3
ACAD_TABLESTYLE
350
59
  3
ACAD_VISUALSTYLE
350
2A
  3
ACDB_RECOMPOSE_DATA
350
A5
  3
AcDbVariableDictionary
350
A1
  0
SUN
  5
5D
330
29
100
AcDbSun
 90
        1
290
     0
 63
     7
421
 16777215
 40
1.0
291
     1
 91
  2455826
 92
 54000000
292
     0
 70
     2
 71
   256
280
     1
  0
DICTIONARY
  5
A8
102
{ACAD_REACTORS
330
C
102
}
330
C
100
AcDbDictionary
281
     1
  0
DICTIONARY
  5
D
102
{ACAD_REACTORS
330
C
102
}
330
C
100
AcDbDictionary
281
     1
  0
DICTIONARY
  5
1A
102
{ACAD_REACTORS
330
C
102
}
330
C
100
AcDbDictionary
281
     1
  3
Layout1
350
1E
  3
Layout2
350
26
  3
Model
350
22
  0
DICTIONARY
  5
43
102
{ACAD_REACTORS
330
C
102
}
330
C
100
AcDbDictionary
281
     1
  3
ByBlock
350
45
  3
ByLayer
350
44
  3
Global
350
46
  0
DICTIONARY
  5
5B
102
{ACAD_REACTORS
330
C
102
}
330
C
100
AcDbDictionary
281
     1
  3
Standard
350
5C
  0
DICTIONARY
  5
17
102
{ACAD_REACTORS
330
C
102
}
330
C
100
AcDbDictionary
281
     1
  3
Standard
350
18
  0
DICTIONARY
  5
19
102
{ACAD_REACTORS
330
C
102
}
330
C
100
AcDbDictionary
281
     1
  0
ACDBDICTIONARYWDFLT
  5
E
102
{ACAD_REACTORS
330
C
102
}
330
C
100
AcDbDictionary
281
     1
  3
Normal
350
F
100
AcDbDictionaryWithDefault
340
F
  0
DICTIONARY
  5
47
102
{ACAD_REACTORS
330
C
102
}
330
C
100
AcDbDictionary
281
     1
  3
A0
350
48
  3
A1
350
49
  3
A2
350
4A
  3
A3
350
4B
  3
A4
350
4C
  3
A5
350
4D
  3
A6
350
4E
  3
A7
350
4F
  3
A8
350
50
  3
A9
350
51
  3
B1
350
52
  3
B2
350
53
  3
B3
350
54
  3
B4
350
55
  3
B5
350
56
  3
B6
350
57
  3
B7
350
58
  0
DICTIONARY
  5
A9
102
{ACAD_REACTORS
330
C
102
}
330
C
100
AcDbDictionary
281
     1
  0
DICTIONARY
  5
59
102
{ACAD_REACTORS
330
C
102
}
330
C
100
AcDbDictionary
281
     1
  3
Standard
350
5A
  0
DICTIONARY
  5
2A
102
{ACAD_REACTORS
330
C
102
}
330
C
100
AcDbDictionary
281
     1
  3
2dWireframe
350
2F
  3
Basic
350
32
  3
Brighten
350
36
  3
ColorChange
350
3A
  3
Conceptual
350
34
  3
Dim
350
35
  3
EdgeColorOff
350
3D
  3
Facepattern
350
39
  3
Flat
350
2B
  3
FlatWithEdges
350
2C
  3
Gouraud
350
2D
  3
GouraudWithEdges
350
2E
  3
Hidden
350
31
  3
JitterOff
350
3B
  3
Linepattern
350
38
  3
OverhangOff
350
3C
  3
Realistic
350
33
  3
Shaded
350
42
  3
Shaded with edges
350
41
  3
Shades of Gray
350
3E
  3
Sketchy
350
3F
  3
Thicken
350
37
  3
Wireframe
350
30
  3
X-Ray
350
40
  0
XRECORD
  5
A5
102
{ACAD_REACTORS
330
C
102
}
330
C
100
AcDbXrecord
280
     1
 90
        1
330
5A
  0
DICTIONARY
  5
A1
102
{ACAD_REACTORS
330
C
102
}
330
C
100
AcDbDictionary
281
     1
  3
CANNOSCALE
350
A2
  3
CMLEADERSTYLE
350
A7
  3
CTABLESTYLE
350
A6
  0
LAYOUT
  5
1E
102
{ACAD_REACTORS
330
1A
102
}
330
1A
100
AcDbPlotSettings
  1

  2
none_device
  4

  6

 40
0.0
 41
0.0
 42
0.0
 43
0.0
 44
0.0
 45
0.0
 46
0.0
 47
0.0
 48
0.0
 49
0.0
140
0.0
141
0.0
142
1.0
143
1.0
 70
   688
 72
     0
 73
     0
 74
     5
  7

 75
    16
 76
     0
 77
     2
 78
   300
147
1.0
148
0.0
149
0.0
100
AcDbLayout
  1
Layout1
 70
     1
 71
     1
 10
0.0
 20
0.0
 11
12.0
 21
9.0
 12
0.0
 22
0.0
 32
0.0
 14
1.000000000000000E+20
 24
1.000000000000000E+20
 34
1.000000000000000E+20
 15
-1.000000000000000E+20
 25
-1.000000000000000E+20
 35
-1.000000000000000E+20
146
0.0
 13
0.0
 23
0.0
 33
0.0
 16
1.0
 26
0.0
 36
0.0
 17
0.0
 27
1.0
 37
0.0
 76
     0
330
1B
  0
LAYOUT
  5
26
102
{ACAD_REACTORS
330
1A
102
}
330
1A
100
AcDbPlotSettings
  1

  2
none_device
  4

  6

 40
0.0
 41
0.0
 42
0.0
 43
0.0
 44
0.0
 45
0.0
 46
0.0
 47
0.0
 48
0.0
 49
0.0
140
0.0
141
0.0
142
1.0
143
1.0
 70
   688
 72
     0
 73
     0
 74
     5
  7

 75
    16
 76
     0
 77
     2
 78
   300
147
1.0
148
0.0
149
0.0
100
AcDbLayout
  1
Layout2
 70
     1
 71
     2
 10
0.0
 20
0.0
 11
0.0
 21
0.0
 12
0.0
 22
0.0
 32
0.0
 14
0.0
 24
0.0
 34
0.0
 15
0.0
 25
0.0
 35
0.0
146
0.0
 13
0.0
 23
0.0
 33
0.0
 16
1.0
 26
0.0
 36
0.0
 17
0.0
 27
1.0
 37
0.0
 76
     0
330
23
  0
LAYOUT
  5
22
102
{ACAD_REACTORS
330
1A
102
}
330
1A
100
AcDbPlotSettings
  1

  2
none_device
  4
Letter_(8.50_x_11.00_Inches)
  6

 40
6.35
 41
6.35
 42
6.35000508
 43
6.35000508
 44
215.9
 45
279.4
 46
0.0
 47
0.0
 48
0.0
 49
0.0
140
0.0
141
0.0
142
1.0
143
1.0
 70
  1712
 72
     0
 73
     0
 74
     0
  7

 75
     0
 76
     0
 77
     2
 78
   300
147
1.0
148
0.0
149
0.0
100
AcDbLayout
  1
Model
 70
     1
 71
     0
 10
0.0
 20
0.0
 11
12.0
 21
9.0
 12
0.0
 22
0.0
 32
0.0
 14
-1060.7796
 24
-306.0802
 34
0.0
 15
-163.1979
 25
271.6815
 35
0.0
146
0.0
 13
0.0
 23
0.0
 33
0.0
 16
1.0
 26
0.0
 36
0.0
 17
0.0
 27
1.0
 37
0.0
 76
     0
330
1F
331
29
  0
MATERIAL
  5
45
102
{ACAD_REACTORS
330
43
102
}
330
43
100
AcDbMaterial
  1
ByBlock
 72
     1
 94
      127
  0
MATERIAL
  5
44
102
{ACAD_REACTORS
330
43
102
}
330
43
100
AcDbMaterial
  1
ByLayer
 72
     1
 94
      127
  0
MATERIAL
  5
46
102
{ACAD_REACTORS
330
43
102
}
330
43
100
AcDbMaterial
  1
Global
 72
     1
 94
      127
  0
MLEADERSTYLE
  5
5C
102
{ACAD_REACTORS
330
5B
102
}
330
5B
100
AcDbMLeaderStyle
179
     2
170
     2
171
     1
172
     0
 90
        2
 40
0.0
 41
0.0
173
     1
 91
-1056964608
340
14
 92
       -2
290
     1
 42
0.09
291
     1
 43
0.36
  3
Standard
341
0
 44
0.18
300

342
11
174
     1
178
     6
175
     1
176
     0
 93
-1056964608
 45
0.18
292
     0
297
     0
 46
0.18
343
0
 94
-1056964608
 47
1.0
 49
1.0
140
1.0
293
     1
141
0.0
294
     1
177
     0
142
1.0
295
     0
296
     0
143
0.125
271
     0
272
     9
273
     9
298
     0
  0
MLINESTYLE
  5
18
102
{ACAD_REACTORS
330
17
102
}
330
17
100
AcDbMlineStyle
  2
Standard
 70
     0
  3

 62
   256
 51
90.0
 52
90.0
 71
     2
 49
0.5
 62
   256
  6
BYLAYER
 49
-0.5
 62
   256
  6
BYLAYER
  0
ACDBPLACEHOLDER
  5
F
102
{ACAD_REACTORS
330
E
102
}
330
E
  0
SCALE
  5
48
102
{ACAD_REACTORS
330
47
102
}
330
47
100
AcDbScale
 70
     0
300
1:1
140
1.0
141
1.0
290
     1
  0
SCALE
  5
49
102
{ACAD_REACTORS
330
47
102
}
330
47
100
AcDbScale
 70
     0
300
1/128" = 1'-0"
140
0.0078125
141
12.0
290
     0
  0
SCALE
  5
4A
102
{ACAD_REACTORS
330
47
102
}
330
47
100
AcDbScale
 70
     0
300
1/64" = 1'-0"
140
0.015625
141
12.0
290
     0
  0
SCALE
  5
4B
102
{ACAD_REACTORS
330
47
102
}
330
47
100
AcDbScale
 70
     0
300
1/32" = 1'-0"
140
0.03125
141
12.0
290
     0
  0
SCALE
  5
4C
102
{ACAD_REACTORS
330
47
102
}
330
47
100
AcDbScale
 70
     0
300
1/16" = 1'-0"
140
0.0625
141
12.0
290
     0
  0
SCALE
  5
4D
102
{ACAD_REACTORS
330
47
102
}
330
47
100
AcDbScale
 70
     0
300
3/32" = 1'-0"
140
0.09375
141
12.0
290
     0
  0
SCALE
  5
4E
102
{ACAD_REACTORS
330
47
102
}
330
47
100
AcDbScale
 70
     0
300
1/8" = 1'-0"
140
0.125
141
12.0
290
     0
  0
SCALE
  5
4F
102
{ACAD_REACTORS
330
47
102
}
330
47
100
AcDbScale
 70
     0
300
3/16" = 1'-0"
140
0.1875
141
12.0
290
     0
  0
SCALE
  5
50
102
{ACAD_REACTORS
330
47
102
}
330
47
100
AcDbScale
 70
     0
300
1/4" = 1'-0"
140
0.25
141
12.0
290
     0
  0
SCALE
  5
51
102
{ACAD_REACTORS
330
47
102
}
330
47
100
AcDbScale
 70
     0
300
3/8" = 1'-0"
140
0.375
141
12.0
290
     0
  0
SCALE
  5
52
102
{ACAD_REACTORS
330
47
102
}
330
47
100
AcDbScale
 70
     0
300
1/2" = 1'-0"
140
0.5
141
12.0
290
     0
  0
SCALE
  5
53
102
{ACAD_REACTORS
330
47
102
}
330
47
100
AcDbScale
 70
     0
300
3/4" = 1'-0"
140
0.75
141
12.0
290
     0
  0
SCALE
  5
54
102
{ACAD_REACTORS
330
47
102
}
330
47
100
AcDbScale
 70
     0
300
1" = 1'-0"
140
1.0
141
12.0
290
     0
  0
SCALE
  5
55
102
{ACAD_REACTORS
330
47
102
}
330
47
100
AcDbScale
 70
     0
300
1-1/2" = 1'-0"
140
1.5
141
12.0
290
     0
  0
SCALE
  5
56
102
{ACAD_REACTORS
330
47
102
}
330
47
100
AcDbScale
 70
     0
300
3" = 1'-0"
140
3.0
141
12.0
290
     0
  0
SCALE
  5
57
102
{ACAD_REACTORS
330
47
102
}
330
47
100
AcDbScale
 70
     0
300
6" = 1'-0"
140
6.0
141
12.0
290
     0
  0
SCALE
  5
58
102
{ACAD_REACTORS
330
47
102
}
330
47
100
AcDbScale
 70
     0
300
1'-0" = 1'-0"
140
12.0
141
12.0
290
     0
  0
TABLESTYLE
  5
5A
102
{ACAD_REACTORS
330
59
102
}
102
{ACAD_XDICTIONARY
360
A3
102
}
330
59
100
AcDbTableStyle
  3
Standard
 70
     0
 71
     0
 40
0.06
 41
0.06
280
     0
281
     0
  7
Standard
140
0.18
170
     2
 62
     0
 63
   257
283
     0
 90
        4
 91
        0
  1

274
    -2
284
     1
 64
     0
275
    -2
285
     1
 65
     0
276
    -2
286
     1
 66
     0
277
    -2
287
     1
 67
     0
278
    -2
288
     1
 68
     0
279
    -2
289
     1
 69
     0
  7
Standard
140
0.25
170
     5
 62
     0
 63
   257
283
     0
 90
        4
 91
        0
  1

274
    -2
284
     1
 64
     0
275
    -2
285
     1
 65
     0
276
    -2
286
     1
 66
     0
277
    -2
287
     1
 67
     0
278
    -2
288
     1
 68
     0
279
    -2
289
     1
 69
     0
  7
Standard
140
0.18
170
     5
 62
     0
 63
   257
283
     0
 90
        4
 91
        0
  1

274
    -2
284
     1
 64
     0
275
    -2
285
     1
 65
     0
276
    -2
286
     1
 66
     0
277
    -2
287
     1
 67
     0
278
    -2
288
     1
 68
     0
279
    -2
289
     1
 69
     0
  0
VISUALSTYLE
  5
2F
102
{ACAD_REACTORS
330
2A
102
}
330
2A
100
AcDbVisualStyle
  2
2dWireframe
 70
     4
177
     3
291
     0
 70
    58
 90
        0
176
     1
 90
        2
176
     1
 90
        0
176
     1
 90
        0
176
     1
 40
0.6
176
     1
 40
30.0
176
     1
 62
     7
420
 16777215
176
     1
 90
        1
176
     1
 90
        4
176
     1
 62
     7
176
     1
 62
   257
176
     1
 90
        1
176
     1
 90
        1
176
     1
 40
1.0
176
     1
 90
        0
176
     1
 62
   257
176
     1
 40
1.0
176
     1
 90
        1
176
     1
 90
        6
176
     1
 90
        2
176
     1
 62
     7
176
     1
 90
        5
176
     1
 90
        0
176
     1
 90
        0
176
     1
290
     0
176
     1
 90
        1
176
     1
 40
0.0
176
     1
 90
        0
176
     1
290
     1
176
     1
290
     1
176
     1
290
     0
176
     1
290
     0
176
     1
290
     0
176
     1
290
     0
176
     1
290
     0
176
     1
290
     0
176
     1
290
     0
176
     1
 90
       50
176
     1
 40
0.0
176
     1
 40
1.0
176
     1
 90
        0
176
     1
 62
    18
420
        0
176
     1
 90
       50
176
     1
 90
        3
176
     1
 62
     5
420
      255
176
     1
290
     0
176
     1
 90
       50
176
     1
 90
       50
176
     1
 90
       50
176
     1
290
     0
176
     1
 90
       50
176
     1
 62
   256
176
     0
 40
1.0
176
     0
 90
        2
176
     1
  1
strokes_ogs.tif
176
     1
290
     0
176
     1
 40
1.0
176
     1
 40
1.0
176
     1
  0
VISUALSTYLE
  5
32
102
{ACAD_REACTORS
330
2A
102
}
330
2A
100
AcDbVisualStyle
  2
Basic
 70
     7
177
     3
291
     1
 70
    58
 90
        1
176
     1
 90
        0
176
     1
 90
        1
176
     1
 90
        0
176
     1
 40
0.6
176
     1
 40
30.0
176
     1
 62
     7
420
 16777215
176
     1
 90
        0
176
     1
 90
        4
176
     1
 62
     7
176
     1
 62
   257
176
     1
 90
        1
176
     1
 90
        1
176
     1
 40
1.0
176
     1
 90
        8
176
     1
 62
     7
176
     1
 40
1.0
176
     1
 90
        1
176
     1
 90
        6
176
     1
 90
        2
176
     1
 62
     7
176
     1
 90
        5
176
     1
 90
        0
176
     1
 90
        0
176
     1
290
     0
176
     1
 90
        1
176
     1
 40
0.0
176
     1
 90
        0
176
     1
290
     0
176
     1
290
     1
176
     1
290
     1
176
     1
290
     0
176
     1
290
     0
176
     1
290
     0
176
     1
290
     0
176
     1
290
     0
176
     1
290
     0
176
     1
 90
       50
176
     1
 40
0.0
176
     1
 40
1.0
176
     1
 90
        0
176
     1
 62
    18
420
        0
176
     1
 90
       50
176
     1
 90
        3
176
     1
 62
     5
420
      255
176
     1
290
     0
176
     1
 90
       50
176
     1
 90
       50
176
     1
 90
       50
176
     1
290
     0
176
     1
 90
       50
176
     1
 62
   256
176
     0
 40
1.0
176
     0
 90
        2
176
     1
  1
strokes_ogs.tif
176
     1
290
     0
176
     1
 40
1.0
176
     1
 40
1.0
176
     1
  0
VISUALSTYLE
  5
36
102
{ACAD_REACTORS
330
2A
102
}
330
2A
100
AcDbVisualStyle
  2
Brighten
 70
    12
177
     3
291
     1
 70
    58
 90
        2
176
     1
 90
        2
176
     1
 90
        0
176
     1
 90
        0
176
     1
 40
0.6
176
     1
 40
30.0
176
     1
 62
     7
420
 16777215
176
     1
 90
        1
176
     1
 90
        4
176
     1
 62
     7
176
     1
 62
   257
176
     1
 90
        1
176
     1
 90
        1
176
     1
 40
1.0
176
     1
 90
        8
176
     1
 62
     7
176
     1
 40
1.0
176
     1
 90
        1
176
     1
 90
        6
176
     1
 90
        2
176
     1
 62
     7
176
     1
 90
        5
176
     1
 90
        0
176
     1
 90
        0
176
     1
290
     0
176
     1
 90
        1
176
     1
 40
50.0
176
     1
 90
        0
176
     1
290
     0
176
     1
290
     1
176
     1
290
     1
176
     1
290
     0
176
     1
290
     0
176
     1
290
     0
176
     1
290
     0
176
     1
290
     0
176
     1
290
     0
176
     1
 90
       50
176
     1
 40
0.0
176
     1
 40
1.0
176
     1
 90
        0
176
     1
 62
    18
420
        0
176
     1
 90
       50
176
     1
 90
        3
176
     1
 62
     5
420
      255
176
     1
290
     0
176
     1
 90
       50
176
     1
 90
       50
176
     1
 90
       50
176
     1
290
     0
176
     1
 90
       50
176
     1
 62
   256
176
     0
 40
1.0
176
     0
 90
        2
176
     1
  1
strokes_ogs.tif
176
     1
290
     0
176
     1
 40
1.0
176
     1
 40
1.0
176
     1
  0
VISUALSTYLE
  5
3A
102
{ACAD_REACTORS
330
2A
102
}
330
2A
100
AcDbVisualStyle
  2
ColorChange
 70
    16
177
     3
291
     1
 70
    58
 90
        2
176
     1
 90
        2
176
     1
 90
        3
176
     1
 90
        0
176
     1
 40
0.6
176
     1
 40
30.0
176
     1
 62
     8
420
  8421504
176
     1
 90
        1
176
     1
 90
        4
176
     1
 62
     7
176
     1
 62
   257
176
     1
 90
        1
176
     1
 90
        1
176
     1
 40
1.0
176
     1
 90
        8
176
     1
 62
     8
420
  8421504
176
     1
 40
1.0
176
     1
 90
        1
176
     1
 90
        6
176
     1
 90
        2
176
     1
 62
     7
176
     1
 90
        5
176
     1
 90
        0
176
     1
 90
        0
176
     1
290
     0
176
     1
 90
        1
176
     1
 40
0.0
176
     1
 90
        0
176
     1
290
     0
176
     1
290
     1
176
     1
290
     1
176
     1
290
     0
176
     1
290
     0
176
     1
290
     0
176
     1
290
     0
176
     1
290
     0
176
     1
290
     0
176
     1
 90
       50
176
     1
 40
0.0
176
     1
 40
1.0
176
     1
 90
        0
176
     1
 62
    18
420
        0
176
     1
 90
       50
176
     1
 90
        3
176
     1
 62
     5
420
      255
176
     1
290
     0
176
     1
 90
       50
176
     1
 90
       50
176
     1
 90
       50
176
     1
290
     0
176
     1
 90
       50
176
     1
 62
   256
176
     0
 40
1.0
176
     0
 90
        2
176
     1
  1
strokes_ogs.tif
176
     1
290
     0
176
     1
 40
1.0
176
     1
 40
1.0
176
     1
  0
VISUALSTYLE
  5
34
102
{ACAD_REACTORS
330
2A
102
}
330
2A
100
AcDbVisualStyle
  2
Conceptual
 70
     9
177
     3
291
     0
 70
    58
 90
        3
176
     1
 90
        2
176
     1
 90
        0
176
     1
 90
        0
176
     1
 40
0.6
176
     1
 40
30.0
176
     1
 62
     7
420
 16777215
176
     1
 90
        2
176
     1
 90
        2
176
     1
 62
     7
176
     1
 62
   257
176
     1
 90
        1
176
     1
 90
        1
176
     1
 40
179.0
176
     1
 90
        8
176
     1
 62
     7
176
     1
 40
1.0
176
     1
 90
        1
176
     1
 90
        6
176
     1
 90
        2
176
     1
 62
     7
176
     1
 90
        3
176
     1
 90
        0
176
     1
 90
        0
176
     1
290
     0
176
     1
 90
        1
176
     1
 40
0.0
176
     1
 90
        0
176
     1
290
     0
176
     1
290
     1
176
     1
290
     1
176
     1
290
     0
176
     1
290
     0
176
     1
290
     0
176
     1
290
     0
176
     1
290
     0
176
     1
290
     0
176
     1
 90
       50
176
     1
 40
0.0
176
     1
 40
1.0
176
     1
 90
        0
176
     1
 62
    18
420
        0
176
     1
 90
       50
176
     1
 90
        3
176
     1
 62
     5
420
      255
176
     1
290
     0
176
     1
 90
       50
176
     1
 90
       50
176
     1
 90
       50
176
     1
290
     0
176
     1
 90
       50
176
     1
 62
   256
176
     0
 40
1.0
176
     0
 90
        2
176
     1
  1
strokes_ogs.tif
176
     1
290
     0
176
     1
 40
1.0
176
     1
 40
1.0
176
     1
  0
VISUALSTYLE
  5
35
102
{ACAD_REACTORS
330
2A
102
}
330
2A
100
AcDbVisualStyle
  2
Dim
 70
    11
177
     3
291
     1
 70
    58
 90
        2
176
     1
 90
        2
176
     1
 90
        0
176
     1
 90
        0
176
     1
 40
0.6
176
     1
 40
30.0
176
     1
 62
     7
420
 16777215
176
     1
 90
        1
176
     1
 90
        4
176
     1
 62
     7
176
     1
 62
   257
176
     1
 90
        1
176
     1
 90
        1
176
     1
 40
1.0
176
     1
 90
        8
176
     1
 62
     7
176
     1
 40
1.0
176
     1
 90
        1
176
     1
 90
        6
176
     1
 90
        2
176
     1
 62
     7
176
     1
 90
        5
176
     1
 90
        0
176
     1
 90
        0
176
     1
290
     0
176
     1
 90
        1
176
     1
 40
-50.0
176
     1
 90
        0
176
     1
290
     0
176
     1
290
     1
176
     1
290
     1
176
     1
290
     0
176
     1
290
     0
176
     1
290
     0
176
     1
290
     0
176
     1
290
     0
176
     1
290
     0
176
     1
 90
       50
176
     1
 40
0.0
176
     1
 40
1.0
176
     1
 90
        0
176
     1
 62
    18
420
        0
176
     1
 90
       50
176
     1
 90
        3
176
     1
 62
     5
420
      255
176
     1
290
     0
176
     1
 90
       50
176
     1
 90
       50
176
     1
 90
       50
176
     1
290
     0
176
     1
 90
       50
176
     1
 62
   256
176
     0
 40
1.0
176
     0
 90
        2
176
     1
  1
strokes_ogs.tif
176
     1
290
     0
176
     1
 40
1.0
176
     1
 40
1.0
176
     1
  0
VISUALSTYLE
  5
3D
102
{ACAD_REACTORS
330
2A
102
}
330
2A
100
AcDbVisualStyle
  2
EdgeColorOff
 70
    22
177
     3
291
     1
 70
    58
 90
        2
176
     0
 90
        2
176
     0
 90
        0
176
     0
 90
        0
176
     0
 40
0.6
176
     0
 40
30.0
176
     0
 62
     7
420
 16777215
176
     0
 90
        1
176
     0
 90
        4
176
     0
 62
     7
176
     0
 62
   257
176
     0
 90
        1
176
     0
 90
        1
176
     0
 40
1.0
176
     0
 90
        8
176
     2
 62
     7
176
     0
 40
1.0
176
     0
 90
        1
176
     0
 90
        6
176
     0
 90
        2
176
     0
 62
     7
176
     0
 90
        5
176
     0
 90
        0
176
     0
 90
        0
176
     0
290
     0
176
     0
 90
        1
176
     0
 40
0.0
176
     0
 90
        0
176
     0
290
     0
176
     0
290
     1
176
     0
290
     1
176
     0
290
     0
176
     0
290
     0
176
     0
290
     0
176
     0
290
     0
176
     0
290
     0
176
     0
290
     0
176
     0
 90
       50
176
     0
 40
0.0
176
     0
 40
1.0
176
     0
 90
        0
176
     0
 62
    18
420
        0
176
     0
 90
       50
176
     0
 90
        3
176
     0
 62
     5
420
      255
176
     0
290
     0
176
     0
 90
       50
176
     0
 90
       50
176
     0
 90
       50
176
     0
290
     0
176
     0
 90
       50
176
     0
 62
   256
176
     0
 40
1.0
176
     0
 90
        2
176
     0
  1
strokes_ogs.tif
176
     0
290
     0
176
     0
 40
1.0
176
     0
 40
1.0
176
     0
  0
VISUALSTYLE
  5
39
102
{ACAD_REACTORS
330
2A
102
}
330
2A
100
AcDbVisualStyle
  2
Facepattern
 70
    15
177
     3
291
     1
 70
    58
 90
        2
176
     1
 90
        2
176
     1
 90
        0
176
     1
 90
        0
176
     1
 40
0.6
176
     1
 40
30.0
176
     1
 62
     7
420
 16777215
176
     1
 90
        1
176
     1
 90
        4
176
     1
 62
     7
176
     1
 62
   257
176
     1
 90
        1
176
     1
 90
        1
176
     1
 40
1.0
176
     1
 90
        8
176
     1
 62
     7
176
     1
 40
1.0
176
     1
 90
        1
176
     1
 90
        6
176
     1
 90
        2
176
     1
 62
     7
176
     1
 90
        5
176
     1
 90
        0
176
     1
 90
        0
176
     1
290
     0
176
     1
 90
        1
176
     1
 40
0.0
176
     1
 90
        0
176
     1
290
     0
176
     1
290
     1
176
     1
290
     1
176
     1
290
     0
176
     1
290
     0
176
     1
290
     0
176
     1
290
     0
176
     1
290
     0
176
     1
290
     0
176
     1
 90
       50
176
     1
 40
0.0
176
     1
 40
1.0
176
     1
 90
        0
176
     1
 62
    18
420
        0
176
     1
 90
       50
176
     1
 90
        3
176
     1
 62
     5
420
      255
176
     1
290
     0
176
     1
 90
       50
176
     1
 90
       50
176
     1
 90
       50
176
     1
290
     0
176
     1
 90
       50
176
     1
 62
   256
176
     0
 40
1.0
176
     0
 90
        2
176
     1
  1
strokes_ogs.tif
176
     1
290
     0
176
     1
 40
1.0
176
     1
 40
1.0
176
     1
  0
VISUALSTYLE
  5
2B
102
{ACAD_REACTORS
330
2A
102
}
330
2A
100
AcDbVisualStyle
  2
Flat
 70
     0
177
     3
291
     1
 70
    58
 90
        2
176
     1
 90
        1
176
     1
 90
        1
176
     1
 90
        2
176
     1
 40
0.6
176
     1
 40
30.0
176
     1
 62
     7
420
 16777215
176
     1
 90
        0
176
     1
 90
        0
176
     1
 62
     7
176
     1
 62
   257
176
     1
 90
        1
176
     1
 90
        1
176
     1
 40
1.0
176
     1
 90
        8
176
     1
 62
     7
176
     1
 40
1.0
176
     1
 90
        1
176
     1
 90
        6
176
     1
 90
        2
176
     1
 62
     7
176
     1
 90
        5
176
     1
 90
        0
176
     1
 90
        0
176
     1
290
     0
176
     1
 90
       13
176
     1
 40
0.0
176
     1
 90
        0
176
     1
290
     0
176
     1
290
     1
176
     1
290
     1
176
     1
290
     0
176
     1
290
     0
176
     1
290
     0
176
     1
290
     0
176
     1
290
     0
176
     1
290
     0
176
     1
 90
       50
176
     1
 40
0.0
176
     1
 40
1.0
176
     1
 90
        0
176
     1
 62
    18
420
        0
176
     1
 90
       50
176
     1
 90
        3
176
     1
 62
     5
420
      255
176
     1
290
     0
176
     1
 90
       50
176
     1
 90
       50
176
     1
 90
       50
176
     1
290
     0
176
     1
 90
       50
176
     1
 62
   256
176
     0
 40
1.0
176
     0
 90
        2
176
     1
  1
strokes_ogs.tif
176
     1
290
     0
176
     1
 40
1.0
176
     1
 40
1.0
176
     1
  0
VISUALSTYLE
  5
2C
102
{ACAD_REACTORS
330
2A
102
}
330
2A
100
AcDbVisualStyle
  2
FlatWithEdges
 70
     1
177
     3
291
     1
 70
    58
 90
        2
176
     1
 90
        1
176
     1
 90
        1
176
     1
 90
        2
176
     1
 40
0.6
176
     1
 40
30.0
176
     1
 62
     7
420
 16777215
176
     1
 90
        1
176
     1
 90
        0
176
     1
 62
     7
176
     1
 62
   257
176
     1
 90
        1
176
     1
 90
        1
176
     1
 40
1.0
176
     1
 90
        0
176
     1
 62
   257
176
     1
 40
1.0
176
     1
 90
        1
176
     1
 90
        6
176
     1
 90
        2
176
     1
 62
     7
176
     1
 90
        5
176
     1
 90
        0
176
     1
 90
        0
176
     1
290
     0
176
     1
 90
       13
176
     1
 40
0.0
176
     1
 90
        0
176
     1
290
     0
176
     1
290
     1
176
     1
290
     1
176
     1
290
     0
176
     1
290
     0
176
     1
290
     0
176
     1
290
     0
176
     1
290
     0
176
     1
290
     0
176
     1
 90
       50
176
     1
 40
0.0
176
     1
 40
1.0
176
     1
 90
        0
176
     1
 62
    18
420
        0
176
     1
 90
       50
176
     1
 90
        3
176
     1
 62
     5
420
      255
176
     1
290
     0
176
     1
 90
       50
176
     1
 90
       50
176
     1
 90
       50
176
     1
290
     0
176
     1
 90
       50
176
     1
 62
   256
176
     0
 40
1.0
176
     0
 90
        2
176
     1
  1
strokes_ogs.tif
176
     1
290
     0
176
     1
 40
1.0
176
     1
 40
1.0
176
     1
  0
VISUALSTYLE
  5
2D
102
{ACAD_REACTORS
330
2A
102
}
330
2A
100
AcDbVisualStyle
  2
Gouraud
 70
     2
177
     3
291
     1
 70
    58
 90
        2
176
     1
 90
        2
176
     1
 90
        1
176
     1
 90
        2
176
     1
 40
0.6
176
     1
 40
30.0
176
     1
 62
     7
420
 16777215
176
     1
 90
        0
176
     1
 90
        0
176
     1
 62
     7
176
     1
 62
   257
176
     1
 90
        1
176
     1
 90
        1
176
     1
 40
1.0
176
     1
 90
        0
176
     1
 62
     7
176
     1
 40
1.0
176
     1
 90
        1
176
     1
 90
        6
176
     1
 90
        2
176
     1
 62
     7
176
     1
 90
        5
176
     1
 90
        0
176
     1
 90
        0
176
     1
290
     0
176
     1
 90
       13
176
     1
 40
0.0
176
     1
 90
        0
176
     1
290
     0
176
     1
290
     1
176
     1
290
     1
176
     1
290
     0
176
     1
290
     0
176
     1
290
     0
176
     1
290
     0
176
     1
290
     0
176
     1
290
     0
176
     1
 90
       50
176
     1
 40
0.0
176
     1
 40
1.0
176
     1
 90
        0
176
     1
 62
    18
420
        0
176
     1
 90
       50
176
     1
 90
        3
176
     1
 62
     5
420
      255
176
     1
290
     0
176
     1
 90
       50
176
     1
 90
       50
176
     1
 90
       50
176
     1
290
     0
176
     1
 90
       50
176
     1
 62
   256
176
     0
 40
1.0
176
     0
 90
        2
176
     1
  1
strokes_ogs.tif
176
     1
290
     0
176
     1
 40
1.0
176
     1
 40
1.0
176
     1
  0
VISUALSTYLE
  5
2E
102
{ACAD_REACTORS
330
2A
102
}
330
2A
100
AcDbVisualStyle
  2
GouraudWithEdges
 70
     3
177
     3
291
     1
 70
    58
 90
        2
176
     1
 90
        2
176
     1
 90
        1
176
     1
 90
        2
176
     1
 40
0.6
176
     1
 40
30.0
176
     1
 62
     7
420
 16777215
176
     1
 90
        1
176
     1
 90
        0
176
     1
 62
     7
176
     1
 62
   257
176
     1
 90
        1
176
     1
 90
        1
176
     1
 40
1.0
176
     1
 90
        0
176
     1
 62
   257
176
     1
 40
1.0
176
     1
 90
        1
176
     1
 90
        6
176
     1
 90
        2
176
     1
 62
     7
176
     1
 90
        5
176
     1
 90
        0
176
     1
 90
        0
176
     1
290
     0
176
     1
 90
       13
176
     1
 40
0.0
176
     1
 90
        0
176
     1
290
     0
176
     1
290
     1
176
     1
290
     1
176
     1
290
     0
176
     1
290
     0
176
     1
290
     0
176
     1
290
     0
176
     1
290
     0
176
     1
290
     0
176
     1
 90
       50
176
     1
 40
0.0
176
     1
 40
1.0
176
     1
 90
        0
176
     1
 62
    18
420
        0
176
     1
 90
       50
176
     1
 90
        3
176
     1
 62
     5
420
      255
176
     1
290
     0
176
     1
 90
       50
176
     1
 90
       50
176
     1
 90
       50
176
     1
290
     0
176
     1
 90
       50
176
     1
 62
   256
176
     0
 40
1.0
176
     0
 90
        2
176
     1
  1
strokes_ogs.tif
176
     1
290
     0
176
     1
 40
1.0
176
     1
 40
1.0
176
     1
  0
VISUALSTYLE
  5
31
102
{ACAD_REACTORS
330
2A
102
}
330
2A
100
AcDbVisualStyle
  2
Hidden
 70
     6
177
     3
291
     0
 70
    58
 90
        1
176
     1
 90
        2
176
     1
 90
        2
176
     1
 90
        0
176
     1
 40
0.6
176
     1
 40
30.0
176
     1
 62
     7
420
 16777215
176
     1
 90
        2
176
     1
 90
        2
176
     1
 62
     7
176
     1
 62
   257
176
     1
 90
        2
176
     1
 90
        1
176
     1
 40
40.0
176
     1
 90
        0
176
     1
 62
   257
176
     1
 40
1.0
176
     1
 90
        1
176
     1
 90
        6
176
     1
 90
        2
176
     1
 62
     7
176
     1
 90
        3
176
     1
 90
        0
176
     1
 90
        0
176
     1
290
     0
176
     1
 90
        1
176
     1
 40
0.0
176
     1
 90
        0
176
     1
290
     0
176
     1
290
     1
176
     1
290
     1
176
     1
290
     0
176
     1
290
     0
176
     1
290
     0
176
     1
290
     0
176
     1
290
     0
176
     1
290
     0
176
     1
 90
       50
176
     1
 40
0.0
176
     1
 40
1.0
176
     1
 90
        0
176
     1
 62
    18
420
        0
176
     1
 90
       50
176
     1
 90
        3
176
     1
 62
     5
420
      255
176
     1
290
     0
176
     1
 90
       50
176
     1
 90
       50
176
     1
 90
       50
176
     1
290
     0
176
     1
 90
       50
176
     1
 62
   256
176
     0
 40
1.0
176
     0
 90
        2
176
     1
  1
strokes_ogs.tif
176
     1
290
     0
176
     1
 40
1.0
176
     1
 40
1.0
176
     1
  0
VISUALSTYLE
  5
3B
102
{ACAD_REACTORS
330
2A
102
}
330
2A
100
AcDbVisualStyle
  2
JitterOff
 70
    20
177
     3
291
     1
 70
    58
 90
        2
176
     0
 90
        2
176
     0
 90
        0
176
     0
 90
        0
176
     0
 40
0.6
176
     0
 40
30.0
176
     0
 62
     7
420
 16777215
176
     0
 90
        1
176
     0
 90
        4
176
     0
 62
     7
176
     0
 62
   257
176
     0
 90
        1
176
     0
 90
        1
176
     0
 40
1.0
176
     0
 90
       10
176
     2
 62
     7
176
     0
 40
1.0
176
     0
 90
        1
176
     0
 90
        6
176
     0
 90
        2
176
     0
 62
     7
176
     0
 90
        5
176
     0
 90
        0
176
     0
 90
        0
176
     0
290
     0
176
     0
 90
        1
176
     0
 40
0.0
176
     0
 90
        0
176
     0
290
     0
176
     0
290
     1
176
     0
290
     1
176
     0
290
     0
176
     0
290
     0
176
     0
290
     0
176
     0
290
     0
176
     0
290
     0
176
     0
290
     0
176
     0
 90
       50
176
     0
 40
0.0
176
     0
 40
1.0
176
     0
 90
        0
176
     0
 62
    18
420
        0
176
     0
 90
       50
176
     0
 90
        3
176
     0
 62
     5
420
      255
176
     0
290
     0
176
     0
 90
       50
176
     0
 90
       50
176
     0
 90
       50
176
     0
290
     0
176
     0
 90
       50
176
     0
 62
   256
176
     0
 40
1.0
176
     0
 90
        2
176
     0
  1
strokes_ogs.tif
176
     0
290
     0
176
     0
 40
1.0
176
     0
 40
1.0
176
     0
  0
VISUALSTYLE
  5
38
102
{ACAD_REACTORS
330
2A
102
}
330
2A
100
AcDbVisualStyle
  2
Linepattern
 70
    14
177
     3
291
     1
 70
    58
 90
        2
176
     1
 90
        2
176
     1
 90
        0
176
     1
 90
        0
176
     1
 40
0.6
176
     1
 40
30.0
176
     1
 62
     7
420
 16777215
176
     1
 90
        1
176
     1
 90
        4
176
     1
 62
     7
176
     1
 62
   257
176
     1
 90
        7
176
     1
 90
        7
176
     1
 40
1.0
176
     1
 90
        8
176
     1
 62
     7
176
     1
 40
1.0
176
     1
 90
        1
176
     1
 90
        6
176
     1
 90
        2
176
     1
 62
     7
176
     1
 90
        5
176
     1
 90
        0
176
     1
 90
        0
176
     1
290
     0
176
     1
 90
        1
176
     1
 40
0.0
176
     1
 90
        0
176
     1
290
     0
176
     1
290
     1
176
     1
290
     1
176
     1
290
     0
176
     1
290
     0
176
     1
290
     0
176
     1
290
     0
176
     1
290
     0
176
     1
290
     0
176
     1
 90
       50
176
     1
 40
0.0
176
     1
 40
1.0
176
     1
 90
        0
176
     1
 62
    18
420
        0
176
     1
 90
       50
176
     1
 90
        3
176
     1
 62
     5
420
      255
176
     1
290
     0
176
     1
 90
       50
176
     1
 90
       50
176
     1
 90
       50
176
     1
290
     0
176
     1
 90
       50
176
     1
 62
   256
176
     0
 40
1.0
176
     0
 90
        2
176
     1
  1
strokes_ogs.tif
176
     1
290
     0
176
     1
 40
1.0
176
     1
 40
1.0
176
     1
  0
VISUALSTYLE
  5
3C
102
{ACAD_REACTORS
330
2A
102
}
330
2A
100
AcDbVisualStyle
  2
OverhangOff
 70
    21
177
     3
291
     1
 70
    58
 90
        2
176
     0
 90
        2
176
     0
 90
        0
176
     0
 90
        0
176
     0
 40
0.6
176
     0
 40
30.0
176
     0
 62
     7
420
 16777215
176
     0
 90
        1
176
     0
 90
        4
176
     0
 62
     7
176
     0
 62
   257
176
     0
 90
        1
176
     0
 90
        1
176
     0
 40
1.0
176
     0
 90
        9
176
     2
 62
     7
176
     0
 40
1.0
176
     0
 90
        1
176
     0
 90
        6
176
     0
 90
        2
176
     0
 62
     7
176
     0
 90
        5
176
     0
 90
        0
176
     0
 90
        0
176
     0
290
     0
176
     0
 90
        1
176
     0
 40
0.0
176
     0
 90
        0
176
     0
290
     0
176
     0
290
     1
176
     0
290
     1
176
     0
290
     0
176
     0
290
     0
176
     0
290
     0
176
     0
290
     0
176
     0
290
     0
176
     0
290
     0
176
     0
 90
       50
176
     0
 40
0.0
176
     0
 40
1.0
176
     0
 90
        0
176
     0
 62
    18
420
        0
176
     0
 90
       50
176
     0
 90
        3
176
     0
 62
     5
420
      255
176
     0
290
     0
176
     0
 90
       50
176
     0
 90
       50
176
     0
 90
       50
176
     0
290
     0
176
     0
 90
       50
176
     0
 62
   256
176
     0
 40
1.0
176
     0
 90
        2
176
     0
  1
strokes_ogs.tif
176
     0
290
     0
176
     0
 40
1.0
176
     0
 40
1.0
176
     0
  0
VISUALSTYLE
  5
33
102
{ACAD_REACTORS
330
2A
102
}
330
2A
100
AcDbVisualStyle
  2
Realistic
 70
     8
177
     3
291
     0
 70
    58
 90
        2
176
     1
 90
        3
176
     1
 90
        0
176
     1
 90
        2
176
     1
 40
0.6
176
     1
 40
30.0
176
     1
 62
     7
420
 16777215
176
     1
 90
        0
176
     1
 90
        0
176
     1
 62
     7
176
     1
 62
   257
176
     1
 90
        1
176
     1
 90
        1
176
     1
 40
1.0
176
     1
 90
        8
176
     1
 62
   257
176
     1
 40
1.0
176
     1
 90
        1
176
     1
 90
        6
176
     1
 90
        2
176
     1
 62
     7
176
     1
 90
        3
176
     1
 90
        0
176
     1
 90
        0
176
     1
290
     0
176
     1
 90
       13
176
     1
 40
0.0
176
     1
 90
        0
176
     1
290
     0
176
     1
290
     1
176
     1
290
     1
176
     1
290
     0
176
     1
290
     0
176
     1
290
     0
176
     1
290
     0
176
     1
290
     0
176
     1
290
     0
176
     1
 90
       50
176
     1
 40
0.0
176
     1
 40
1.0
176
     1
 90
        0
176
     1
 62
    18
420
        0
176
     1
 90
       50
176
     1
 90
        3
176
     1
 62
     5
420
      255
176
     1
290
     0
176
     1
 90
       50
176
     1
 90
       50
176
     1
 90
       50
176
     1
290
     0
176
     1
 90
       50
176
     1
 62
   256
176
     0
 40
1.0
176
     0
 90
        2
176
     1
  1
strokes_ogs.tif
176
     1
290
     0
176
     1
 40
1.0
176
     1
 40
1.0
176
     1
  0
VISUALSTYLE
  5
42
102
{ACAD_REACTORS
330
2A
102
}
330
2A
100
AcDbVisualStyle
  2
Shaded
 70
    27
177
     3
291
     0
 70
    58
 90
        2
176
     1
 90
        2
176
     1
 90
        1
176
     1
 90
        2
176
     1
 40
0.6
176
     1
 40
30.0
176
     1
 62
     7
420
 16777215
176
     1
 90
        0
176
     1
 90
        4
176
     1
 62
     7
176
     1
 62
   257
176
     1
 90
        1
176
     1
 90
        1
176
     1
 40
1.0
176
     1
 90
        8
176
     1
 62
   257
176
     1
 40
1.0
176
     1
 90
        1
176
     1
 90
        6
176
     1
 90
        2
176
     1
 62
     8
420
  7895160
176
     1
 90
        3
176
     1
 90
        0
176
     1
 90
        0
176
     1
290
     0
176
     1
 90
        5
176
     1
 40
0.0
176
     1
 90
        0
176
     1
290
     0
176
     1
290
     1
176
     1
290
     1
176
     1
290
     0
176
     1
290
     0
176
     1
290
     0
176
     1
290
     0
176
     1
290
     0
176
     1
290
     0
176
     1
 90
       50
176
     1
 40
0.0
176
     1
 40
1.0
176
     1
 90
        0
176
     1
 62
    18
420
        0
176
     1
 90
       50
176
     1
 90
        3
176
     1
 62
     5
420
      255
176
     1
290
     0
176
     1
 90
       50
176
     1
 90
       50
176
     1
 90
       50
176
     1
290
     0
176
     1
 90
       50
176
     1
 62
   256
176
     0
 40
1.0
176
     0
 90
        2
176
     1
  1
strokes_ogs.tif
176
     1
290
     0
176
     1
 40
1.0
176
     1
 40
1.0
176
     1
  0
VISUALSTYLE
  5
41
102
{ACAD_REACTORS
330
2A
102
}
330
2A
100
AcDbVisualStyle
  2
Shaded with edges
 70
    26
177
     3
291
     0
 70
    58
 90
        2
176
     1
 90
        2
176
     1
 90
        1
176
     1
 90
        2
176
     1
 40
0.6
176
     1
 40
30.0
176
     1
 62
     7
420
 16777215
176
     1
 90
        1
176
     1
 90
       10
176
     1
 62
     7
176
     1
 62
   257
176
     1
 90
        2
176
     1
 90
        1
176
     1
 40
1.0
176
     1
 90
        8
176
     1
 62
   257
176
     1
 40
1.0
176
     1
 90
        1
176
     1
 90
        6
176
     1
 90
        2
176
     1
 62
     7
176
     1
 90
        3
176
     1
 90
        0
176
     1
 90
        0
176
     1
290
     0
176
     1
 90
        5
176
     1
 40
0.0
176
     1
 90
        0
176
     1
290
     0
176
     1
290
     1
176
     1
290
     1
176
     1
290
     0
176
     1
290
     0
176
     1
290
     0
176
     1
290
     0
176
     1
290
     0
176
     1
290
     0
176
     1
 90
       50
176
     1
 40
0.0
176
     1
 40
1.0
176
     1
 90
        0
176
     1
 62
    18
420
        0
176
     1
 90
       50
176
     1
 90
        3
176
     1
 62
     5
420
      255
176
     1
290
     0
176
     1
 90
       50
176
     1
 90
       50
176
     1
 90
       50
176
     1
290
     0
176
     1
 90
       50
176
     1
 62
   256
176
     0
 40
1.0
176
     0
 90
        2
176
     1
  1
strokes_ogs.tif
176
     1
290
     0
176
     1
 40
1.0
176
     1
 40
1.0
176
     1
  0
VISUALSTYLE
  5
3E
102
{ACAD_REACTORS
330
2A
102
}
330
2A
100
AcDbVisualStyle
  2
Shades of Gray
 70
    23
177
     3
291
     0
 70
    58
 90
        2
176
     1
 90
        2
176
     1
 90
        3
176
     1
 90
        0
176
     1
 40
0.6
176
     1
 40
30.0
176
     1
 62
     7
420
 16777215
176
     1
 90
        2
176
     1
 90
        2
176
     1
 62
     7
176
     1
 62
     7
176
     1
 90
        1
176
     1
 90
        1
176
     1
 40
40.0
176
     1
 90
        8
176
     1
 62
     7
176
     1
 40
1.0
176
     1
 90
        1
176
     1
 90
        6
176
     1
 90
        2
176
     1
 62
     7
176
     1
 90
        3
176
     1
 90
        0
176
     1
 90
        0
176
     1
290
     0
176
     1
 90
        1
176
     1
 40
0.0
176
     1
 90
        0
176
     1
290
     0
176
     1
290
     1
176
     1
290
     1
176
     1
290
     0
176
     1
290
     0
176
     1
290
     0
176
     1
290
     0
176
     1
290
     0
176
     1
290
     0
176
     1
 90
       50
176
     1
 40
0.0
176
     1
 40
1.0
176
     1
 90
        0
176
     1
 62
    18
420
        0
176
     1
 90
       50
176
     1
 90
        3
176
     1
 62
     5
420
      255
176
     1
290
     0
176
     1
 90
       50
176
     1
 90
       50
176
     1
 90
       50
176
     1
290
     0
176
     1
 90
       50
176
     1
 62
   256
176
     0
 40
1.0
176
     0
 90
        2
176
     1
  1
strokes_ogs.tif
176
     1
290
     0
176
     1
 40
1.0
176
     1
 40
1.0
176
     1
  0
VISUALSTYLE
  5
3F
102
{ACAD_REACTORS
330
2A
102
}
330
2A
100
AcDbVisualStyle
  2
Sketchy
 70
    24
177
     3
291
     0
 70
    58
 90
        1
176
     1
 90
        2
176
     1
 90
        2
176
     1
 90
        0
176
     1
 40
0.6
176
     1
 40
30.0
176
     1
 62
     7
420
 16777215
176
     1
 90
        2
176
     1
 90
        2
176
     1
 62
     7
176
     1
 62
     7
176
     1
 90
        1
176
     1
 90
        1
176
     1
 40
40.0
176
     1
 90
       11
176
     1
 62
     7
176
     1
 40
1.0
176
     1
 90
        1
176
     1
 90
        6
176
     1
 90
        2
176
     1
 62
     7
176
     1
 90
        6
176
     1
 90
        0
176
     1
 90
        0
176
     1
290
     0
176
     1
 90
        1
176
     1
 40
0.0
176
     1
 90
        0
176
     1
290
     0
176
     1
290
     1
176
     1
290
     1
176
     1
290
     0
176
     1
290
     0
176
     1
290
     0
176
     1
290
     0
176
     1
290
     0
176
     1
290
     0
176
     1
 90
       50
176
     1
 40
0.0
176
     1
 40
1.0
176
     1
 90
        0
176
     1
 62
    18
420
        0
176
     1
 90
       50
176
     1
 90
        3
176
     1
 62
     5
420
      255
176
     1
290
     0
176
     1
 90
       50
176
     1
 90
       50
176
     1
 90
       50
176
     1
290
     0
176
     1
 90
       50
176
     1
 62
   256
176
     0
 40
1.0
176
     0
 90
        2
176
     1
  1
strokes_ogs.tif
176
     1
290
     0
176
     1
 40
1.0
176
     1
 40
1.0
176
     1
  0
VISUALSTYLE
  5
37
102
{ACAD_REACTORS
330
2A
102
}
330
2A
100
AcDbVisualStyle
  2
Thicken
 70
    13
177
     3
291
     1
 70
    58
 90
        2
176
     1
 90
        2
176
     1
 90
        0
176
     1
 90
        0
176
     1
 40
0.6
176
     1
 40
30.0
176
     1
 62
     7
420
 16777215
176
     1
 90
        1
176
     1
 90
        4
176
     1
 62
     7
176
     1
 62
   257
176
     1
 90
        1
176
     1
 90
        1
176
     1
 40
1.0
176
     1
 90
       12
176
     1
 62
     7
176
     1
 40
1.0
176
     1
 90
        1
176
     1
 90
        6
176
     1
 90
        2
176
     1
 62
     7
176
     1
 90
        5
176
     1
 90
        0
176
     1
 90
        0
176
     1
290
     0
176
     1
 90
        1
176
     1
 40
0.0
176
     1
 90
        0
176
     1
290
     0
176
     1
290
     1
176
     1
290
     1
176
     1
290
     0
176
     1
290
     0
176
     1
290
     0
176
     1
290
     0
176
     1
290
     0
176
     1
290
     0
176
     1
 90
       50
176
     1
 40
0.0
176
     1
 40
1.0
176
     1
 90
        0
176
     1
 62
    18
420
        0
176
     1
 90
       50
176
     1
 90
        3
176
     1
 62
     5
420
      255
176
     1
290
     0
176
     1
 90
       50
176
     1
 90
       50
176
     1
 90
       50
176
     1
290
     0
176
     1
 90
       50
176
     1
 62
   256
176
     0
 40
1.0
176
     0
 90
        2
176
     1
  1
strokes_ogs.tif
176
     1
290
     0
176
     1
 40
1.0
176
     1
 40
1.0
176
     1
  0
VISUALSTYLE
  5
30
102
{ACAD_REACTORS
330
2A
102
}
330
2A
100
AcDbVisualStyle
  2
Wireframe
 70
     5
177
     3
291
     0
 70
    58
 90
        0
176
     1
 90
        2
176
     1
 90
        0
176
     1
 90
        0
176
     1
 40
0.6
176
     1
 40
30.0
176
     1
 62
     7
420
 16777215
176
     1
 90
        1
176
     1
 90
        4
176
     1
 62
     7
176
     1
 62
   257
176
     1
 90
        1
176
     1
 90
        1
176
     1
 40
1.0
176
     1
 90
        0
176
     1
 62
   257
176
     1
 40
1.0
176
     1
 90
        1
176
     1
 90
        6
176
     1
 90
        2
176
     1
 62
     7
176
     1
 90
        3
176
     1
 90
        0
176
     1
 90
        0
176
     1
290
     0
176
     1
 90
        1
176
     1
 40
0.0
176
     1
 90
        0
176
     1
290
     0
176
     1
290
     1
176
     1
290
     1
176
     1
290
     0
176
     1
290
     0
176
     1
290
     0
176
     1
290
     0
176
     1
290
     0
176
     1
290
     0
176
     1
 90
       50
176
     1
 40
0.0
176
     1
 40
1.0
176
     1
 90
        0
176
     1
 62
    18
420
        0
176
     1
 90
       50
176
     1
 90
        3
176
     1
 62
     5
420
      255
176
     1
290
     0
176
     1
 90
       50
176
     1
 90
       50
176
     1
 90
       50
176
     1
290
     0
176
     1
 90
       50
176
     1
 62
   256
176
     0
 40
1.0
176
     0
 90
        2
176
     1
  1
strokes_ogs.tif
176
     1
290
     0
176
     1
 40
1.0
176
     1
 40
1.0
176
     1
  0
VISUALSTYLE
  5
40
102
{ACAD_REACTORS
330
2A
102
}
330
2A
100
AcDbVisualStyle
  2
X-Ray
 70
    25
177
     3
291
     0
 70
    58
 90
        2
176
     1
 90
        2
176
     1
 90
        1
176
     1
 90
        1
176
     1
 40
0.5
176
     1
 40
30.0
176
     1
 62
     7
420
 16777215
176
     1
 90
        1
176
     1
 90
        0
176
     1
 62
     7
176
     1
 62
   257
176
     1
 90
        1
176
     1
 90
        1
176
     1
 40
1.0
176
     1
 90
        8
176
     1
 62
     7
176
     1
 40
1.0
176
     1
 90
        1
176
     1
 90
        6
176
     1
 90
        2
176
     1
 62
     7
176
     1
 90
        3
176
     1
 90
        0
176
     1
 90
        0
176
     1
290
     0
176
     1
 90
       13
176
     1
 40
0.0
176
     1
 90
        0
176
     1
290
     0
176
     1
290
     1
176
     1
290
     1
176
     1
290
     0
176
     1
290
     0
176
     1
290
     0
176
     1
290
     0
176
     1
290
     0
176
     1
290
     0
176
     1
 90
       50
176
     1
 40
0.0
176
     1
 40
1.0
176
     1
 90
        0
176
     1
 62
    18
420
        0
176
     1
 90
       50
176
     1
 90
        3
176
     1
 62
     5
420
      255
176
     1
290
     0
176
     1
 90
       50
176
     1
 90
       50
176
     1
 90
       50
176
     1
290
     0
176
     1
 90
       50
176
     1
 62
   256
176
     0
 40
1.0
176
     0
 90
        2
176
     1
  1
strokes_ogs.tif
176
     1
290
     0
176
     1
 40
1.0
176
     1
 40
1.0
176
     1
  0
DICTIONARYVAR
  5
A2
102
{ACAD_REACTORS
330
A1
102
}
330
A1
100
DictionaryVariables
280
     0
  1
1:1
  0
DICTIONARYVAR
  5
A7
102
{ACAD_REACTORS
330
A1
102
}
330
A1
100
DictionaryVariables
280
     0
  1
Standard
  0
DICTIONARYVAR
  5
A6
102
{ACAD_REACTORS
330
A1
102
}
330
A1
100
DictionaryVariables
280
     0
  1
Standard
  0
DICTIONARY
  5
A3
330
5A
100
AcDbDictionary
280
     1
281
     1
  3
ACAD_ROUNDTRIP_2008_TABLESTYLE_CELLSTYLEMAP
360
A4
  0
CELLSTYLEMAP
  5
A4
102
{ACAD_REACTORS
330
A3
102
}
330
A3
100
AcDbCellStyleMap
 90
        3
300
CELLSTYLE
  1
TABLEFORMAT_BEGIN
 90
        5
170
     1
 91
        0
 92
    32768
 62
   257
 93
        1
300
CONTENTFORMAT
  1
CONTENTFORMAT_BEGIN
 90
        0
 91
        0
 92
        4
 93
        0
300

 40
0.0
140
1.0
 94
        5
 62
     0
340
11
144
0.25
309
CONTENTFORMAT_END
171
     1
301
MARGIN
  1
CELLMARGIN_BEGIN
 40
0.06
 40
0.06
 40
0.06
 40
0.06
 40
0.06
 40
0.06
309
CELLMARGIN_END
 94
        6
 95
        1
302
GRIDFORMAT
  1
GRIDFORMAT_BEGIN
 90
        0
 91
        1
 62
     0
 92
       -2
340
14
 93
        0
 40
0.045
309
GRIDFORMAT_END
 95
        2
302
GRIDFORMAT
  1
GRIDFORMAT_BEGIN
 90
        0
 91
        1
 62
     0
 92
       -2
340
14
 93
        0
 40
0.045
309
GRIDFORMAT_END
 95
        4
302
GRIDFORMAT
  1
GRIDFORMAT_BEGIN
 90
        0
 91
        1
 62
     0
 92
       -2
340
14
 93
        0
 40
0.045
309
GRIDFORMAT_END
 95
        8
302
GRIDFORMAT
  1
GRIDFORMAT_BEGIN
 90
        0
 91
        1
 62
     0
 92
       -2
340
14
 93
        0
 40
0.045
309
GRIDFORMAT_END
 95
       16
302
GRIDFORMAT
  1
GRIDFORMAT_BEGIN
 90
        0
 91
        1
 62
     0
 92
       -2
340
14
 93
        0
 40
0.045
309
GRIDFORMAT_END
 95
       32
302
GRIDFORMAT
  1
GRIDFORMAT_BEGIN
 90
        0
 91
        1
 62
     0
 92
       -2
340
14
 93
        0
 40
0.045
309
GRIDFORMAT_END
309
TABLEFORMAT_END
  1
CELLSTYLE_BEGIN
 90
        1
 91
        1
300
_TITLE
309
CELLSTYLE_END
300
CELLSTYLE
  1
TABLEFORMAT_BEGIN
 90
        5
170
     1
 91
        0
 92
        0
 62
   257
 93
        1
300
CONTENTFORMAT
  1
CONTENTFORMAT_BEGIN
 90
        0
 91
        0
 92
        4
 93
        0
300

 40
0.0
140
1.0
 94
        5
 62
     0
340
11
144
0.18
309
CONTENTFORMAT_END
171
     1
301
MARGIN
  1
CELLMARGIN_BEGIN
 40
0.06
 40
0.06
 40
0.06
 40
0.06
 40
0.06
 40
0.06
309
CELLMARGIN_END
 94
        6
 95
        1
302
GRIDFORMAT
  1
GRIDFORMAT_BEGIN
 90
        0
 91
        1
 62
     0
 92
       -2
340
14
 93
        0
 40
0.045
309
GRIDFORMAT_END
 95
        2
302
GRIDFORMAT
  1
GRIDFORMAT_BEGIN
 90
        0
 91
        1
 62
     0
 92
       -2
340
14
 93
        0
 40
0.045
309
GRIDFORMAT_END
 95
        4
302
GRIDFORMAT
  1
GRIDFORMAT_BEGIN
 90
        0
 91
        1
 62
     0
 92
       -2
340
14
 93
        0
 40
0.045
309
GRIDFORMAT_END
 95
        8
302
GRIDFORMAT
  1
GRIDFORMAT_BEGIN
 90
        0
 91
        1
 62
     0
 92
       -2
340
14
 93
        0
 40
0.045
309
GRIDFORMAT_END
 95
       16
302
GRIDFORMAT
  1
GRIDFORMAT_BEGIN
 90
        0
 91
        1
 62
     0
 92
       -2
340
14
 93
        0
 40
0.045
309
GRIDFORMAT_END
 95
       32
302
GRIDFORMAT
  1
GRIDFORMAT_BEGIN
 90
        0
 91
        1
 62
     0
 92
       -2
340
14
 93
        0
 40
0.045
309
GRIDFORMAT_END
309
TABLEFORMAT_END
  1
CELLSTYLE_BEGIN
 90
        2
 91
        1
300
_HEADER
309
CELLSTYLE_END
300
CELLSTYLE
  1
TABLEFORMAT_BEGIN
 90
        5
170
     1
 91
        0
 92
        0
 62
   257
 93
        1
300
CONTENTFORMAT
  1
CONTENTFORMAT_BEGIN
 90
        0
 91
        0
 92
        4
 93
        0
300

 40
0.0
140
1.0
 94
        2
 62
     0
340
11
144
0.18
309
CONTENTFORMAT_END
171
     1
301
MARGIN
  1
CELLMARGIN_BEGIN
 40
0.06
 40
0.06
 40
0.06
 40
0.06
 40
0.06
 40
0.06
309
CELLMARGIN_END
 94
        6
 95
        1
302
GRIDFORMAT
  1
GRIDFORMAT_BEGIN
 90
        0
 91
        1
 62
     0
 92
       -2
340
14
 93
        0
 40
0.045
309
GRIDFORMAT_END
 95
        2
302
GRIDFORMAT
  1
GRIDFORMAT_BEGIN
 90
        0
 91
        1
 62
     0
 92
       -2
340
14
 93
        0
 40
0.045
309
GRIDFORMAT_END
 95
        4
302
GRIDFORMAT
  1
GRIDFORMAT_BEGIN
 90
        0
 91
        1
 62
     0
 92
       -2
340
14
 93
        0
 40
0.045
309
GRIDFORMAT_END
 95
        8
302
GRIDFORMAT
  1
GRIDFORMAT_BEGIN
 90
        0
 91
        1
 62
     0
 92
       -2
340
14
 93
        0
 40
0.045
309
GRIDFORMAT_END
 95
       16
302
GRIDFORMAT
  1
GRIDFORMAT_BEGIN
 90
        0
 91
        1
 62
     0
 92
       -2
340
14
 93
        0
 40
0.045
309
GRIDFORMAT_END
 95
       32
302
GRIDFORMAT
  1
GRIDFORMAT_BEGIN
 90
        0
 91
        1
 62
     0
 92
       -2
340
14
 93
        0
 40
0.045
309
GRIDFORMAT_END
309
TABLEFORMAT_END
  1
CELLSTYLE_BEGIN
 90
        3
 91
        2
300
_DATA
309
CELLSTYLE_END
  0
ENDSEC
  0
EOF
