  0
SECTION
  2
HEADER
  9
$ACADVER
  1
AC1027
  9
$ACADMAINTVER
 70
   105
  9
$DWGCODEPAGE
  3
ANSI_1252
  9
$LASTSAVEDBY
  1
Office Desk
  9
$REQUIREDVERSIONS
160
                 0
  9
$INSBASE
 10
0.0
 20
0.0
 30
0.0
  9
$EXTMIN
 10
209.6257
 20
-310.9852
 30
0.0
  9
$EXTMAX
 10
1107.2074
 20
266.7765
 30
0.0
  9
$LIMMIN
 10
0.0
 20
0.0
  9
$LIMMAX
 10
12.0
 20
9.0
  9
$ORTHOMODE
 70
     0
  9
$REGENMODE
 70
     1
  9
$FILLMODE
 70
     1
  9
$QTEXTMODE
 70
     0
  9
$MIRRTEXT
 70
     1
  9
$LTSCALE
 40
1.0
  9
$ATTMODE
 70
     1
  9
$TEXTSIZE
 40
0.2
  9
$TRACEWID
 40
0.05
  9
$TEXTSTYLE
  7
Standard
  9
$CLAYER
  8
0
  9
$CELTYPE
  6
ByLayer
  9
$CECOLOR
 62
   256
  9
$CELTSCALE
 40
1.0
  9
$DISPSILH
 70
     0
  9
$DIMSCALE
 40
1.0
  9
$DIMASZ
 40
0.18
  9
$DIMEXO
 40
0.0625
  9
$DIMDLI
 40
0.38
  9
$DIMRND
 40
0.0
  9
$DIMDLE
 40
0.0
  9
$DIMEXE
 40
0.18
  9
$DIMTP
 40
0.0
  9
$DIMTM
 40
0.0
  9
$DIMTXT
 40
0.18
  9
$DIMCEN
 40
0.09
  9
$DIMTSZ
 40
0.0
  9
$DIMTOL
 70
     0
  9
$DIMLIM
 70
     0
  9
$DIMTIH
 70
     1
  9
$DIMTOH
 70
     1
  9
$DIMSE1
 70
     0
  9
$DIMSE2
 70
     0
  9
$DIMTAD
 70
     0
  9
$DIMZIN
 70
     0
  9
$DIMBLK
  1

  9
$DIMASO
 70
     1
  9
$DIMSHO
 70
     1
  9
$DIMPOST
  1

  9
$DIMAPOST
  1

  9
$DIMALT
 70
     0
  9
$DIMALTD
 70
     2
  9
$DIMALTF
 40
25.4
  9
$DIMLFAC
 40
1.0
  9
$DIMTOFL
 70
     0
  9
$DIMTVP
 40
0.0
  9
$DIMTIX
 70
     0
  9
$DIMSOXD
 70
     0
  9
$DIMSAH
 70
     0
  9
$DIMBLK1
  1

  9
$DIMBLK2
  1

  9
$DIMSTYLE
  2
Standard
  9
$DIMCLRD
 70
     0
  9
$DIMCLRE
 70
     0
  9
$DIMCLRT
 70
     0
  9
$DIMTFAC
 40
1.0
  9
$DIMGAP
 40
0.09
  9
$DIMJUST
 70
     0
  9
$DIMSD1
 70
     0
  9
$DIMSD2
 70
     0
  9
$DIMTOLJ
 70
     1
  9
$DIMTZIN
 70
     0
  9
$DIMALTZ
 70
     0
  9
$DIMALTTZ
 70
     0
  9
$DIMUPT
 70
     0
  9
$DIMDEC
 70
     4
  9
$DIMTDEC
 70
     4
  9
$DIMALTU
 70
     2
  9
$DIMALTTD
 70
     2
  9
$DIMTXSTY
  7
Standard
  9
$DIMAUNIT
 70
     0
  9
$DIMADEC
 70
     0
  9
$DIMALTRND
 40
0.0
  9
$DIMAZIN
 70
     0
  9
$DIMDSEP
 70
    46
  9
$DIMATFIT
 70
     3
  9
$DIMFRAC
 70
     0
  9
$DIMLDRBLK
  1

  9
$DIMLUNIT
 70
     2
  9
$DIMLWD
 70
    -2
  9
$DIMLWE
 70
    -2
  9
$DIMTMOVE
 70
     0
  9
$DIMFXL
 40
1.0
  9
$DIMFXLON
 70
     0
  9
$DIMJOGANG
 40
0.7853981633974483
  9
$DIMTFILL
 70
     0
  9
$DIMTFILLCLR
 70
     0
  9
$DIMARCSYM
 70
     0
  9
$DIMLTYPE
  6

  9
$DIMLTEX1
  6

  9
$DIMLTEX2
  6

  9
$DIMTXTDIRECTION
 70
     0
  9
$LUNITS
 70
     2
  9
$LUPREC
 70
     4
  9
$SKETCHINC
 40
0.1
  9
$FILLETRAD
 40
0.0
  9
$AUNITS
 70
     0
  9
$AUPREC
 70
     0
  9
$MENU
  1
.
  9
$ELEVATION
 40
0.0
  9
$PELEVATION
 40
0.0
  9
$THICKNESS
 40
0.0
  9
$LIMCHECK
 70
     0
  9
$CHAMFERA
 40
0.0
  9
$CHAMFERB
 40
0.0
  9
$CHAMFERC
 40
0.0
  9
$CHAMFERD
 40
0.0
  9
$SKPOLY
 70
     0
  9
$TDCREATE
 40
2461013.688041412
  9
$TDUCREATE
 40
2461013.458874746
  9
$TDUPDATE
 40
2461013.688041597
  9
$TDUUPDATE
 40
2461013.458874931
  9
$TDINDWG
 40
0.0000000116
  9
$TDUSRTIMER
 40
0.0000000116
  9
$USRTIMER
 70
     1
  9
$ANGBASE
 50
0.0
  9
$ANGDIR
 70
     0
  9
$PDMODE
 70
     0
  9
$PDSIZE
 40
0.0
  9
$PLINEWID
 40
0.0
  9
$SPLFRAME
 70
     0
  9
$SPLINETYPE
 70
     6
  9
$SPLINESEGS
 70
     8
  9
$HANDSEED
  5
CA
  9
$SURFTAB1
 70
     6
  9
$SURFTAB2
 70
     6
  9
$SURFTYPE
 70
     6
  9
$SURFU
 70
     6
  9
$SURFV
 70
     6
  9
$UCSBASE
  2

  9
$UCSNAME
  2

  9
$UCSORG
 10
0.0
 20
0.0
 30
0.0
  9
$UCSXDIR
 10
1.0
 20
0.0
 30
0.0
  9
$UCSYDIR
 10
0.0
 20
1.0
 30
0.0
  9
$UCSORTHOREF
  2

  9
$UCSORTHOVIEW
 70
     0
  9
$UCSORGTOP
 10
0.0
 20
0.0
 30
0.0
  9
$UCSORGBOTTOM
 10
0.0
 20
0.0
 30
0.0
  9
$UCSORGLEFT
 10
0.0
 20
0.0
 30
0.0
  9
$UCSORGRIGHT
 10
0.0
 20
0.0
 30
0.0
  9
$UCSORGFRONT
 10
0.0
 20
0.0
 30
0.0
  9
$UCSORGBACK
 10
0.0
 20
0.0
 30
0.0
  9
$PUCSBASE
  2

  9
$PUCSNAME
  2

  9
$PUCSORG
 10
0.0
 20
0.0
 30
0.0
  9
$PUCSXDIR
 10
1.0
 20
0.0
 30
0.0
  9
$PUCSYDIR
 10
0.0
 20
1.0
 30
0.0
  9
$PUCSORTHOREF
  2

  9
$PUCSORTHOVIEW
 70
     0
  9
$PUCSORGTOP
 10
0.0
 20
0.0
 30
0.0
  9
$PUCSORGBOTTOM
 10
0.0
 20
0.0
 30
0.0
  9
$PUCSORGLEFT
 10
0.0
 20
0.0
 30
0.0
  9
$PUCSORGRIGHT
 10
0.0
 20
0.0
 30
0.0
  9
$PUCSORGFRONT
 10
0.0
 20
0.0
 30
0.0
  9
$PUCSORGBACK
 10
0.0
 20
0.0
 30
0.0
  9
$USERI1
 70
     0
  9
$USERI2
 70
     0
  9
$USERI3
 70
     0
  9
$USERI4
 70
     0
  9
$USERI5
 70
     0
  9
$USERR1
 40
0.0
  9
$USERR2
 40
0.0
  9
$USERR3
 40
0.0
  9
$USERR4
 40
0.0
  9
$USERR5
 40
0.0
  9
$WORLDVIEW
 70
     1
  9
$SHADEDGE
 70
     3
  9
$SHADEDIF
 70
    70
  9
$TILEMODE
 70
     1
  9
$MAXACTVP
 70
    64
  9
$PINSBASE
 10
0.0
 20
0.0
 30
0.0
  9
$PLIMCHECK
 70
     0
  9
$PEXTMIN
 10
1.000000000000000E+20
 20
1.000000000000000E+20
 30
1.000000000000000E+20
  9
$PEXTMAX
 10
-1.000000000000000E+20
 20
-1.000000000000000E+20
 30
-1.000000000000000E+20
  9
$PLIMMIN
 10
0.0
 20
0.0
  9
$PLIMMAX
 10
12.0
 20
9.0
  9
$UNITMODE
 70
     0
  9
$VISRETAIN
 70
     1
  9
$PLINEGEN
 70
     0
  9
$PSLTSCALE
 70
     1
  9
$TREEDEPTH
 70
  3020
  9
$CMLSTYLE
  2
Standard
  9
$CMLJUST
 70
     0
  9
$CMLSCALE
 40
1.0
  9
$PROXYGRAPHICS
 70
     1
  9
$MEASUREMENT
 70
     0
  9
$CELWEIGHT
370
    -1
  9
$ENDCAPS
280
     0
  9
$JOINSTYLE
280
     0
  9
$LWDISPLAY
290
     0
  9
$INSUNITS
 70
     4
  9
$HYPERLINKBASE
  1

  9
$STYLESHEET
  1

  9
$XEDIT
290
     1
  9
$CEPSNTYPE
380
     0
  9
$PSTYLEMODE
290
     1
  9
$FINGERPRINTGUID
  2
{2ebf3dec-f45b-42b9-8471-053440f31bc0}
  9
$VERSIONGUID
  2
{FAEB1C32-E019-11D5-929B-00C0DF256EC4}
  9
$EXTNAMES
290
     1
  9
$PSVPSCALE
 40
0.0
  9
$OLESTARTUP
290
     0
  9
$SORTENTS
280
   127
  9
$INDEXCTL
280
     0
  9
$HIDETEXT
280
     1
  9
$XCLIPFRAME
280
     2
  9
$HALOGAP
280
     0
  9
$OBSCOLOR
 70
   257
  9
$OBSLTYPE
280
     0
  9
$INTERSECTIONDISPLAY
280
     0
  9
$INTERSECTIONCOLOR
 70
   257
  9
$DIMASSOC
280
     2
  9
$PROJECTNAME
  1

  9
$CAMERADISPLAY
290
     0
  9
$LENSLENGTH
 40
50.0
  9
$CAMERAHEIGHT
 40
0.0
  9
$STEPSPERSEC
 40
2.0
  9
$STEPSIZE
 40
6.0
  9
$3DDWFPREC
 40
2.0
  9
$PSOLWIDTH
 40
0.25
  9
$PSOLHEIGHT
 40
4.0
  9
$LOFTANG1
 40
1.570796326794897
  9
$LOFTANG2
 40
1.570796326794897
  9
$LOFTMAG1
 40
0.0
  9
$LOFTMAG2
 40
0.0
  9
$LOFTPARAM
 70
     7
  9
$LOFTNORMALS
280
     1
  9
$LATITUDE
 40
37.795
  9
$LONGITUDE
 40
-122.394
  9
$NORTHDIRECTION
 40
0.0
  9
$TIMEZONE
 70
 -8000
  9
$LIGHTGLYPHDISPLAY
280
     1
  9
$TILEMODELIGHTSYNCH
280
     1
  9
$CMATERIAL
347
44
  9
$SOLIDHIST
280
     0
  9
$SHOWHIST
280
     1
  9
$DWFFRAME
280
     2
  9
$DGNFRAME
280
     2
  9
$REALWORLDSCALE
290
     1
  9
$INTERFERECOLOR
 62
   256
  9
$CSHADOW
280
     0
  9
$SHADOWPLANELOCATION
 40
0.0
  0
ENDSEC
  0
SECTION
  2
CLASSES
  0
CLASS
  1
ACDBDICTIONARYWDFLT
  2
AcDbDictionaryWithDefault
  3
ObjectDBX Classes
 90
        0
 91
        3
280
     0
281
     0
  0
CLASS
  1
VISUALSTYLE
  2
AcDbVisualStyle
  3
ObjectDBX Classes
 90
     4095
 91
        3
280
     0
281
     0
  0
CLASS
  1
MATERIAL
  2
AcDbMaterial
  3
ObjectDBX Classes
 90
     1153
 91
        3
280
     0
281
     0
  0
CLASS
  1
SCALE
  2
AcDbScale
  3
ObjectDBX Classes
 90
     1153
 91
        3
280
     0
281
     0
  0
CLASS
  1
TABLESTYLE
  2
AcDbTableStyle
  3
ObjectDBX Classes
 90
     4095
 91
        3
280
     0
281
     0
  0
CLASS
  1
MLEADERSTYLE
  2
AcDbMLeaderStyle
  3
ACDB_MLEADERSTYLE_CLASS
 90
     4095
 91
        3
280
     0
281
     0
  0
CLASS
  1
SUN
  2
AcDbSun
  3
SCENEOE
 90
     1153
 91
        3
280
     0
281
     0
  0
CLASS
  1
DICTIONARYVAR
  2
AcDbDictionaryVar
  3
ObjectDBX Classes
 90
        0
 91
        3
280
     0
281
     0
  0
CLASS
  1
CELLSTYLEMAP
  2
AcDbCellStyleMap
  3
ObjectDBX Classes
 90
     1152
 91
        3
280
     0
281
     0
  0
ENDSEC
  0
SECTION
  2
TABLES
  0
TABLE
  2
VPORT
  5
8
330
0
100
AcDbSymbolTable
 70
     1
  0
VPORT
  5
29
330
8
100
AcDbSymbolTableRecord
100
AcDbViewportTableRecord
  2
*Active
 70
     0
 10
0.0
 20
0.0
 11
1.0
 21
1.0
 12
10.42990654205607
 22
4.5
 13
0.0
 23
0.0
 14
0.5
 24
0.5
 15
0.5
 25
0.5
 16
0.0
 26
0.0
 36
1.0
 17
0.0
 27
0.0
 37
0.0
 40
9.0
 41
1.972972972850329
 42
50.0
 43
0.0
 44
0.0
 50
0.0
 51
0.0
 71
     0
 72
   100
 73
     1
 74
     3
 75
     0
 76
     0
 77
     0
 78
     0
281
     0
 65
     1
110
0.0
120
0.0
130
0.0
111
1.0
121
0.0
131
0.0
112
0.0
122
1.0
132
0.0
 79
     0
146
0.0
348
2F
 60
     3
 61
     5
292
     1
282
     1
141
0.0
142
0.0
 63
   250
361
5D
  0
ENDTAB
  0
TABLE
  2
LTYPE
  5
5
330
0
100
AcDbSymbolTable
 70
     1
  0
LTYPE
  5
14
330
5
100
AcDbSymbolTableRecord
100
AcDbLinetypeTableRecord
  2
ByBlock
 70
     0
  3

 72
    65
 73
     0
 40
0.0
  0
LTYPE
  5
15
330
5
100
AcDbSymbolTableRecord
100
AcDbLinetypeTableRecord
  2
ByLayer
 70
     0
  3

 72
    65
 73
     0
 40
0.0
  0
LTYPE
  5
16
330
5
100
AcDbSymbolTableRecord
100
AcDbLinetypeTableRecord
  2
Continuous
 70
     0
  3
Solid line
 72
    65
 73
     0
 40
0.0
  0
ENDTAB
  0
TABLE
  2
LAYER
  5
2
330
0
100
AcDbSymbolTable
 70
     2
  0
LAYER
  5
10
330
2
100
AcDbSymbolTableRecord
100
AcDbLayerTableRecord
  2
0
 70
     0
 62
     7
  6
Continuous
370
    -3
390
F
347
46
348
0
  0
LAYER
  5
5F
330
2
100
AcDbSymbolTableRecord
100
AcDbLayerTableRecord
  2
Layer 1
 70
     0
 62
     7
  6
Continuous
370
    -3
390
F
347
46
348
0
  0
ENDTAB
  0
TABLE
  2
STYLE
  5
3
330
0
100
AcDbSymbolTable
 70
     1
  0
STYLE
  5
11
330
3
100
AcDbSymbolTableRecord
100
AcDbTextStyleTableRecord
  2
Standard
 70
     0
 40
0.0
 41
1.0
 50
0.0
 71
     0
 42
0.2
  3
txt
  4

  0
ENDTAB
  0
TABLE
  2
VIEW
  5
6
330
0
100
AcDbSymbolTable
 70
     0
  0
ENDTAB
  0
TABLE
  2
UCS
  5
7
330
0
100
AcDbSymbolTable
 70
     0
  0
ENDTAB
  0
TABLE
  2
APPID
  5
9
330
0
100
AcDbSymbolTable
 70
     2
  0
APPID
  5
12
330
9
100
AcDbSymbolTableRecord
100
AcDbRegAppTableRecord
  2
ACAD
 70
     0
  0
APPID
  5
5E
330
9
100
AcDbSymbolTableRecord
100
AcDbRegAppTableRecord
  2
ODA
 70
     0
  0
ENDTAB
  0
TABLE
  2
DIMSTYLE
  5
A
330
0
100
AcDbSymbolTable
 70
     1
100
AcDbDimStyleTable
  0
DIMSTYLE
105
27
330
A
100
AcDbSymbolTableRecord
100
AcDbDimStyleTableRecord
  2
Standard
 70
     0
178
     0
340
11
  0
ENDTAB
  0
TABLE
  2
BLOCK_RECORD
  5
1
330
0
100
AcDbSymbolTable
 70
     1
  0
BLOCK_RECORD
  5
1F
330
1
100
AcDbSymbolTableRecord
100
AcDbBlockTableRecord
  2
*Model_Space
340
22
 70
     0
280
     1
281
     0
  0
BLOCK_RECORD
  5
1B
330
1
100
AcDbSymbolTableRecord
100
AcDbBlockTableRecord
  2
*Paper_Space
340
1E
 70
     0
280
     1
281
     0
  0
BLOCK_RECORD
  5
23
330
1
100
AcDbSymbolTableRecord
100
AcDbBlockTableRecord
  2
*Paper_Space0
340
26
 70
     0
280
     1
281
     0
  0
ENDTAB
  0
ENDSEC
  0
SECTION
  2
BLOCKS
  0
BLOCK
  5
20
330
1F
100
AcDbEntity
  8
0
100
AcDbBlockBegin
  2
*Model_Space
 70
     0
 10
0.0
 20
0.0
 30
0.0
  3
*Model_Space
  1

  0
ENDBLK
  5
21
330
1F
100
AcDbEntity
  8
0
100
AcDbBlockEnd
  0
BLOCK
  5
1C
330
1B
100
AcDbEntity
 67
     1
  8
0
100
AcDbBlockBegin
  2
*Paper_Space
 70
     0
 10
0.0
 20
0.0
 30
0.0
  3
*Paper_Space
  1

  0
ENDBLK
  5
1D
330
1B
100
AcDbEntity
 67
     1
  8
0
100
AcDbBlockEnd
  0
BLOCK
  5
24
330
23
100
AcDbEntity
  8
0
100
AcDbBlockBegin
  2
*Paper_Space0
 70
     0
 10
0.0
 20
0.0
 30
0.0
  3
*Paper_Space0
  1

  0
ENDBLK
  5
25
330
23
100
AcDbEntity
  8
0
100
AcDbBlockEnd
  0
ENDSEC
  0
SECTION
  2
ENTITIES
  0
LWPOLYLINE
  5
60
330
1F
100
AcDbEntity
  8
Layer 1
 62
   250
370
    18
100
AcDbPolyline
 90
        5
 70
     1
 43
0.0
 10
209.7139
 20
-310.8969
 10
1107.1191
 20
-310.8969
 10
1107.1191
 20
266.6883
 10
209.7139
 20
266.6883
 10
209.7139
 20
-310.8969
  0
LWPOLYLINE
  5
61
330
1F
100
AcDbEntity
  8
Layer 1
 62
     7
370
    70
100
AcDbPolyline
 90
     1116
 70
     1
 43
0.0
 10
598.6416
 20
126.3542
 10
598.5332
 20
126.3305
 10
598.4075
 20
126.3165
 10
598.2696
 20
126.3101
 10
598.1246
 20
126.3094
 10
597.8342
 20
126.3168
 10
597.5772
 20
126.3228
 10
596.1695
 20
126.165
 10
595.7574
 20
126.0704
 10
594.9332
 20
126.0072
 10
594.7271
 20
125.9758
 10
594.1778
 20
125.9126
 10
593.9034
 20
125.8498
 10
590.1961
 20
125.4714
 10
589.9212
 20
125.4082
 10
589.8012
 20
125.3975
 10
589.6325
 20
125.3713
 10
589.4319
 20
125.3333
 10
589.2166
 20
125.287
 10
589.0035
 20
125.2362
 10
588.8098
 20
125.1845
 10
588.6523
 20
125.1355
 10
588.5482
 20
125.093
 10
588.465
 20
125.0904
 10
588.4466
 20
125.0906
 10
588.4361
 20
125.0763
 10
588.3763
 20
125.0303
 10
588.2764
 20
125.0069
 10
588.1478
 20
124.968
 10
588.0007
 20
124.9174
 10
587.8454
 20
124.8588
 10
587.6921
 20
124.7959
 10
587.551
 20
124.7327
 10
587.4325
 20
124.6728
 10
587.3466
 20
124.62
 10
587.271
 20
124.6054
 10
587.233
 20
124.5933
 10
587.2003
 20
124.571
 10
587.1405
 20
124.5259
 10
586.8998
 20
124.4627
 10
586.8314
 20
124.4193
 10
586.7486
 20
124.3765
 10
586.6555
 20
124.3358
 10
586.5561
 20
124.2985
 10
586.4547
 20
124.266
 10
586.3553
 20
124.2395
 10
586.2621
 20
124.2205
 10
586.1791
 20
124.2102
 10
586.083
 20
124.1661
 10
585.9833
 20
124.1314
 10
585.8807
 20
124.1038
 10
585.7762
 20
124.0809
 10
585.5644
 20
124.0399
 10
585.3549
 20
123.9896
 10
585.1013
 20
123.9649
 10
584.8013
 20
123.9045
 10
584.4721
 20
123.8157
 10
584.1307
 20
123.7059
 10
583.7943
 20
123.5823
 10
583.4799
 20
123.4521
 10
583.2048
 20
123.3228
 10
582.9859
 20
123.2015
 10
582.7239
 20
122.99
 10
582.5236
 20
122.8318
 10
582.4137
 20
122.7628
 10
582.2798
 20
122.6955
 10
582.1087
 20
122.6259
 10
581.8873
 20
122.5502
 10
581.2349
 20
122.35
 10
580.9597
 20
122.2729
 10
580.5732
 20
122.1716
 10
580.1915
 20
122.0808
 10
579.9303
 20
122.0354
 10
579.7568
 20
121.9432
 10
579.6905
 20
121.9341
 10
579.6302
 20
121.9193
 10
579.5744
 20
121.8995
 10
579.5217
 20
121.8754
 10
579.4198
 20
121.8175
 10
579.3127
 20
121.7515
 10
579.0676
 20
121.5491
 10
578.9093
 20
121.3844
 10
578.7982
 20
121.2458
 10
578.6946
 20
121.1214
 10
578.5587
 20
120.9996
 10
578.351
 20
120.8687
 10
578.0317
 20
120.717
 10
577.5612
 20
120.5327
 10
577.2376
 20
120.402
 10
576.978
 20
120.273
 10
576.7689
 20
120.1453
 10
576.5971
 20
120.0186
 10
576.4493
 20
119.8924
 10
576.3122
 20
119.7664
 10
576.1725
 20
119.6402
 10
576.0169
 20
119.5134
 10
575.8834
 20
119.4293
 10
575.7355
 20
119.3322
 10
575.591
 20
119.231
 10
575.4676
 20
119.1345
 10
575.3022
 20
119.048
 10
575.0839
 20
118.9456
 10
574.8339
 20
118.8348
 10
574.5735
 20
118.7228
 10
574.324
 20
118.617
 10
574.1067
 20
118.5248
 10
573.9429
 20
118.4533
 10
573.8539
 20
118.4101
 10
573.6788
 20
118.2851
 10
573.5254
 20
118.1403
 10
573.3858
 20
117.9821
 10
573.2521
 20
117.8169
 10
573.1163
 20
117.6509
 10
572.9706
 20
117.4905
 10
572.8072
 20
117.3421
 10
572.6181
 20
117.2121
 10
572.3511
 20
117.0745
 10
572.0362
 20
116.9114
 10
571.8754
 20
116.8136
 10
571.7203
 20
116.7015
 10
571.5768
 20
116.5725
 10
571.4506
 20
116.4239
 10
571.3172
 20
116.2147
 10
571.1897
 20
116.0013
 10
571.1162
 20
115.8938
 10
571.0296
 20
115.7864
 10
570.9253
 20
115.6793
 10
570.7983
 20
115.573
 10
570.6634
 20
115.4797
 10
570.5214
 20
115.3947
 10
570.3756
 20
115.3142
 10
570.2291
 20
115.2346
 10
570.0851
 20
115.1518
 10
569.9467
 20
115.0623
 10
569.8172
 20
114.9621
 10
569.6997
 20
114.8475
 10
569.5615
 20
114.6805
 10
569.444
 20
114.5176
 10
569.3374
 20
114.359
 10
569.2324
 20
114.2054
 10
569.1192
 20
114.0572
 10
568.9884
 20
113.9148
 10
568.8303
 20
113.7788
 10
568.6353
 20
113.6496
 10
568.4254
 20
113.5399
 10
568.235
 20
113.442
 10
568.1393
 20
113.382
 10
568.0389
 20
113.3062
 10
567.9307
 20
113.2084
 10
567.8116
 20
113.0825
 10
567.6839
 20
112.8974
 10
567.5663
 20
112.7123
 10
567.4599
 20
112.523
 10
567.3654
 20
112.3256
 10
567.0216
 20
111.9159
 10
566.9358
 20
111.835
 10
566.8417
 20
111.7629
 10
566.7423
 20
111.6966
 10
566.6405
 20
111.6332
 10
566.539
 20
111.5696
 10
566.4409
 20
111.5029
 10
566.349
 20
111.4301
 10
566.2662
 20
111.3482
 10
566.026
 20
111.0331
 10
565.9861
 20
110.9148
 10
565.9161
 20
110.7609
 10
565.8247
 20
110.583
 10
565.7202
 20
110.3926
 10
565.5055
 20
110.0214
 10
565.3395
 20
109.7405
 10
565.2563
 20
109.5853
 10
565.167
 20
109.431
 10
565.0695
 20
109.2816
 10
564.9616
 20
109.1415
 10
564.8244
 20
109.0469
 10
564.7653
 20
108.9733
 10
564.7205
 20
108.9327
 10
564.6676
 20
108.9019
 10
564.5842
 20
108.8577
 10
564.4563
 20
108.751
 10
564.3293
 20
108.6179
 10
564.206
 20
108.4655
 10
564.0889
 20
108.3007
 10
563.9809
 20
108.1307
 10
563.8844
 20
107.9625
 10
563.8023
 20
107.8031
 10
563.7372
 20
107.6597
 10
563.5312
 20
107.2143
 10
563.3414
 20
106.8876
 10
563.1668
 20
106.6552
 10
563.0065
 20
106.4926
 10
562.8595
 20
106.3754
 10
562.7251
 20
106.2793
 10
562.6022
 20
106.1798
 10
562.49
 20
106.0525
 10
562.1815
 20
105.4535
 10
562.1638
 20
105.3465
 10
562.1295
 20
105.2144
 10
562.0833
 20
105.0646
 10
562.03
 20
104.905
 10
561.9212
 20
104.5862
 10
561.8415
 20
104.3188
 10
561.7511
 20
104.0084
 10
561.6432
 20
103.7071
 10
561.5391
 20
103.42
 10
561.4603
 20
103.1522
 10
561.4075
 20
103.095
 10
561.3977
 20
103.0864
 10
561.4021
 20
103.0791
 10
561.392
 20
103.0262
 10
561.3355
 20
102.9346
 10
561.2699
 20
102.8443
 10
561.1975
 20
102.7554
 10
561.1203
 20
102.6678
 10
560.9605
 20
102.4971
 10
560.808
 20
102.3326
 10
560.6458
 20
102.0929
 10
560.5231
 20
101.8859
 10
560.4304
 20
101.7003
 10
560.3584
 20
101.5246
 10
560.2974
 20
101.3475
 10
560.2383
 20
101.1576
 10
560.1714
 20
100.9434
 10
560.0873
 20
100.6935
 10
560.0652
 20
100.5348
 10
560.0164
 20
100.2985
 10
559.9601
 20
100.0626
 10
559.9154
 20
99.9053
 10
559.9037
 20
99.8123
 10
559.875
 20
99.6757
 10
559.8339
 20
99.5098
 10
559.7851
 20
99.3288
 10
559.6831
 20
98.9784
 10
559.6064
 20
98.7387
 10
559.6064
 20
98.6127
 10
559.5482
 20
98.4974
 10
559.4959
 20
98.3544
 10
559.456
 20
98.2064
 10
559.435
 20
98.0765
 10
559.3352
 20
97.9172
 10
559.3221
 20
97.8534
 10
559.2965
 20
97.7723
 10
559.2616
 20
97.6799
 10
559.2206
 20
97.5822
 10
559.1324
 20
97.3945
 10
559.0571
 20
97.2569
 10
559.0305
 20
97.1317
 10
558.9774
 20
96.9814
 10
558.9127
 20
96.8349
 10
558.851
 20
96.7212
 10
558.5078
 20
95.5232
 10
558.0957
 20
92.4964
 10
558.0614
 20
92.2176
 10
558.0405
 20
91.9188
 10
558.0301
 20
91.6804
 10
558.0273
 20
91.5828
 10
557.998
 20
91.3172
 10
557.9832
 20
91.0217
 10
557.9732
 20
90.7545
 10
557.9585
 20
90.574
 10
557.9368
 20
90.4959
 10
557.9234
 20
90.4126
 10
557.9167
 20
90.3254
 10
557.915
 20
90.2358
 10
557.9197
 20
90.0548
 10
557.9243
 20
89.8804
 10
557.8959
 20
89.725
 10
557.8793
 20
89.4764
 10
557.8721
 20
89.1633
 10
557.8718
 20
88.8148
 10
557.8758
 20
88.4595
 10
557.8818
 20
88.1264
 10
557.8872
 20
87.8444
 10
557.8896
 20
87.6423
 10
557.861
 20
87.4834
 10
557.8444
 20
87.2279
 10
557.8373
 20
86.9056
 10
557.8371
 20
86.5466
 10
557.8413
 20
86.1807
 10
557.8475
 20
85.8378
 10
557.853
 20
85.548
 10
557.8554
 20
85.341
 10
557.8539
 20
71.5524
 10
557.8501
 20
46.0737
 10
557.8455
 20
13.0715
 10
557.8414
 20
-23.2879
 10
557.839
 20
-58.8381
 10
557.8396
 20
-89.4126
 10
557.8447
 20
-110.8451
 10
557.8554
 20
-118.9692
 10
557.8821
 20
-119.0983
 10
557.8978
 20
-119.2868
 10
557.9048
 20
-119.5162
 10
557.9055
 20
-119.7685
 10
557.902
 20
-120.0253
 10
557.8966
 20
-120.2684
 10
557.8917
 20
-120.4794
 10
557.8896
 20
-120.6402
 10
557.9095
 20
-120.7913
 10
557.9201
 20
-120.9464
 10
557.9244
 20
-121.104
 10
557.9254
 20
-121.2623
 10
557.9263
 20
-121.4196
 10
557.9301
 20
-121.5743
 10
557.9398
 20
-121.7247
 10
557.9585
 20
-121.8691
 10
557.9887
 20
-122.1551
 10
558.0082
 20
-122.5102
 10
558.02
 20
-122.8205
 10
558.0273
 20
-122.9724
 10
558.5078
 20
-126.6609
 10
558.5682
 20
-126.8514
 10
558.645
 20
-127.1208
 10
558.7132
 20
-127.3887
 10
558.748
 20
-127.5751
 10
558.8477
 20
-127.7344
 10
558.8867
 20
-127.8892
 10
558.9634
 20
-128.1027
 10
559.0519
 20
-128.3128
 10
559.1259
 20
-128.4579
 10
559.1386
 20
-128.5419
 10
559.1602
 20
-128.6069
 10
559.1903
 20
-128.6684
 10
559.2289
 20
-128.7417
 10
559.2613
 20
-128.797
 10
559.2794
 20
-128.8305
 10
559.2893
 20
-128.867
 10
559.2973
 20
-128.9309
 10
559.3526
 20
-129.0172
 10
559.3928
 20
-129.0933
 10
559.4196
 20
-129.1748
 10
559.435
 20
-129.2774
 10
559.4837
 20
-129.3681
 10
559.5247
 20
-129.4691
 10
559.5598
 20
-129.5774
 10
559.5909
 20
-129.6903
 10
559.6477
 20
-129.9179
 10
559.7094
 20
-130.1289
 10
559.7167
 20
-130.2169
 10
559.7337
 20
-130.3184
 10
559.758
 20
-130.4287
 10
559.7876
 20
-130.5432
 10
559.8539
 20
-130.7656
 10
559.9154
 20
-130.9484
 10
559.9737
 20
-131.2586
 10
560.0413
 20
-131.5877
 10
560.1217
 20
-131.9269
 10
560.2185
 20
-132.2676
 10
560.3354
 20
-132.601
 10
560.4759
 20
-132.9184
 10
560.6436
 20
-133.2111
 10
560.8421
 20
-133.4703
 10
560.9293
 20
-133.558
 10
561.0191
 20
-133.6394
 10
561.1063
 20
-133.7229
 10
561.1859
 20
-133.8174
 10
561.2801
 20
-134.0216
 10
561.3733
 20
-134.2075
 10
561.4643
 20
-134.3828
 10
561.5517
 20
-134.5548
 10
561.6342
 20
-134.7312
 10
561.7103
 20
-134.9194
 10
561.7788
 20
-135.127
 10
561.8382
 20
-135.3614
 10
561.8943
 20
-135.5977
 10
561.9581
 20
-135.8274
 10
562.0294
 20
-136.0511
 10
562.108
 20
-136.2692
 10
562.1936
 20
-136.4822
 10
562.286
 20
-136.6906
 10
562.3849
 20
-136.8949
 10
562.49
 20
-137.0956
 10
562.5923
 20
-137.2539
 10
562.7093
 20
-137.3903
 10
562.8381
 20
-137.5157
 10
562.9756
 20
-137.6408
 10
563.1189
 20
-137.7766
 10
563.2651
 20
-137.9339
 10
563.4111
 20
-138.1235
 10
563.5539
 20
-138.3563
 10
563.6644
 20
-138.5738
 10
563.767
 20
-138.7948
 10
563.8681
 20
-139.0157
 10
563.9745
 20
-139.2331
 10
564.0927
 20
-139.4433
 10
564.2293
 20
-139.6429
 10
564.3909
 20
-139.8283
 10
564.5842
 20
-139.9959
 10
564.7379
 20
-140.1052
 10
564.8735
 20
-140.2
 10
564.9378
 20
-140.2492
 10
565.0017
 20
-140.3032
 10
565.0665
 20
-140.3649
 10
565.1335
 20
-140.4371
 10
565.2685
 20
-140.6295
 10
565.413
 20
-140.8925
 10
565.5706
 20
-141.2055
 10
565.7449
 20
-141.548
 10
565.9392
 20
-141.8994
 10
566.1573
 20
-142.2392
 10
566.4024
 20
-142.5468
 10
566.6783
 20
-142.8016
 10
566.8129
 20
-142.8971
 10
566.9428
 20
-143.008
 10
567.0692
 20
-143.126
 10
567.1935
 20
-143.2428
 10
567.3176
 20
-143.3926
 10
567.4276
 20
-143.5462
 10
567.5283
 20
-143.7022
 10
567.6243
 20
-143.8594
 10
567.72
 20
-144.0163
 10
567.8201
 20
-144.1717
 10
567.9292
 20
-144.3242
 10
568.0518
 20
-144.4726
 10
568.1629
 20
-144.5816
 10
568.2837
 20
-144.6766
 10
568.4117
 20
-144.7615
 10
568.5448
 20
-144.84
 10
568.6806
 20
-144.9159
 10
568.8168
 20
-144.993
 10
568.9513
 20
-145.0752
 10
569.0816
 20
-145.1662
 10
569.4254
 20
-145.5127
 10
569.5367
 20
-145.6601
 10
569.6318
 20
-145.8143
 10
569.7265
 20
-145.9674
 10
569.8369
 20
-146.1117
 10
569.976
 20
-146.2546
 10
570.1006
 20
-146.3608
 10
570.2152
 20
-146.4401
 10
570.3245
 20
-146.5022
 10
570.4329
 20
-146.5569
 10
570.545
 20
-146.6139
 10
570.6653
 20
-146.683
 10
570.7983
 20
-146.7739
 10
571.0282
 20
-146.9636
 10
571.2129
 20
-147.1497
 10
571.3635
 20
-147.3305
 10
571.4915
 20
-147.5044
 10
571.6078
 20
-147.6696
 10
571.7239
 20
-147.8246
 10
571.8508
 20
-147.9678
 10
571.9999
 20
-148.0974
 10
572.1097
 20
-148.1703
 10
572.235
 20
-148.2402
 10
572.3738
 20
-148.3105
 10
572.5241
 20
-148.3848
 10
572.6839
 20
-148.4665
 10
572.8515
 20
-148.5591
 10
573.0247
 20
-148.6661
 10
573.2016
 20
-148.791
 10
573.41
 20
-148.9747
 10
573.6511
 20
-149.214
 10
573.8735
 20
-149.4388
 10
574.0258
 20
-149.5791
 10
574.1076
 20
-149.6284
 10
574.1753
 20
-149.667
 10
574.2455
 20
-149.7009
 10
574.3349
 20
-149.7365
 10
574.5135
 20
-149.8631
 10
574.7422
 20
-149.9902
 10
575.0066
 20
-150.1175
 10
575.2922
 20
-150.2447
 10
575.5847
 20
-150.3714
 10
575.8698
 20
-150.4974
 10
576.1331
 20
-150.6222
 10
576.3601
 20
-150.7457
 10
576.463
 20
-150.8311
 10
576.5618
 20
-150.9279
 10
576.6584
 20
-151.0328
 10
576.7551
 20
-151.1426
 10
576.8538
 20
-151.254
 10
576.9568
 20
-151.3638
 10
577.0661
 20
-151.4686
 10
577.1838
 20
-151.5653
 10
577.3547
 20
-151.6701
 10
577.5622
 20
-151.7652
 10
577.7972
 20
-151.8563
 10
578.0508
 20
-151.949
 10
578.314
 20
-152.0489
 10
578.5779
 20
-152.1617
 10
578.8336
 20
-152.2928
 10
579.0719
 20
-152.4481
 10
579.7242
 20
-153.0471
 10
580.6856
 20
-153.4569
 10
580.9457
 20
-153.5033
 10
581.3472
 20
-153.5971
 10
581.7613
 20
-153.7003
 10
582.0592
 20
-153.775
 10
582.214
 20
-153.8153
 10
582.3913
 20
-153.8671
 10
582.5821
 20
-153.9288
 10
582.7778
 20
-153.9993
 10
582.9694
 20
-154.0769
 10
583.1482
 20
-154.1605
 10
583.3054
 20
-154.2485
 10
583.4321
 20
-154.3397
 10
583.572
 20
-154.3979
 10
583.6947
 20
-154.4965
 10
583.8689
 20
-154.6446
 10
583.9717
 20
-154.7254
 10
584.0829
 20
-154.8045
 10
584.2013
 20
-154.8771
 10
584.3252
 20
-154.9386
 10
584.5214
 20
-155.0156
 10
584.7305
 20
-155.0853
 10
584.9492
 20
-155.1484
 10
585.1744
 20
-155.2058
 10
585.4029
 20
-155.2579
 10
585.6315
 20
-155.3057
 10
585.857
 20
-155.3497
 10
586.0761
 20
-155.3907
 10
586.2589
 20
-155.4255
 10
586.4603
 20
-155.4658
 10
586.6738
 20
-155.5103
 10
586.8927
 20
-155.558
 10
587.1104
 20
-155.6078
 10
587.3203
 20
-155.6585
 10
587.5156
 20
-155.709
 10
587.6898
 20
-155.7582
 10
587.8203
 20
-155.7684
 10
587.9427
 20
-155.7934
 10
588.0588
 20
-155.8322
 10
588.1703
 20
-155.8842
 10
588.4105
 20
-155.9155
 10
588.5152
 20
-155.9754
 10
588.6139
 20
-156.0167
 10
588.7139
 20
-156.0546
 10
588.8226
 20
-156.1047
 10
588.9056
 20
-156.1074
 10
588.924
 20
-156.1074
 10
588.9347
 20
-156.1219
 10
588.9945
 20
-156.168
 10
590.3333
 20
-156.6091
 10
590.5621
 20
-156.6412
 10
590.8673
 20
-156.7014
 10
591.1715
 20
-156.7707
 10
591.3972
 20
-156.8302
 10
592.4616
 20
-156.9562
 10
592.5327
 20
-156.977
 10
592.576
 20
-156.986
 10
592.6222
 20
-156.9879
 10
592.7018
 20
-156.9875
 10
594.7618
 20
-157.1767
 10
595.0988
 20
-157.2092
 10
595.445
 20
-157.2235
 10
595.7929
 20
-157.238
 10
596.1348
 20
-157.2713
 10
596.2532
 20
-157.2966
 10
596.3682
 20
-157.3051
 10
596.4867
 20
-157.3046
 10
596.6158
 20
-157.3027
 10
596.7009
 20
-157.3228
 10
596.7916
 20
-157.3352
 10
596.8865
 20
-157.3414
 10
596.9841
 20
-157.3431
 10
597.1813
 20
-157.3388
 10
597.3711
 20
-157.3346
 10
597.5046
 20
-157.3594
 10
597.6884
 20
-157.3739
 10
597.9073
 20
-157.3804
 10
598.1456
 20
-157.3809
 10
598.388
 20
-157.3775
 10
598.619
 20
-157.3725
 10
598.8231
 20
-157.3679
 10
598.9848
 20
-157.3659
 10
599.0912
 20
-157.3898
 10
599.2098
 20
-157.404
 10
599.3372
 20
-157.4104
 10
599.4698
 20
-157.4111
 10
599.7362
 20
-157.4035
 10
599.9804
 20
-157.3973
 10
600.0886
 20
-157.421
 10
600.2143
 20
-157.4351
 10
600.3522
 20
-157.4415
 10
600.4972
 20
-157.4424
 10
600.7878
 20
-157.4351
 10
601.0448
 20
-157.4292
 10
622.9196
 20
-157.4306
 10
663.3839
 20
-157.4339
 10
715.8127
 20
-157.438
 10
773.581
 20
-157.4417
 10
830.0636
 20
-157.4438
 10
878.6356
 20
-157.4432
 10
912.6718
 20
-157.4388
 10
925.5474
 20
-157.4292
 10
925.6962
 20
-157.4049
 10
925.9261
 20
-157.3906
 10
926.2122
 20
-157.3841
 10
926.5293
 20
-157.3834
 10
926.8524
 20
-157.3864
 10
927.1564
 20
-157.3911
 10
927.4162
 20
-157.3954
 10
927.6068
 20
-157.3973
 10
927.9735
 20
-157.3669
 10
928.4323
 20
-157.3506
 10
928.839
 20
-157.342
 10
929.0492
 20
-157.3346
 10
929.3269
 20
-157.3076
 10
929.6121
 20
-157.2959
 10
929.8732
 20
-157.2876
 10
930.0789
 20
-157.2713
 10
930.4091
 20
-157.239
 10
930.7461
 20
-157.2244
 10
931.0842
 20
-157.2096
 10
931.4177
 20
-157.1767
 10
931.497
 20
-157.1548
 10
931.5501
 20
-157.1459
 10
931.6057
 20
-157.1446
 10
931.6926
 20
-157.1454
 10
934.3361
 20
-156.8616
 10
935.2286
 20
-156.6724
 10
935.3176
 20
-156.6666
 10
935.3834
 20
-156.6565
 10
935.4491
 20
-156.6465
 10
935.5377
 20
-156.641
 10
935.6424
 20
-156.5902
 10
935.7487
 20
-156.5511
 10
935.861
 20
-156.5252
 10
935.984
 20
-156.5145
 10
936.1217
 20
-156.4199
 10
936.2232
 20
-156.4012
 10
936.3789
 20
-156.3587
 10
936.5704
 20
-156.2992
 10
936.7795
 20
-156.2292
 10
937.1775
 20
-156.0848
 10
937.4264
 20
-155.9788
 10
937.5103
 20
-155.9681
 10
937.5907
 20
-155.95
 10
937.6695
 20
-155.927
 10
937.7489
 20
-155.9013
 10
937.8308
 20
-155.8755
 10
937.9174
 20
-155.8519
 10
938.0107
 20
-155.8329
 10
938.1128
 20
-155.8209
 10
938.2229
 20
-155.7722
 10
938.3431
 20
-155.7352
 10
938.4683
 20
-155.7095
 10
938.5933
 20
-155.695
 10
938.7167
 20
-155.6433
 10
938.8717
 20
-155.598
 10
939.0486
 20
-155.5575
 10
939.2382
 20
-155.5206
 10
939.6171
 20
-155.4516
 10
939.9326
 20
-155.3798
 10
940.0698
 20
-155.3798
 10
940.3119
 20
-155.3173
 10
940.5619
 20
-155.2636
 10
940.8146
 20
-155.2076
 10
941.0648
 20
-155.1383
 10
941.212
 20
-155.0868
 10
941.3486
 20
-155.0316
 10
941.477
 20
-154.9738
 10
941.6003
 20
-154.9147
 10
941.8418
 20
-154.7965
 10
942.0951
 20
-154.6862
 10
942.2327
 20
-154.5808
 10
942.4299
 20
-154.4188
 10
942.5416
 20
-154.3317
 10
942.657
 20
-154.2486
 10
942.7726
 20
-154.1755
 10
942.8846
 20
-154.1186
 10
943.64
 20
-153.8457
 10
944.2923
 20
-153.7058
 10
944.6015
 20
-153.6351
 10
944.9658
 20
-153.5459
 10
945.148
 20
-153.4958
 10
945.3194
 20
-153.4427
 10
945.4718
 20
-153.3874
 10
945.5969
 20
-153.3304
 10
945.7708
 20
-153.279
 10
945.9365
 20
-153.2201
 10
946.0168
 20
-153.1853
 10
946.0955
 20
-153.1455
 10
946.173
 20
-153.0998
 10
946.2493
 20
-153.0471
 10
946.3869
 20
-152.933
 10
946.493
 20
-152.8255
 10
946.582
 20
-152.7222
 10
946.6686
 20
-152.6212
 10
946.767
 20
-152.5201
 10
946.8919
 20
-152.417
 10
947.0578
 20
-152.3096
 10
947.279
 20
-152.1957
 10
947.4509
 20
-152.1011
 10
947.6359
 20
-152.0573
 10
947.8198
 20
-151.9991
 10
948.002
 20
-151.9287
 10
948.1816
 20
-151.8483
 10
948.3578
 20
-151.76
 10
948.5298
 20
-151.6662
 10
948.697
 20
-151.5691
 10
948.8585
 20
-151.4707
 10
948.9795
 20
-151.3711
 10
949.0938
 20
-151.263
 10
949.2045
 20
-151.1502
 10
949.3151
 20
-151.0367
 10
949.4286
 20
-150.9261
 10
949.5484
 20
-150.8225
 10
949.6778
 20
-150.7295
 10
949.8199
 20
-150.6511
 10
950.0033
 20
-150.5679
 10
950.2585
 20
-150.4546
 10
950.5607
 20
-150.32
 10
950.8853
 20
-150.1732
 10
951.2077
 20
-150.0231
 10
951.503
 20
-149.8785
 10
951.7467
 20
-149.7485
 10
951.9141
 20
-149.6419
 10
952.0188
 20
-149.5528
 10
952.1162
 20
-149.453
 10
952.2099
 20
-149.3453
 10
952.303
 20
-149.2327
 10
952.3991
 20
-149.118
 10
952.5014
 20
-149.0043
 10
952.6134
 20
-148.8943
 10
952.7383
 20
-148.791
 10
952.9077
 20
-148.6783
 10
953.0798
 20
-148.5848
 10
953.2529
 20
-148.5025
 10
953.4254
 20
-148.4231
 10
953.5957
 20
-148.3385
 10
953.7622
 20
-148.2405
 10
953.9232
 20
-148.1211
 10
954.0771
 20
-147.9719
 10
954.1823
 20
-147.8453
 10
954.2786
 20
-147.7141
 10
954.3702
 20
-147.5807
 10
954.4612
 20
-147.4476
 10
954.5556
 20
-147.3168
 10
954.6577
 20
-147.191
 10
954.7715
 20
-147.0723
 10
954.9013
 20
-146.9631
 10
955.7933
 20
-146.4269
 10
955.9127
 20
-146.3141
 10
956.0231
 20
-146.1782
 10
956.1298
 20
-146.0255
 10
956.2378
 20
-145.8623
 10
956.3525
 20
-145.6947
 10
956.4791
 20
-145.5291
 10
956.6229
 20
-145.3717
 10
956.7889
 20
-145.2289
 10
957.06
 20
-145.0547
 10
957.3433
 20
-144.8958
 10
957.4822
 20
-144.8127
 10
957.6154
 20
-144.7222
 10
957.7401
 20
-144.6206
 10
957.8533
 20
-144.504
 10
957.9614
 20
-144.3633
 10
958.056
 20
-144.2184
 10
958.1443
 20
-144.0707
 10
958.2335
 20
-143.9216
 10
958.331
 20
-143.7723
 10
958.4441
 20
-143.6243
 10
958.58
 20
-143.4789
 10
958.7459
 20
-143.3374
 10
958.9303
 20
-143.2107
 10
959.1217
 20
-143.0884
 10
959.2155
 20
-143.0245
 10
959.3055
 20
-142.9565
 10
959.39
 20
-142.8828
 10
959.4671
 20
-142.8016
 10
959.5763
 20
-142.654
 10
959.6765
 20
-142.4853
 10
959.7706
 20
-142.3014
 10
959.8618
 20
-142.1078
 10
959.953
 20
-141.9102
 10
960.0472
 20
-141.7145
 10
960.1474
 20
-141.5262
 10
960.2566
 20
-141.3512
 10
960.3282
 20
-141.278
 10
960.3793
 20
-141.217
 10
960.4206
 20
-141.1523
 10
960.4626
 20
-141.0679
 10
960.9772
 20
-140.5003
 10
961.2573
 20
-140.2335
 10
961.4875
 20
-139.9285
 10
961.6827
 20
-139.5998
 10
961.858
 20
-139.2618
 10
962.0283
 20
-138.9288
 10
962.2087
 20
-138.6153
 10
962.4142
 20
-138.3357
 10
962.6598
 20
-138.1044
 10
962.7862
 20
-138.0148
 10
962.9092
 20
-137.9295
 10
963.0276
 20
-137.8371
 10
963.1402
 20
-137.7259
 10
963.381
 20
-137.4108
 10
963.4403
 20
-137.1982
 10
963.5247
 20
-136.9469
 10
963.6243
 20
-136.6707
 10
963.7291
 20
-136.3831
 10
963.8289
 20
-136.098
 10
963.9138
 20
-135.8288
 10
963.9737
 20
-135.5893
 10
963.9986
 20
-135.3932
 10
964.2394
 20
-134.857
 10
964.2819
 20
-134.7871
 10
964.3353
 20
-134.7171
 10
964.3965
 20
-134.6474
 10
964.4627
 20
-134.5786
 10
964.5986
 20
-134.4454
 10
964.7198
 20
-134.3217
 10
964.8522
 20
-134.15
 10
964.9828
 20
-133.9762
 10
965.0417
 20
-133.8866
 10
965.0934
 20
-133.794
 10
965.1357
 20
-133.6977
 10
965.1661
 20
-133.5968
 10
965.2994
 20
-133.3648
 10
965.4241
 20
-133.0344
 10
965.5432
 20
-132.634
 10
965.6598
 20
-132.1919
 10
965.7769
 20
-131.7361
 10
965.8975
 20
-131.2951
 10
966.0247
 20
-130.8969
 10
966.1616
 20
-130.57
 10
966.2246
 20
-130.4489
 10
966.285
 20
-130.3287
 10
966.3525
 20
-130.211
 10
966.4366
 20
-130.0975
 10
966.4718
 20
-129.967
 10
966.522
 20
-129.8324
 10
966.5828
 20
-129.6952
 10
966.6501
 20
-129.557
 10
966.7861
 20
-129.2839
 10
966.8953
 20
-129.0255
 10
966.9753
 20
-128.7578
 10
967.0442
 20
-128.4834
 10
967.1128
 20
-128.212
 10
967.1919
 20
-127.9535
 10
967.7065
 20
-124.013
 10
967.7316
 20
-123.9335
 10
967.7413
 20
-123.8756
 10
967.7423
 20
-123.8154
 10
967.7412
 20
-123.7292
 10
967.8095
 20
-123.4768
 10
968.0503
 20
-121.5539
 10
968.0741
 20
-121.4815
 10
968.0838
 20
-121.4327
 10
968.0852
 20
-121.3814
 10
968.0844
 20
-121.3014
 10
968.1124
 20
-121.1879
 10
968.1216
 20
-121.0729
 10
968.1208
 20
-120.9541
 10
968.1186
 20
-120.8294
 10
968.1453
 20
-120.7214
 10
968.1611
 20
-120.589
 10
968.1682
 20
-120.4395
 10
968.1689
 20
-120.2803
 10
968.1602
 20
-119.9624
 10
968.1533
 20
-119.6942
 10
968.1795
 20
-119.5837
 10
968.195
 20
-119.4418
 10
968.202
 20
-119.2778
 10
968.2027
 20
-119.1016
 10
968.1943
 20
-118.7504
 10
968.1875
 20
-118.4649
 10
968.2145
 20
-118.35
 10
968.2303
 20
-118.201
 10
968.2374
 20
-118.0282
 10
968.2379
 20
-117.8421
 10
968.2288
 20
-117.4715
 10
968.2216
 20
-117.1723
 10
968.2231
 20
-103.3886
 10
968.2269
 20
-77.9151
 10
968.2315
 20
-44.9181
 10
968.2356
 20
-8.5636
 10
968.238
 20
26.9822
 10
968.2374
 20
57.5532
 10
968.2323
 20
78.9832
 10
968.2216
 20
87.1061
 10
968.1943
 20
87.2232
 10
968.1783
 20
87.3758
 10
968.1713
 20
87.5531
 10
968.1708
 20
87.7442
 10
968.1802
 20
88.1246
 10
968.1875
 20
88.4305
 10
968.1616
 20
88.5387
 10
968.1462
 20
88.6771
 10
968.1392
 20
88.8365
 10
968.1385
 20
89.0078
 10
968.1467
 20
89.3494
 10
968.1533
 20
89.6285
 10
967.6382
 20
93.5052
 10
967.6071
 20
93.7401
 10
967.5869
 20
93.9771
 10
967.5666
 20
94.2146
 10
967.5351
 20
94.4512
 10
967.2261
 20
96.6266
 10
966.917
 20
97.8873
 10
966.8353
 20
98.0417
 10
966.7409
 20
98.2582
 10
966.6573
 20
98.4785
 10
966.6079
 20
98.6441
 10
966.5404
 20
98.7344
 10
966.4558
 20
98.8655
 10
966.3619
 20
99.0244
 10
966.2664
 20
99.198
 10
966.1771
 20
99.3733
 10
966.1018
 20
99.5372
 10
966.0483
 20
99.6767
 10
966.0244
 20
99.7788
 10
965.996
 20
99.8367
 10
965.946
 20
99.9326
 10
965.8923
 20
100.054
 10
965.8526
 20
100.1886
 10
965.8217
 20
100.4669
 10
965.7462
 20
100.8216
 10
965.6358
 20
101.2254
 10
965.4998
 20
101.6511
 10
965.348
 20
102.0713
 10
965.1896
 20
102.4588
 10
965.0344
 20
102.7862
 10
964.8917
 20
103.0262
 10
964.4796
 20
103.436
 10
964.3538
 20
103.6438
 10
964.2094
 20
103.9331
 10
964.0571
 20
104.278
 10
963.9076
 20
104.6525
 10
963.7716
 20
105.0306
 10
963.6599
 20
105.3863
 10
963.5832
 20
105.6936
 10
963.5523
 20
105.9265
 10
963.4578
 20
106.0772
 10
963.3704
 20
106.2226
 10
963.2796
 20
106.3695
 10
963.1749
 20
106.525
 10
963.0734
 20
106.629
 10
962.9635
 20
106.7255
 10
962.8486
 20
106.8174
 10
962.732
 20
106.9079
 10
962.6171
 20
106.9997
 10
962.5073
 20
107.0959
 10
962.406
 20
107.1994
 10
962.3166
 20
107.3132
 10
961.6984
 20
108.5112
 10
961.5271
 20
108.7631
 10
961.3648
 20
109.0517
 10
961.2233
 20
109.2587
 10
961.0969
 20
109.4044
 10
960.98
 20
109.5094
 10
960.8671
 20
109.5939
 10
960.7527
 20
109.6786
 10
960.6311
 20
109.7837
 10
960.4968
 20
109.9297
 10
960.422
 20
110.0532
 10
960.2243
 20
110.327
 10
960.0781
 20
110.5629
 10
959.9689
 20
110.7689
 10
959.8821
 20
110.9532
 10
959.8031
 20
111.1236
 10
959.7173
 20
111.2882
 10
959.6102
 20
111.455
 10
959.4671
 20
111.6321
 10
959.3362
 20
111.7619
 10
959.2093
 20
111.8621
 10
959.083
 20
111.947
 10
958.9537
 20
112.0308
 10
958.8177
 20
112.1278
 10
958.6714
 20
112.2523
 10
958.5113
 20
112.4185
 10
958.3338
 20
112.6408
 10
958.2646
 20
112.7636
 10
958.1432
 20
112.9747
 10
958.0608
 20
113.0976
 10
957.9626
 20
113.2238
 10
957.8479
 20
113.347
 10
957.7156
 20
113.4609
 10
957.5859
 20
113.5513
 10
957.4516
 20
113.6333
 10
957.3151
 20
113.7107
 10
957.1788
 20
113.787
 10
957.0452
 20
113.8658
 10
956.9169
 20
113.951
 10
956.7963
 20
114.046
 10
956.6859
 20
114.1545
 10
956.4678
 20
114.4291
 10
956.2695
 20
114.7098
 10
956.1669
 20
114.8475
 10
956.0562
 20
114.9808
 10
955.9331
 20
115.1076
 10
955.7933
 20
115.226
 10
955.6723
 20
115.3097
 10
955.547
 20
115.3843
 10
955.4198
 20
115.4537
 10
955.2928
 20
115.5218
 10
955.1683
 20
115.5923
 10
955.0486
 20
115.6691
 10
954.9359
 20
115.756
 10
954.8325
 20
115.8568
 10
954.6871
 20
116.0291
 10
954.5788
 20
116.1756
 10
954.4927
 20
116.3043
 10
954.4138
 20
116.4232
 10
954.3272
 20
116.5403
 10
954.2178
 20
116.6635
 10
954.0708
 20
116.8008
 10
953.8711
 20
116.9602
 10
953.7579
 20
117.0381
 10
953.6411
 20
117.1077
 10
953.5214
 20
117.1722
 10
953.3997
 20
117.2348
 10
953.2769
 20
117.2984
 10
953.1537
 20
117.3663
 10
953.031
 20
117.4415
 10
952.9097
 20
117.5273
 10
952.8169
 20
117.6091
 10
952.7326
 20
117.7018
 10
952.6525
 20
117.8028
 10
952.5719
 20
117.9097
 10
952.4863
 20
118.02
 10
952.3911
 20
118.1314
 10
952.282
 20
118.2413
 10
952.1543
 20
118.3473
 10
951.9293
 20
118.4903
 10
951.6745
 20
118.6163
 10
951.4007
 20
118.733
 10
951.1189
 20
118.8484
 10
950.8399
 20
118.97
 10
950.5746
 20
119.1056
 10
950.334
 20
119.2631
 10
950.129
 20
119.4502
 10
950.0452
 20
119.5513
 10
949.9531
 20
119.6444
 10
949.8544
 20
119.7349
 10
949.7511
 20
119.8281
 10
949.4769
 20
120.0083
 10
949.1513
 20
120.1868
 10
948.7974
 20
120.3597
 10
948.4385
 20
120.5227
 10
948.0978
 20
120.6718
 10
947.7985
 20
120.8029
 10
947.5637
 20
120.9119
 10
947.4167
 20
120.9947
 10
947.3256
 20
121.0665
 10
947.2421
 20
121.1438
 10
947.1638
 20
121.2247
 10
947.0883
 20
121.3077
 10
947.013
 20
121.3909
 10
946.9356
 20
121.4727
 10
946.8536
 20
121.5513
 10
946.7644
 20
121.6251
 10
946.2151
 20
121.9721
 10
946.0259
 20
122.0128
 10
945.8103
 20
122.0704
 10
945.5772
 20
122.1385
 10
945.3357
 20
122.2108
 10
945.0946
 20
122.2808
 10
944.8629
 20
122.3422
 10
944.6496
 20
122.3885
 10
944.4636
 20
122.4133
 10
943.743
 20
122.6657
 10
943.2279
 20
122.9809
 10
943.093
 20
123.0922
 10
942.962
 20
123.2087
 10
942.8266
 20
123.3216
 10
942.6786
 20
123.422
 10
942.4645
 20
123.499
 10
942.2532
 20
123.5711
 10
942.0432
 20
123.6389
 10
941.833
 20
123.7028
 10
941.6212
 20
123.7634
 10
941.4064
 20
123.8211
 10
941.1871
 20
123.8765
 10
940.9618
 20
123.9299
 10
940.1034
 20
124.1126
 10
939.8795
 20
124.1665
 10
939.6399
 20
124.2374
 10
939.5219
 20
124.2718
 10
939.4091
 20
124.3018
 10
939.3045
 20
124.3244
 10
939.2114
 20
124.3367
 10
939.0054
 20
124.4627
 10
937.4605
 20
125.1249
 10
937.383
 20
125.1291
 10
937.3506
 20
125.1336
 10
937.3216
 20
125.1494
 10
937.2545
 20
125.1876
 10
930.4222
 20
126.0704
 10
930.2161
 20
126.1018
 10
930.145
 20
126.1227
 10
930.1017
 20
126.1319
 10
930.0555
 20
126.1339
 10
929.9759
 20
126.1336
 10
929.3236
 20
126.1964
 10
929.2371
 20
126.2192
 10
929.1742
 20
126.2282
 10
929.1086
 20
126.2292
 10
929.0145
 20
126.2282
 10
928.7743
 20
126.291
 10
928.5682
 20
126.291
 10
928.46
 20
126.3146
 10
928.3343
 20
126.3287
 10
928.1964
 20
126.3352
 10
928.0515
 20
126.336
 10
927.7608
 20
126.3287
 10
927.5038
 20
126.3228
 10
927.3673
 20
126.3469
 10
927.1697
 20
126.3611
 10
926.9297
 20
126.3675
 10
926.6662
 20
126.3682
 10
926.3979
 20
126.3651
 10
926.1437
 20
126.3604
 10
925.9225
 20
126.3561
 10
925.7529
 20
126.3542
 10
925.6125
 20
126.3787
 10
925.4074
 20
126.3932
 10
925.1576
 20
126.3996
 10
924.8829
 20
126.4002
 10
924.6033
 20
126.3969
 10
924.3386
 20
126.392
 10
924.1087
 20
126.3876
 10
923.9336
 20
126.3856
 10
601.9032
 20
126.3856
 10
598.6416
 20
126.3542
  0
LWPOLYLINE
  5
62
330
1F
100
AcDbEntity
  8
Layer 1
 62
     7
370
    70
100
AcDbPolyline
 90
      699
 70
     1
 43
0.0
 10
599.3964
 20
110.4973
 10
599.3001
 20
110.479
 10
599.167
 20
110.4671
 10
599.0088
 20
110.4599
 10
598.8378
 20
110.4557
 10
598.5047
 20
110.4492
 10
598.2636
 20
110.4341
 10
597.3022
 20
110.3713
 10
597.0038
 20
110.3381
 10
596.685
 20
110.3141
 10
596.4002
 20
110.2951
 10
596.2037
 20
110.2767
 10
593.1481
 20
109.9297
 10
592.0837
 20
109.6459
 10
591.965
 20
109.5905
 10
591.8418
 20
109.5219
 10
591.7174
 20
109.4449
 10
591.595
 20
109.3646
 10
591.3695
 20
109.214
 10
591.1917
 20
109.1101
 10
591.124
 20
109.0954
 10
591.1007
 20
109.0888
 10
591.0798
 20
109.0692
 10
591.0198
 20
109.0155
 10
590.8957
 20
108.9568
 10
590.7655
 20
108.9118
 10
590.6339
 20
108.8714
 10
590.5052
 20
108.8263
 10
590.3825
 20
108.7682
 10
590.1766
 20
108.6955
 10
589.9142
 20
108.6147
 10
589.6217
 20
108.5325
 10
589.326
 20
108.4555
 10
589.0536
 20
108.3904
 10
588.8312
 20
108.3436
 10
588.6854
 20
108.322
 10
588.5375
 20
108.252
 10
588.381
 20
108.1886
 10
588.2221
 20
108.1269
 10
588.0672
 20
108.0616
 10
587.903
 20
107.9809
 10
587.7655
 20
107.9022
 10
587.6489
 20
107.8251
 10
587.5473
 20
107.7487
 10
587.366
 20
107.596
 10
587.1747
 20
107.4392
 10
586.9345
 20
107.2818
 10
586.7968
 20
107.1554
 10
586.6159
 20
107.0768
 10
586.4228
 20
106.9805
 10
586.2206
 20
106.8736
 10
586.0124
 20
106.7634
 10
585.8014
 20
106.6568
 10
585.5908
 20
106.561
 10
585.3839
 20
106.4832
 10
585.1836
 20
106.4304
 10
585.1051
 20
106.3902
 10
585.021
 20
106.3368
 10
584.9341
 20
106.2736
 10
584.8477
 20
106.2039
 10
584.6878
 20
106.0582
 10
584.5654
 20
105.9265
 10
584.4477
 20
105.773
 10
584.3518
 20
105.6435
 10
584.2983
 20
105.5801
 10
584.2339
 20
105.5135
 10
584.153
 20
105.4408
 10
584.0503
 20
105.3589
 10
583.87
 20
105.2348
 10
583.7003
 20
105.1377
 10
583.5383
 20
105.0568
 10
583.3813
 20
104.9809
 10
583.2263
 20
104.8991
 10
583.0706
 20
104.8003
 10
582.9113
 20
104.6736
 10
582.7456
 20
104.508
 10
582.647
 20
104.3879
 10
582.5561
 20
104.2605
 10
582.4689
 20
104.1292
 10
582.3818
 20
103.9973
 10
582.2908
 20
103.8681
 10
582.192
 20
103.7451
 10
582.0818
 20
103.6314
 10
581.9561
 20
103.5306
 10
581.7162
 20
103.3844
 10
581.4575
 20
103.2417
 10
581.3298
 20
103.1665
 10
581.2078
 20
103.0859
 10
581.0949
 20
102.9978
 10
580.9947
 20
102.9002
 10
580.6856
 20
102.4905
 10
580.6575
 20
102.3963
 10
580.6184
 20
102.305
 10
580.5706
 20
102.2163
 10
580.516
 20
102.1297
 10
580.3954
 20
101.9614
 10
580.2735
 20
101.7969
 10
580.1648
 20
101.6839
 10
580.0492
 20
101.5821
 10
579.9292
 20
101.4878
 10
579.8071
 20
101.3977
 10
579.6854
 20
101.3083
 10
579.5666
 20
101.2159
 10
579.4529
 20
101.1172
 10
579.3468
 20
101.0087
 10
579.2377
 20
100.8461
 10
579.1379
 20
100.6803
 10
579.0456
 20
100.5118
 10
578.9586
 20
100.3415
 10
578.7931
 20
99.9973
 10
578.6256
 20
99.6529
 10
578.4988
 20
99.4317
 10
578.3145
 20
99.1287
 10
578.2164
 20
98.9752
 10
578.1227
 20
98.8356
 10
578.0395
 20
98.7214
 10
577.9733
 20
98.6441
 10
577.8811
 20
98.5678
 10
577.7597
 20
98.4729
 10
577.6903
 20
98.4117
 10
577.6163
 20
98.3376
 10
577.5386
 20
98.2478
 10
577.4582
 20
98.1397
 10
577.3996
 20
98.0174
 10
577.3557
 20
97.8873
 10
577.2725
 20
97.7662
 10
577.1978
 20
97.6126
 10
577.1308
 20
97.4358
 10
577.0708
 20
97.2453
 10
576.9692
 20
96.8602
 10
576.8872
 20
96.532
 10
576.7834
 20
96.2051
 10
576.6484
 20
95.8184
 10
576.583
 20
95.6245
 10
576.5267
 20
95.4417
 10
576.4849
 20
95.2789
 10
576.4632
 20
95.1448
 10
576.4216
 20
95.0832
 10
576.4044
 20
95.0565
 10
576.3995
 20
95.0267
 10
576.3948
 20
94.9556
 10
576.2918
 20
94.8296
 10
576.2677
 20
94.7557
 10
576.2297
 20
94.6738
 10
576.1814
 20
94.5868
 10
576.1264
 20
94.4972
 10
576.0114
 20
94.3212
 10
575.9139
 20
94.1674
 10
575.5706
 20
93.5052
 10
575.4973
 20
93.234
 10
575.4194
 20
92.8734
 10
575.3485
 20
92.5056
 10
575.2963
 20
92.2131
 10
575.0902
 20
90.1642
 10
575.069
 20
90.0046
 10
575.0552
 20
89.8266
 10
575.0468
 20
89.6397
 10
575.0419
 20
89.4534
 10
575.0356
 20
89.1203
 10
575.0213
 20
88.903
 10
574.9949
 20
88.7758
 10
574.9794
 20
88.5908
 10
574.9724
 20
88.3659
 10
574.9717
 20
88.1188
 10
574.9751
 20
87.8672
 10
574.9803
 20
87.6291
 10
574.9851
 20
87.422
 10
574.9872
 20
87.2639
 10
574.9602
 20
87.1329
 10
574.9442
 20
86.941
 10
574.9371
 20
86.707
 10
574.9365
 20
86.4495
 10
574.94
 20
86.1875
 10
574.9454
 20
85.9397
 10
574.9503
 20
85.7248
 10
574.9525
 20
85.5616
 10
574.951
 20
71.8034
 10
574.9474
 20
46.374
 10
574.9429
 20
13.4329
 10
574.9389
 20
-22.8606
 10
574.9365
 20
-58.347
 10
574.9371
 20
-88.8671
 10
574.942
 20
-110.2613
 10
574.9525
 20
-118.3703
 10
574.9794
 20
-118.4783
 10
574.9952
 20
-118.6107
 10
575.0023
 20
-118.7601
 10
575.003
 20
-118.9191
 10
574.9942
 20
-119.2369
 10
574.9872
 20
-119.505
 10
575.0132
 20
-119.6002
 10
575.0286
 20
-119.7027
 10
575.0356
 20
-119.8103
 10
575.0364
 20
-119.9212
 10
575.028
 20
-120.1445
 10
575.0213
 20
-120.3564
 10
575.0427
 20
-120.516
 10
575.0565
 20
-120.6899
 10
575.0647
 20
-120.8702
 10
575.0692
 20
-121.0487
 10
575.0752
 20
-121.3685
 10
575.0902
 20
-121.5852
 10
575.1151
 20
-121.7858
 10
575.1289
 20
-121.9896
 10
575.1404
 20
-122.1805
 10
575.1585
 20
-122.3421
 10
575.5706
 20
-124.612
 10
575.6146
 20
-124.684
 10
575.6441
 20
-124.7447
 10
575.6626
 20
-124.8099
 10
575.6737
 20
-124.8953
 10
575.7767
 20
-125.0218
 10
575.8458
 20
-125.1962
 10
575.9449
 20
-125.3729
 10
576.0627
 20
-125.5521
 10
576.1877
 20
-125.7344
 10
576.3085
 20
-125.9203
 10
576.4138
 20
-126.11
 10
576.4921
 20
-126.3042
 10
576.532
 20
-126.5031
 10
576.5803
 20
-126.6235
 10
576.6592
 20
-126.8648
 10
576.7576
 20
-127.1876
 10
576.8642
 20
-127.5525
 10
576.9679
 20
-127.9203
 10
577.0575
 20
-128.2515
 10
577.1218
 20
-128.5069
 10
577.1497
 20
-128.6471
 10
577.4582
 20
-129.2461
 10
577.5625
 20
-129.3798
 10
577.6743
 20
-129.4962
 10
577.7909
 20
-129.6024
 10
577.9096
 20
-129.7053
 10
578.0277
 20
-129.8118
 10
578.1425
 20
-129.929
 10
578.2513
 20
-130.0639
 10
578.3513
 20
-130.2235
 10
578.47
 20
-130.4496
 10
578.6336
 20
-130.76
 10
578.7142
 20
-130.9179
 10
578.7846
 20
-131.0622
 10
578.8376
 20
-131.1813
 10
578.8659
 20
-131.2636
 10
578.9852
 20
-131.4388
 10
579.1391
 20
-131.6949
 10
579.2852
 20
-131.9561
 10
579.381
 20
-132.1464
 10
579.4596
 20
-132.2377
 10
579.5666
 20
-132.3382
 10
579.6938
 20
-132.4455
 10
579.8328
 20
-132.5571
 10
579.9755
 20
-132.6706
 10
580.1135
 20
-132.7835
 10
580.2385
 20
-132.8934
 10
580.3424
 20
-132.9978
 10
580.4855
 20
-133.1764
 10
580.6076
 20
-133.3618
 10
580.7173
 20
-133.5504
 10
580.8228
 20
-133.7386
 10
580.9327
 20
-133.9228
 10
581.0553
 20
-134.0994
 10
581.1992
 20
-134.265
 10
581.3727
 20
-134.4158
 10
581.5416
 20
-134.5312
 10
581.7035
 20
-134.6263
 10
581.8599
 20
-134.7117
 10
582.0121
 20
-134.7979
 10
582.1617
 20
-134.8954
 10
582.31
 20
-135.0148
 10
582.4584
 20
-135.1666
 10
582.6084
 20
-135.3614
 10
582.6855
 20
-135.4835
 10
582.7555
 20
-135.6041
 10
582.8292
 20
-135.7215
 10
582.9175
 20
-135.8344
 10
583.2608
 20
-136.1496
 10
583.5019
 20
-136.2561
 10
583.7476
 20
-136.3861
 10
583.9902
 20
-136.5161
 10
584.2222
 20
-136.6226
 10
584.7368
 20
-137.0324
 10
584.8844
 20
-137.1987
 10
585.0004
 20
-137.3291
 10
585.0992
 20
-137.4326
 10
585.195
 20
-137.5178
 10
585.3023
 20
-137.5935
 10
585.4353
 20
-137.6686
 10
585.6084
 20
-137.7518
 10
585.8359
 20
-137.8519
 10
586.0255
 20
-137.963
 10
586.3064
 20
-138.1015
 10
586.4541
 20
-138.1679
 10
586.5923
 20
-138.2255
 10
586.7101
 20
-138.2692
 10
586.7968
 20
-138.2936
 10
587.022
 20
-138.4243
 10
587.292
 20
-138.5592
 10
587.5805
 20
-138.703
 10
587.8612
 20
-138.8607
 10
587.97
 20
-138.9595
 10
588.0656
 20
-139.066
 10
588.1621
 20
-139.1725
 10
588.2733
 20
-139.271
 10
588.5241
 20
-139.4106
 10
588.7537
 20
-139.5179
 10
588.9702
 20
-139.6003
 10
589.1811
 20
-139.6653
 10
589.3945
 20
-139.7204
 10
589.6181
 20
-139.7731
 10
589.8597
 20
-139.8309
 10
590.1272
 20
-139.9013
 10
591.0545
 20
-140.1249
 10
592.1178
 20
-140.4689
 10
592.3482
 20
-140.6427
 10
592.5813
 20
-140.7807
 10
592.818
 20
-140.8899
 10
593.0587
 20
-140.9776
 10
593.3041
 20
-141.0509
 10
593.5548
 20
-141.1171
 10
593.8115
 20
-141.1832
 10
594.0748
 20
-141.2566
 10
596.2725
 20
-141.509
 10
596.3848
 20
-141.5341
 10
596.4892
 20
-141.5426
 10
596.5968
 20
-141.5422
 10
596.7188
 20
-141.5404
 10
597.0118
 20
-141.5672
 10
597.3563
 20
-141.5823
 10
597.6652
 20
-141.5923
 10
597.8515
 20
-141.6037
 10
597.9292
 20
-141.622
 10
598.0117
 20
-141.6336
 10
598.0977
 20
-141.6396
 10
598.1861
 20
-141.6416
 10
598.3651
 20
-141.6384
 10
598.5386
 20
-141.635
 10
598.6751
 20
-141.6591
 10
598.8727
 20
-141.6734
 10
599.1127
 20
-141.6799
 10
599.3762
 20
-141.6807
 10
599.6445
 20
-141.6777
 10
599.8986
 20
-141.6731
 10
600.1199
 20
-141.6688
 10
600.2895
 20
-141.6669
 10
600.4299
 20
-141.6914
 10
600.6351
 20
-141.7058
 10
600.8849
 20
-141.7123
 10
601.1597
 20
-141.7128
 10
601.4393
 20
-141.7096
 10
601.704
 20
-141.7047
 10
601.9337
 20
-141.7003
 10
602.1087
 20
-141.6983
 10
623.9144
 20
-141.6997
 10
664.2525
 20
-141.7033
 10
716.5188
 20
-141.7076
 10
774.1086
 20
-141.7115
 10
830.4177
 20
-141.7138
 10
878.8415
 20
-141.7132
 10
912.7757
 20
-141.7084
 10
925.6157
 20
-141.6983
 10
925.7448
 20
-141.6739
 10
925.9211
 20
-141.6596
 10
926.1302
 20
-141.6531
 10
926.3576
 20
-141.6525
 10
926.5888
 20
-141.6557
 10
926.8094
 20
-141.6605
 10
927.0048
 20
-141.665
 10
927.1606
 20
-141.6669
 10
927.2568
 20
-141.6445
 10
927.36
 20
-141.631
 10
927.4683
 20
-141.6246
 10
927.5798
 20
-141.6235
 10
927.8045
 20
-141.6297
 10
928.0189
 20
-141.635
 10
928.3386
 20
-141.6069
 10
928.7157
 20
-141.5923
 10
929.0534
 20
-141.5833
 10
929.2547
 20
-141.5723
 10
931.7615
 20
-141.2885
 10
932.0274
 20
-141.2144
 10
932.2775
 20
-141.151
 10
932.5162
 20
-141.0905
 10
932.7475
 20
-141.0253
 10
932.9757
 20
-140.9477
 10
933.205
 20
-140.85
 10
933.4396
 20
-140.7245
 10
933.6838
 20
-140.5635
 10
933.8722
 20
-140.4827
 10
934.0713
 20
-140.4074
 10
934.2783
 20
-140.3368
 10
934.4902
 20
-140.2702
 10
934.7044
 20
-140.2067
 10
934.9179
 20
-140.1456
 10
935.1279
 20
-140.086
 10
935.3317
 20
-140.0273
 10
935.4702
 20
-139.9883
 10
935.6752
 20
-139.9329
 10
935.9237
 20
-139.8677
 10
936.1927
 20
-139.799
 10
936.4592
 20
-139.7333
 10
936.7004
 20
-139.6768
 10
936.893
 20
-139.6361
 10
937.0143
 20
-139.6175
 10
937.1742
 20
-139.5502
 10
937.3946
 20
-139.4356
 10
937.6137
 20
-139.3095
 10
937.7696
 20
-139.2077
 10
937.9026
 20
-139.096
 10
938.0333
 20
-138.9732
 10
938.1609
 20
-138.8573
 10
938.2847
 20
-138.7666
 10
938.4539
 20
-138.6989
 10
938.638
 20
-138.5908
 10
938.759
 20
-138.5188
 10
938.8387
 20
-138.4718
 10
938.8991
 20
-138.439
 10
938.9619
 20
-138.4094
 10
939.049
 20
-138.3721
 10
939.1822
 20
-138.316
 10
939.3833
 20
-138.2303
 10
939.4431
 20
-138.1849
 10
939.4758
 20
-138.1627
 10
939.5137
 20
-138.1506
 10
939.5894
 20
-138.1357
 10
939.7218
 20
-138.0617
 10
939.8606
 20
-138.0036
 10
940.0011
 20
-137.9486
 10
940.1387
 20
-137.8838
 10
940.4351
 20
-137.7682
 10
940.6661
 20
-137.6233
 10
940.8532
 20
-137.4565
 10
941.0182
 20
-137.2755
 10
941.1826
 20
-137.0877
 10
941.3682
 20
-136.9008
 10
941.5964
 20
-136.7221
 10
941.8891
 20
-136.5593
 10
942.0975
 20
-136.464
 10
942.2869
 20
-136.3722
 10
942.4662
 20
-136.2715
 10
942.6444
 20
-136.1496
 10
942.8057
 20
-136.0066
 10
942.9457
 20
-135.8464
 10
943.0724
 20
-135.6756
 10
943.1935
 20
-135.5005
 10
943.3167
 20
-135.3278
 10
943.4499
 20
-135.164
 10
943.6008
 20
-135.0155
 10
943.7772
 20
-134.8889
 10
943.8849
 20
-134.8433
 10
943.9843
 20
-134.7941
 10
944.0776
 20
-134.7418
 10
944.167
 20
-134.6868
 10
944.3437
 20
-134.5702
 10
944.5325
 20
-134.4477
 10
944.6965
 20
-134.2986
 10
944.8356
 20
-134.1299
 10
944.9585
 20
-133.9479
 10
945.0737
 20
-133.759
 10
945.1899
 20
-133.5695
 10
945.3158
 20
-133.3856
 10
945.46
 20
-133.2139
 10
945.6311
 20
-133.0605
 10
946.1462
 20
-132.714
 10
946.2799
 20
-132.5708
 10
946.3914
 20
-132.4315
 10
946.485
 20
-132.2937
 10
946.5654
 20
-132.1552
 10
946.7044
 20
-131.8666
 10
946.8446
 20
-131.5474
 10
946.9279
 20
-131.3805
 10
947.0217
 20
-131.2235
 10
947.1239
 20
-131.0739
 10
947.2325
 20
-130.9292
 10
947.4609
 20
-130.6445
 10
947.6911
 20
-130.3494
 10
947.7949
 20
-130.246
 10
947.9033
 20
-130.1492
 10
948.0086
 20
-130.0501
 10
948.1032
 20
-129.9397
 10
948.5495
 20
-129.1201
 10
948.5606
 20
-129.0345
 10
948.579
 20
-128.9692
 10
948.6085
 20
-128.9085
 10
948.6525
 20
-128.8363
 10
948.6621
 20
-128.7387
 10
948.684
 20
-128.6355
 10
948.7143
 20
-128.5282
 10
948.7492
 20
-128.4184
 10
948.7849
 20
-128.3076
 10
948.8176
 20
-128.1974
 10
948.8434
 20
-128.0893
 10
948.8585
 20
-127.9849
 10
949.4078
 20
-126.7242
 10
949.5797
 20
-126.535
 10
949.7169
 20
-126.2825
 10
949.8034
 20
-126.1925
 10
949.8712
 20
-126.1068
 10
949.8985
 20
-126.0622
 10
949.9219
 20
-126.0146
 10
949.9413
 20
-125.9625
 10
949.9571
 20
-125.9046
 10
950.0208
 20
-125.813
 10
950.075
 20
-125.7124
 10
950.1215
 20
-125.6051
 10
950.1621
 20
-125.4936
 10
950.2326
 20
-125.2675
 10
950.3004
 20
-125.0532
 10
950.7125
 20
-121.995
 10
950.7393
 20
-121.8977
 10
950.7487
 20
-121.8116
 10
950.7484
 20
-121.7228
 10
950.7466
 20
-121.6171
 10
950.7772
 20
-121.3254
 10
950.7941
 20
-120.9747
 10
950.8045
 20
-120.6615
 10
950.8155
 20
-120.4824
 10
950.8427
 20
-120.2433
 10
950.8601
 20
-119.965
 10
950.8724
 20
-119.7169
 10
950.8844
 20
-119.5682
 10
950.9103
 20
-119.4705
 10
950.9256
 20
-119.3616
 10
950.9326
 20
-119.2446
 10
950.9334
 20
-119.1229
 10
950.9251
 20
-118.8783
 10
950.9185
 20
-118.6541
 10
950.9443
 20
-118.5546
 10
950.9595
 20
-118.4391
 10
950.9665
 20
-118.3125
 10
950.9673
 20
-118.1794
 10
950.9593
 20
-117.9127
 10
950.9527
 20
-117.6767
 10
950.9543
 20
-103.834
 10
950.9581
 20
-78.2483
 10
950.9629
 20
-45.1045
 10
950.9671
 20
-8.5875
 10
950.9696
 20
27.1178
 10
950.9689
 20
57.8268
 10
950.9638
 20
79.3544
 10
950.9527
 20
87.5159
 10
950.9266
 20
87.6136
 10
950.9112
 20
87.7226
 10
950.9042
 20
87.8396
 10
950.9035
 20
87.9614
 10
950.9118
 20
88.2062
 10
950.9185
 20
88.4305
 10
950.8954
 20
88.6304
 10
950.8845
 20
88.8384
 10
950.8734
 20
89.0474
 10
950.8497
 20
89.2501
 10
950.8292
 20
89.3991
 10
950.8162
 20
89.5546
 10
950.8086
 20
89.7117
 10
950.8043
 20
89.8656
 10
950.7981
 20
90.1447
 10
950.7814
 20
90.3534
 10
950.7125
 20
90.9211
 10
950.6886
 20
90.9936
 10
950.6789
 20
91.0422
 10
950.6775
 20
91.0932
 10
950.6783
 20
91.173
 10
950.6444
 20
91.434
 10
950.6219
 20
91.7054
 10
950.6019
 20
91.9628
 10
950.5753
 20
92.1818
 10
950.4034
 20
93.4425
 10
950.2884
 20
93.8216
 10
950.2
 20
94.1718
 10
950.1517
 20
94.3468
 10
950.0931
 20
94.5277
 10
950.0188
 20
94.7187
 10
949.923
 20
94.9242
 10
949.7426
 20
95.2332
 10
949.5829
 20
95.4738
 10
949.439
 20
95.6759
 10
949.3061
 20
95.8696
 10
949.1793
 20
96.0851
 10
949.0536
 20
96.3523
 10
948.9243
 20
96.7014
 10
948.7864
 20
97.1623
 10
948.5153
 20
98.0451
 10
948.4643
 20
98.1749
 10
948.4103
 20
98.2947
 10
948.354
 20
98.4072
 10
948.2964
 20
98.5153
 10
948.1804
 20
98.7294
 10
948.069
 20
98.9593
 10
947.3478
 20
99.6215
 10
947.226
 20
99.8004
 10
947.1134
 20
99.9809
 10
947.0087
 20
100.1631
 10
946.9106
 20
100.3471
 10
946.7291
 20
100.7209
 10
946.5583
 20
101.1033
 10
946.4687
 20
101.219
 10
946.3684
 20
101.3247
 10
946.2596
 20
101.4223
 10
946.1446
 20
101.5139
 10
945.9045
 20
101.687
 10
945.6658
 20
101.8596
 10
945.5498
 20
101.9806
 10
945.4539
 20
102.0982
 10
945.3609
 20
102.2147
 10
945.2537
 20
102.3326
 10
945.1586
 20
102.501
 10
945.0401
 20
102.7129
 10
944.9564
 20
102.8336
 10
944.8481
 20
102.9633
 10
944.7089
 20
103.1012
 10
944.5325
 20
103.2468
 10
944.2852
 20
103.4148
 10
944.0319
 20
103.5716
 10
943.908
 20
103.6526
 10
943.7886
 20
103.7393
 10
943.6756
 20
103.8343
 10
943.5711
 20
103.9404
 10
943.5014
 20
104.0345
 10
943.3935
 20
104.1896
 10
943.2629
 20
104.3699
 10
943.1248
 20
104.5393
 10
942.9504
 20
104.7067
 10
942.7559
 20
104.8527
 10
942.548
 20
104.9844
 10
942.3335
 20
105.1088
 10
942.1193
 20
105.2329
 10
941.912
 20
105.3638
 10
941.7186
 20
105.5085
 10
941.5458
 20
105.6741
 10
941.4303
 20
105.8128
 10
941.3197
 20
105.9529
 10
941.2625
 20
106.0213
 10
941.202
 20
106.0875
 10
941.1366
 20
106.1508
 10
941.0648
 20
106.2103
 10
940.8075
 20
106.3779
 10
940.5254
 20
106.5217
 10
940.2272
 20
106.6528
 10
939.9215
 20
106.7821
 10
939.6172
 20
106.9206
 10
939.3229
 20
107.0795
 10
939.0474
 20
107.2698
 10
938.7993
 20
107.5024
 10
938.7431
 20
107.5741
 10
938.6896
 20
107.6325
 10
938.6309
 20
107.6888
 10
938.5591
 20
107.7543
 10
938.3504
 20
107.8712
 10
938.1265
 20
107.9812
 10
937.891
 20
108.084
 10
937.6478
 20
108.1789
 10
937.4005
 20
108.2655
 10
937.1528
 20
108.3432
 10
936.9084
 20
108.4114
 10
936.671
 20
108.4698
 10
936.4382
 20
108.5224
 10
936.189
 20
108.5803
 10
935.9312
 20
108.6459
 10
935.6724
 20
108.7216
 10
935.4204
 20
108.8097
 10
935.1829
 20
108.9128
 10
934.9677
 20
109.0332
 10
934.7824
 20
109.1734
 10
934.508
 20
109.2994
 10
934.2941
 20
109.4515
 10
934.0579
 20
109.5718
 10
933.8049
 20
109.6668
 10
933.5407
 20
109.7431
 10
933.2707
 20
109.8072
 10
933.0007
 20
109.8659
 10
932.736
 20
109.9256
 10
932.4822
 20
109.9929
 10
931.4866
 20
110.0875
 10
931.2436
 20
110.1175
 10
931.0205
 20
110.1353
 10
930.8501
 20
110.145
 10
930.7654
 20
110.1503
 10
928.9803
 20
110.3395
 10
928.6678
 20
110.3705
 10
928.3031
 20
110.3885
 10
927.9936
 20
110.3978
 10
927.847
 20
110.4027
 10
927.5719
 20
110.4283
 10
927.2447
 20
110.4444
 10
926.9527
 20
110.4555
 10
926.7831
 20
110.466
 10
926.6707
 20
110.4896
 10
926.5343
 20
110.5036
 10
926.3811
 20
110.51
 10
926.2183
 20
110.5108
 10
925.8929
 20
110.5033
 10
925.6157
 20
110.4973
 10
925.4983
 20
110.5218
 10
925.3542
 20
110.5363
 10
925.1916
 20
110.5427
 10
925.0184
 20
110.5433
 10
924.6725
 20
110.5351
 10
924.3805
 20
110.5287
 10
601.5594
 20
110.5287
 10
599.3964
 20
110.4973
  0
LWPOLYLINE
  5
63
330
1F
100
AcDbEntity
  8
Layer 1
 62
     7
370
    70
100
AcDbPolyline
 90
      439
 70
     1
 43
0.0
 10
600.2548
 20
100.2205
 10
600.1466
 20
100.2016
 10
599.984
 20
100.1887
 10
599.7859
 20
100.1804
 10
599.5709
 20
100.1753
 10
599.165
 20
100.1686
 10
598.916
 20
100.1573
 10
596.5816
 20
99.9053
 10
594.693
 20
99.4955
 10
594.4893
 20
99.3928
 10
594.3074
 20
99.3061
 10
594.1208
 20
99.2116
 10
593.9034
 20
99.0853
 10
593.7265
 20
98.9399
 10
593.582
 20
98.8123
 10
593.5083
 20
98.7529
 10
593.4265
 20
98.6952
 10
593.3312
 20
98.6382
 10
593.217
 20
98.5809
 10
592.8455
 20
98.4101
 10
592.4641
 20
98.2216
 10
592.0899
 20
98.0393
 10
591.7404
 20
97.8873
 10
591.5369
 20
97.7584
 10
591.2506
 20
97.5646
 10
591.1038
 20
97.4598
 10
590.969
 20
97.3587
 10
590.8573
 20
97.2678
 10
590.7796
 20
97.1937
 10
590.5864
 20
96.9832
 10
590.3883
 20
96.7764
 10
590.1852
 20
96.5734
 10
589.9774
 20
96.3742
 10
589.7646
 20
96.179
 10
589.5471
 20
95.9878
 10
589.3247
 20
95.8007
 10
589.0975
 20
95.6178
 10
588.9908
 20
95.5326
 10
588.8951
 20
95.4318
 10
588.808
 20
95.3196
 10
588.7267
 20
95.2001
 10
588.572
 20
94.9566
 10
588.4105
 20
94.735
 10
588.3945
 20
94.6656
 10
588.3814
 20
94.6307
 10
588.357
 20
94.6007
 10
588.3075
 20
94.5458
 10
588.2429
 20
94.3536
 10
588.1411
 20
94.1147
 10
588.0312
 20
93.8628
 10
587.9425
 20
93.6317
 10
587.8974
 20
93.5024
 10
587.848
 20
93.3784
 10
587.7941
 20
93.2588
 10
587.7355
 20
93.1423
 10
587.6031
 20
92.9144
 10
587.4491
 20
92.6861
 10
587.3274
 20
92.5617
 10
587.1993
 20
92.4424
 10
587.1364
 20
92.3817
 10
587.076
 20
92.3188
 10
587.0196
 20
92.2525
 10
586.9687
 20
92.1818
 10
586.8602
 20
91.9298
 10
586.744
 20
91.6783
 10
586.691
 20
91.55
 10
586.6457
 20
91.4185
 10
586.6114
 20
91.2827
 10
586.5912
 20
91.1416
 10
586.3852
 20
90.2275
 10
586.3568
 20
89.9952
 10
586.3434
 20
89.7506
 10
586.3338
 20
89.5238
 10
586.3163
 20
89.3447
 10
586.2971
 20
89.2768
 10
586.2849
 20
89.205
 10
586.2784
 20
89.1301
 10
586.2761
 20
89.0532
 10
586.2788
 20
88.8975
 10
586.2822
 20
88.7457
 10
586.2569
 20
88.649
 10
586.2418
 20
88.5372
 10
586.2347
 20
88.4148
 10
586.2337
 20
88.2863
 10
586.2413
 20
88.0286
 10
586.2475
 20
87.7997
 10
586.2213
 20
87.6975
 10
586.2057
 20
87.5785
 10
586.1988
 20
87.4476
 10
586.198
 20
87.3099
 10
586.2065
 20
87.0339
 10
586.2133
 20
86.7909
 10
586.2118
 20
72.9208
 10
586.208
 20
47.2836
 10
586.2034
 20
14.073
 10
586.1993
 20
-22.5177
 10
586.1969
 20
-58.2949
 10
586.1975
 20
-89.0653
 10
586.2026
 20
-110.6352
 10
586.2133
 20
-118.8114
 10
586.2397
 20
-118.9136
 10
586.2553
 20
-119.0326
 10
586.2623
 20
-119.1635
 10
586.263
 20
-119.3013
 10
586.2544
 20
-119.5774
 10
586.2475
 20
-119.8207
 10
586.2707
 20
-120.0206
 10
586.2817
 20
-120.2286
 10
586.2928
 20
-120.4375
 10
586.3163
 20
-120.6402
 10
586.3386
 20
-120.8243
 10
586.3505
 20
-121.0161
 10
586.3626
 20
-121.2088
 10
586.3852
 20
-121.396
 10
586.4118
 20
-121.4936
 10
586.4212
 20
-121.5798
 10
586.4211
 20
-121.6688
 10
586.4194
 20
-121.7745
 10
586.5222
 20
-122.062
 10
586.5999
 20
-122.3009
 10
586.665
 20
-122.5069
 10
586.7302
 20
-122.6961
 10
586.8081
 20
-122.8843
 10
586.9112
 20
-123.0876
 10
587.0522
 20
-123.3218
 10
587.2436
 20
-123.6028
 10
587.3814
 20
-123.7497
 10
587.4828
 20
-123.8566
 10
587.5313
 20
-123.9172
 10
587.5847
 20
-123.9943
 10
587.6473
 20
-124.0968
 10
587.724
 20
-124.2336
 10
587.8072
 20
-124.4073
 10
587.8874
 20
-124.6083
 10
587.9663
 20
-124.8273
 10
588.0461
 20
-125.0553
 10
588.1284
 20
-125.2829
 10
588.2154
 20
-125.5012
 10
588.3087
 20
-125.7008
 10
588.4105
 20
-125.8727
 10
589.0286
 20
-126.535
 10
589.1918
 20
-126.6596
 10
589.3013
 20
-126.7465
 10
589.3737
 20
-126.8097
 10
589.4252
 20
-126.8633
 10
589.5311
 20
-126.9971
 10
589.7498
 20
-127.2599
 10
589.9272
 20
-127.4543
 10
590.1289
 20
-127.6585
 10
590.3384
 20
-127.8525
 10
590.5393
 20
-128.0167
 10
590.7309
 20
-128.1446
 10
590.9325
 20
-128.2676
 10
591.0315
 20
-128.3315
 10
591.1263
 20
-128.3991
 10
591.2148
 20
-128.4722
 10
591.2947
 20
-128.5525
 10
591.4052
 20
-128.6851
 10
591.5184
 20
-128.8213
 10
591.5831
 20
-128.892
 10
591.657
 20
-128.965
 10
591.7428
 20
-129.0409
 10
591.8434
 20
-129.1201
 10
592.0741
 20
-129.2518
 10
592.293
 20
-129.3667
 10
592.5102
 20
-129.4765
 10
592.736
 20
-129.5931
 10
592.8614
 20
-129.6094
 10
592.9912
 20
-129.6386
 10
593.1237
 20
-129.6771
 10
593.2572
 20
-129.721
 10
593.5202
 20
-129.8102
 10
593.7663
 20
-129.8764
 10
594.6246
 20
-130.444
 10
594.8823
 20
-130.5907
 10
595.1104
 20
-130.7043
 10
595.3194
 20
-130.7929
 10
595.5198
 20
-130.8644
 10
595.722
 20
-130.9267
 10
595.9364
 20
-130.9877
 10
596.1736
 20
-131.0553
 10
596.4439
 20
-131.1376
 10
596.6499
 20
-131.1376
 10
596.9248
 20
-131.2009
 10
597.1007
 20
-131.2149
 10
597.2835
 20
-131.2162
 10
597.4671
 20
-131.2177
 10
597.6455
 20
-131.2322
 10
597.7248
 20
-131.2542
 10
597.7779
 20
-131.2631
 10
597.8334
 20
-131.2644
 10
597.9204
 20
-131.2636
 10
598.0327
 20
-131.2888
 10
598.1371
 20
-131.2975
 10
598.2447
 20
-131.2972
 10
598.3667
 20
-131.2955
 10
598.4406
 20
-131.313
 10
598.5189
 20
-131.3241
 10
598.6004
 20
-131.3301
 10
598.6841
 20
-131.3322
 10
598.8537
 20
-131.3298
 10
599.019
 20
-131.3268
 10
599.137
 20
-131.3505
 10
599.2878
 20
-131.3645
 10
599.4615
 20
-131.3709
 10
599.6481
 20
-131.3716
 10
600.02
 20
-131.3642
 10
600.3236
 20
-131.3582
 10
600.4464
 20
-131.3827
 10
600.6049
 20
-131.3972
 10
600.7883
 20
-131.4038
 10
600.9856
 20
-131.4044
 10
601.3787
 20
-131.3965
 10
601.6972
 20
-131.3901
 10
623.5104
 20
-131.3915
 10
663.869
 20
-131.3948
 10
716.1641
 20
-131.3989
 10
773.7869
 20
-131.4026
 10
830.1284
 20
-131.4047
 10
878.5796
 20
-131.4041
 10
912.5318
 20
-131.3997
 10
925.376
 20
-131.3901
 10
925.4984
 20
-131.3656
 10
925.6567
 20
-131.3511
 10
925.84
 20
-131.3445
 10
926.0372
 20
-131.3439
 10
926.4302
 20
-131.3518
 10
926.7484
 20
-131.3582
 10
927.0238
 20
-131.3327
 10
927.3512
 20
-131.3166
 10
927.6433
 20
-131.3056
 10
927.8129
 20
-131.2955
 10
930.0448
 20
-131.0116
 10
930.1234
 20
-130.9712
 10
930.1896
 20
-130.9442
 10
930.2605
 20
-130.9272
 10
930.3538
 20
-130.917
 10
930.6032
 20
-130.8377
 10
930.8556
 20
-130.7378
 10
930.9787
 20
-130.6801
 10
931.0974
 20
-130.6171
 10
931.21
 20
-130.5489
 10
931.3147
 20
-130.4754
 10
931.6926
 20
-130.1602
 10
931.8526
 20
-130.0707
 10
932.0353
 20
-129.98
 10
932.2341
 20
-129.8907
 10
932.4423
 20
-129.8057
 10
932.6534
 20
-129.7274
 10
932.8607
 20
-129.6588
 10
933.0576
 20
-129.6025
 10
933.2375
 20
-129.5612
 10
933.3792
 20
-129.4767
 10
933.5338
 20
-129.4006
 10
933.6981
 20
-129.3286
 10
933.8685
 20
-129.2559
 10
934.0415
 20
-129.1781
 10
934.2138
 20
-129.0905
 10
934.3818
 20
-128.9885
 10
934.5422
 20
-128.8677
 10
934.6358
 20
-128.8158
 10
934.6964
 20
-128.7805
 10
934.7743
 20
-128.7099
 10
934.9201
 20
-128.5525
 10
935.1398
 20
-128.3089
 10
935.3713
 20
-128.0635
 10
935.4923
 20
-127.9432
 10
935.6174
 20
-127.8262
 10
935.7468
 20
-127.7137
 10
935.881
 20
-127.6069
 10
936.671
 20
-126.9761
 10
936.9676
 20
-126.6138
 10
937.2175
 20
-126.2506
 10
937.4312
 20
-125.8925
 10
937.619
 20
-125.5456
 10
937.7913
 20
-125.2159
 10
937.9585
 20
-124.9095
 10
938.1309
 20
-124.6325
 10
938.3189
 20
-124.391
 10
938.406
 20
-124.3038
 10
938.4964
 20
-124.2222
 10
938.5839
 20
-124.1383
 10
938.6621
 20
-124.0444
 10
938.7921
 20
-123.7796
 10
938.9018
 20
-123.5645
 10
938.9518
 20
-123.4562
 10
939.0001
 20
-123.3372
 10
939.0477
 20
-123.1996
 10
939.0959
 20
-123.0357
 10
939.1629
 20
-122.7786
 10
939.2321
 20
-122.508
 10
939.3051
 20
-122.2411
 10
939.3833
 20
-121.995
 10
939.3833
 20
-121.8058
 10
939.4517
 20
-121.5539
 10
939.4864
 20
-120.8294
 10
939.5547
 20
-120.577
 10
939.5696
 20
-120.4337
 10
939.5721
 20
-120.2932
 10
939.5745
 20
-120.1527
 10
939.5894
 20
-120.0094
 10
939.6132
 20
-119.9368
 10
939.6229
 20
-119.8882
 10
939.6243
 20
-119.8372
 10
939.6235
 20
-119.7574
 10
939.6452
 20
-119.6793
 10
939.6586
 20
-119.596
 10
939.6653
 20
-119.5088
 10
939.667
 20
-119.4192
 10
939.6623
 20
-119.2382
 10
939.6577
 20
-119.0638
 10
939.6813
 20
-118.9788
 10
939.6956
 20
-118.8879
 10
939.7025
 20
-118.7925
 10
939.7039
 20
-118.6944
 10
939.6978
 20
-118.4964
 10
939.6924
 20
-118.307
 10
939.7193
 20
-118.1922
 10
939.735
 20
-118.0432
 10
939.7421
 20
-117.8704
 10
939.7427
 20
-117.6843
 10
939.7337
 20
-117.3136
 10
939.7266
 20
-117.0144
 10
939.7524
 20
-116.8999
 10
939.7676
 20
-116.745
 10
939.7746
 20
-116.562
 10
939.7754
 20
-116.3633
 10
939.7673
 20
-115.9683
 10
939.7607
 20
-115.6591
 10
939.7622
 20
-102.0837
 10
939.766
 20
-76.9987
 10
939.7706
 20
-44.5061
 10
939.7747
 20
-8.708
 10
939.7771
 20
26.2935
 10
939.7765
 20
56.3965
 10
939.7714
 20
77.4987
 10
939.7607
 20
85.4983
 10
939.7334
 20
85.6229
 10
939.7174
 20
85.7953
 10
939.7104
 20
86.0007
 10
939.7099
 20
86.2247
 10
939.7137
 20
86.4524
 10
939.7193
 20
86.6692
 10
939.7244
 20
86.8605
 10
939.7266
 20
87.0115
 10
939.7077
 20
87.1611
 10
939.6935
 20
87.3484
 10
939.6831
 20
87.5568
 10
939.6757
 20
87.7697
 10
939.6661
 20
88.143
 10
939.6577
 20
88.3359
 10
939.5894
 20
89.0609
 10
939.5644
 20
89.2614
 10
939.5505
 20
89.4652
 10
939.5388
 20
89.6559
 10
939.5205
 20
89.8172
 10
939.0401
 20
92.245
 10
938.9285
 20
92.44
 10
938.835
 20
92.625
 10
938.7324
 20
92.8169
 10
938.5933
 20
93.0327
 10
938.4198
 20
93.2156
 10
938.2448
 20
93.3929
 10
938.1606
 20
93.4841
 10
938.0809
 20
93.5793
 10
938.0071
 20
93.6803
 10
937.941
 20
93.789
 10
937.901
 20
93.889
 10
937.8535
 20
93.9711
 10
937.8068
 20
94.0567
 10
937.7696
 20
94.1674
 10
937.4264
 20
94.7978
 10
937.2617
 20
95.1417
 10
937.1308
 20
95.4211
 10
937.0547
 20
95.548
 10
936.9589
 20
95.6726
 10
936.8341
 20
95.7994
 10
936.671
 20
95.933
 10
936.0529
 20
96.3114
 10
935.5724
 20
96.7526
 10
935.4735
 20
96.871
 10
935.395
 20
96.9795
 10
935.3279
 20
97.0812
 10
935.2633
 20
97.1794
 10
935.1922
 20
97.2776
 10
935.1058
 20
97.3788
 10
934.9951
 20
97.4866
 10
934.8512
 20
97.604
 10
934.6793
 20
97.73
 10
934.4117
 20
97.8319
 10
934.1286
 20
97.9464
 10
933.8362
 20
98.0712
 10
933.5405
 20
98.2041
 10
933.2477
 20
98.3427
 10
932.964
 20
98.4848
 10
932.6954
 20
98.628
 10
932.448
 20
98.7701
 10
932.2421
 20
98.9307
 10
932.0389
 20
99.0907
 10
931.9344
 20
99.1673
 10
931.8257
 20
99.2401
 10
931.7113
 20
99.3078
 10
931.5896
 20
99.3691
 10
930.9715
 20
99.5896
 10
930.814
 20
99.61
 10
930.5781
 20
99.6553
 10
930.3415
 20
99.7072
 10
930.182
 20
99.7475
 10
930.0046
 20
99.7668
 10
929.7672
 20
99.8096
 10
929.5311
 20
99.8608
 10
929.3577
 20
99.9053
 10
929.2205
 20
99.9053
 10
928.9462
 20
99.9681
 10
927.7787
 20
100.0313
 10
927.5038
 20
100.0945
 10
927.3562
 20
100.1075
 10
927.2116
 20
100.1102
 10
927.0673
 20
100.1129
 10
926.9203
 20
100.1259
 10
926.8141
 20
100.1503
 10
926.7202
 20
100.159
 10
926.6233
 20
100.1589
 10
926.5082
 20
100.1573
 10
926.3455
 20
100.1753
 10
926.1578
 20
100.1877
 10
925.9568
 20
100.1959
 10
925.7545
 20
100.2012
 10
925.3936
 20
100.2085
 10
925.17
 20
100.2205
 10
925.0333
 20
100.247
 10
924.8863
 20
100.2554
 10
924.7351
 20
100.2542
 10
924.586
 20
100.2519
 10
601.182
 20
100.2519
 10
600.9419
 20
100.247
 10
600.7162
 20
100.2362
 10
600.4916
 20
100.2254
 10
600.2548
 20
100.2205
  0
LWPOLYLINE
  5
64
330
1F
100
AcDbEntity
  8
Layer 1
 62
     7
370
    70
100
AcDbPolyline
 90
       20
 70
     0
 43
0.0
 10
557.9926
 20
154.2216
 10
557.9702
 20
154.3058
 10
557.9511
 20
154.4332
 10
557.9351
 20
154.5882
 10
557.9218
 20
154.7551
 10
557.9021
 20
155.0626
 10
557.8896
 20
155.2304
 10
557.8593
 20
155.4931
 10
557.838
 20
155.805
 10
557.8254
 20
156.0661
 10
557.8213
 20
156.1764
 10
557.7985
 20
156.4961
 10
557.7796
 20
157.1121
 10
557.7659
 20
157.9291
 10
557.7586
 20
158.8519
 10
557.7592
 20
159.785
 10
557.769
 20
160.633
 10
557.7892
 20
161.3008
 10
557.8213
 20
161.6928
 10
558.0957
 20
163.1113
  0
LWPOLYLINE
  5
65
330
1F
100
AcDbEntity
  8
Layer 1
 62
     7
370
    70
100
AcDbPolyline
 90
       21
 70
     0
 43
0.0
 10
722.7499
 20
163.3005
 10
722.3156
 20
163.2113
 10
721.6371
 20
163.1547
 10
720.7939
 20
163.1245
 10
719.8651
 20
163.1141
 10
718.9301
 20
163.1172
 10
718.0679
 20
163.1274
 10
717.358
 20
163.1382
 10
716.8795
 20
163.1432
 10
640.1484
 20
163.1432
 10
558.3359
 20
163.1432
 10
558.2648
 20
163.1222
 10
558.2215
 20
163.113
 10
558.1753
 20
163.111
 10
558.0957
 20
163.1113
 10
558.0122
 20
163.3499
 10
557.9377
 20
163.5866
 10
557.8648
 20
163.8221
 10
557.7866
 20
164.0573
 10
557.7866
 20
172.6637
 10
557.8896
 20
173.3881
  0
LWPOLYLINE
  5
66
330
1F
100
AcDbEntity
  8
Layer 1
 62
     7
370
    70
100
AcDbPolyline
 90
       11
 70
     0
 43
0.0
 10
968.1186
 20
155.3569
 10
968.1533
 20
155.9872
 10
968.1759
 20
156.3242
 10
968.1955
 20
156.9885
 10
968.2103
 20
157.8746
 10
968.2186
 20
158.8773
 10
968.2188
 20
159.8911
 10
968.2091
 20
160.8106
 10
968.1878
 20
161.5305
 10
968.1533
 20
161.9452
 10
967.9125
 20
163.0486
  0
LWPOLYLINE
  5
67
330
1F
100
AcDbEntity
  8
Layer 1
 62
     7
370
    70
100
AcDbPolyline
 90
       27
 70
     0
 43
0.0
 10
803.0176
 20
163.4583
 10
803.1239
 20
163.4297
 10
803.2679
 20
163.4041
 10
803.4372
 20
163.3814
 10
803.619
 20
163.3611
 10
803.9697
 20
163.3273
 10
804.2192
 20
163.3005
 10
805.5238
 20
163.1745
 10
806.0703
 20
163.149
 10
807.1605
 20
163.1341
 10
808.6249
 20
163.1276
 10
810.2936
 20
163.1273
 10
811.9969
 20
163.1309
 10
813.5651
 20
163.1363
 10
814.8284
 20
163.1411
 10
815.6172
 20
163.1432
 10
967.3633
 20
163.1432
 10
967.9125
 20
163.0486
 10
967.9936
 20
163.2329
 10
968.0602
 20
163.4228
 10
968.1217
 20
163.6147
 10
968.1875
 20
163.8049
 10
968.1875
 20
172.6637
 10
968.1611
 20
172.7712
 10
968.1553
 20
172.8576
 10
968.1483
 20
172.9416
 10
968.1186
 20
173.0421
  0
LWPOLYLINE
  5
68
330
1F
100
AcDbEntity
  8
Layer 1
 62
     7
370
    70
100
AcDbPolyline
 90
       21
 70
     0
 43
0.0
 10
517.7216
 20
126.0704
 10
517.8683
 20
126.1266
 10
518.0175
 20
126.1729
 10
518.1684
 20
126.2119
 10
518.3204
 20
126.2461
 10
518.6243
 20
126.3102
 10
518.9232
 20
126.3856
 10
519.4383
 20
126.3883
 10
520.2908
 20
126.3946
 10
521.3599
 20
126.4017
 10
522.5245
 20
126.4069
 10
523.6639
 20
126.4075
 10
524.657
 20
126.4007
 10
525.3829
 20
126.3839
 10
525.7208
 20
126.3542
 10
525.8102
 20
126.3672
 10
525.9232
 20
126.3733
 10
526.0531
 20
126.3741
 10
526.193
 20
126.3712
 10
526.4756
 20
126.3606
 10
526.7164
 20
126.3542
  0
LWPOLYLINE
  5
69
330
1F
100
AcDbEntity
  8
Layer 1
 62
     7
370
    70
100
AcDbPolyline
 90
       11
 70
     0
 43
0.0
 10
517.7216
 20
21.6301
 10
517.7216
 20
126.0704
 10
517.6397
 20
126.1027
 10
517.5669
 20
126.1289
 10
517.4944
 20
126.1574
 10
517.4131
 20
126.1964
 10
517.2493
 20
126.2237
 10
517.0219
 20
126.2772
 10
516.7926
 20
126.3375
 10
516.623
 20
126.3856
 10
507.0101
 20
126.3856
  0
LWPOLYLINE
  5
6A
330
1F
100
AcDbEntity
  8
Layer 1
 62
     7
370
    70
100
AcDbPolyline
 90
       26
 70
     0
 43
0.0
 10
1008.4238
 20
94.0667
 10
1008.3896
 20
94.2559
 10
1008.3555
 20
95.1073
 10
1008.3302
 20
95.175
 10
1008.3218
 20
95.2017
 10
1008.3302
 20
95.2285
 10
1008.3555
 20
95.2965
 10
1008.3281
 20
95.3994
 10
1008.3186
 20
95.4953
 10
1008.3189
 20
95.5942
 10
1008.3208
 20
95.7063
 10
1008.2958
 20
95.774
 10
1008.2874
 20
95.8007
 10
1008.2958
 20
95.8275
 10
1008.3208
 20
95.8955
 10
1008.2874
 20
96.1632
 10
1008.2685
 20
96.6784
 10
1008.2611
 20
97.3642
 10
1008.262
 20
98.1434
 10
1008.2681
 20
98.9392
 10
1008.2763
 20
99.6744
 10
1008.2835
 20
100.272
 10
1008.2866
 20
100.655
 10
1008.2866
 20
172.058
 10
1008.2524
 20
172.2473
 10
1008.1836
 20
172.6257
  0
LWPOLYLINE
  5
6B
330
1F
100
AcDbEntity
  8
Layer 1
 62
     7
370
    70
100
AcDbPolyline
 90
       41
 70
     0
 43
0.0
 10
996.7514
 20
172.7516
 10
997.1977
 20
172.8149
 10
997.3101
 20
172.8021
 10
997.44
 20
172.8035
 10
997.5775
 20
172.8106
 10
997.7128
 20
172.8149
 10
997.7867
 20
172.8325
 10
997.865
 20
172.8437
 10
997.9465
 20
172.8497
 10
998.0302
 20
172.8518
 10
998.1998
 20
172.8493
 10
998.3651
 20
172.8462
 10
998.5319
 20
172.8678
 10
998.592
 20
172.8649
 10
998.6072
 20
172.8526
 10
998.6395
 20
172.8462
 10
999.0242
 20
172.874
 10
999.8855
 20
172.89
 10
1001.0749
 20
172.8966
 10
1002.4437
 20
172.8964
 10
1003.8435
 20
172.8919
 10
1005.1254
 20
172.8856
 10
1006.141
 20
172.88
 10
1006.7417
 20
172.8776
 10
1008.1836
 20
172.6257
 10
1009.0761
 20
172.8776
 10
1015.6335
 20
172.8776
 10
1015.7425
 20
172.8636
 10
1015.8221
 20
172.8599
 10
1015.8806
 20
172.8633
 10
1015.9264
 20
172.8707
 10
1015.9677
 20
172.879
 10
1016.0129
 20
172.885
 10
1016.0702
 20
172.8856
 10
1016.1481
 20
172.8776
 10
1016.2222
 20
172.8601
 10
1016.3005
 20
172.8489
 10
1016.3821
 20
172.8429
 10
1016.4657
 20
172.8408
 10
1016.6352
 20
172.8432
 10
1016.8004
 20
172.8462
  0
LWPOLYLINE
  5
6C
330
1F
100
AcDbEntity
  8
Layer 1
 62
     7
370
    70
100
AcDbPolyline
 90
      436
 70
     0
 43
0.0
 10
731.9171
 20
23.3952
 10
732.0111
 20
23.5332
 10
732.0945
 20
23.6672
 10
732.169
 20
23.7992
 10
732.2363
 20
23.9313
 10
732.3558
 20
24.2033
 10
732.4664
 20
24.4991
 10
732.5006
 20
25.2868
 10
732.5305
 20
25.5708
 10
732.5487
 20
25.9184
 10
732.56
 20
26.226
 10
732.5694
 20
26.3901
 10
732.981
 20
29.8262
 10
733.0106
 20
29.9282
 10
733.0327
 20
30.0311
 10
733.0547
 20
30.134
 10
733.084
 20
30.236
 10
733.1052
 20
30.4661
 10
733.1537
 20
30.689
 10
733.2238
 20
30.9058
 10
733.3099
 20
31.1176
 10
733.4065
 20
31.3256
 10
733.5078
 20
31.531
 10
733.6082
 20
31.7348
 10
733.7022
 20
31.9383
 10
733.8587
 20
32.114
 10
733.9953
 20
32.3063
 10
734.1138
 20
32.5117
 10
734.2163
 20
32.7266
 10
734.3047
 20
32.9474
 10
734.3809
 20
33.1704
 10
734.4469
 20
33.3923
 10
734.5047
 20
33.6093
 10
734.5544
 20
33.7896
 10
734.619
 20
34.0049
 10
734.6922
 20
34.2423
 10
734.768
 20
34.489
 10
734.8401
 20
34.7322
 10
734.9023
 20
34.9589
 10
734.9486
 20
35.1564
 10
734.9727
 20
35.3117
 10
735.0921
 20
35.4977
 10
735.2038
 20
35.6728
 10
735.32
 20
35.8486
 10
735.4531
 20
36.0366
 10
735.831
 20
36.3837
 10
735.9248
 20
36.517
 10
736.0142
 20
36.6562
 10
736.0541
 20
36.7279
 10
736.0891
 20
36.8009
 10
736.118
 20
36.8752
 10
736.1396
 20
36.9508
 10
736.1983
 20
37.0412
 10
736.2835
 20
37.1937
 10
736.3853
 20
37.388
 10
736.4936
 20
37.6037
 10
736.5984
 20
37.8205
 10
736.6897
 20
38.0183
 10
736.7576
 20
38.1766
 10
736.7919
 20
38.2752
 10
736.8772
 20
38.3928
 10
736.9468
 20
38.516
 10
737.016
 20
38.645
 10
737.1004
 20
38.7796
 10
737.2187
 20
38.9004
 10
737.3463
 20
39.0121
 10
737.4793
 20
39.1182
 10
737.6141
 20
39.2224
 10
737.7469
 20
39.3284
 10
737.8739
 20
39.4398
 10
737.9916
 20
39.5602
 10
738.096
 20
39.6933
 10
738.169
 20
39.822
 10
738.2567
 20
40.0042
 10
738.3622
 20
40.2246
 10
738.4884
 20
40.4679
 10
738.6386
 20
40.7188
 10
738.8158
 20
40.962
 10
739.0231
 20
41.1822
 10
739.2635
 20
41.3642
 10
739.3874
 20
41.4239
 10
739.4937
 20
41.4941
 10
739.5964
 20
41.5701
 10
739.7097
 20
41.6475
 10
739.8103
 20
41.7588
 10
739.9207
 20
41.9085
 10
740.043
 20
42.0856
 10
740.1796
 20
42.2794
 10
740.3325
 20
42.4788
 10
740.504
 20
42.6732
 10
740.6962
 20
42.8517
 10
740.9114
 20
43.0033
 10
741.1506
 20
43.1362
 10
741.3927
 20
43.2735
 10
741.5085
 20
43.3495
 10
741.6174
 20
43.4333
 10
741.7169
 20
43.5273
 10
741.8044
 20
43.6337
 10
741.9426
 20
43.8473
 10
742.0747
 20
44.0549
 10
742.1517
 20
44.1591
 10
742.2433
 20
44.2648
 10
742.3545
 20
44.3732
 10
742.4909
 20
44.4851
 10
742.6563
 20
44.6014
 10
742.8216
 20
44.7041
 10
742.9859
 20
44.7992
 10
743.1483
 20
44.8925
 10
743.308
 20
44.9901
 10
743.464
 20
45.0979
 10
743.6154
 20
45.2219
 10
743.7614
 20
45.3679
 10
743.8843
 20
45.5147
 10
744.004
 20
45.664
 10
744.066
 20
45.7368
 10
744.1311
 20
45.807
 10
744.2006
 20
45.8734
 10
744.276
 20
45.935
 10
744.5115
 20
46.0725
 10
744.7755
 20
46.2122
 10
744.9117
 20
46.2759
 10
745.0473
 20
46.3316
 10
745.1797
 20
46.3766
 10
745.3063
 20
46.408
 10
745.4427
 20
46.4885
 10
745.619
 20
46.5806
 10
745.8021
 20
46.6732
 10
745.9586
 20
46.7551
 10
746.067
 20
46.842
 10
746.1876
 20
46.9525
 10
746.3147
 20
47.077
 10
746.4427
 20
47.206
 10
746.566
 20
47.3298
 10
746.6789
 20
47.4389
 10
746.7758
 20
47.5237
 10
746.8511
 20
47.5746
 10
746.9073
 20
47.584
 10
746.9238
 20
47.5878
 10
746.9382
 20
47.6008
 10
746.9883
 20
47.6379
 10
747.2293
 20
47.7377
 10
747.4628
 20
47.8362
 10
747.6924
 20
47.9329
 10
747.9218
 20
48.0278
 10
748.1547
 20
48.1206
 10
748.3948
 20
48.211
 10
748.6457
 20
48.2988
 10
748.9111
 20
48.3837
 10
749.0634
 20
48.4339
 10
749.1909
 20
48.4837
 10
749.3009
 20
48.5347
 10
749.4004
 20
48.5887
 10
749.597
 20
48.7121
 10
749.8384
 20
48.8672
 10
750.0041
 20
49.0011
 10
750.1411
 20
49.1145
 10
750.2142
 20
49.1683
 10
750.2984
 20
49.2226
 10
750.3999
 20
49.2793
 10
750.5248
 20
49.3402
 10
750.6067
 20
49.3725
 10
750.6796
 20
49.3987
 10
750.7523
 20
49.4272
 10
750.8339
 20
49.4662
 10
750.9699
 20
49.5042
 10
751.1588
 20
49.5557
 10
751.3842
 20
49.616
 10
751.6295
 20
49.6801
 10
751.8783
 20
49.743
 10
752.1142
 20
49.7999
 10
752.3207
 20
49.8459
 10
752.4813
 20
49.876
 10
752.6083
 20
49.889
 10
752.7848
 20
49.9211
 10
752.9936
 20
49.9677
 10
753.2176
 20
50.0241
 10
753.4397
 20
50.0857
 10
753.6427
 20
50.1477
 10
753.8096
 20
50.2055
 10
753.9231
 20
50.2544
 10
754.0089
 20
50.2613
 10
754.0556
 20
50.2726
 10
754.0961
 20
50.2984
 10
754.1633
 20
50.349
 10
754.3352
 20
50.3804
 10
754.5413
 20
50.5063
 10
754.6675
 20
50.5377
 10
754.8029
 20
50.582
 10
754.945
 20
50.635
 10
755.0916
 20
50.6925
 10
755.2402
 20
50.7505
 10
755.3884
 20
50.8046
 10
755.5338
 20
50.8507
 10
755.674
 20
50.8847
 10
755.7374
 20
50.9275
 10
755.7699
 20
50.9458
 10
755.806
 20
50.9572
 10
755.8801
 20
50.9793
 10
756.1203
 20
51.0107
 10
756.1874
 20
51.0489
 10
756.2164
 20
51.0647
 10
756.2488
 20
51.0694
 10
756.3263
 20
51.0739
 10
756.3893
 20
51.1035
 10
756.4488
 20
51.1248
 10
756.5063
 20
51.1398
 10
756.563
 20
51.1509
 10
756.679
 20
51.1701
 10
756.8073
 20
51.1999
 10
759.9659
 20
51.5151
 10
760.2997
 20
51.5447
 10
760.6796
 20
51.5581
 10
761.0201
 20
51.5658
 10
761.2358
 20
51.5783
 10
761.3321
 20
51.6007
 10
761.4353
 20
51.6141
 10
761.5436
 20
51.6204
 10
761.6551
 20
51.6215
 10
761.8798
 20
51.6151
 10
762.0942
 20
51.6097
 10
762.2233
 20
51.6341
 10
762.3996
 20
51.6485
 10
762.6088
 20
51.655
 10
762.8362
 20
51.6557
 10
763.0675
 20
51.6527
 10
763.2881
 20
51.6479
 10
763.4836
 20
51.6435
 10
763.6396
 20
51.6416
 10
763.8307
 20
51.6216
 10
764.0614
 20
51.6086
 10
764.3148
 20
51.6008
 10
764.5736
 20
51.5965
 10
764.8208
 20
51.5939
 10
765.0393
 20
51.5911
 10
765.2119
 20
51.5865
 10
765.3217
 20
51.5783
 10
765.5393
 20
51.5571
 10
765.7656
 20
51.5471
 10
765.993
 20
51.5369
 10
766.2137
 20
51.5151
 10
768.5827
 20
51.2945
 10
768.6939
 20
51.2674
 10
768.8061
 20
51.2472
 10
768.9182
 20
51.227
 10
769.029
 20
51.1999
 10
769.1667
 20
51.1999
 10
769.402
 20
51.1339
 10
769.6352
 20
51.0743
 10
769.8668
 20
51.0178
 10
770.0974
 20
50.961
 10
770.3275
 20
50.9006
 10
770.5578
 20
50.8333
 10
770.7886
 20
50.7556
 10
771.0207
 20
50.6642
 10
771.3516
 20
50.515
 10
771.6189
 20
50.3962
 10
771.8474
 20
50.3008
 10
772.0624
 20
50.2217
 10
772.2887
 20
50.152
 10
772.5514
 20
50.0845
 10
772.8756
 20
50.0123
 10
773.2862
 20
49.9283
 10
773.4838
 20
49.8841
 10
773.7166
 20
49.8254
 10
773.9711
 20
49.7579
 10
774.2341
 20
49.6878
 10
774.4924
 20
49.6207
 10
774.7327
 20
49.5627
 10
774.9416
 20
49.5197
 10
775.106
 20
49.4976
 10
775.3099
 20
49.3951
 10
775.4918
 20
49.3085
 10
775.6782
 20
49.214
 10
775.8955
 20
49.0878
 10
776.3076
 20
48.7412
 10
776.4741
 20
48.6554
 10
776.6902
 20
48.553
 10
776.9398
 20
48.4417
 10
777.2067
 20
48.329
 10
777.475
 20
48.2225
 10
777.7286
 20
48.1298
 10
777.9514
 20
48.0583
 10
778.1274
 20
48.0158
 10
778.1881
 20
47.9688
 10
778.1987
 20
47.9553
 10
778.2166
 20
47.9564
 10
778.2992
 20
47.9531
 10
778.4468
 20
47.9055
 10
778.6011
 20
47.8476
 10
778.7578
 20
47.78
 10
778.9128
 20
47.7035
 10
779.0619
 20
47.6188
 10
779.2009
 20
47.5266
 10
779.3256
 20
47.4275
 10
779.432
 20
47.3222
 10
779.5681
 20
47.1325
 10
779.6984
 20
46.9932
 10
779.8382
 20
46.8599
 10
779.9891
 20
46.7368
 10
780.1526
 20
46.6286
 10
780.4383
 20
46.4971
 10
780.8514
 20
46.3281
 10
781.0721
 20
46.234
 10
781.2842
 20
46.1359
 10
781.4742
 20
46.0357
 10
781.6286
 20
45.935
 10
782.0066
 20
45.6199
 10
782.1026
 20
45.5046
 10
782.2335
 20
45.3511
 10
782.3086
 20
45.2721
 10
782.3883
 20
45.198
 10
782.4712
 20
45.1337
 10
782.5559
 20
45.0841
 10
782.7253
 20
44.9928
 10
782.9103
 20
44.8754
 10
783.1033
 20
44.7389
 10
783.2969
 20
44.5901
 10
783.4837
 20
44.4362
 10
783.6562
 20
44.2839
 10
783.8071
 20
44.1402
 10
783.9289
 20
44.0121
 10
784.042
 20
43.8773
 10
784.1527
 20
43.7442
 10
784.2158
 20
43.6752
 10
784.2887
 20
43.6031
 10
784.375
 20
43.5266
 10
784.4781
 20
43.4445
 10
784.8404
 20
43.1696
 10
785.1759
 20
42.901
 10
785.3376
 20
42.7609
 10
785.4974
 20
42.6127
 10
785.6568
 20
42.4529
 10
785.8175
 20
42.2784
 10
785.9253
 20
42.1446
 10
786.0193
 20
42.0184
 10
786.0688
 20
41.957
 10
786.124
 20
41.8961
 10
786.188
 20
41.8352
 10
786.2638
 20
41.774
 10
786.3502
 20
41.7158
 10
786.4349
 20
41.651
 10
786.5179
 20
41.581
 10
786.5995
 20
41.5074
 10
786.7593
 20
41.3552
 10
786.9161
 20
41.2064
 10
787.0846
 20
40.9666
 10
787.2717
 20
40.6816
 10
787.3592
 20
40.5345
 10
787.4356
 20
40.3909
 10
787.4957
 20
40.2559
 10
787.5342
 20
40.1344
 10
787.6175
 20
40.0139
 10
787.7499
 20
39.8579
 10
787.8945
 20
39.7063
 10
788.0147
 20
39.5987
 10
788.2083
 20
39.4601
 10
788.4009
 20
39.3233
 10
788.4931
 20
39.2512
 10
788.5806
 20
39.1744
 10
788.6621
 20
39.0912
 10
788.7359
 20
38.9997
 10
788.8097
 20
38.8724
 10
788.8932
 20
38.6913
 10
788.9919
 20
38.4656
 10
789.1111
 20
38.2042
 10
789.2564
 20
37.9162
 10
789.4331
 20
37.6106
 10
789.6468
 20
37.2964
 10
789.9028
 20
36.9826
 10
789.9983
 20
36.8869
 10
790.0975
 20
36.7977
 10
790.1938
 20
36.7064
 10
790.2807
 20
36.6042
 10
790.3814
 20
36.4531
 10
790.4769
 20
36.2875
 10
790.5667
 20
36.1109
 10
790.6506
 20
35.9269
 10
790.7284
 20
35.7388
 10
790.7997
 20
35.5502
 10
790.8642
 20
35.3647
 10
790.9217
 20
35.1857
 10
791.0027
 20
34.9241
 10
791.1189
 20
34.5439
 10
791.2252
 20
34.1772
 10
791.2763
 20
33.9559
 10
791.3442
 20
33.8286
 10
791.429
 20
33.645
 10
791.5062
 20
33.4592
 10
791.5512
 20
33.3255
 10
791.604
 20
33.2683
 10
791.6138
 20
33.2597
 10
791.6094
 20
33.2524
 10
791.6195
 20
33.1995
 10
791.7226
 20
33.0417
 10
791.9344
 20
32.8189
 10
792.0949
 20
32.623
 10
792.2154
 20
32.4437
 10
792.3073
 20
32.2707
 10
792.382
 20
32.0936
 10
792.4506
 20
31.902
 10
792.5245
 20
31.6856
 10
792.6151
 20
31.434
 10
793.1644
 20
27.4935
 10
793.2333
 20
27.2411
 10
793.2333
 20
27.1151
 10
793.3021
 20
26.8627
 10
793.6112
 20
24.278
 10
793.6343
 20
24.0634
 10
793.653
 20
23.795
 10
793.6635
 20
23.6615
 10
793.6765
 20
23.5395
 10
793.693
 20
23.4376
 10
793.7142
 20
23.3639
 10
793.8212
 20
23.3708
 10
793.9214
 20
23.3875
 10
794.021
 20
23.4082
 10
794.1258
 20
23.4271
 10
794.5379
 20
23.4585
 10
794.8123
 20
23.5217
 10
795.2199
 20
23.5463
 10
795.9559
 20
23.5608
 10
796.9186
 20
23.5673
 10
798.0065
 20
23.5678
 10
799.1179
 20
23.5645
 10
800.1509
 20
23.5596
 10
801.0041
 20
23.5551
 10
801.5757
 20
23.5531
 10
803.3044
 20
23.5511
 10
805.9625
 20
23.5464
 10
809.2013
 20
23.5412
 10
812.6721
 20
23.5378
 10
816.0261
 20
23.5382
 10
818.9147
 20
23.5447
 10
820.9889
 20
23.5593
 10
821.9002
 20
23.5844
 10
822.9988
 20
23.7109
  0
LWPOLYLINE
  5
6D
330
1F
100
AcDbEntity
  8
Layer 1
 62
     7
370
    70
100
AcDbPolyline
 90
      857
 70
     0
 43
0.0
 10
780.53
 20
23.4271
 10
780.4284
 20
23.5533
 10
780.3407
 20
23.6778
 10
780.2648
 20
23.802
 10
780.1983
 20
23.9272
 10
780.0846
 20
24.1866
 10
779.9813
 20
24.4672
 10
779.9124
 20
25.2868
 10
779.8823
 20
25.5529
 10
779.863
 20
25.8638
 10
779.8513
 20
26.1304
 10
779.8441
 20
26.2637
 10
779.8184
 20
26.3494
 10
779.8089
 20
26.4166
 10
779.8085
 20
26.4861
 10
779.8099
 20
26.5788
 10
779.7706
 20
26.718
 10
779.7411
 20
26.8628
 10
779.7116
 20
27.0076
 10
779.6722
 20
27.1465
 10
779.6599
 20
27.2798
 10
779.6324
 20
27.4147
 10
779.5948
 20
27.5505
 10
779.5521
 20
27.6866
 10
779.5094
 20
27.8221
 10
779.4718
 20
27.9565
 10
779.4443
 20
28.0888
 10
779.432
 20
28.2185
 10
779.3205
 20
28.4189
 10
779.23
 20
28.6107
 10
779.1828
 20
28.7088
 10
779.129
 20
28.8112
 10
779.0646
 20
28.9202
 10
778.9857
 20
29.038
 10
778.8645
 20
29.1642
 10
778.7375
 20
29.2852
 10
778.6144
 20
29.4086
 10
778.5048
 20
29.5424
 10
778.3861
 20
29.7739
 10
778.2577
 20
30.0156
 10
778.1994
 20
30.1395
 10
778.15
 20
30.265
 10
778.1133
 20
30.3919
 10
778.0932
 20
30.5198
 10
778.0522
 20
30.6053
 10
777.9981
 20
30.7462
 10
777.9366
 20
30.9247
 10
777.8733
 20
31.1227
 10
777.8138
 20
31.3221
 10
777.7639
 20
31.505
 10
777.7291
 20
31.6533
 10
777.7152
 20
31.7491
 10
777.6886
 20
31.812
 10
777.6444
 20
31.8919
 10
777.5873
 20
31.9827
 10
777.5218
 20
32.078
 10
777.3843
 20
32.2573
 10
777.269
 20
32.38
 10
777.0358
 20
32.5569
 10
776.792
 20
32.7255
 10
776.6716
 20
32.8119
 10
776.555
 20
32.9025
 10
776.4445
 20
32.9995
 10
776.3423
 20
33.1049
 10
776.2474
 20
33.2225
 10
776.1592
 20
33.3486
 10
776.0742
 20
33.4795
 10
775.9894
 20
33.6118
 10
775.9015
 20
33.7417
 10
775.8073
 20
33.8658
 10
775.7035
 20
33.9805
 10
775.5869
 20
34.0823
 10
775.4179
 20
34.2009
 10
775.2609
 20
34.2967
 10
775.1126
 20
34.3794
 10
774.9696
 20
34.4587
 10
774.8287
 20
34.5441
 10
774.6866
 20
34.6452
 10
774.5399
 20
34.7718
 10
774.3853
 20
34.9333
 10
774.31
 20
35.0296
 10
774.2492
 20
35.1249
 10
774.1941
 20
35.2212
 10
774.136
 20
35.3203
 10
774.066
 20
35.4243
 10
773.9756
 20
35.5351
 10
773.8559
 20
35.6546
 10
773.6983
 20
35.7847
 10
773.3892
 20
36.0052
 10
773.2669
 20
36.0696
 10
773.1407
 20
36.1261
 10
773.0122
 20
36.1778
 10
772.8831
 20
36.228
 10
772.755
 20
36.2799
 10
772.6296
 20
36.3367
 10
772.5086
 20
36.4018
 10
772.3936
 20
36.4783
 10
772.1295
 20
36.7023
 10
771.8864
 20
36.9334
 10
771.7623
 20
37.0448
 10
771.6309
 20
37.1497
 10
771.4879
 20
37.2454
 10
771.3292
 20
37.3292
 10
771.149
 20
37.3988
 10
770.9484
 20
37.4644
 10
770.7333
 20
37.5261
 10
770.5095
 20
37.5841
 10
770.2831
 20
37.6386
 10
770.06
 20
37.6897
 10
769.846
 20
37.7375
 10
769.6472
 20
37.7823
 10
769.3864
 20
37.8449
 10
769.1621
 20
37.9048
 10
768.9635
 20
37.9642
 10
768.7792
 20
38.0256
 10
768.5983
 20
38.0913
 10
768.4097
 20
38.1637
 10
768.2021
 20
38.2451
 10
767.9646
 20
38.3379
 10
767.8925
 20
38.3928
 10
767.7677
 20
38.4893
 10
767.6925
 20
38.5436
 10
767.6127
 20
38.5968
 10
767.5309
 20
38.6452
 10
767.45
 20
38.685
 10
767.2355
 20
38.747
 10
766.9102
 20
38.8576
 10
766.5716
 20
38.9765
 10
766.3172
 20
39.0634
 10
766.1909
 20
39.0735
 10
766.0542
 20
39.0959
 10
765.9202
 20
39.1256
 10
765.8021
 20
39.1575
 10
765.3905
 20
39.1894
 10
765.2538
 20
39.2156
 10
765.1067
 20
39.2239
 10
764.9554
 20
39.2225
 10
764.8065
 20
39.2202
 10
764.671
 20
39.2453
 10
764.4835
 20
39.2601
 10
764.2598
 20
39.2666
 10
764.0159
 20
39.2672
 10
763.7679
 20
39.2638
 10
763.5317
 20
39.2587
 10
763.3233
 20
39.2541
 10
763.1586
 20
39.2521
 10
762.9526
 20
39.2835
 10
762.8213
 20
39.259
 10
762.6412
 20
39.2445
 10
762.4272
 20
39.2381
 10
762.1944
 20
39.2375
 10
761.9576
 20
39.2408
 10
761.7319
 20
39.2457
 10
761.5323
 20
39.2501
 10
761.3736
 20
39.2521
 10
761.0422
 20
39.218
 10
760.6785
 20
39.1962
 10
760.3447
 20
39.1787
 10
760.1031
 20
39.1575
 10
759.8629
 20
39.0948
 10
759.7257
 20
39.0948
 10
759.517
 20
39.029
 10
759.3091
 20
38.9622
 10
759.1035
 20
38.8908
 10
758.9015
 20
38.811
 10
758.6912
 20
38.7086
 10
758.441
 20
38.5845
 10
758.1978
 20
38.4554
 10
758.0089
 20
38.3379
 10
756.9787
 20
37.9282
 10
756.772
 20
37.9015
 10
756.5436
 20
37.8535
 10
756.3013
 20
37.7913
 10
756.0532
 20
37.7222
 10
755.807
 20
37.6531
 10
755.5707
 20
37.5914
 10
755.3522
 20
37.5441
 10
755.1594
 20
37.5184
 10
754.301
 20
37.1718
 10
754.2109
 20
37.1078
 10
754.1167
 20
37.0267
 10
754.0192
 20
36.9331
 10
753.9192
 20
36.8319
 10
753.7152
 20
36.6257
 10
753.511
 20
36.4464
 10
753.2855
 20
36.2948
 10
753.0646
 20
36.1769
 10
752.8483
 20
36.0793
 10
752.6364
 20
35.9891
 10
752.4287
 20
35.8929
 10
752.2249
 20
35.7777
 10
752.0251
 20
35.6303
 10
751.8289
 20
35.4376
 10
751.7271
 20
35.3122
 10
751.6394
 20
35.1873
 10
751.5592
 20
35.0633
 10
751.4798
 20
34.9401
 10
751.3948
 20
34.8181
 10
751.2976
 20
34.6973
 10
751.1815
 20
34.5779
 10
751.04
 20
34.4602
 10
750.1469
 20
33.9245
 10
749.9988
 20
33.783
 10
749.8657
 20
33.6134
 10
749.7411
 20
33.4239
 10
749.6183
 20
33.223
 10
749.4908
 20
33.0192
 10
749.352
 20
32.8208
 10
749.1953
 20
32.6363
 10
749.0141
 20
32.4741
 10
748.798
 20
32.3206
 10
748.5798
 20
32.1643
 10
748.4767
 20
32.0803
 10
748.3813
 20
31.9896
 10
748.2964
 20
31.8905
 10
748.2246
 20
31.781
 10
748.1558
 20
31.6232
 10
748.0962
 20
31.4782
 10
748.0123
 20
31.2394
 10
747.9138
 20
30.9379
 10
747.8103
 20
30.6046
 10
747.7114
 20
30.2706
 10
747.6265
 20
29.9667
 10
747.5654
 20
29.7242
 10
747.5376
 20
29.5738
 10
747.4019
 20
29.3371
 10
747.2898
 20
29.1186
 10
747.231
 20
29.0077
 10
747.1643
 20
28.8912
 10
747.0849
 20
28.7658
 10
746.9883
 20
28.6282
 10
746.8627
 20
28.4905
 10
746.7483
 20
28.3612
 10
746.6423
 20
28.2235
 10
746.542
 20
28.0606
 10
746.4613
 20
27.8972
 10
746.3756
 20
27.706
 10
746.3369
 20
27.6074
 10
746.3044
 20
27.5109
 10
746.2805
 20
27.4193
 10
746.2677
 20
27.3357
 10
746.2039
 20
27.2143
 10
746.1651
 20
27.1025
 10
746.1345
 20
26.9891
 10
746.0958
 20
26.8627
 10
746.0269
 20
26.2328
 10
745.9997
 20
25.9926
 10
745.9848
 20
25.7285
 10
745.9739
 20
25.488
 10
745.9586
 20
25.3186
 10
745.9367
 20
25.2405
 10
745.9233
 20
25.1572
 10
745.9165
 20
25.07
 10
745.9148
 20
24.9804
 10
745.9197
 20
24.7994
 10
745.9244
 20
24.6251
 10
745.8969
 20
24.4782
 10
745.8808
 20
24.2465
 10
745.8737
 20
23.9563
 10
745.8731
 20
23.6338
 10
745.8768
 20
23.3051
 10
745.8824
 20
22.9965
 10
745.8875
 20
22.7342
 10
745.8897
 20
22.5443
 10
745.9093
 20
22.3935
 10
745.9229
 20
22.2167
 10
745.932
 20
22.0259
 10
745.938
 20
21.8332
 10
745.9462
 20
21.49
 10
745.9586
 20
21.2831
 10
745.9824
 20
21.2105
 10
745.9921
 20
21.162
 10
745.9935
 20
21.111
 10
745.9927
 20
21.0312
 10
746.0616
 20
20.4949
 10
746.1299
 20
20.243
 10
746.1646
 20
19.8332
 10
746.233
 20
19.644
 10
746.2529
 20
19.4987
 10
746.3017
 20
19.3496
 10
746.373
 20
19.1989
 10
746.4607
 20
19.0491
 10
746.6604
 20
18.7623
 10
746.8511
 20
18.5087
 10
747.023
 20
18.3514
 10
747.1695
 20
18.1449
 10
747.304
 20
17.893
 10
747.4269
 20
17.6086
 10
747.5385
 20
17.3044
 10
747.6391
 20
16.9932
 10
747.729
 20
16.6876
 10
747.8083
 20
16.4006
 10
747.8776
 20
16.1447
 10
747.9146
 20
16.0261
 10
747.9638
 20
15.8946
 10
748.0223
 20
15.7557
 10
748.0876
 20
15.6145
 10
748.1568
 20
15.4766
 10
748.2274
 20
15.3473
 10
748.2967
 20
15.2319
 10
748.3618
 20
15.1359
 10
748.4922
 20
14.9937
 10
748.6705
 20
14.8303
 10
748.8489
 20
14.6699
 10
748.98
 20
14.5369
 10
749.0548
 20
14.4135
 10
749.4262
 20
13.9693
 10
749.5976
 20
13.8115
 10
749.8037
 20
13.5595
 10
750.5932
 20
12.8346
 10
750.7624
 20
12.6982
 10
750.928
 20
12.5455
 10
751.092
 20
12.3811
 10
751.2568
 20
12.2095
 10
751.4244
 20
12.0353
 10
751.5972
 20
11.863
 10
751.7772
 20
11.6972
 10
751.9667
 20
11.5425
 10
752.1763
 20
11.3749
 10
752.3821
 20
11.1981
 10
752.5874
 20
11.0172
 10
752.7953
 20
10.8378
 10
753.009
 20
10.6651
 10
753.2318
 20
10.5045
 10
753.4667
 20
10.3614
 10
753.717
 20
10.241
 10
753.8562
 20
10.1888
 10
753.9947
 20
10.1417
 10
754.1318
 20
10.0912
 10
754.2663
 20
10.0289
 10
754.4614
 20
10.0021
 10
754.6633
 20
9.9517
 10
754.8682
 20
9.8821
 10
755.0726
 20
9.7975
 10
755.2727
 20
9.7025
 10
755.4651
 20
9.6014
 10
755.646
 20
9.4986
 10
755.8117
 20
9.3985
 10
755.9069
 20
9.3187
 10
755.9953
 20
9.2364
 10
756.0863
 20
9.1564
 10
756.1891
 20
9.0833
 10
757.1164
 20
8.6736
 10
758.1803
 20
8.4211
 10
758.5582
 20
8.3898
 10
758.7984
 20
8.3265
 10
758.9356
 20
8.3265
 10
759.3136
 20
8.2319
 10
760.1719
 20
8.0746
 10
760.5493
 20
8.0113
 10
761.0645
 20
7.98
 10
761.3047
 20
7.9167
 10
762.3691
 20
7.8221
 10
762.4788
 20
7.7989
 10
762.6113
 20
7.7851
 10
762.7598
 20
7.7788
 10
762.9174
 20
7.7779
 10
763.2326
 20
7.785
 10
763.5019
 20
7.7908
 10
765.1156
 20
7.9486
 10
766.5569
 20
8.2319
 10
766.7977
 20
8.2952
 10
767.0037
 20
8.2952
 10
767.2781
 20
8.3584
 10
769.3039
 20
8.8309
 10
769.4482
 20
8.925
 10
769.6301
 20
9.0316
 10
769.8205
 20
9.1404
 10
769.9904
 20
9.2412
 10
770.2306
 20
9.4618
 10
770.486
 20
9.6125
 10
770.8333
 20
9.766
 10
771.2429
 20
9.9208
 10
771.6849
 20
10.0753
 10
772.1297
 20
10.228
 10
772.5475
 20
10.3773
 10
772.9086
 20
10.5217
 10
773.1832
 20
10.6597
 10
773.2795
 20
10.7281
 10
773.3697
 20
10.8101
 10
773.4548
 20
10.9023
 10
773.5356
 20
11.0007
 10
773.6886
 20
11.202
 10
773.836
 20
11.3847
 10
774.4195
 20
11.9523
 10
774.6552
 20
12.1101
 10
774.902
 20
12.2617
 10
775.0231
 20
12.3405
 10
775.1392
 20
12.424
 10
775.2478
 20
12.5145
 10
775.3462
 20
12.614
 10
775.8271
 20
13.2444
 10
776.6508
 20
14.0007
 10
776.793
 20
14.095
 10
776.9432
 20
14.1875
 10
777.016
 20
14.2364
 10
777.0845
 20
14.289
 10
777.1465
 20
14.3465
 10
777.2001
 20
14.4105
 10
777.2934
 20
14.6138
 10
777.3862
 20
14.8008
 10
777.4777
 20
14.9783
 10
777.5672
 20
15.1529
 10
777.654
 20
15.3313
 10
777.7373
 20
15.5201
 10
777.8163
 20
15.7259
 10
777.8904
 20
15.9555
 10
777.9589
 20
16.1857
 10
778.0248
 20
16.3942
 10
778.0926
 20
16.5871
 10
778.1663
 20
16.7706
 10
778.2505
 20
16.9506
 10
778.3492
 20
17.1335
 10
778.4669
 20
17.3252
 10
778.6078
 20
17.5319
 10
778.7797
 20
17.6892
 10
778.9754
 20
17.9638
 10
779.1227
 20
18.1903
 10
779.233
 20
18.3858
 10
779.3181
 20
18.567
 10
779.3895
 20
18.7507
 10
779.4589
 20
18.9539
 10
779.5379
 20
19.1934
 10
779.6381
 20
19.4861
 10
779.6381
 20
19.644
 10
779.7069
 20
19.8959
 10
779.7069
 20
20.1797
 10
779.7752
 20
20.4003
 10
779.7752
 20
20.6527
 10
779.8441
 20
20.8733
 10
780.1185
 20
22.5757
 10
780.53
 20
23.4271
 10
781.8347
 20
23.5217
 10
782.1345
 20
23.5529
 10
782.714
 20
23.5705
 10
783.4862
 20
23.5774
 10
784.364
 20
23.5764
 10
785.2603
 20
23.5706
 10
786.0882
 20
23.5628
 10
786.7606
 20
23.556
 10
787.1905
 20
23.5531
 10
792.5809
 20
23.5531
 10
793.3021
 20
23.4271
 10
793.395
 20
23.4008
 10
793.4835
 20
23.3809
 10
793.5757
 20
23.3683
 10
793.6795
 20
23.3639
 10
793.6112
 20
22.4811
 10
793.5919
 20
22.4133
 10
793.5824
 20
22.3512
 10
793.5792
 20
22.2934
 10
793.579
 20
22.2381
 10
793.5785
 20
22.1836
 10
793.5745
 20
22.1283
 10
793.5635
 20
22.0705
 10
793.5423
 20
22.0085
 10
793.5477
 20
21.9884
 10
793.557
 20
21.9346
 10
793.5589
 20
21.8388
 10
793.5423
 20
21.6929
 10
793.3704
 20
20.6841
 10
793.3477
 20
20.6188
 10
793.3379
 20
20.5791
 10
793.3358
 20
20.5366
 10
793.3363
 20
20.4635
 10
793.1991
 20
19.3915
 10
793.1598
 20
19.2526
 10
793.1303
 20
19.108
 10
793.101
 20
18.9633
 10
793.0619
 20
18.8244
 10
792.9589
 20
17.7838
 10
792.9361
 20
17.7185
 10
792.9261
 20
17.6788
 10
792.9238
 20
17.6363
 10
792.9242
 20
17.5632
 10
792.7181
 20
16.0814
 10
792.6185
 20
15.7348
 10
792.5325
 20
15.363
 10
792.4872
 20
15.177
 10
792.4364
 20
14.9958
 10
792.3772
 20
14.8232
 10
792.3066
 20
14.6629
 10
792.2143
 20
14.5074
 10
792.1172
 20
14.3661
 10
792.0166
 20
14.2356
 10
791.9142
 20
14.1124
 10
791.7099
 20
13.8739
 10
791.5165
 20
13.6228
 10
791.3696
 20
13.2581
 10
791.2423
 20
12.8925
 10
791.1279
 20
12.5261
 10
791.0199
 20
12.1592
 10
790.9118
 20
11.792
 10
790.797
 20
11.4248
 10
790.6688
 20
11.0577
 10
790.5209
 20
10.6911
 10
790.447
 20
10.5938
 10
790.3654
 20
10.5025
 10
790.2782
 20
10.4157
 10
790.1876
 20
10.332
 10
790.0049
 20
10.1676
 10
789.8345
 20
9.9975
 10
789.6445
 20
9.7811
 10
789.4827
 20
9.5282
 10
789.3394
 20
9.2503
 10
789.2049
 20
8.9588
 10
789.0698
 20
8.6651
 10
788.9243
 20
8.3807
 10
788.7589
 20
8.117
 10
788.564
 20
7.8854
 10
788.431
 20
7.7041
 10
788.3227
 20
7.572
 10
788.2311
 20
7.4748
 10
788.1481
 20
7.3978
 10
788.0655
 20
7.3267
 10
787.9754
 20
7.2467
 10
787.8697
 20
7.1435
 10
787.7403
 20
7.0026
 10
787.6758
 20
6.9117
 10
787.613
 20
6.8257
 10
787.5451
 20
6.7416
 10
787.4654
 20
6.656
 10
787.3038
 20
6.3545
 10
787.1215
 20
5.9738
 10
787.0077
 20
5.7718
 10
786.8709
 20
5.5716
 10
786.7049
 20
5.3805
 10
786.504
 20
5.2056
 10
785.9547
 20
4.8905
 10
785.6114
 20
4.6066
 10
785.4994
 20
4.4693
 10
785.3947
 20
4.3192
 10
785.2913
 20
4.161
 10
785.1832
 20
3.9993
 10
785.0641
 20
3.8385
 10
784.9282
 20
3.6835
 10
784.7692
 20
3.5386
 10
784.5812
 20
3.4087
 10
784.3207
 20
3.2672
 10
784.0928
 20
3.1457
 10
783.9821
 20
3.0756
 10
783.8689
 20
2.9902
 10
783.7495
 20
2.8827
 10
783.6203
 20
2.7465
 10
783.437
 20
2.5029
 10
783.2654
 20
2.2438
 10
783.174
 20
2.1179
 10
783.0737
 20
1.9996
 10
782.9604
 20
1.8927
 10
782.8303
 20
1.8009
 10
782.6248
 20
1.691
 10
782.4101
 20
1.5923
 10
782.1888
 20
1.4964
 10
781.9637
 20
1.3948
 10
781.7375
 20
1.2789
 10
781.5129
 20
1.1402
 10
781.2926
 20
0.9704
 10
781.0793
 20
0.7608
 10
780.9956
 20
0.6595
 10
780.9036
 20
0.5662
 10
780.8051
 20
0.4756
 10
780.7019
 20
0.3824
 10
780.5626
 20
0.3254
 10
780.4353
 20
0.2614
 10
780.3126
 20
0.1869
 10
780.1873
 20
0.0986
 10
779.9395
 20
0.0017
 10
779.4983
 20
-0.1955
 10
779.0582
 20
-0.4032
 10
778.8138
 20
-0.5318
 10
778.7485
 20
-0.54
 10
778.6919
 20
-0.5541
 10
778.6416
 20
-0.5733
 10
778.5952
 20
-0.5969
 10
778.5049
 20
-0.6545
 10
778.4023
 20
-0.721
 10
778.2819
 20
-0.8181
 10
778.1707
 20
-0.92
 10
778.0653
 20
-1.0245
 10
777.9625
 20
-1.1294
 10
777.8587
 20
-1.2325
 10
777.7509
 20
-1.3316
 10
777.6355
 20
-1.4244
 10
777.5092
 20
-1.5087
 10
777.4034
 20
-1.5508
 10
777.3152
 20
-1.5926
 10
777.2297
 20
-1.6398
 10
777.1318
 20
-1.6979
 10
777.0125
 20
-1.7154
 10
776.843
 20
-1.7517
 10
776.6389
 20
-1.8014
 10
776.4163
 20
-1.8592
 10
775.9782
 20
-1.9781
 10
775.6553
 20
-2.0658
 10
775.4189
 20
-2.1263
 10
775.2167
 20
-2.1788
 10
775.0383
 20
-2.2291
 10
774.8735
 20
-2.2828
 10
774.712
 20
-2.3454
 10
774.5435
 20
-2.4228
 10
774.3578
 20
-2.5204
 10
774.1446
 20
-2.6439
 10
774.0026
 20
-2.7602
 10
773.8433
 20
-2.897
 10
773.7614
 20
-2.964
 10
773.6802
 20
-3.0254
 10
773.6015
 20
-3.0774
 10
773.5269
 20
-3.1164
 10
773.4513
 20
-3.1313
 10
773.4133
 20
-3.1436
 10
773.3807
 20
-3.1659
 10
773.3209
 20
-3.211
 10
773.1403
 20
-3.2527
 10
772.9334
 20
-3.3088
 10
772.7227
 20
-3.3685
 10
772.5308
 20
-3.4211
 10
770.8829
 20
-3.684
 10
770.8119
 20
-3.7049
 10
770.7685
 20
-3.7139
 10
770.7223
 20
-3.7158
 10
770.6427
 20
-3.7154
 10
769.4069
 20
-3.8732
 10
769.132
 20
-3.9365
 10
768.7546
 20
-3.9678
 10
768.5951
 20
-4.0088
 10
768.4348
 20
-4.0428
 10
768.2712
 20
-4.0786
 10
768.1023
 20
-4.1252
 10
767.9993
 20
-4.1319
 10
767.9191
 20
-4.1482
 10
767.8446
 20
-4.1767
 10
767.7591
 20
-4.2198
 10
767.5872
 20
-4.2198
 10
767.5132
 20
-4.2527
 10
767.4288
 20
-4.2802
 10
767.337
 20
-4.3036
 10
767.2406
 20
-4.3245
 10
767.0454
 20
-4.3638
 10
766.866
 20
-4.409
 10
766.7288
 20
-4.409
 10
766.5227
 20
-4.4722
 10
764.9443
 20
-4.6301
 10
764.6992
 20
-4.6537
 10
764.3281
 20
-4.6752
 10
763.8738
 20
-4.6935
 10
763.3792
 20
-4.7072
 10
762.8871
 20
-4.7152
 10
762.4402
 20
-4.7162
 10
762.0816
 20
-4.7092
 10
761.854
 20
-4.6928
 10
761.6917
 20
-4.674
 10
761.5224
 20
-4.662
 10
761.3513
 20
-4.655
 10
761.1836
 20
-4.6511
 10
760.8796
 20
-4.6454
 10
760.6524
 20
-4.6301
 10
760.5526
 20
-4.6058
 10
760.4692
 20
-4.5969
 10
760.383
 20
-4.5967
 10
760.275
 20
-4.5982
 10
760.0342
 20
-4.5354
 10
759.5879
 20
-4.5036
 10
759.2447
 20
-4.409
 10
758.9676
 20
-4.3502
 10
758.8618
 20
-4.3406
 10
758.757
 20
-4.3215
 10
758.6533
 20
-4.2961
 10
758.5504
 20
-4.2677
 10
758.4483
 20
-4.2394
 10
758.3469
 20
-4.2146
 10
758.2462
 20
-4.1965
 10
758.1461
 20
-4.1884
 10
755.4338
 20
-3.7473
 10
755.2277
 20
-3.7154
 10
754.1633
 20
-3.5894
 10
753.9674
 20
-3.537
 10
753.7588
 20
-3.4887
 10
753.5466
 20
-3.4406
 10
753.3396
 20
-3.3888
 10
753.0637
 20
-3.3149
 10
752.7804
 20
-3.2333
 10
752.6424
 20
-3.1876
 10
752.5105
 20
-3.1377
 10
752.3872
 20
-3.0827
 10
752.2752
 20
-3.0218
 10
752.1519
 20
-2.9282
 10
751.9628
 20
-2.7719
 10
751.7584
 20
-2.6066
 10
751.5893
 20
-2.4861
 10
750.8681
 20
-2.1709
 10
750.6167
 20
-2.1378
 10
750.3475
 20
-2.0784
 10
750.0678
 20
-2.0015
 10
749.7852
 20
-1.9161
 10
749.507
 20
-1.831
 10
749.2408
 20
-1.7551
 10
748.9939
 20
-1.6973
 10
748.7739
 20
-1.6665
 10
748.6991
 20
-1.6409
 10
748.619
 20
-1.6065
 10
748.5359
 20
-1.5652
 10
748.452
 20
-1.5188
 10
748.2915
 20
-1.4183
 10
748.1558
 20
-1.32
 10
748.0133
 20
-1.1911
 10
747.9177
 20
-1.078
 10
747.8359
 20
-0.9713
 10
747.7346
 20
-0.8617
 10
747.5809
 20
-0.7399
 10
747.3416
 20
-0.5966
 10
746.9836
 20
-0.4224
 10
746.4737
 20
-0.2081
 10
746.325
 20
-0.1449
 10
746.1532
 20
-0.0644
 10
745.9678
 20
0.0297
 10
745.7783
 20
0.1336
 10
745.5942
 20
0.2435
 10
745.425
 20
0.3557
 10
745.2801
 20
0.4663
 10
745.1691
 20
0.5716
 10
745.0793
 20
0.6736
 10
744.9665
 20
0.7732
 10
744.8371
 20
0.8706
 10
744.6979
 20
0.9658
 10
744.4158
 20
1.1504
 10
744.173
 20
1.3279
 10
743.9117
 20
1.4735
 10
743.6377
 20
1.6106
 10
743.3567
 20
1.7405
 10
743.0744
 20
1.8642
 10
742.9333
 20
1.951
 10
742.7961
 20
2.0806
 10
742.657
 20
2.2441
 10
742.5105
 20
2.4322
 10
742.3508
 20
2.636
 10
742.1722
 20
2.8464
 10
741.9691
 20
3.0544
 10
741.7356
 20
3.2508
 10
741.4957
 20
3.4107
 10
741.2337
 20
3.5685
 10
741.1073
 20
3.6469
 10
740.9909
 20
3.7252
 10
740.8895
 20
3.8034
 10
740.8083
 20
3.8817
 10
740.7111
 20
4.0155
 10
740.6054
 20
4.1625
 10
740.5068
 20
4.311
 10
740.4309
 20
4.4493
 10
740.3591
 20
4.543
 10
740.2719
 20
4.6435
 10
740.1732
 20
4.7475
 10
740.0669
 20
4.8518
 10
739.8464
 20
5.0478
 10
739.6414
 20
5.2056
 10
739.1604
 20
5.5208
 10
739.0066
 20
5.6841
 10
738.8651
 20
5.8626
 10
738.8038
 20
5.9561
 10
738.7512
 20
6.0516
 10
738.7093
 20
6.1485
 10
738.68
 20
6.2463
 10
738.5425
 20
6.4474
 10
738.3423
 20
6.7785
 10
738.2427
 20
6.9527
 10
738.1564
 20
7.1113
 10
738.0929
 20
7.2384
 10
738.0618
 20
7.3178
 10
737.9842
 20
7.4414
 10
737.8615
 20
7.61
 10
737.7274
 20
7.7744
 10
737.6156
 20
7.8854
 10
737.4433
 20
8.0155
 10
737.29
 20
8.1365
 10
737.145
 20
8.2658
 10
736.9974
 20
8.4211
 10
736.8334
 20
8.6304
 10
736.7044
 20
8.8358
 10
736.6041
 20
9.0347
 10
736.5262
 20
9.2244
 10
736.412
 20
9.5661
 10
736.3115
 20
9.8402
 10
735.8652
 20
10.5332
 10
735.7282
 20
10.6677
 10
735.5814
 20
10.7947
 10
735.5088
 20
10.8587
 10
735.4392
 20
10.925
 10
735.3743
 20
10.9948
 10
735.3159
 20
11.0695
 10
735.2244
 20
11.2181
 10
735.1267
 20
11.4084
 10
735.0272
 20
11.6274
 10
734.9306
 20
11.8625
 10
734.8413
 20
12.1008
 10
734.7641
 20
12.3298
 10
734.7033
 20
12.5364
 10
734.6636
 20
12.7081
 10
734.6372
 20
12.9577
 10
734.5765
 20
13.2034
 10
734.4913
 20
13.4448
 10
734.3915
 20
13.6813
 10
734.2871
 20
13.9124
 10
734.188
 20
14.1377
 10
734.1042
 20
14.3565
 10
734.0454
 20
14.5683
 10
733.9881
 20
14.6352
 10
733.9528
 20
14.6846
 10
733.9295
 20
14.7389
 10
733.9082
 20
14.8207
 10
733.8277
 20
14.9238
 10
733.7454
 20
15.0482
 10
733.6757
 20
15.1771
 10
733.6333
 20
15.2933
 10
733.5721
 20
15.3712
 10
733.5213
 20
15.4477
 10
733.475
 20
15.5258
 10
733.4273
 20
15.6084
 10
733.347
 20
15.7832
 10
733.2841
 20
15.9515
 10
733.2339
 20
16.1153
 10
733.192
 20
16.2764
 10
733.1147
 20
16.5984
 10
733.0157
 20
16.9329
 10
732.4664
 20
21.8821
 10
732.4022
 20
22.0737
 10
732.3431
 20
22.2649
 10
732.2859
 20
22.4556
 10
732.2273
 20
22.6456
 10
732.1644
 20
22.8347
 10
732.0938
 20
23.0227
 10
732.0124
 20
23.2096
 10
731.9171
 20
23.3952
 10
731.6421
 20
23.4345
 10
731.3281
 20
23.4639
 10
731.0167
 20
23.4905
 10
730.7497
 20
23.5217
 10
730.219
 20
23.5471
 10
729.1455
 20
23.5619
 10
727.6986
 20
23.5684
 10
726.0477
 20
23.5688
 10
724.3623
 20
23.5652
 10
722.8119
 20
23.56
 10
721.5658
 20
23.5552
 10
720.7935
 20
23.5531
 10
700.8811
 20
23.5531
 10
700.1473
 20
23.5503
 10
698.8955
 20
23.5438
 10
697.311
 20
23.5363
 10
695.5795
 20
23.5308
 10
693.8862
 20
23.5301
 10
692.4167
 20
23.5369
 10
691.3564
 20
23.554
 10
690.8907
 20
23.5844
 10
690.8058
 20
23.5708
 10
690.7464
 20
23.5723
 10
690.6818
 20
23.5799
 10
690.5817
 20
23.5844
 10
689.5172
 20
23.7109
  0
LWPOLYLINE
  5
6E
330
1F
100
AcDbEntity
  8
Layer 1
 62
     7
370
    70
100
AcDbPolyline
 90
       29
 70
     0
 43
0.0
 10
1017.5558
 20
-58.7324
 10
1017.4483
 20
-58.7585
 10
1017.313
 20
-58.7737
 10
1017.1584
 20
-58.7802
 10
1016.9929
 20
-58.7804
 10
1016.6624
 20
-58.771
 10
1016.3888
 20
-58.7638
 10
1016.2059
 20
-58.7854
 10
1016.072
 20
-58.7918
 10
1015.9745
 20
-58.7876
 10
1015.9011
 20
-58.7773
 10
1015.8393
 20
-58.7652
 10
1015.7765
 20
-58.756
 10
1015.7005
 20
-58.754
 10
1015.5988
 20
-58.7638
 10
1015.2576
 20
-58.7976
 10
1014.5867
 20
-58.8165
 10
1013.6887
 20
-58.8236
 10
1012.6663
 20
-58.8221
 10
1011.6221
 20
-58.8154
 10
1010.6587
 20
-58.8066
 10
1009.8789
 20
-58.799
 10
1009.3852
 20
-58.7957
 10
1009.0985
 20
-58.7248
 10
1008.8068
 20
-58.6641
 10
1008.6625
 20
-58.6303
 10
1008.5211
 20
-58.5903
 10
1008.384
 20
-58.5412
 10
1008.2524
 20
-58.48
  0
LWPOLYLINE
  5
6F
330
1F
100
AcDbEntity
  8
Layer 1
 62
     7
370
    70
100
AcDbPolyline
 90
       38
 70
     0
 43
0.0
 10
996.4081
 20
-58.7324
 10
996.5795
 20
-58.7324
 10
996.6999
 20
-58.7565
 10
996.8546
 20
-58.7707
 10
997.0332
 20
-58.7771
 10
997.2252
 20
-58.7778
 10
997.6077
 20
-58.77
 10
997.9188
 20
-58.7638
 10
998.4329
 20
-58.7957
 10
998.5071
 20
-58.7725
 10
998.5364
 20
-58.7647
 10
998.5657
 20
-58.7725
 10
998.6395
 20
-58.7957
 10
1006.3296
 20
-58.7957
 10
1006.5303
 20
-58.7674
 10
1006.7729
 20
-58.7338
 10
1007.0422
 20
-58.696
 10
1007.3227
 20
-58.655
 10
1007.5993
 20
-58.6119
 10
1007.8566
 20
-58.5677
 10
1008.0794
 20
-58.5234
 10
1008.2524
 20
-58.48
 10
1008.2524
 20
-58.0702
 10
1008.2861
 20
-57.7979
 10
1008.3051
 20
-57.2725
 10
1008.3126
 20
-56.5727
 10
1008.3116
 20
-55.7774
 10
1008.3054
 20
-54.9652
 10
1008.297
 20
-54.215
 10
1008.2897
 20
-53.6056
 10
1008.2866
 20
-53.2156
 10
1008.3208
 20
19.9525
 10
1008.3228
 20
20.1401
 10
1008.3288
 20
20.5418
 10
1008.3361
 20
20.765
 10
1008.3479
 20
20.972
 10
1008.3653
 20
21.1398
 10
1008.3896
 20
21.2451
  0
LWPOLYLINE
  5
70
330
1F
100
AcDbEntity
  8
Layer 1
 62
     7
370
    70
100
AcDbPolyline
 90
       19
 70
     0
 43
0.0
 10
506.6321
 20
-157.3659
 10
506.7026
 20
-157.3897
 10
506.7454
 20
-157.3984
 10
506.7918
 20
-157.3987
 10
506.8729
 20
-157.3973
 10
507.3698
 20
-157.4407
 10
508.3847
 20
-157.464
 10
509.7564
 20
-157.4717
 10
511.3233
 20
-157.4682
 10
512.9239
 20
-157.4577
 10
514.397
 20
-157.4448
 10
515.581
 20
-157.4338
 10
516.3145
 20
-157.4292
 10
516.6619
 20
-157.3452
 10
517.0185
 20
-157.2775
 10
517.1973
 20
-157.2412
 10
517.3749
 20
-157.1989
 10
517.55
 20
-157.1469
 10
517.7216
 20
-157.0821
  0
LWPOLYLINE
  5
71
330
1F
100
AcDbEntity
  8
Layer 1
 62
     7
370
    70
100
AcDbPolyline
 90
       38
 70
     0
 43
0.0
 10
527.2315
 20
-157.2713
 10
527.116
 20
-157.2935
 10
526.924
 20
-157.3119
 10
526.6825
 20
-157.3268
 10
526.4189
 20
-157.3388
 10
526.1603
 20
-157.3483
 10
525.9339
 20
-157.3556
 10
525.767
 20
-157.3614
 10
525.6867
 20
-157.3659
 10
525.6016
 20
-157.3859
 10
525.5109
 20
-157.3981
 10
525.4159
 20
-157.4043
 10
525.3183
 20
-157.4059
 10
525.1211
 20
-157.4015
 10
524.9313
 20
-157.3973
 10
524.5906
 20
-157.4178
 10
523.9315
 20
-157.4353
 10
523.0562
 20
-157.4483
 10
522.0674
 20
-157.4556
 10
521.0674
 20
-157.4555
 10
520.1589
 20
-157.4467
 10
519.4441
 20
-157.4278
 10
519.0257
 20
-157.3973
 10
518.7078
 20
-157.3212
 10
518.3694
 20
-157.2573
 10
518.1996
 20
-157.2233
 10
518.0331
 20
-157.1846
 10
517.8728
 20
-157.1384
 10
517.7216
 20
-157.0821
 10
517.7216
 20
-64.621
 10
517.7256
 20
-63.6625
 10
517.7352
 20
-62.0083
 10
517.7462
 20
-59.9072
 10
517.7549
 20
-57.6083
 10
517.7573
 20
-55.3604
 10
517.7495
 20
-53.4125
 10
517.7275
 20
-52.0136
 10
517.6874
 20
-51.4125
  0
LWPOLYLINE
  5
72
330
1F
100
AcDbEntity
  8
Layer 1
 62
     7
370
    70
100
AcDbPolyline
 90
       36
 70
     0
 43
0.0
 10
586.2475
 20
-203.2965
 10
586.2512
 20
-203.161
 10
586.2544
 20
-203.0206
 10
586.2522
 20
-202.9513
 10
586.2456
 20
-202.8841
 10
586.2331
 20
-202.8202
 10
586.2133
 20
-202.7607
 10
586.2475
 20
-202.6348
 10
586.2256
 20
-202.5636
 10
586.2213
 20
-202.5252
 10
586.23
 20
-202.4865
 10
586.2475
 20
-202.4142
 10
586.2225
 20
-202.3462
 10
586.2141
 20
-202.3194
 10
586.2225
 20
-202.2927
 10
586.2475
 20
-202.225
 10
586.2185
 20
-202.1396
 10
586.2089
 20
-202.0831
 10
586.2185
 20
-202.0266
 10
586.2475
 20
-201.9412
 10
586.2149
 20
-201.6225
 10
586.1964
 20
-200.9359
 10
586.189
 20
-199.996
 10
586.1897
 20
-198.9175
 10
586.1955
 20
-197.815
 10
586.2034
 20
-196.8032
 10
586.2103
 20
-195.9967
 10
586.2133
 20
-195.5102
 10
586.2618
 20
-195.3538
 10
586.3019
 20
-195.192
 10
586.3375
 20
-195.0268
 10
586.3728
 20
-194.8602
 10
586.4117
 20
-194.694
 10
586.4584
 20
-194.5302
 10
586.5169
 20
-194.3708
 10
586.5912
 20
-194.2176
  0
LWPOLYLINE
  5
73
330
1F
100
AcDbEntity
  8
Layer 1
 62
     7
370
    70
100
AcDbPolyline
 90
       40
 70
     0
 43
0.0
 10
722.0981
 20
-194.2495
 10
721.938
 20
-194.252
 10
721.734
 20
-194.2579
 10
721.5021
 20
-194.2645
 10
721.2583
 20
-194.2692
 10
721.0186
 20
-194.2695
 10
720.799
 20
-194.2627
 10
720.6156
 20
-194.2463
 10
720.4844
 20
-194.2176
 10
720.2783
 20
-194.2495
 10
588.3763
 20
-194.2176
 10
588.1374
 20
-194.2448
 10
587.9398
 20
-194.2537
 10
587.7756
 20
-194.2496
 10
587.6368
 20
-194.2378
 10
587.5153
 20
-194.2234
 10
587.4032
 20
-194.2117
 10
587.2923
 20
-194.208
 10
587.1747
 20
-194.2176
 10
586.9421
 20
-194.2483
 10
586.8803
 20
-194.2449
 10
586.8605
 20
-194.2368
 10
586.8199
 20
-194.2278
 10
586.7372
 20
-194.2206
 10
586.5912
 20
-194.2176
 10
586.5259
 20
-194.0921
 10
586.473
 20
-193.9494
 10
586.4296
 20
-193.7947
 10
586.3925
 20
-193.633
 10
586.3255
 20
-193.3094
 10
586.2475
 20
-193.0197
 10
586.2133
 20
-192.831
 10
586.2102
 20
-192.1504
 10
586.2031
 20
-190.9891
 10
586.1949
 20
-189.5191
 10
586.1889
 20
-187.9126
 10
586.188
 20
-186.3415
 10
586.1955
 20
-184.9782
 10
586.2142
 20
-183.9946
 10
586.2475
 20
-183.5629
  0
LWPOLYLINE
  5
74
330
1F
100
AcDbEntity
  8
Layer 1
 62
     7
370
    70
100
AcDbPolyline
 90
       30
 70
     0
 43
0.0
 10
939.6235
 20
-202.6975
 10
939.6515
 20
-202.615
 10
939.6607
 20
-202.5461
 10
939.6599
 20
-202.474
 10
939.6577
 20
-202.3823
 10
939.6782
 20
-202.3085
 10
939.688
 20
-202.2387
 10
939.6907
 20
-202.1719
 10
939.6901
 20
-202.107
 10
939.6897
 20
-202.0431
 10
939.6932
 20
-201.979
 10
939.7043
 20
-201.9139
 10
939.7266
 20
-201.8466
 10
939.6924
 20
-201.7206
 10
939.7206
 20
-201.6012
 10
939.7298
 20
-201.4763
 10
939.7289
 20
-201.3476
 10
939.7266
 20
-201.2167
 10
939.7639
 20
-200.8956
 10
939.7845
 20
-200.2626
 10
939.7922
 20
-199.4148
 10
939.7904
 20
-198.4493
 10
939.7828
 20
-197.4632
 10
939.7729
 20
-196.5537
 10
939.7643
 20
-195.8179
 10
939.7607
 20
-195.3529
 10
939.6727
 20
-195.0746
 10
939.5946
 20
-194.7914
 10
939.5137
 20
-194.5051
 10
939.4175
 20
-194.2176
  0
LWPOLYLINE
  5
75
330
1F
100
AcDbEntity
  8
Layer 1
 62
     7
370
    70
100
AcDbPolyline
 90
       19
 70
     0
 43
0.0
 10
804.5624
 20
-194.2495
 10
805.5238
 20
-194.2495
 10
805.9677
 20
-194.2094
 10
806.8655
 20
-194.1876
 10
808.0759
 20
-194.1801
 10
809.4573
 20
-194.183
 10
810.8685
 20
-194.1921
 10
812.168
 20
-194.2036
 10
813.2144
 20
-194.2134
 10
813.8663
 20
-194.2176
 10
939.4175
 20
-194.2176
 10
939.4709
 20
-194.0633
 10
939.517
 20
-193.9074
 10
939.5579
 20
-193.7509
 10
939.5958
 20
-193.5946
 10
939.6713
 20
-193.2859
 10
939.7607
 20
-192.9883
 10
939.7607
 20
-184.2246
 10
939.6924
 20
-184.004
  0
LWPOLYLINE
  5
76
330
1F
100
AcDbEntity
  8
Layer 1
 62
     7
370
    18
100
AcDbPolyline
 90
      131
 70
     1
 43
0.0
 10
747.1581
 20
155.0609
 10
746.6927
 20
155.0697
 10
746.2327
 20
155.0961
 10
745.7781
 20
155.14
 10
745.3289
 20
155.2016
 10
744.885
 20
155.2806
 10
744.4466
 20
155.3772
 10
744.0136
 20
155.4914
 10
743.586
 20
155.623
 10
743.1724
 20
155.7693
 10
742.7805
 20
155.9275
 10
742.4103
 20
156.0975
 10
742.062
 20
156.2793
 10
741.7354
 20
156.473
 10
741.4307
 20
156.6786
 10
741.1479
 20
156.896
 10
740.8869
 20
157.1252
 10
741.762
 20
158.4333
 10
741.9779
 20
158.2369
 10
742.2129
 20
158.0491
 10
742.4669
 20
157.8698
 10
742.74
 20
157.6991
 10
743.0321
 20
157.5371
 10
743.3434
 20
157.3837
 10
743.6737
 20
157.239
 10
744.023
 20
157.1029
 10
744.386
 20
156.9791
 10
744.7563
 20
156.8719
 10
745.1341
 20
156.7812
 10
745.5192
 20
156.7071
 10
745.9116
 20
156.6494
 10
746.3114
 20
156.6082
 10
746.7185
 20
156.5835
 10
747.1329
 20
156.5753
 10
747.6724
 20
156.5895
 10
748.1786
 20
156.6319
 10
748.6516
 20
156.7027
 10
749.0913
 20
156.8017
 10
749.4977
 20
156.9291
 10
749.871
 20
157.0848
 10
750.211
 20
157.2688
 10
750.5178
 20
157.4811
 10
750.7903
 20
157.7163
 10
751.0264
 20
157.9691
 10
751.2262
 20
158.2396
 10
751.3896
 20
158.5276
 10
751.5168
 20
158.8332
 10
751.6076
 20
159.1564
 10
751.662
 20
159.4972
 10
751.6802
 20
159.8556
 10
751.6718
 20
160.109
 10
751.6466
 20
160.3534
 10
751.6047
 20
160.589
 10
751.5459
 20
160.8157
 10
751.4704
 20
161.0334
 10
751.3781
 20
161.2422
 10
751.2689
 20
161.442
 10
751.143
 20
161.6329
 10
750.9972
 20
161.8141
 10
750.8283
 20
161.9849
 10
750.6364
 20
162.1453
 10
750.4215
 20
162.2954
 10
750.1835
 20
162.435
 10
749.9224
 20
162.5642
 10
749.6383
 20
162.683
 10
749.3312
 20
162.7913
 10
748.9981
 20
162.8883
 10
748.6352
 20
162.9723
 10
748.2427
 20
163.0434
 10
747.8204
 20
163.1016
 10
747.3684
 20
163.1467
 10
746.8867
 20
163.179
 10
746.3752
 20
163.1984
 10
745.8339
 20
163.2048
 10
742.111
 20
163.2048
 10
743.0114
 20
171.2566
 10
752.5806
 20
171.2566
 10
752.5806
 20
169.7887
 10
743.7357
 20
169.7887
 10
744.6604
 20
170.5914
 10
743.8855
 20
163.8467
 10
742.9618
 20
164.6726
 10
746.2345
 20
164.6726
 10
746.8801
 20
164.6633
 10
747.4929
 20
164.6353
 10
748.0728
 20
164.5887
 10
748.62
 20
164.5235
 10
749.1343
 20
164.4396
 10
749.6158
 20
164.3371
 10
750.0645
 20
164.216
 10
750.4804
 20
164.0762
 10
750.8664
 20
163.9197
 10
751.2246
 20
163.7486
 10
751.555
 20
163.5627
 10
751.8578
 20
163.3621
 10
752.1328
 20
163.1469
 10
752.3802
 20
162.917
 10
752.5999
 20
162.6724
 10
752.792
 20
162.4132
 10
752.9591
 20
162.1408
 10
753.1039
 20
161.8574
 10
753.2263
 20
161.5629
 10
753.3264
 20
161.2573
 10
753.4042
 20
160.9407
 10
753.4598
 20
160.613
 10
753.4931
 20
160.2742
 10
753.5042
 20
159.9244
 10
753.4933
 20
159.5896
 10
753.4606
 20
159.2624
 10
753.406
 20
158.9428
 10
753.3296
 20
158.6308
 10
753.2313
 20
158.3264
 10
753.1111
 20
158.0294
 10
752.9691
 20
157.7399
 10
752.8052
 20
157.4578
 10
752.6193
 20
157.1871
 10
752.4115
 20
156.9311
 10
752.1817
 20
156.6897
 10
751.9301
 20
156.463
 10
751.6567
 20
156.2509
 10
751.3615
 20
156.0535
 10
751.0446
 20
155.8709
 10
750.706
 20
155.7029
 10
750.3445
 20
155.5523
 10
749.9596
 20
155.4219
 10
749.5513
 20
155.3115
 10
749.1195
 20
155.2213
 10
748.6643
 20
155.1511
 10
748.1856
 20
155.101
 10
747.6836
 20
155.0709
 10
747.1581
 20
155.0609
  0
LWPOLYLINE
  5
77
330
1F
100
AcDbEntity
  8
Layer 1
 62
     7
370
    18
100
AcDbPolyline
 90
      127
 70
     1
 43
0.0
 10
755.3282
 20
155.1984
 10
755.3282
 20
156.3681
 10
762.599
 20
162.9065
 10
762.8408
 20
163.1268
 10
763.0671
 20
163.3403
 10
763.2778
 20
163.5469
 10
763.4729
 20
163.7467
 10
763.6524
 20
163.9397
 10
763.8163
 20
164.1258
 10
763.9646
 20
164.3051
 10
764.0972
 20
164.4775
 10
764.2173
 20
164.6456
 10
764.3271
 20
164.8111
 10
764.4268
 20
164.9741
 10
764.5162
 20
165.1346
 10
764.5954
 20
165.2925
 10
764.6644
 20
165.4479
 10
764.7233
 20
165.6008
 10
764.772
 20
165.7512
 10
764.8484
 20
166.0451
 10
764.9031
 20
166.3303
 10
764.9223
 20
166.4697
 10
764.936
 20
166.607
 10
764.9443
 20
166.7422
 10
764.947
 20
166.8753
 10
764.9308
 20
167.2158
 10
764.8821
 20
167.5376
 10
764.8011
 20
167.8408
 10
764.6876
 20
168.1253
 10
764.5418
 20
168.3912
 10
764.3636
 20
168.6385
 10
764.153
 20
168.8671
 10
763.9101
 20
169.0771
 10
763.6355
 20
169.2653
 10
763.33
 20
169.4284
 10
762.9936
 20
169.5665
 10
762.6264
 20
169.6796
 10
762.2283
 20
169.7675
 10
761.7993
 20
169.8304
 10
761.3395
 20
169.8681
 10
760.8488
 20
169.8807
 10
760.4674
 20
169.8739
 10
760.0973
 20
169.8534
 10
759.7384
 20
169.8192
 10
759.3908
 20
169.7715
 10
759.0544
 20
169.71
 10
758.7294
 20
169.635
 10
758.4156
 20
169.5464
 10
758.1133
 20
169.4441
 10
757.8219
 20
169.3278
 10
757.5412
 20
169.1964
 10
757.271
 20
169.0498
 10
757.0114
 20
168.8882
 10
756.7623
 20
168.7114
 10
756.5237
 20
168.5195
 10
756.2956
 20
168.3125
 10
756.0779
 20
168.0905
 10
754.8032
 20
169.1003
 10
755.0683
 20
169.3677
 10
755.3513
 20
169.6192
 10
755.6524
 20
169.8551
 10
755.9714
 20
170.0751
 10
756.3083
 20
170.2794
 10
756.6631
 20
170.4679
 10
757.0358
 20
170.6407
 10
757.4264
 20
170.7977
 10
757.8321
 20
170.9375
 10
758.2495
 20
171.0586
 10
758.6785
 20
171.1611
 10
759.1192
 20
171.245
 10
759.5715
 20
171.3102
 10
760.0355
 20
171.3568
 10
760.5112
 20
171.3848
 10
760.9985
 20
171.3941
 10
761.4347
 20
171.386
 10
761.8561
 20
171.3619
 10
762.2627
 20
171.3216
 10
762.6545
 20
171.2652
 10
763.0315
 20
171.1927
 10
763.3935
 20
171.1041
 10
763.7407
 20
170.9993
 10
764.0729
 20
170.8785
 10
764.3885
 20
170.7419
 10
764.6856
 20
170.5907
 10
764.9644
 20
170.4248
 10
765.2248
 20
170.2443
 10
765.4669
 20
170.0491
 10
765.6906
 20
169.8392
 10
765.896
 20
169.6146
 10
766.0831
 20
169.3753
 10
766.2502
 20
169.1233
 10
766.395
 20
168.8606
 10
766.5174
 20
168.5871
 10
766.6175
 20
168.3029
 10
766.6953
 20
168.0079
 10
766.7509
 20
167.7022
 10
766.7842
 20
167.3856
 10
766.7953
 20
167.0583
 10
766.7916
 20
166.8639
 10
766.7805
 20
166.6701
 10
766.762
 20
166.4769
 10
766.7361
 20
166.2845
 10
766.7028
 20
166.0927
 10
766.6622
 20
165.9016
 10
766.6141
 20
165.7113
 10
766.5586
 20
165.5217
 10
766.4932
 20
165.3313
 10
766.4161
 20
165.1383
 10
766.3274
 20
164.9429
 10
766.227
 20
164.7449
 10
766.1149
 20
164.5443
 10
765.9912
 20
164.3412
 10
765.8559
 20
164.1356
 10
765.7088
 20
163.9275
 10
765.5471
 20
163.7147
 10
765.3678
 20
163.4952
 10
765.1708
 20
163.2688
 10
764.9562
 20
163.0357
 10
764.7241
 20
162.7957
 10
764.4744
 20
162.549
 10
764.2071
 20
162.2954
 10
763.9222
 20
162.0351
 10
757.2514
 20
156.0243
 10
756.7526
 20
156.6663
 10
767.5945
 20
156.6663
 10
767.5945
 20
155.1984
 10
755.3282
 20
155.1984
  0
LWPOLYLINE
  5
78
330
1F
100
AcDbEntity
  8
Layer 1
 62
     7
370
    18
100
AcDbPolyline
 90
      131
 70
     1
 43
0.0
 10
775.365
 20
155.0609
 10
774.8996
 20
155.0697
 10
774.4395
 20
155.0961
 10
773.9848
 20
155.14
 10
773.5355
 20
155.2016
 10
773.0916
 20
155.2806
 10
772.653
 20
155.3772
 10
772.2197
 20
155.4914
 10
771.7918
 20
155.623
 10
771.3782
 20
155.7693
 10
770.9864
 20
155.9275
 10
770.6164
 20
156.0975
 10
770.2683
 20
156.2793
 10
769.9419
 20
156.473
 10
769.6374
 20
156.6786
 10
769.3547
 20
156.896
 10
769.0938
 20
157.1252
 10
769.9688
 20
158.4333
 10
770.1844
 20
158.2369
 10
770.4191
 20
158.0491
 10
770.673
 20
157.8698
 10
770.946
 20
157.6991
 10
771.2381
 20
157.5371
 10
771.5492
 20
157.3837
 10
771.8795
 20
157.239
 10
772.2289
 20
157.1029
 10
772.5922
 20
156.9791
 10
772.9628
 20
156.8719
 10
773.3406
 20
156.7812
 10
773.7258
 20
156.7071
 10
774.1183
 20
156.6494
 10
774.5181
 20
156.6082
 10
774.9253
 20
156.5835
 10
775.3397
 20
156.5753
 10
775.8792
 20
156.5895
 10
776.3855
 20
156.6319
 10
776.8584
 20
156.7027
 10
777.2982
 20
156.8017
 10
777.7046
 20
156.9291
 10
778.0779
 20
157.0848
 10
778.4179
 20
157.2688
 10
778.7247
 20
157.4811
 10
778.9971
 20
157.7163
 10
779.2332
 20
157.9691
 10
779.433
 20
158.2396
 10
779.5965
 20
158.5276
 10
779.7236
 20
158.8332
 10
779.8144
 20
159.1564
 10
779.8689
 20
159.4972
 10
779.8871
 20
159.8556
 10
779.8787
 20
160.109
 10
779.8535
 20
160.3534
 10
779.8115
 20
160.589
 10
779.7528
 20
160.8157
 10
779.6772
 20
161.0334
 10
779.5849
 20
161.2422
 10
779.4758
 20
161.442
 10
779.3499
 20
161.6329
 10
779.2041
 20
161.8141
 10
779.0352
 20
161.9849
 10
778.8433
 20
162.1453
 10
778.6283
 20
162.2954
 10
778.3903
 20
162.435
 10
778.1292
 20
162.5642
 10
777.8451
 20
162.683
 10
777.538
 20
162.7913
 10
777.2049
 20
162.8883
 10
776.842
 20
162.9723
 10
776.4495
 20
163.0434
 10
776.0272
 20
163.1016
 10
775.5752
 20
163.1467
 10
775.0935
 20
163.179
 10
774.582
 20
163.1984
 10
774.0407
 20
163.2048
 10
770.3179
 20
163.2048
 10
771.2172
 20
171.2566
 10
780.7864
 20
171.2566
 10
780.7864
 20
169.7887
 10
771.9416
 20
169.7887
 10
772.8672
 20
170.5914
 10
772.0913
 20
163.8467
 10
771.1676
 20
164.6726
 10
774.4413
 20
164.6726
 10
775.0869
 20
164.6633
 10
775.6997
 20
164.6353
 10
776.2797
 20
164.5887
 10
776.8268
 20
164.5235
 10
777.3412
 20
164.4396
 10
777.8227
 20
164.3371
 10
778.2713
 20
164.216
 10
778.6872
 20
164.0762
 10
779.0732
 20
163.9197
 10
779.4314
 20
163.7486
 10
779.7618
 20
163.5627
 10
780.0645
 20
163.3621
 10
780.3394
 20
163.1469
 10
780.5866
 20
162.917
 10
780.806
 20
162.6724
 10
780.9978
 20
162.4132
 10
781.1649
 20
162.1408
 10
781.3097
 20
161.8574
 10
781.4321
 20
161.5629
 10
781.5322
 20
161.2573
 10
781.61
 20
160.9407
 10
781.6656
 20
160.613
 10
781.6989
 20
160.2742
 10
781.71
 20
159.9244
 10
781.6991
 20
159.5896
 10
781.6664
 20
159.2624
 10
781.6118
 20
158.9428
 10
781.5354
 20
158.6308
 10
781.4371
 20
158.3264
 10
781.317
 20
158.0294
 10
781.1749
 20
157.7399
 10
781.011
 20
157.4578
 10
780.8252
 20
157.1871
 10
780.6174
 20
156.9311
 10
780.3878
 20
156.6897
 10
780.1364
 20
156.463
 10
779.8632
 20
156.2509
 10
779.5682
 20
156.0535
 10
779.2514
 20
155.8709
 10
778.9128
 20
155.7029
 10
778.5513
 20
155.5523
 10
778.1664
 20
155.4219
 10
777.7581
 20
155.3115
 10
777.3263
 20
155.2213
 10
776.8711
 20
155.1511
 10
776.3925
 20
155.101
 10
775.8905
 20
155.0709
 10
775.365
 20
155.0609
  0
LWPOLYLINE
  5
79
330
1F
100
AcDbEntity
  8
Layer 1
 62
     7
370
    50
100
AcDbPolyline
 90
      587
 70
     0
 43
0.0
 10
353.026
 20
-53.1982
 10
353.1326
 20
-53.1594
 10
353.1891
 20
-53.1477
 10
353.2332
 20
-53.1467
 10
353.3029
 20
-53.14
 10
353.5508
 20
-53.1107
 10
353.6356
 20
-53.0954
 10
353.7255
 20
-53.0962
 10
354.1191
 20
-53.0235
 10
354.2065
 20
-52.9943
 10
354.3055
 20
-53.0099
 10
354.4105
 20
-53.0088
 10
354.5124
 20
-53.0088
 10
354.6146
 20
-53.0088
 10
354.668
 20
-52.9963
 10
354.7238
 20
-52.9921
 10
354.7796
 20
-52.9963
 10
354.833
 20
-53.0088
 10
354.9032
 20
-52.9958
 10
355.0205
 20
-52.9884
 10
355.1704
 20
-52.9853
 10
355.3382
 20
-52.9854
 10
355.6693
 20
-52.9905
 10
355.8968
 20
-52.9943
 10
355.9782
 20
-52.9783
 10
356.0676
 20
-52.9749
 10
356.1592
 20
-52.9775
 10
356.2467
 20
-52.9798
 10
356.3884
 20
-52.9661
 10
356.5496
 20
-52.9599
 10
356.6942
 20
-52.9563
 10
356.7859
 20
-52.9506
 10
357.2522
 20
-52.9213
 10
359.4088
 20
-52.7174
 10
359.5545
 20
-52.7029
 10
359.6962
 20
-52.6893
 10
359.8575
 20
-52.6831
 10
360.002
 20
-52.6795
 10
360.0936
 20
-52.6737
 10
360.1857
 20
-52.6582
 10
360.2832
 20
-52.6592
 10
360.4372
 20
-52.645
 10
360.6207
 20
-52.6385
 10
360.7848
 20
-52.635
 10
360.8807
 20
-52.63
 10
361.001
 20
-52.6139
 10
361.1283
 20
-52.6155
 10
361.2306
 20
-52.5977
 10
361.3548
 20
-52.5944
 10
361.4823
 20
-52.5979
 10
361.5947
 20
-52.6008
 10
361.7366
 20
-52.5875
 10
361.9087
 20
-52.5804
 10
362.0622
 20
-52.5763
 10
362.1484
 20
-52.5718
 10
362.6877
 20
-52.5425
 10
362.8417
 20
-52.5283
 10
363.0252
 20
-52.5218
 10
363.1893
 20
-52.5184
 10
363.2852
 20
-52.5135
 10
363.398
 20
-52.4975
 10
363.5183
 20
-52.4988
 10
363.6601
 20
-52.4856
 10
363.8321
 20
-52.4785
 10
363.9856
 20
-52.4743
 10
364.0719
 20
-52.4698
 10
364.5089
 20
-52.4406
 10
365.0627
 20
-52.3824
 10
365.1502
 20
-52.3676
 10
365.3543
 20
-52.3386
 10
365.4418
 20
-52.3094
 10
365.6602
 20
-52.2657
 10
365.9226
 20
-52.2075
 10
366.2432
 20
-52.1492
 10
366.6658
 20
-52.0618
 10
367.1468
 20
-51.9743
 10
367.3215
 20
-51.9306
 10
367.4964
 20
-51.9161
 10
367.5984
 20
-51.9014
 10
367.7151
 20
-51.8869
 10
367.8752
 20
-51.8724
 10
367.9774
 20
-51.8432
 10
368.2251
 20
-51.8287
 10
368.327
 20
-51.8139
 10
368.8081
 20
-51.7702
 10
369.5365
 20
-51.6682
 10
369.7137
 20
-51.6358
 10
369.9281
 20
-51.5904
 10
370.1361
 20
-51.5365
 10
370.2942
 20
-51.4788
 10
370.5564
 20
-51.3624
 10
370.6034
 20
-51.3286
 10
370.6535
 20
-51.2993
 10
370.706
 20
-51.2761
 10
370.7605
 20
-51.2602
 10
370.8468
 20
-51.2117
 10
370.9354
 20
-51.1728
 10
371.5182
 20
-51.0271
 10
371.7661
 20
-50.9981
 10
371.868
 20
-50.9834
 10
372.3488
 20
-50.8959
 10
372.437
 20
-50.8882
 10
372.531
 20
-50.8709
 10
372.6284
 20
-50.8469
 10
372.7266
 20
-50.8194
 10
372.9155
 20
-50.7662
 10
373.0775
 20
-50.7357
 10
373.238
 20
-50.6628
 10
373.3662
 20
-50.5857
 10
373.5001
 20
-50.5026
 10
373.5915
 20
-50.468
 10
373.6967
 20
-50.4171
 10
373.813
 20
-50.3629
 10
373.9374
 20
-50.318
 10
374.2688
 20
-50.2369
 10
374.5988
 20
-50.1723
 10
374.9296
 20
-50.1116
 10
375.2636
 20
-50.0419
 10
375.3804
 20
-50.0065
 10
375.4965
 20
-49.9619
 10
375.6054
 20
-49.9194
 10
375.7007
 20
-49.8907
 10
376.0358
 20
-49.6865
 10
376.0643
 20
-49.659
 10
376.0811
 20
-49.6447
 10
376.1006
 20
-49.6366
 10
376.1377
 20
-49.6283
 10
376.2307
 20
-49.5749
 10
376.3561
 20
-49.5297
 10
376.5042
 20
-49.4909
 10
376.6653
 20
-49.4569
 10
376.9876
 20
-49.3971
 10
377.2453
 20
-49.337
 10
377.3279
 20
-49.33
 10
377.4158
 20
-49.3142
 10
377.5068
 20
-49.2925
 10
377.5987
 20
-49.2676
 10
377.7761
 20
-49.2192
 10
377.93
 20
-49.1911
 10
378.2653
 20
-49.0309
 10
378.4547
 20
-48.9144
 10
378.6149
 20
-48.8125
 10
378.7311
 20
-48.765
 10
378.8493
 20
-48.7276
 10
378.9687
 20
-48.6977
 10
379.0889
 20
-48.6724
 10
379.3283
 20
-48.6254
 10
379.5623
 20
-48.5649
 10
379.8682
 20
-48.5066
 10
379.9489
 20
-48.5
 10
380.0312
 20
-48.4852
 10
380.1143
 20
-48.4644
 10
380.1972
 20
-48.4397
 10
380.359
 20
-48.3875
 10
380.5094
 20
-48.3462
 10
380.64
 20
-48.2746
 10
380.7505
 20
-48.1982
 10
380.8497
 20
-48.1229
 10
380.9467
 20
-48.0549
 10
381.0586
 20
-48.0066
 10
381.1665
 20
-47.9586
 10
381.2774
 20
-47.9153
 10
381.3985
 20
-47.8814
 10
381.8648
 20
-47.7649
 10
382.1407
 20
-47.6971
 10
382.3924
 20
-47.6232
 10
382.5129
 20
-47.5761
 10
382.6317
 20
-47.5179
 10
382.7503
 20
-47.4454
 10
382.8701
 20
-47.3555
 10
382.9429
 20
-47.2825
 10
383.0557
 20
-47.2336
 10
383.1605
 20
-47.1841
 10
383.2695
 20
-47.1353
 10
383.3947
 20
-47.0883
 10
383.8465
 20
-46.967
 10
384.093
 20
-46.9117
 10
384.3173
 20
-46.8437
 10
384.4251
 20
-46.8016
 10
384.532
 20
-46.7524
 10
384.6397
 20
-46.6946
 10
384.7498
 20
-46.6269
 10
384.8083
 20
-46.5687
 10
384.9449
 20
-46.47
 10
385.0903
 20
-46.3893
 10
385.2429
 20
-46.3234
 10
385.4012
 20
-46.269
 10
385.729
 20
-46.1823
 10
386.0615
 20
-46.1038
 10
386.4841
 20
-45.9712
 10
386.7317
 20
-45.8108
 10
386.8332
 20
-45.7173
 10
386.9504
 20
-45.6359
 10
387.0193
 20
-45.6034
 10
387.1016
 20
-45.5666
 10
387.1849
 20
-45.5353
 10
387.2565
 20
-45.5195
 10
387.414
 20
-45.4649
 10
387.6912
 20
-45.3888
 10
387.9733
 20
-45.3197
 10
388.1454
 20
-45.2863
 10
388.5677
 20
-45.0969
 10
388.6789
 20
-45.0122
 10
388.7576
 20
-44.9351
 10
388.8017
 20
-44.8961
 10
388.8579
 20
-44.8551
 10
388.9331
 20
-44.8107
 10
389.034
 20
-44.7616
 10
389.087
 20
-44.7301
 10
389.1551
 20
-44.7
 10
389.2338
 20
-44.6715
 10
389.3187
 20
-44.6445
 10
389.4893
 20
-44.5954
 10
389.6315
 20
-44.5529
 10
389.7945
 20
-44.4894
 10
389.9405
 20
-44.4163
 10
390.0813
 20
-44.3325
 10
390.229
 20
-44.2371
 10
390.4039
 20
-44.0622
 10
390.5335
 20
-43.9836
 10
390.6546
 20
-43.9209
 10
390.7701
 20
-43.87
 10
390.8829
 20
-43.8264
 10
391.1122
 20
-43.7441
 10
391.3658
 20
-43.6397
 10
391.6716
 20
-43.4358
 10
391.769
 20
-43.3316
 10
391.8903
 20
-43.2317
 10
392.057
 20
-43.1551
 10
392.2466
 20
-43.0626
 10
392.3441
 20
-43.0191
 10
392.4403
 20
-42.9819
 10
392.5327
 20
-42.9545
 10
392.619
 20
-42.9403
 10
392.8521
 20
-42.8351
 10
392.952
 20
-42.7753
 10
393.0325
 20
-42.7152
 10
393.0991
 20
-42.6556
 10
393.1575
 20
-42.597
 10
393.2133
 20
-42.5402
 10
393.2719
 20
-42.4857
 10
393.3391
 20
-42.4344
 10
393.4204
 20
-42.3868
 10
393.4934
 20
-42.3431
 10
393.6182
 20
-42.3
 10
393.741
 20
-42.2557
 10
393.8176
 20
-42.2127
 10
393.9096
 20
-42.1751
 10
394.0047
 20
-42.1377
 10
394.0909
 20
-42.0955
 10
394.222
 20
-42.0663
 10
394.426
 20
-41.9206
 10
394.5054
 20
-41.8265
 10
394.5849
 20
-41.7188
 10
394.6271
 20
-41.6649
 10
394.6723
 20
-41.6137
 10
394.7215
 20
-41.5671
 10
394.7756
 20
-41.5271
 10
394.9509
 20
-41.4333
 10
395.1442
 20
-41.3404
 10
395.2402
 20
-41.289
 10
395.3317
 20
-41.2316
 10
395.4158
 20
-41.166
 10
395.4895
 20
-41.09
 10
395.6
 20
-40.9516
 10
395.7227
 20
-40.8277
 10
395.8229
 20
-40.7574
 10
395.9482
 20
-40.6831
 10
396.0894
 20
-40.6055
 10
396.2374
 20
-40.5257
 10
396.383
 20
-40.4444
 10
396.517
 20
-40.3626
 10
396.6303
 20
-40.2812
 10
396.7137
 20
-40.201
 10
396.7987
 20
-40.0979
 10
396.8856
 20
-39.9963
 10
396.9777
 20
-39.8988
 10
397.0781
 20
-39.8077
 10
397.1973
 20
-39.7215
 10
397.332
 20
-39.6335
 10
397.3982
 20
-39.5881
 10
397.46
 20
-39.5415
 10
397.5144
 20
-39.4933
 10
397.5589
 20
-39.4434
 10
397.792
 20
-39.1083
 10
397.8546
 20
-39.0411
 10
397.9281
 20
-38.9745
 10
398.0081
 20
-38.909
 10
398.09
 20
-38.845
 10
398.1692
 20
-38.783
 10
398.2413
 20
-38.7233
 10
398.3016
 20
-38.6664
 10
398.3458
 20
-38.6128
 10
398.5207
 20
-38.3505
 10
398.6088
 20
-38.2425
 10
398.7003
 20
-38.1365
 10
398.7968
 20
-38.0355
 10
398.8996
 20
-37.9424
 10
398.9815
 20
-37.8703
 10
399.0593
 20
-37.7935
 10
399.1336
 20
-37.7131
 10
399.2054
 20
-37.6298
 10
399.3444
 20
-37.4585
 10
399.4826
 20
-37.2868
 10
399.8614
 20
-36.8788
 10
400.1965
 20
-36.5294
 10
400.4568
 20
-36.164
 10
400.6776
 20
-35.9902
 10
400.9542
 20
-35.7133
 10
401.0364
 20
-35.5964
 10
401.1131
 20
-35.4696
 10
401.1524
 20
-35.4073
 10
401.1941
 20
-35.3482
 10
401.2393
 20
-35.2941
 10
401.2893
 20
-35.2471
 10
401.4642
 20
-35.1159
 10
401.5236
 20
-35.0888
 10
401.5882
 20
-35.0335
 10
401.6533
 20
-34.9609
 10
401.7179
 20
-34.8763
 10
401.7813
 20
-34.7851
 10
401.9004
 20
-34.6041
 10
402.0035
 20
-34.4603
 10
402.111
 20
-34.3679
 10
402.2584
 20
-34.2667
 10
402.3391
 20
-34.2059
 10
402.4204
 20
-34.1347
 10
402.499
 20
-34.0504
 10
402.5718
 20
-33.9503
 10
402.7175
 20
-33.6879
 10
402.7664
 20
-33.6329
 10
402.8213
 20
-33.5832
 10
402.8802
 20
-33.5379
 10
402.9412
 20
-33.4958
 10
403.0623
 20
-33.417
 10
403.1693
 20
-33.3383
 10
403.3442
 20
-33.1197
 10
403.3722
 20
-33.0459
 10
403.4119
 20
-32.9763
 10
403.4579
 20
-32.9092
 10
403.5044
 20
-32.8429
 10
403.5901
 20
-32.7522
 10
403.6732
 20
-32.6844
 10
403.7543
 20
-32.63
 10
403.8338
 20
-32.5791
 10
403.9122
 20
-32.5219
 10
403.99
 20
-32.4489
 10
404.0676
 20
-32.3503
 10
404.1456
 20
-32.2162
 10
404.2212
 20
-32.0884
 10
404.3007
 20
-31.99
 10
404.3833
 20
-31.9128
 10
404.4683
 20
-31.8488
 10
404.5548
 20
-31.7896
 10
404.6421
 20
-31.7273
 10
404.7295
 20
-31.6537
 10
404.816
 20
-31.5605
 10
404.8907
 20
-31.4454
 10
404.9545
 20
-31.3231
 10
404.9926
 20
-31.2587
 10
405.0402
 20
-31.192
 10
405.1014
 20
-31.1227
 10
405.1804
 20
-31.0506
 10
405.2742
 20
-30.9818
 10
405.3721
 20
-30.9175
 10
405.4652
 20
-30.8505
 10
405.5445
 20
-30.7737
 10
405.6256
 20
-30.6547
 10
405.6904
 20
-30.5263
 10
405.7657
 20
-30.4207
 10
405.8627
 20
-30.3061
 10
405.9682
 20
-30.1995
 10
406.0693
 20
-30.1183
 10
406.1347
 20
-30.0761
 10
406.1999
 20
-30.0333
 10
406.2617
 20
-29.9856
 10
406.3169
 20
-29.9289
 10
406.3874
 20
-29.8313
 10
406.4537
 20
-29.7261
 10
406.5209
 20
-29.6202
 10
406.5938
 20
-29.5208
 10
406.726
 20
-29.3851
 10
406.8775
 20
-29.2548
 10
407.011
 20
-29.1446
 10
407.0891
 20
-29.0691
 10
407.293
 20
-28.7777
 10
407.3908
 20
-28.6599
 10
407.4953
 20
-28.5406
 10
407.6043
 20
-28.427
 10
407.7158
 20
-28.326
 10
407.8905
 20
-28.1366
 10
408.1674
 20
-27.8305
 10
408.2404
 20
-27.7285
 10
408.3861
 20
-27.5681
 10
408.4826
 20
-27.4516
 10
408.6187
 20
-27.3125
 10
408.7624
 20
-27.1737
 10
408.8816
 20
-27.0581
 10
408.9823
 20
-26.9243
 10
409.0927
 20
-26.7689
 10
409.1497
 20
-26.6917
 10
409.2068
 20
-26.6196
 10
409.2634
 20
-26.556
 10
409.3187
 20
-26.5044
 10
409.7122
 20
-26.1549
 10
409.7985
 20
-26.0326
 10
409.8768
 20
-25.9037
 10
409.917
 20
-25.8405
 10
409.9601
 20
-25.7802
 10
410.0078
 20
-25.7241
 10
410.0618
 20
-25.6739
 10
410.164
 20
-25.6156
 10
410.4846
 20
-25.3243
 10
410.5722
 20
-25.1969
 10
410.648
 20
-25.0658
 10
410.6869
 20
-25.0016
 10
410.7295
 20
-24.94
 10
410.7779
 20
-24.882
 10
410.8343
 20
-24.8288
 10
410.9348
 20
-24.7548
 10
411.0388
 20
-24.6851
 10
411.139
 20
-24.6108
 10
411.2278
 20
-24.523
 10
411.3196
 20
-24.3895
 10
411.3987
 20
-24.2498
 10
411.4392
 20
-24.1812
 10
411.4834
 20
-24.1155
 10
411.5337
 20
-24.0541
 10
411.5922
 20
-23.9985
 10
411.6921
 20
-23.927
 10
411.7964
 20
-23.862
 10
411.8969
 20
-23.7924
 10
411.9855
 20
-23.7071
 10
412.0909
 20
-23.5574
 10
412.1724
 20
-23.4153
 10
412.2121
 20
-23.3482
 10
412.2552
 20
-23.2843
 10
412.305
 20
-23.2241
 10
412.3644
 20
-23.1679
 10
412.4902
 20
-23.0767
 10
412.6216
 20
-22.9895
 10
412.6851
 20
-22.9433
 10
412.7447
 20
-22.8931
 10
412.7988
 20
-22.8374
 10
412.8454
 20
-22.7744
 10
412.8975
 20
-22.6781
 10
412.9577
 20
-22.5625
 10
412.9947
 20
-22.5013
 10
413.0382
 20
-22.4399
 10
413.0899
 20
-22.3799
 10
413.1513
 20
-22.3229
 10
413.2563
 20
-22.2451
 10
413.3637
 20
-22.1727
 10
413.4668
 20
-22.0952
 10
413.5591
 20
-22.0023
 10
413.6664
 20
-21.8445
 10
413.7654
 20
-21.6801
 10
413.8231
 20
-21.5977
 10
413.8924
 20
-21.5165
 10
413.9778
 20
-21.4373
 10
414.0839
 20
-21.3611
 10
414.1606
 20
-21.3151
 10
414.2296
 20
-21.2708
 10
414.295
 20
-21.2134
 10
414.3608
 20
-21.128
 10
414.4038
 20
-21.0406
 10
414.4544
 20
-20.9571
 10
414.5092
 20
-20.8752
 10
414.5647
 20
-20.7927
 10
414.6401
 20
-20.7086
 10
414.7303
 20
-20.6213
 10
414.8252
 20
-20.5394
 10
414.9145
 20
-20.4721
 10
414.9556
 20
-20.4468
 10
414.986
 20
-20.4293
 10
415.017
 20
-20.4042
 10
415.0602
 20
-20.3556
 10
415.1929
 20
-20.1777
 10
415.3177
 20
-20.0
 10
415.3826
 20
-19.9132
 10
415.4522
 20
-19.8289
 10
415.5286
 20
-19.7478
 10
415.614
 20
-19.6708
 10
415.7211
 20
-19.5893
 10
415.8179
 20
-19.4959
 10
416.2552
 20
-18.9569
 10
416.3182
 20
-18.8764
 10
416.3921
 20
-18.7992
 10
416.4704
 20
-18.7242
 10
416.5466
 20
-18.6508
 10
416.8964
 20
-18.2722
 10
417.0564
 20
-18.0682
 10
417.1645
 20
-17.9245
 10
417.219
 20
-17.8595
 10
417.2843
 20
-17.7907
 10
417.3684
 20
-17.7117
 10
417.4792
 20
-17.6163
 10
417.829
 20
-17.223
 10
417.9165
 20
-17.0626
 10
418.1059
 20
-16.8732
 10
418.181
 20
-16.8242
 10
418.2539
 20
-16.7745
 10
418.3257
 20
-16.7159
 10
418.3973
 20
-16.6401
 10
418.5069
 20
-16.5004
 10
418.5583
 20
-16.4201
 10
418.5912
 20
-16.355
 10
418.6452
 20
-16.2613
 10
418.7047
 20
-16.1817
 10
418.7725
 20
-16.1136
 10
418.8464
 20
-16.0531
 10
418.9248
 20
-15.9961
 10
419.0055
 20
-15.9385
 10
419.0867
 20
-15.8763
 10
419.1664
 20
-15.8055
 10
419.2427
 20
-15.7221
 10
419.4466
 20
-15.3725
 10
419.4887
 20
-15.3204
 10
419.5409
 20
-15.2708
 10
419.5991
 20
-15.2245
 10
419.6594
 20
-15.1822
 10
419.7697
 20
-15.1122
 10
419.8397
 20
-15.0664
 10
419.9133
 20
-14.9986
 10
419.9764
 20
-14.9255
 10
420.0318
 20
-14.8485
 10
420.0824
 20
-14.7691
 10
420.1799
 20
-14.6084
 10
420.2915
 20
-14.4545
 10
420.3894
 20
-14.3704
 10
420.5114
 20
-14.2932
 10
420.5771
 20
-14.2506
 10
420.6437
 20
-14.2019
 10
420.7094
 20
-14.1445
 10
420.7725
 20
-14.0757
 10
420.9327
 20
-13.7841
 10
420.9768
 20
-13.7228
 10
421.0275
 20
-13.6656
 10
421.0818
 20
-13.6129
 10
421.1369
 20
-13.5657
 10
421.2261
 20
-13.4997
 10
421.3309
 20
-13.4274
 10
421.4298
 20
-13.355
 10
421.501
 20
-13.2888
 10
421.599
 20
-13.1483
 10
421.6851
 20
-13.0012
 10
421.7294
 20
-12.929
 10
421.7775
 20
-12.8596
 10
421.8318
 20
-12.7944
 10
421.8946
 20
-12.7351
 10
422.0025
 20
-12.6567
 10
422.1253
 20
-12.574
 10
422.1858
 20
-12.5303
 10
422.2421
 20
-12.4844
 10
422.2917
 20
-12.4362
 10
422.3319
 20
-12.3853
 10
422.3848
 20
-12.2953
 10
422.4292
 20
-12.2096
 10
422.4833
 20
-12.1171
 10
422.565
 20
-12.0068
 10
422.8127
 20
-11.7736
 10
422.9876
 20
-11.657
 10
423.0712
 20
-11.5554
 10
423.1542
 20
-11.4383
 10
423.2341
 20
-11.3176
 10
423.3082
 20
-11.2052
 10
423.4566
 20
-11.0478
 10
423.6083
 20
-10.9129
 10
423.7374
 20
-10.8039
 10
423.8182
 20
-10.7244
 10
423.85
 20
-10.6674
 10
424.0367
 20
-10.4184
 10
424.1678
 20
-10.2727
 10
424.3111
 20
-10.1116
 10
424.4705
 20
-9.9482
 10
424.6316
 20
-9.7831
 10
424.7801
 20
-9.617
 10
425.1734
 20
-9.1363
 10
425.2059
 20
-9.0104
 10
425.2717
 20
-8.8418
 10
425.3443
 20
-8.6675
 10
425.3974
 20
-8.5241
 10
425.4382
 20
-8.3707
 10
425.4745
 20
-8.213
 10
425.511
 20
-8.0578
 10
425.552
 20
-7.9122
 10
425.552
 20
-7.6061
  0
LWPOLYLINE
  5
7A
330
1F
100
AcDbEntity
  8
Layer 1
 62
     7
370
    50
100
AcDbPolyline
 90
       98
 70
     0
 43
0.0
 10
302.475
 20
-7.6061
 10
302.3747
 20
-7.5575
 10
302.255
 20
-7.511
 10
302.1324
 20
-7.4684
 10
302.0234
 20
-7.4314
 10
301.8508
 20
-7.4253
 10
301.4885
 20
-7.425
 10
300.9977
 20
-7.428
 10
300.4397
 20
-7.4323
 10
299.8756
 20
-7.4356
 10
299.3666
 20
-7.4356
 10
298.9741
 20
-7.43
 10
298.7591
 20
-7.4167
 10
298.0014
 20
-7.2565
 10
297.5204
 20
-7.1398
 10
297.3017
 20
-7.0087
 10
297.1939
 20
-6.9246
 10
297.0593
 20
-6.803
 10
296.9294
 20
-6.675
 10
296.8354
 20
-6.5716
 10
296.7772
 20
-6.4697
 10
296.7369
 20
-6.4203
 10
296.7035
 20
-6.3668
 10
296.6778
 20
-6.31
 10
296.6607
 20
-6.251
 10
296.6085
 20
-6.1578
 10
296.5724
 20
-6.0541
 10
296.5439
 20
-5.9469
 10
296.5148
 20
-5.8432
 10
296.5078
 20
-5.7667
 10
296.4919
 20
-5.6859
 10
296.4699
 20
-5.6029
 10
296.4447
 20
-5.52
 10
296.3961
 20
-5.3628
 10
296.3691
 20
-5.2313
 10
296.3401
 20
-5.1439
 10
296.1359
 20
-4.7796
 10
296.1248
 20
-4.7387
 10
296.1106
 20
-4.7091
 10
296.0909
 20
-4.682
 10
296.0634
 20
-4.6484
 10
295.9613
 20
-4.386
 10
295.9323
 20
-4.2988
 10
295.7573
 20
-3.3078
 10
295.7074
 20
-3.12
 10
295.6657
 20
-2.9144
 10
295.6249
 20
-2.7052
 10
295.5776
 20
-2.5065
 10
295.5439
 20
-2.4132
 10
295.4942
 20
-2.3057
 10
295.4346
 20
-2.1897
 10
295.3713
 20
-2.0713
 10
295.3104
 20
-1.9562
 10
295.2581
 20
-1.8504
 10
295.2204
 20
-1.7599
 10
295.2036
 20
-1.6904
 10
295.1818
 20
-1.6647
 10
295.1756
 20
-1.6602
 10
295.176
 20
-1.6526
 10
295.1743
 20
-1.6175
 10
295.1486
 20
-1.5641
 10
295.1282
 20
-1.5049
 10
295.1119
 20
-1.4416
 10
295.0981
 20
-1.3759
 10
295.0733
 20
-1.2439
 10
295.0432
 20
-1.1222
 10
295.0432
 20
-1.0638
 10
295.0142
 20
-0.9473
 10
295.0142
 20
-0.8891
 10
294.9849
 20
-0.7724
 10
294.9122
 20
-0.2479
 10
294.8717
 20
-0.0722
 10
294.8024
 20
0.1692
 10
294.7261
 20
0.406
 10
294.6643
 20
0.5679
 10
294.5916
 20
0.6698
 10
294.5331
 20
0.7865
 10
294.4741
 20
0.9191
 10
294.4214
 20
1.0512
 10
294.3745
 20
1.1834
 10
294.3331
 20
1.3161
 10
294.2647
 20
1.5857
 10
294.2125
 20
1.8647
 10
294.1253
 20
2.812
 10
294.2417
 20
3.3947
 10
294.262
 20
3.4291
 10
294.2703
 20
3.4479
 10
294.2717
 20
3.4692
 10
294.271
 20
3.5113
 10
294.3
 20
3.6133
 10
294.3355
 20
3.6852
 10
294.3964
 20
3.7655
 10
294.4673
 20
3.839
 10
294.5331
 20
3.8901
 10
294.675
 20
3.9419
 10
294.8756
 20
4.02
 10
295.0689
 20
4.1023
 10
295.1891
 20
4.167
  0
LWPOLYLINE
  5
7B
330
1F
100
AcDbEntity
  8
Layer 1
 62
     7
370
    50
100
AcDbPolyline
 90
        2
 70
     0
 43
0.0
 10
295.2181
 20
4.1815
 10
295.1891
 20
4.167
  0
LWPOLYLINE
  5
7C
330
1F
100
AcDbEntity
  8
Layer 1
 62
     7
370
    50
100
AcDbPolyline
 90
        2
 70
     0
 43
0.0
 10
295.2618
 20
4.1962
 10
295.2181
 20
4.1815
  0
LWPOLYLINE
  5
7D
330
1F
100
AcDbEntity
  8
Layer 1
 62
     7
370
    50
100
AcDbPolyline
 90
        2
 70
     0
 43
0.0
 10
295.3055
 20
4.2107
 10
295.2618
 20
4.1962
  0
LWPOLYLINE
  5
7E
330
1F
100
AcDbEntity
  8
Layer 1
 62
     7
370
    50
100
AcDbPolyline
 90
        2
 70
     0
 43
0.0
 10
295.3638
 20
4.2252
 10
295.3055
 20
4.2107
  0
LWPOLYLINE
  5
7F
330
1F
100
AcDbEntity
  8
Layer 1
 62
     7
370
    50
100
AcDbPolyline
 90
        2
 70
     0
 43
0.0
 10
295.393
 20
4.24
 10
295.3638
 20
4.2252
  0
LWPOLYLINE
  5
80
330
1F
100
AcDbEntity
  8
Layer 1
 62
     7
370
    50
100
AcDbPolyline
 90
        2
 70
     0
 43
0.0
 10
295.4512
 20
4.2545
 10
295.393
 20
4.24
  0
LWPOLYLINE
  5
81
330
1F
100
AcDbEntity
  8
Layer 1
 62
     7
370
    50
100
AcDbPolyline
 90
        2
 70
     0
 43
0.0
 10
295.5097
 20
4.269
 10
295.4512
 20
4.2545
  0
LWPOLYLINE
  5
82
330
1F
100
AcDbEntity
  8
Layer 1
 62
     7
370
    50
100
AcDbPolyline
 90
        2
 70
     0
 43
0.0
 10
295.5971
 20
4.2837
 10
295.5097
 20
4.269
  0
LWPOLYLINE
  5
83
330
1F
100
AcDbEntity
  8
Layer 1
 62
     7
370
    50
100
AcDbPolyline
 90
        2
 70
     0
 43
0.0
 10
295.6699
 20
4.2982
 10
295.5971
 20
4.2837
  0
LWPOLYLINE
  5
84
330
1F
100
AcDbEntity
  8
Layer 1
 62
     7
370
    50
100
AcDbPolyline
 90
        2
 70
     0
 43
0.0
 10
295.7136
 20
4.3127
 10
295.6699
 20
4.2982
  0
LWPOLYLINE
  5
85
330
1F
100
AcDbEntity
  8
Layer 1
 62
     7
370
    50
100
AcDbPolyline
 90
        2
 70
     0
 43
0.0
 10
295.7716
 20
4.3274
 10
295.7136
 20
4.3127
  0
LWPOLYLINE
  5
86
330
1F
100
AcDbEntity
  8
Layer 1
 62
     7
370
    50
100
AcDbPolyline
 90
        2
 70
     0
 43
0.0
 10
295.8593
 20
4.3419
 10
295.7716
 20
4.3274
  0
LWPOLYLINE
  5
87
330
1F
100
AcDbEntity
  8
Layer 1
 62
     7
370
    50
100
AcDbPolyline
 90
        2
 70
     0
 43
0.0
 10
295.9613
 20
4.3564
 10
295.8593
 20
4.3419
  0
LWPOLYLINE
  5
88
330
1F
100
AcDbEntity
  8
Layer 1
 62
     7
370
    50
100
AcDbPolyline
 90
        2
 70
     0
 43
0.0
 10
296.0634
 20
4.3711
 10
295.9613
 20
4.3564
  0
LWPOLYLINE
  5
89
330
1F
100
AcDbEntity
  8
Layer 1
 62
     7
370
    50
100
AcDbPolyline
 90
        2
 70
     0
 43
0.0
 10
296.1652
 20
4.3856
 10
296.0634
 20
4.3711
  0
LWPOLYLINE
  5
8A
330
1F
100
AcDbEntity
  8
Layer 1
 62
     7
370
    50
100
AcDbPolyline
 90
        2
 70
     0
 43
0.0
 10
296.2816
 20
4.4001
 10
296.1652
 20
4.3856
  0
LWPOLYLINE
  5
8B
330
1F
100
AcDbEntity
  8
Layer 1
 62
     7
370
    50
100
AcDbPolyline
 90
        2
 70
     0
 43
0.0
 10
296.4128
 20
4.4146
 10
296.2816
 20
4.4001
  0
LWPOLYLINE
  5
8C
330
1F
100
AcDbEntity
  8
Layer 1
 62
     7
370
    50
100
AcDbPolyline
 90
        7
 70
     0
 43
0.0
 10
297.0833
 20
4.4294
 10
297.0286
 20
4.4163
 10
296.9524
 20
4.4088
 10
296.8612
 20
4.4057
 10
296.7618
 20
4.4058
 10
296.5643
 20
4.4108
 10
296.4128
 20
4.4146
  0
LWPOLYLINE
  5
8D
330
1F
100
AcDbEntity
  8
Layer 1
 62
     7
370
    50
100
AcDbPolyline
 90
        9
 70
     0
 43
0.0
 10
303.67
 20
4.4439
 10
303.3714
 20
4.4262
 10
302.674
 20
4.4165
 10
301.7023
 20
4.4131
 10
300.5806
 20
4.4143
 10
299.4334
 20
4.4183
 10
298.3851
 20
4.4233
 10
297.5603
 20
4.4276
 10
297.0833
 20
4.4294
  0
LWPOLYLINE
  5
8E
330
1F
100
AcDbEntity
  8
Layer 1
 62
     7
370
    50
100
AcDbPolyline
 90
        2
 70
     0
 43
0.0
 10
303.7427
 20
4.4584
 10
303.67
 20
4.4439
  0
LWPOLYLINE
  5
8F
330
1F
100
AcDbEntity
  8
Layer 1
 62
     7
370
    50
100
AcDbPolyline
 90
        2
 70
     0
 43
0.0
 10
303.8009
 20
4.4731
 10
303.7427
 20
4.4584
  0
LWPOLYLINE
  5
90
330
1F
100
AcDbEntity
  8
Layer 1
 62
     7
370
    50
100
AcDbPolyline
 90
        2
 70
     0
 43
0.0
 10
303.8594
 20
4.4876
 10
303.8009
 20
4.4731
  0
LWPOLYLINE
  5
91
330
1F
100
AcDbEntity
  8
Layer 1
 62
     7
370
    50
100
AcDbPolyline
 90
        2
 70
     0
 43
0.0
 10
303.9176
 20
4.5021
 10
303.8594
 20
4.4876
  0
LWPOLYLINE
  5
92
330
1F
100
AcDbEntity
  8
Layer 1
 62
     7
370
    50
100
AcDbPolyline
 90
        2
 70
     0
 43
0.0
 10
303.9469
 20
4.5168
 10
303.9176
 20
4.5021
  0
LWPOLYLINE
  5
93
330
1F
100
AcDbEntity
  8
Layer 1
 62
     7
370
    50
100
AcDbPolyline
 90
      866
 70
     0
 43
0.0
 10
308.333
 20
-7.5624
 10
308.3445
 20
-7.6323
 10
308.3641
 20
-7.6926
 10
308.362
 20
-7.781
 10
308.3912
 20
-7.8829
 10
308.4057
 20
-8.189
 10
308.4642
 20
-8.772
 10
308.4792
 20
-8.9079
 10
308.4876
 20
-9.0517
 10
308.4952
 20
-9.1903
 10
308.5079
 20
-9.3109
 10
308.6244
 20
-10.127
 10
308.6536
 20
-10.2437
 10
308.6629
 20
-10.3346
 10
308.685
 20
-10.4374
 10
308.7167
 20
-10.548
 10
308.7548
 20
-10.6623
 10
308.837
 20
-10.8854
 10
308.9061
 20
-11.0742
 10
309.067
 20
-11.482
 10
309.2219
 20
-12.1959
 10
309.2656
 20
-12.3853
 10
309.4405
 20
-13.7259
 10
309.48
 20
-13.8759
 10
309.5135
 20
-14.0312
 10
309.5322
 20
-14.1082
 10
309.5543
 20
-14.1833
 10
309.5815
 20
-14.2553
 10
309.6155
 20
-14.3233
 10
309.6187
 20
-14.3597
 10
309.6239
 20
-14.3796
 10
309.6358
 20
-14.3968
 10
309.6592
 20
-14.4253
 10
309.6786
 20
-14.5087
 10
309.7184
 20
-14.6186
 10
309.765
 20
-14.7266
 10
309.8049
 20
-14.8043
 10
309.8114
 20
-14.8478
 10
309.8234
 20
-14.8817
 10
309.8406
 20
-14.9133
 10
309.8631
 20
-14.95
 10
309.9213
 20
-15.1394
 10
310.2275
 20
-17.1648
 10
310.2565
 20
-17.2813
 10
310.2691
 20
-17.3672
 10
310.3009
 20
-17.4922
 10
310.3466
 20
-17.6429
 10
310.4013
 20
-17.806
 10
310.5167
 20
-18.1161
 10
310.6063
 20
-18.3157
 10
310.6106
 20
-18.3525
 10
310.6163
 20
-18.3705
 10
310.6279
 20
-18.3866
 10
310.65
 20
-18.4177
 10
310.8539
 20
-19.3357
 10
310.8832
 20
-19.6853
 10
310.8977
 20
-19.7727
 10
311.0144
 20
-20.618
 10
311.0494
 20
-20.7469
 10
311.0791
 20
-20.8841
 10
311.1091
 20
-21.0231
 10
311.1453
 20
-21.157
 10
311.1955
 20
-21.2929
 10
311.2549
 20
-21.4363
 10
311.3106
 20
-21.5784
 10
311.3495
 20
-21.7107
 10
311.4011
 20
-21.8154
 10
311.4514
 20
-21.9293
 10
311.4807
 20
-22.075
 10
311.5154
 20
-22.1525
 10
311.5342
 20
-22.2267
 10
311.548
 20
-22.3016
 10
311.5681
 20
-22.3811
 10
311.6119
 20
-22.6142
 10
311.7283
 20
-23.5467
 10
311.7576
 20
-23.6634
 10
311.7868
 20
-23.9255
 10
311.8013
 20
-24.0567
 10
311.8631
 20
-24.2947
 10
311.9131
 20
-24.5355
 10
311.9415
 20
-24.6552
 10
311.9764
 20
-24.7736
 10
312.0209
 20
-24.89
 10
312.0782
 20
-25.0037
 10
312.0957
 20
-25.077
 10
312.1316
 20
-25.174
 10
312.1736
 20
-25.2696
 10
312.2094
 20
-25.3388
 10
312.2774
 20
-25.5689
 10
312.3419
 20
-25.8194
 10
312.3985
 20
-26.0737
 10
312.4425
 20
-26.315
 10
312.6027
 20
-27.6119
 10
312.7486
 20
-28.2385
 10
312.7921
 20
-28.3697
 10
312.8387
 20
-28.4475
 10
312.8889
 20
-28.562
 10
312.9409
 20
-28.7019
 10
312.9926
 20
-28.856
 10
313.0871
 20
-29.1618
 10
313.1565
 20
-29.3897
 10
313.4188
 20
-31.2255
 10
313.5208
 20
-31.6772
 10
313.5793
 20
-31.8519
 10
313.6534
 20
-32.0083
 10
313.717
 20
-32.1861
 10
313.781
 20
-32.3643
 10
313.8561
 20
-32.5223
 10
313.8851
 20
-32.6824
 10
313.9181
 20
-32.7616
 10
313.9373
 20
-32.8467
 10
313.9522
 20
-32.9335
 10
313.9726
 20
-33.0178
 10
314.162
 20
-34.3728
 10
314.1768
 20
-34.4748
 10
314.2203
 20
-34.7663
 10
314.2787
 20
-34.9847
 10
314.2875
 20
-35.0586
 10
314.3081
 20
-35.1436
 10
314.3358
 20
-35.2256
 10
314.3662
 20
-35.2908
 10
314.3751
 20
-35.3404
 10
314.3922
 20
-35.3897
 10
314.4144
 20
-35.4368
 10
314.4389
 20
-35.4802
 10
314.4585
 20
-35.5592
 10
314.4995
 20
-35.6716
 10
314.5466
 20
-35.783
 10
314.5844
 20
-35.859
 10
314.7448
 20
-36.4127
 10
314.9779
 20
-38.0446
 10
315.0128
 20
-38.2474
 10
315.0552
 20
-38.4515
 10
315.1076
 20
-38.6562
 10
315.1724
 20
-38.8605
 10
315.229
 20
-39.0057
 10
315.2978
 20
-39.1717
 10
315.3609
 20
-39.3352
 10
315.4005
 20
-39.4726
 10
315.442
 20
-39.5772
 10
315.4778
 20
-39.6857
 10
315.5089
 20
-39.797
 10
315.5358
 20
-39.9101
 10
315.5809
 20
-40.138
 10
315.6192
 20
-40.3614
 10
315.6482
 20
-40.5216
 10
315.7941
 20
-41.6875
 10
315.9251
 20
-42.2849
 10
315.9486
 20
-42.3248
 10
315.9656
 20
-42.36
 10
315.977
 20
-42.3977
 10
315.9835
 20
-42.4451
 10
316.0544
 20
-42.5772
 10
316.0706
 20
-42.6475
 10
316.1017
 20
-42.7334
 10
316.1388
 20
-42.8173
 10
316.1729
 20
-42.8821
 10
316.3094
 20
-43.3191
 10
316.4498
 20
-44.1642
 10
316.4643
 20
-44.2516
 10
316.5373
 20
-44.7326
 10
316.5769
 20
-44.9291
 10
316.6339
 20
-45.1398
 10
316.6689
 20
-45.2438
 10
316.7081
 20
-45.3436
 10
316.7516
 20
-45.4363
 10
316.7994
 20
-45.5195
 10
316.9598
 20
-45.7089
 10
317.0223
 20
-45.8443
 10
317.085
 20
-45.9694
 10
317.1459
 20
-46.0991
 10
317.2027
 20
-46.2481
 10
317.3532
 20
-46.8018
 10
317.4092
 20
-46.9157
 10
317.4797
 20
-47.0378
 10
317.5561
 20
-47.1548
 10
317.6301
 20
-47.2533
 10
317.6885
 20
-47.3185
 10
317.7579
 20
-47.3925
 10
317.829
 20
-47.4734
 10
317.8925
 20
-47.5594
 10
317.9625
 20
-47.6964
 10
318.0435
 20
-47.833
 10
318.0827
 20
-47.9029
 10
318.1182
 20
-47.9749
 10
318.1478
 20
-48.0495
 10
318.1693
 20
-48.1276
 10
318.2276
 20
-48.2443
 10
318.4172
 20
-48.4629
 10
318.5091
 20
-48.5323
 10
318.5983
 20
-48.5968
 10
318.6843
 20
-48.6671
 10
318.7668
 20
-48.7543
 10
318.8693
 20
-48.908
 10
318.9689
 20
-49.0752
 10
319.0267
 20
-49.1572
 10
319.0949
 20
-49.2348
 10
319.1771
 20
-49.3053
 10
319.2769
 20
-49.366
 10
319.4085
 20
-49.4431
 10
319.5068
 20
-49.5226
 10
319.5808
 20
-49.6041
 10
319.6397
 20
-49.6869
 10
319.6924
 20
-49.7706
 10
319.7479
 20
-49.8546
 10
319.8153
 20
-49.9385
 10
319.9036
 20
-50.0216
 10
319.9931
 20
-50.0854
 10
320.0832
 20
-50.1359
 10
320.174
 20
-50.1795
 10
320.2658
 20
-50.2226
 10
320.3588
 20
-50.2715
 10
320.4531
 20
-50.3326
 10
320.5489
 20
-50.4124
 10
320.6465
 20
-50.5171
 10
320.836
 20
-50.7212
 10
320.912
 20
-50.7583
 10
320.9863
 20
-50.8009
 10
321.062
 20
-50.8401
 10
321.1421
 20
-50.8669
 10
321.2003
 20
-50.8959
 10
321.3416
 20
-50.9834
 10
321.5167
 20
-51.0665
 10
321.7012
 20
-51.1518
 10
321.8705
 20
-51.2457
 10
322.1037
 20
-51.4788
 10
322.2168
 20
-51.5513
 10
322.3626
 20
-51.6172
 10
322.531
 20
-51.6771
 10
322.7118
 20
-51.7314
 10
323.0703
 20
-51.8249
 10
323.3571
 20
-51.9014
 10
323.663
 20
-52.0618
 10
323.8817
 20
-52.2512
 10
324.0137
 20
-52.319
 10
324.1814
 20
-52.383
 10
324.356
 20
-52.4357
 10
324.5084
 20
-52.4698
 10
324.7415
 20
-52.5135
 10
325.0329
 20
-52.5425
 10
325.1349
 20
-52.557
 10
325.339
 20
-52.5863
 10
325.4555
 20
-52.6155
 10
325.8343
 20
-52.6737
 10
326.1697
 20
-52.7467
 10
326.3006
 20
-52.7904
 10
326.3881
 20
-52.8194
 10
326.4559
 20
-52.8498
 10
326.5364
 20
-52.8755
 10
326.6193
 20
-52.8986
 10
326.694
 20
-52.9213
 10
327.1165
 20
-53.0088
 10
327.4664
 20
-53.0817
 10
327.685
 20
-53.1255
 10
327.7723
 20
-53.1255
 10
327.8745
 20
-53.1545
 10
328.472
 20
-53.2129
 10
328.5708
 20
-53.2285
 10
328.6759
 20
-53.2274
 10
328.7538
 20
-53.2429
 10
328.8394
 20
-53.2464
 10
328.9269
 20
-53.244
 10
329.011
 20
-53.2419
 10
329.1166
 20
-53.2593
 10
329.2508
 20
-53.2627
 10
329.3889
 20
-53.2594
 10
329.5065
 20
-53.2566
 10
329.6088
 20
-53.2743
 10
329.7329
 20
-53.2776
 10
329.8605
 20
-53.274
 10
329.9728
 20
-53.2711
 10
330.0868
 20
-53.2846
 10
330.3033
 20
-53.2923
 10
330.5904
 20
-53.2954
 10
330.9163
 20
-53.2952
 10
331.249
 20
-53.2929
 10
331.5567
 20
-53.2896
 10
331.8074
 20
-53.2868
 10
331.9692
 20
-53.2856
 10
332.0972
 20
-53.3001
 10
332.3448
 20
-53.3083
 10
332.6746
 20
-53.3116
 10
333.0497
 20
-53.3112
 10
333.4326
 20
-53.3085
 10
333.7863
 20
-53.3049
 10
334.0735
 20
-53.3017
 10
334.257
 20
-53.3004
 10
336.545
 20
-53.3004
 10
336.6631
 20
-53.3142
 10
336.8889
 20
-53.322
 10
337.1889
 20
-53.3251
 10
337.5295
 20
-53.3248
 10
337.8773
 20
-53.3224
 10
338.1988
 20
-53.3191
 10
338.4605
 20
-53.3162
 10
338.6289
 20
-53.3149
 10
338.7101
 20
-53.3028
 10
338.8495
 20
-53.2957
 10
339.0289
 20
-53.2927
 10
339.2304
 20
-53.2926
 10
339.6274
 20
-53.297
 10
339.8964
 20
-53.3004
 10
339.9807
 20
-53.288
 10
340.1263
 20
-53.2808
 10
340.3143
 20
-53.2777
 10
340.5256
 20
-53.2776
 10
340.9418
 20
-53.2821
 10
341.2226
 20
-53.2856
 10
341.3017
 20
-53.2738
 10
341.4364
 20
-53.2668
 10
341.6095
 20
-53.2638
 10
341.8037
 20
-53.2637
 10
342.1866
 20
-53.2679
 10
342.4468
 20
-53.2711
 10
342.5198
 20
-53.2597
 10
342.642
 20
-53.253
 10
342.798
 20
-53.25
 10
342.9728
 20
-53.2498
 10
343.3175
 20
-53.2536
 10
343.5543
 20
-53.2566
 10
343.6392
 20
-53.2442
 10
343.7864
 20
-53.237
 10
343.9765
 20
-53.234
 10
344.1902
 20
-53.2339
 10
344.6112
 20
-53.2384
 10
344.895
 20
-53.2419
 10
345.0343
 20
-53.2244
 10
345.2436
 20
-53.2211
 10
345.4606
 20
-53.2246
 10
345.6234
 20
-53.2274
 10
345.6961
 20
-53.2154
 10
345.8126
 20
-53.2083
 10
345.9594
 20
-53.2053
 10
346.1229
 20
-53.2052
 10
346.4458
 20
-53.2096
 10
346.6725
 20
-53.2129
 10
346.8168
 20
-53.195
 10
347.0351
 20
-53.1917
 10
347.2615
 20
-53.1953
 10
347.4304
 20
-53.1982
 10
347.5297
 20
-53.1808
 10
347.6497
 20
-53.1775
 10
347.7731
 20
-53.1809
 10
347.8822
 20
-53.1837
 10
348.0265
 20
-53.1659
 10
348.2447
 20
-53.1627
 10
348.4711
 20
-53.1663
 10
348.6399
 20
-53.1692
 10
348.7646
 20
-53.1508
 10
348.9348
 20
-53.1475
 10
349.1105
 20
-53.1514
 10
349.2519
 20
-53.1545
 10
349.3475
 20
-53.1369
 10
349.4579
 20
-53.1336
 10
349.571
 20
-53.1371
 10
349.6747
 20
-53.14
 10
349.819
 20
-53.1222
 10
350.0371
 20
-53.1189
 10
350.2635
 20
-53.1226
 10
350.4324
 20
-53.1255
 10
350.5204
 20
-53.1083
 10
350.6175
 20
-53.1049
 10
350.7167
 20
-53.1081
 10
350.8112
 20
-53.1107
 10
350.9434
 20
-53.0927
 10
351.1331
 20
-53.0895
 10
351.3294
 20
-53.0932
 10
351.4817
 20
-53.0962
 10
351.6332
 20
-53.0779
 10
351.8647
 20
-53.0747
 10
352.105
 20
-53.0786
 10
352.2829
 20
-53.0817
 10
352.7492
 20
-53.14
 10
353.026
 20
-53.1982
 10
353.0298
 20
-53.3007
 10
353.036
 20
-53.3946
 10
353.0373
 20
-53.4922
 10
353.026
 20
-53.6062
 10
352.9823
 20
-53.8978
 10
352.9533
 20
-54.0143
 10
352.8221
 20
-54.6262
 10
352.7144
 20
-54.7574
 10
352.618
 20
-54.8885
 10
352.5695
 20
-55.0025
 10
352.5171
 20
-55.1457
 10
352.4715
 20
-55.2913
 10
352.4433
 20
-55.4128
 10
352.2101
 20
-57.7006
 10
352.1954
 20
-57.8463
 10
352.1372
 20
-58.1813
 10
352.1027
 20
-58.2738
 10
352.0789
 20
-58.371
 10
352.0352
 20
-58.6041
 10
352.0352
 20
-58.6623
 10
352.006
 20
-58.7788
 10
351.9623
 20
-59.2015
 10
351.9333
 20
-59.318
 10
351.904
 20
-59.8135
 10
351.8895
 20
-59.9154
 10
351.8311
 20
-60.3527
 10
351.8166
 20
-60.4836
 10
351.7873
 20
-60.6003
 10
351.6854
 20
-61.2122
 10
351.6561
 20
-61.3142
 10
351.6419
 20
-61.4891
 10
351.6247
 20
-61.6007
 10
351.606
 20
-61.7173
 10
351.5806
 20
-61.8326
 10
351.5436
 20
-61.9406
 10
351.4379
 20
-62.2175
 10
351.365
 20
-62.3194
 10
351.3505
 20
-62.3779
 10
351.2338
 20
-62.5526
 10
351.1511
 20
-62.6218
 10
351.0591
 20
-62.6837
 10
350.8936
 20
-62.8268
 10
350.6707
 20
-62.9993
 10
350.4416
 20
-63.1671
 10
350.2575
 20
-63.2957
 10
350.1263
 20
-63.4123
 10
350.0098
 20
-63.4853
 10
349.5872
 20
-63.631
 10
349.2811
 20
-63.6455
 10
349.2132
 20
-63.6593
 10
349.1392
 20
-63.663
 10
349.0634
 20
-63.6616
 10
348.9897
 20
-63.66
 10
348.9117
 20
-63.6755
 10
348.8261
 20
-63.6791
 10
348.7385
 20
-63.6768
 10
348.6544
 20
-63.6747
 10
348.4948
 20
-63.6913
 10
348.1774
 20
-63.7004
 10
347.7513
 20
-63.7037
 10
347.2657
 20
-63.7028
 10
346.7697
 20
-63.6992
 10
346.3125
 20
-63.6947
 10
345.9431
 20
-63.6909
 10
345.7109
 20
-63.6892
 10
325.0037
 20
-63.6892
 10
324.845
 20
-63.675
 10
324.6431
 20
-63.6671
 10
324.4648
 20
-63.663
 10
324.3772
 20
-63.66
 10
324.2181
 20
-63.6401
 10
324.0734
 20
-63.6189
 10
324.0039
 20
-63.601
 10
323.9349
 20
-63.5746
 10
323.8653
 20
-63.5369
 10
323.7942
 20
-63.4853
 10
323.7129
 20
-63.4052
 10
323.6411
 20
-63.3174
 10
323.5694
 20
-63.2297
 10
323.4883
 20
-63.15
 10
323.2917
 20
-63.0178
 10
323.0874
 20
-62.9014
 10
322.9848
 20
-62.8341
 10
322.8832
 20
-62.7527
 10
322.7835
 20
-62.6512
 10
322.6867
 20
-62.5236
 10
322.661
 20
-62.4813
 10
322.6424
 20
-62.45
 10
322.6169
 20
-62.4191
 10
322.5702
 20
-62.3779
 10
322.4605
 20
-62.2999
 10
322.3359
 20
-62.2223
 10
322.2046
 20
-62.1387
 10
322.0747
 20
-62.0426
 10
321.9343
 20
-61.9154
 10
321.8006
 20
-61.7802
 10
321.6583
 20
-61.6378
 10
321.4917
 20
-61.4891
 10
321.2878
 20
-61.3142
 10
321.0983
 20
-61.1395
 10
320.8992
 20
-60.9598
 10
320.6954
 20
-60.7576
 10
320.489
 20
-60.5532
 10
320.2824
 20
-60.3672
 10
320.0776
 20
-60.182
 10
319.8995
 20
-59.9995
 10
319.7234
 20
-59.8187
 10
319.5245
 20
-59.6386
 10
319.3693
 20
-59.5167
 10
319.295
 20
-59.4621
 10
319.2298
 20
-59.3974
 10
319.1019
 20
-59.2453
 10
318.7961
 20
-58.9247
 10
318.3735
 20
-58.6041
 10
318.2857
 20
-58.4934
 10
318.2098
 20
-58.3845
 10
318.1629
 20
-58.3247
 10
318.1029
 20
-58.2579
 10
318.0243
 20
-58.1819
 10
317.9217
 20
-58.0941
 10
317.8038
 20
-58.0094
 10
317.6819
 20
-57.9292
 10
317.6228
 20
-57.8866
 10
317.5669
 20
-57.8403
 10
317.5155
 20
-57.7886
 10
317.4699
 20
-57.7298
 10
317.4388
 20
-57.6578
 10
317.2075
 20
-57.3945
 10
317.1211
 20
-57.3315
 10
317.0382
 20
-57.2679
 10
316.9526
 20
-57.2093
 10
316.8579
 20
-57.1614
 10
316.7956
 20
-57.1095
 10
316.7329
 20
-57.0393
 10
316.6693
 20
-56.9559
 10
316.6042
 20
-56.8644
 10
316.5371
 20
-56.7699
 10
316.4675
 20
-56.6777
 10
316.3948
 20
-56.5927
 10
316.3186
 20
-56.5202
 10
316.1759
 20
-56.4136
 10
316.1009
 20
-56.3727
 10
316.028
 20
-56.3182
 10
315.974
 20
-56.2622
 10
315.9287
 20
-56.1999
 10
315.8816
 20
-56.1269
 10
315.8378
 20
-56.054
 10
315.6629
 20
-55.8063
 10
315.5426
 20
-55.6819
 10
315.4052
 20
-55.5621
 10
315.2728
 20
-55.4479
 10
315.1674
 20
-55.3403
 10
315.1091
 20
-55.2384
 10
315.0072
 20
-55.1217
 10
314.9485
 20
-55.0234
 10
314.8591
 20
-54.9058
 10
314.7635
 20
-54.7869
 10
314.6866
 20
-54.6846
 10
314.5106
 20
-54.4875
 10
314.3659
 20
-54.3336
 10
314.2993
 20
-54.2527
 10
314.2332
 20
-54.1584
 10
314.1652
 20
-54.0428
 10
314.0928
 20
-53.8978
 10
314.0282
 20
-53.7507
 10
313.96
 20
-53.6053
 10
313.9199
 20
-53.5352
 10
313.8735
 20
-53.4677
 10
313.8188
 20
-53.4038
 10
313.754
 20
-53.3441
 10
313.6555
 20
-53.2691
 10
313.5645
 20
-53.1837
 10
313.4978
 20
-53.0762
 10
313.4472
 20
-52.9811
 10
313.4007
 20
-52.8889
 10
313.3461
 20
-52.7904
 10
313.2997
 20
-52.6511
 10
313.2439
 20
-52.5135
 10
313.1713
 20
-52.4053
 10
313.0983
 20
-52.2753
 10
313.0253
 20
-52.1405
 10
312.9525
 20
-52.0181
 10
312.8214
 20
-51.8724
 10
312.6464
 20
-51.5371
 10
312.53
 20
-50.9544
 10
312.5152
 20
-50.8669
 10
312.3988
 20
-50.0508
 10
312.2434
 20
-49.5116
 10
312.1888
 20
-49.3802
 10
312.1225
 20
-49.2395
 10
312.0607
 20
-49.1002
 10
312.0199
 20
-48.9729
 10
311.9907
 20
-48.9261
 10
311.9641
 20
-48.866
 10
311.94
 20
-48.7966
 10
311.9181
 20
-48.7219
 10
311.8792
 20
-48.5722
 10
311.845
 20
-48.4482
 10
311.6119
 20
-46.8745
 10
311.5099
 20
-46.4375
 10
311.4077
 20
-46.1606
 10
311.3514
 20
-46.0685
 10
311.2978
 20
-45.9538
 10
311.2471
 20
-45.8232
 10
311.1994
 20
-45.6835
 10
311.1141
 20
-45.404
 10
311.0436
 20
-45.1697
 10
310.8539
 20
-43.8728
 10
310.8122
 20
-43.6354
 10
310.7547
 20
-43.3651
 10
310.7211
 20
-43.2309
 10
310.6849
 20
-43.1046
 10
310.6465
 20
-42.9914
 10
310.6063
 20
-42.8968
 10
310.3534
 20
-42.2849
 10
310.2275
 20
-41.7894
 10
309.945
 20
-40.0408
 10
309.8194
 20
-39.6183
 10
309.7501
 20
-39.4935
 10
309.686
 20
-39.3366
 10
309.623
 20
-39.1749
 10
309.557
 20
-39.0354
 10
309.4988
 20
-38.846
 10
309.2511
 20
-37.2578
 10
309.2126
 20
-37.0474
 10
309.1625
 20
-36.8211
 10
309.1057
 20
-36.5982
 10
309.047
 20
-36.3982
 10
308.9838
 20
-36.2827
 10
308.9261
 20
-36.1584
 10
308.873
 20
-36.0278
 10
308.824
 20
-35.8933
 10
308.735
 20
-35.622
 10
308.6536
 20
-35.3635
 10
308.5224
 20
-34.4748
 10
308.5079
 20
-34.3728
 10
308.435
 20
-33.8628
 10
308.4067
 20
-33.7551
 10
308.3852
 20
-33.6444
 10
308.3631
 20
-33.5336
 10
308.333
 20
-33.4256
 10
308.3034
 20
-33.3048
 10
308.2586
 20
-33.172
 10
308.2039
 20
-33.0341
 10
308.1447
 20
-32.8979
 10
308.0339
 20
-32.6581
 10
307.9689
 20
-32.5078
 10
307.5463
 20
-30.191
 10
307.524
 20
-30.0739
 10
307.4729
 20
-29.9223
 10
307.4111
 20
-29.7739
 10
307.3569
 20
-29.6665
 10
307.211
 20
-29.3022
 10
307.1383
 20
-29.0546
 10
307.1058
 20
-28.9806
 10
307.0862
 20
-28.904
 10
307.0707
 20
-28.8262
 10
307.0508
 20
-28.7485
 10
306.9488
 20
-28.0636
 10
306.9341
 20
-27.9617
 10
306.8321
 20
-27.2475
 10
306.7302
 20
-26.7813
 10
306.6572
 20
-26.6211
 10
306.654
 20
-26.5847
 10
306.6489
 20
-26.5649
 10
306.6369
 20
-26.5477
 10
306.6135
 20
-26.5192
 10
306.5893
 20
-26.4358
 10
306.5554
 20
-26.3551
 10
306.5214
 20
-26.2763
 10
306.497
 20
-26.1986
 10
306.4367
 20
-26.0846
 10
306.3803
 20
-25.9655
 10
306.3513
 20
-25.8195
 10
306.3002
 20
-25.6769
 10
306.2639
 20
-25.5282
 10
306.2057
 20
-25.1494
 10
306.1764
 20
-25.0327
 10
306.0307
 20
-23.9403
 10
305.9975
 20
-23.8116
 10
305.9675
 20
-23.6691
 10
305.9326
 20
-23.531
 10
305.885
 20
-23.4155
 10
305.858
 20
-23.3135
 10
305.8048
 20
-23.1898
 10
305.7481
 20
-23.0624
 10
305.7101
 20
-22.9493
 10
305.6633
 20
-22.8656
 10
305.6124
 20
-22.7459
 10
305.5703
 20
-22.6223
 10
305.5497
 20
-22.5268
 10
305.4986
 20
-22.3841
 10
305.4622
 20
-22.2354
 10
305.375
 20
-21.6525
 10
305.3603
 20
-21.565
 10
305.3458
 20
-21.4631
 10
305.2875
 20
-21.0405
 10
305.2327
 20
-20.695
 10
305.1702
 20
-20.3833
 10
305.1283
 20
-20.2286
 10
305.0753
 20
-20.0686
 10
305.0079
 20
-19.8988
 10
304.9232
 20
-19.7145
 10
304.8855
 20
-19.6313
 10
304.8524
 20
-19.5461
 10
304.8183
 20
-19.4613
 10
304.7775
 20
-19.3794
 10
304.7046
 20
-19.1463
 10
304.6608
 20
-18.8694
 10
304.6316
 20
-18.7527
 10
304.5444
 20
-18.0973
 10
304.5296
 20
-17.9806
 10
304.3984
 20
-17.0626
 10
304.2527
 20
-16.5091
 10
304.2099
 20
-16.4319
 10
304.1779
 20
-16.3459
 10
304.147
 20
-16.2576
 10
304.1071
 20
-16.1738
 10
304.0747
 20
-16.0514
 10
304.0343
 20
-15.9262
 10
304.0029
 20
-15.8689
 10
303.9748
 20
-15.7915
 10
303.9495
 20
-15.7001
 10
303.9264
 20
-15.6006
 10
303.8845
 20
-15.4012
 10
303.8447
 20
-15.2413
 10
303.8157
 20
-14.9645
 10
303.8009
 20
-14.877
 10
303.6115
 20
-13.4927
 10
303.4951
 20
-12.9828
 10
303.4221
 20
-12.7934
 10
303.383
 20
-12.7218
 10
303.3494
 20
-12.6477
 10
303.306
 20
-12.5069
 10
303.2619
 20
-12.3561
 10
303.2355
 20
-12.3086
 10
303.2135
 20
-12.2592
 10
303.1975
 20
-12.2073
 10
303.189
 20
-12.1524
 10
303.1612
 20
-12.0924
 10
303.139
 20
-12.0222
 10
303.1209
 20
-11.9448
 10
303.1056
 20
-11.8632
 10
303.0775
 20
-11.6994
 10
303.0433
 20
-11.555
 10
302.9703
 20
-10.9721
 10
302.9558
 20
-10.8701
 10
302.8683
 20
-10.1562
 10
302.8101
 20
-9.8939
 10
302.7956
 20
-9.7337
 10
302.76
 20
-9.5889
 10
302.7039
 20
-9.4022
 10
302.6464
 20
-9.2063
 10
302.6062
 20
-9.0341
 10
302.5187
 20
-8.291
 10
302.5033
 20
-8.2061
 10
302.504
 20
-8.1161
 10
302.4916
 20
-7.982
 10
302.4898
 20
-7.8505
 10
302.4878
 20
-7.7242
 10
302.475
 20
-7.6061
 10
302.6253
 20
-7.5529
 10
302.7687
 20
-7.512
 10
302.911
 20
-7.4745
 10
303.0578
 20
-7.4314
 10
307.6046
 20
-7.4314
 10
307.721
 20
-7.4459
 10
307.8959
 20
-7.4896
 10
307.9544
 20
-7.4896
 10
308.0709
 20
-7.5186
 10
308.1291
 20
-7.5186
 10
308.333
 20
-7.5624
 10
308.4181
 20
-7.5287
 10
308.4935
 20
-7.5096
 10
308.5613
 20
-7.5015
 10
308.6236
 20
-7.501
 10
308.7395
 20
-7.5085
 10
308.8575
 20
-7.5041
 10
309.0495
 20
-7.4854
 10
309.4384
 20
-7.4753
 10
309.9629
 20
-7.4718
 10
310.5616
 20
-7.4732
 10
311.1732
 20
-7.4776
 10
311.7363
 20
-7.483
 10
312.1896
 20
-7.4876
 10
312.4717
 20
-7.4896
 10
366.8989
 20
-7.4896
 10
424.9403
 20
-7.4896
 10
425.1444
 20
-7.5186
 10
425.552
 20
-7.6061
 10
425.7794
 20
-7.5788
 10
426.0955
 20
-7.5188
 10
426.3767
 20
-7.4587
 10
426.4994
 20
-7.4314
 10
426.5868
 20
-7.4459
 10
426.6885
 20
-7.434
 10
426.7097
 20
-7.4376
 10
426.7241
 20
-7.4417
 10
426.8055
 20
-7.4314
 10
440.4597
 20
-7.4022
 10
440.7656
 20
-7.3585
 10
441.3923
 20
-7.2418
 10
441.5525
 20
-7.1836
 10
441.6837
 20
-7.1398
 10
441.7573
 20
-7.0975
 10
441.8586
 20
-7.0816
 10
441.9898
 20
-7.0379
 10
442.2374
 20
-6.8485
 10
442.3075
 20
-6.7219
 10
442.3693
 20
-6.5798
 10
442.4258
 20
-6.4336
 10
442.4802
 20
-6.2948
 10
442.7475
 20
-5.7268
 10
442.8306
 20
-5.6109
 10
442.9079
 20
-5.4937
 10
442.9403
 20
-5.3994
 10
442.9841
 20
-5.2946
 10
443.0296
 20
-5.1837
 10
443.0669
 20
-5.0709
 10
443.243
 20
-4.1239
 10
443.2882
 20
-3.871
 10
443.3474
 20
-3.59
 10
443.3824
 20
-3.4514
 10
443.4209
 20
-3.3209
 10
443.4631
 20
-3.2034
 10
443.5088
 20
-3.1039
 10
443.6018
 20
-2.9361
 10
443.7072
 20
-2.7389
 10
443.7556
 20
-2.6374
 10
443.7964
 20
-2.5384
 10
443.8258
 20
-2.4451
 10
443.8405
 20
-2.3608
 10
443.9425
 20
-1.9673
 10
444.0154
 20
-1.4865
 10
444.0446
 20
-1.3699
 10
444.0446
 20
-1.3116
 10
444.0736
 20
-1.1949
 10
444.0881
 20
-1.0493
 10
444.2046
 20
-0.5538
 10
444.247
 20
-0.4804
 10
444.2936
 20
-0.3501
 10
444.325
 20
-0.2889
 10
444.3505
 20
-0.2545
 10
444.3795
 20
-0.2042
 10
444.6127
 20
0.2765
 10
444.7876
 20
1.0487
 10
444.8166
 20
1.3255
 10
444.8458
 20
1.4277
 10
444.8751
 20
1.6753
 10
444.9478
 20
1.9959
 10
444.977
 20
2.2727
 10
445.079
 20
2.7972
 10
445.0536
 20
2.876
 10
445.0264
 20
2.962
 10
444.9964
 20
3.0458
 10
444.9623
 20
3.1178
 10
444.9388
 20
3.2179
 10
444.9186
 20
3.3219
 10
444.8603
 20
3.4968
 10
444.847
 20
3.5747
 10
444.832
 20
3.6411
 10
444.8056
 20
3.7045
 10
444.7584
 20
3.7735
 10
444.6933
 20
3.8409
 10
444.5998
 20
3.9224
 10
444.5018
 20
3.9949
 10
444.4233
 20
4.0358
 10
444.3305
 20
4.0494
 10
444.2316
 20
4.0773
 10
444.1339
 20
4.1064
 10
444.0446
 20
4.1233
 10
443.9135
 20
4.167
 10
443.7093
 20
4.269
 10
443.4034
 20
4.3564
 10
442.9806
 20
4.3856
 10
442.8748
 20
4.4014
 10
442.7622
 20
4.4001
 10
442.6698
 20
4.4172
 10
442.5634
 20
4.4206
 10
442.4544
 20
4.4173
 10
442.3541
 20
4.4146
 10
441.9652
 20
4.4383
 10
441.2764
 20
4.4469
 10
440.3802
 20
4.445
 10
439.3693
 20
4.4374
 10
438.3362
 20
4.4288
 10
437.3735
 20
4.4239
 10
436.5739
 20
4.4273
 10
436.0298
 20
4.4439
 10
435.7967
 20
4.4439
 10
435.2137
 20
4.4876
 10
435.097
 20
4.5313
  0
LWPOLYLINE
  5
94
330
1F
100
AcDbEntity
  8
Layer 1
 62
     7
370
    50
100
AcDbPolyline
 90
        2
 70
     0
 43
0.0
 10
304.0196
 20
4.5313
 10
303.9469
 20
4.5168
  0
LWPOLYLINE
  5
95
330
1F
100
AcDbEntity
  8
Layer 1
 62
     7
370
    50
100
AcDbPolyline
 90
        2
 70
     0
 43
0.0
 10
304.0488
 20
4.5458
 10
304.0196
 20
4.5313
  0
LWPOLYLINE
  5
96
330
1F
100
AcDbEntity
  8
Layer 1
 62
     7
370
    50
100
AcDbPolyline
 90
        2
 70
     0
 43
0.0
 10
304.0926
 20
4.5605
 10
304.0488
 20
4.5458
  0
LWPOLYLINE
  5
97
330
1F
100
AcDbEntity
  8
Layer 1
 62
     7
370
    50
100
AcDbPolyline
 90
       87
 70
     1
 43
0.0
 10
307.4006
 20
6.9208
 10
307.3405
 20
6.9079
 10
307.2491
 20
6.9005
 10
307.1361
 20
6.8974
 10
307.0112
 20
6.8975
 10
306.7639
 20
6.9025
 10
306.5845
 20
6.9063
 10
306.1182
 20
6.8771
 10
306.0333
 20
6.8618
 10
305.9433
 20
6.8626
 10
305.6227
 20
6.7896
 10
305.375
 20
6.644
 10
305.1602
 20
6.5739
 10
304.9749
 20
6.5216
 10
304.8839
 20
6.4883
 10
304.7892
 20
6.443
 10
304.6869
 20
6.3801
 10
304.5734
 20
6.2942
 10
304.4916
 20
6.2196
 10
304.4335
 20
6.1512
 10
304.394
 20
6.0864
 10
304.3679
 20
6.0227
 10
304.3358
 20
5.8879
 10
304.2965
 20
5.7262
 10
304.2604
 20
5.6556
 10
304.2309
 20
5.5825
 10
304.2065
 20
5.5076
 10
304.1856
 20
5.4316
 10
304.1484
 20
5.2786
 10
304.1071
 20
5.1287
 10
304.0778
 20
4.9683
 10
304.0778
 20
4.9101
 10
304.0633
 20
4.8519
 10
304.0926
 20
4.5605
 10
304.5006
 20
4.4294
 10
434.5287
 20
4.4294
 10
434.6454
 20
4.4584
 10
434.8056
 20
4.4731
 10
434.9075
 20
4.5021
 10
434.9805
 20
4.5021
 10
435.097
 20
4.5313
 10
435.1403
 20
4.6351
 10
435.1721
 20
4.7657
 10
435.1882
 20
4.8993
 10
435.1844
 20
5.0121
 10
435.1117
 20
5.493
 10
434.9805
 20
6.0613
 10
434.9498
 20
6.1016
 10
434.8968
 20
6.1457
 10
434.8285
 20
6.1916
 10
434.7517
 20
6.2369
 10
434.6008
 20
6.3167
 10
434.4995
 20
6.3671
 10
434.44
 20
6.4128
 10
434.3593
 20
6.4617
 10
434.2638
 20
6.5111
 10
434.1599
 20
6.5583
 10
434.0537
 20
6.6008
 10
433.9518
 20
6.6358
 10
433.8602
 20
6.6608
 10
433.7855
 20
6.673
 10
433.7102
 20
6.7127
 10
433.6387
 20
6.7436
 10
433.5697
 20
6.7677
 10
433.5019
 20
6.7873
 10
433.3649
 20
6.8212
 10
433.2173
 20
6.8626
 10
433.0716
 20
6.8771
 10
433.0002
 20
6.8915
 10
432.9223
 20
6.8952
 10
432.8426
 20
6.8934
 10
432.7655
 20
6.8916
 10
432.6976
 20
6.9032
 10
432.5905
 20
6.91
 10
432.4563
 20
6.913
 10
432.3072
 20
6.9133
 10
432.0126
 20
6.9094
 10
431.8036
 20
6.9063
 10
431.599
 20
6.9259
 10
431.1823
 20
6.9365
 10
430.6193
 20
6.9399
 10
429.9764
 20
6.9383
 10
429.3197
 20
6.9336
 10
428.7152
 20
6.9278
 10
428.2291
 20
6.9229
 10
427.9275
 20
6.9208
 10
307.4006
 20
6.9208
  0
LWPOLYLINE
  5
98
330
1F
100
AcDbEntity
  8
Layer 1
 62
     7
370
    50
100
AcDbPolyline
 90
       16
 70
     0
 43
0.0
 10
281.3307
 20
-53.2566
 10
281.1776
 20
-53.235
 10
281.0393
 20
-53.2274
 10
280.9212
 20
-53.2136
 10
280.6954
 20
-53.2057
 10
280.3954
 20
-53.2026
 10
280.0548
 20
-53.2029
 10
279.707
 20
-53.2054
 10
279.3855
 20
-53.2087
 10
279.1239
 20
-53.2116
 10
278.9555
 20
-53.2129
 10
276.8716
 20
-53.2129
 10
276.7057
 20
-53.1643
 10
276.5099
 20
-53.0839
 10
276.3347
 20
-53.006
 10
276.2304
 20
-52.9651
  0
LWPOLYLINE
  5
99
330
1F
100
AcDbEntity
  8
Layer 1
 62
     7
370
    50
100
AcDbPolyline
 90
       51
 70
     0
 43
0.0
 10
270.591
 20
-53.2856
 10
270.6539
 20
-53.2733
 10
270.7421
 20
-53.2666
 10
270.8313
 20
-53.2622
 10
270.8971
 20
-53.2566
 10
270.9891
 20
-53.241
 10
271.0866
 20
-53.2419
 10
271.1652
 20
-53.2282
 10
271.2436
 20
-53.2283
 10
271.32
 20
-53.228
 10
271.3924
 20
-53.2129
 10
271.5198
 20
-53.2254
 10
271.7482
 20
-53.2313
 10
272.0464
 20
-53.2321
 10
272.3831
 20
-53.2293
 10
272.7271
 20
-53.2244
 10
273.0472
 20
-53.219
 10
273.3122
 20
-53.2147
 10
273.4908
 20
-53.2129
 10
275.6039
 20
-53.2129
 10
275.7755
 20
-53.1528
 10
275.9239
 20
-53.0936
 10
276.0689
 20
-53.0321
 10
276.2304
 20
-52.9651
 10
276.2304
 20
-29.3604
 10
276.2283
 20
-28.7919
 10
276.2233
 20
-27.8049
 10
276.2175
 20
-26.549
 10
276.2127
 20
-25.1741
 10
276.2111
 20
-23.8297
 10
276.2147
 20
-22.6657
 10
276.2253
 20
-21.8318
 10
276.2451
 20
-21.4776
 10
276.2304
 20
-21.4193
 10
276.2451
 20
-21.3611
 10
276.2304
 20
-21.3027
 10
276.2304
 20
-21.2154
 10
276.2451
 20
-21.157
 10
276.2319
 20
-21.119
 10
276.2283
 20
-21.0916
 10
276.233
 20
-21.064
 10
276.2451
 20
-21.0258
 10
276.2268
 20
-20.7124
 10
276.2168
 20
-19.9783
 10
276.2133
 20
-18.9548
 10
276.2146
 20
-17.7731
 10
276.2188
 20
-16.5646
 10
276.224
 20
-15.4604
 10
276.2285
 20
-14.5919
 10
276.2304
 20
-14.0902
 10
276.2304
 20
6.7167
  0
LWPOLYLINE
  5
9A
330
1F
100
AcDbEntity
  8
Layer 1
 62
     7
370
    50
100
AcDbPolyline
 90
       29
 70
     0
 43
0.0
 10
281.1558
 20
6.8916
 10
281.0697
 20
6.8725
 10
280.9713
 20
6.8694
 10
280.8705
 20
6.8738
 10
280.777
 20
6.8771
 10
280.4765
 20
6.8566
 10
279.9726
 20
6.848
 10
279.3361
 20
6.8479
 10
278.6376
 20
6.8526
 10
277.9478
 20
6.8585
 10
277.3376
 20
6.8621
 10
276.8776
 20
6.8597
 10
276.6385
 20
6.8479
 10
276.2304
 20
6.7167
 10
275.7496
 20
6.8626
 10
275.4515
 20
6.8613
 10
274.9439
 20
6.8584
 10
274.3017
 20
6.8551
 10
273.5999
 20
6.8527
 10
272.9137
 20
6.8524
 10
272.318
 20
6.8555
 10
271.8879
 20
6.8633
 10
271.6983
 20
6.8771
 10
271.5964
 20
6.8626
 10
271.4906
 20
6.882
 10
271.3505
 20
6.8851
 10
271.206
 20
6.8806
 10
271.0866
 20
6.8771
 10
270.9991
 20
6.8916
  0
LWPOLYLINE
  5
9B
330
1F
100
AcDbEntity
  8
Layer 1
 62
     7
370
    18
100
AcDbPolyline
 90
        8
 70
     1
 43
0.0
 10
270.5444
 20
-28.116
 10
265.3581
 20
-28.116
 10
265.6212
 20
-27.8683
 10
265.6212
 20
-29.3932
 10
265.126
 20
-29.3932
 10
265.126
 20
-27.5587
 10
270.5444
 20
-27.5587
 10
270.5444
 20
-28.116
  0
LWPOLYLINE
  5
9C
330
1F
100
AcDbEntity
  8
Layer 1
 62
     7
370
    18
100
AcDbPolyline
 90
       97
 70
     1
 43
0.0
 10
270.5909
 20
-24.2073
 10
270.588
 20
-24.3669
 10
270.5793
 20
-24.5209
 10
270.5647
 20
-24.6692
 10
270.5444
 20
-24.8119
 10
270.5182
 20
-24.9488
 10
270.4863
 20
-25.0801
 10
270.4485
 20
-25.2058
 10
270.405
 20
-25.3258
 10
270.356
 20
-25.4395
 10
270.3018
 20
-25.5463
 10
270.2424
 20
-25.6465
 10
270.1778
 20
-25.7398
 10
270.1079
 20
-25.8264
 10
270.0329
 20
-25.9062
 10
269.9526
 20
-25.9793
 10
269.8671
 20
-26.0456
 10
269.7771
 20
-26.1045
 10
269.6831
 20
-26.1555
 10
269.5851
 20
-26.1987
 10
269.4831
 20
-26.2341
 10
269.377
 20
-26.2617
 10
269.2671
 20
-26.2813
 10
269.1531
 20
-26.2932
 10
269.0351
 20
-26.2971
 10
268.9211
 20
-26.2933
 10
268.8113
 20
-26.2819
 10
268.7058
 20
-26.2628
 10
268.6044
 20
-26.2362
 10
268.5073
 20
-26.2018
 10
268.4145
 20
-26.1599
 10
268.3259
 20
-26.1103
 10
268.2415
 20
-26.0531
 10
268.1616
 20
-25.9887
 10
268.0865
 20
-25.9172
 10
268.016
 20
-25.8387
 10
267.9503
 20
-25.7532
 10
267.8892
 20
-25.6607
 10
267.8329
 20
-25.5612
 10
267.7813
 20
-25.4546
 10
267.7344
 20
-25.3411
 10
267.6927
 20
-25.221
 10
267.6565
 20
-25.0947
 10
267.6259
 20
-24.9622
 10
267.6009
 20
-24.8235
 10
267.5814
 20
-24.6787
 10
267.5675
 20
-24.5277
 10
267.5592
 20
-24.3706
 10
267.5564
 20
-24.2073
 10
267.5592
 20
-24.0457
 10
267.5675
 20
-23.8899
 10
267.5814
 20
-23.7399
 10
267.6009
 20
-23.5957
 10
267.6259
 20
-23.4573
 10
267.6565
 20
-23.3247
 10
267.6927
 20
-23.1979
 10
267.7344
 20
-23.0769
 10
267.7813
 20
-22.9624
 10
267.8329
 20
-22.8547
 10
267.8892
 20
-22.7539
 10
267.9503
 20
-22.6601
 10
268.016
 20
-22.5731
 10
268.0865
 20
-22.493
 10
268.1616
 20
-22.4197
 10
268.2415
 20
-22.3534
 10
268.3259
 20
-22.2944
 10
268.4145
 20
-22.2433
 10
268.5073
 20
-22.2001
 10
268.6044
 20
-22.1647
 10
268.7058
 20
-22.1372
 10
268.8113
 20
-22.1176
 10
268.9211
 20
-22.1058
 10
269.0351
 20
-22.1019
 10
269.1531
 20
-22.1059
 10
269.2671
 20
-22.1178
 10
269.377
 20
-22.1377
 10
269.4831
 20
-22.1656
 10
269.5851
 20
-22.2015
 10
269.6831
 20
-22.2454
 10
269.7771
 20
-22.2972
 10
269.8671
 20
-22.3571
 10
269.9526
 20
-22.4244
 10
270.0329
 20
-22.4984
 10
270.1079
 20
-22.5792
 10
270.1778
 20
-22.6668
 10
270.2424
 20
-22.7611
 10
270.3018
 20
-22.8622
 10
270.356
 20
-22.9701
 10
270.405
 20
-23.0847
 10
270.4485
 20
-23.2056
 10
270.4863
 20
-23.332
 10
270.5182
 20
-23.464
 10
270.5444
 20
-23.6015
 10
270.5647
 20
-23.7446
 10
270.5793
 20
-23.8932
 10
270.588
 20
-24.0475
 10
270.5909
 20
-24.2073
  0
LWPOLYLINE
  5
9D
330
1F
100
AcDbEntity
  8
Layer 1
 62
     7
370
    18
100
AcDbPolyline
 90
       65
 70
     1
 43
0.0
 10
270.1186
 20
-24.2073
 10
270.114
 20
-24.0322
 10
270.1003
 20
-23.867
 10
270.0773
 20
-23.7115
 10
270.0452
 20
-23.5658
 10
270.0038
 20
-23.4299
 10
269.9533
 20
-23.3038
 10
269.8936
 20
-23.1875
 10
269.8246
 20
-23.081
 10
269.7478
 20
-22.9858
 10
269.6644
 20
-22.9032
 10
269.5746
 20
-22.8333
 10
269.4782
 20
-22.7762
 10
269.3753
 20
-22.7317
 10
269.2658
 20
-22.6999
 10
269.1498
 20
-22.6809
 10
269.0273
 20
-22.6745
 10
268.9049
 20
-22.6809
 10
268.7891
 20
-22.6999
 10
268.6799
 20
-22.7317
 10
268.5774
 20
-22.7762
 10
268.4816
 20
-22.8333
 10
268.3924
 20
-22.9032
 10
268.3099
 20
-22.9858
 10
268.234
 20
-23.081
 10
268.1659
 20
-23.1875
 10
268.1069
 20
-23.3038
 10
268.0571
 20
-23.4299
 10
268.0163
 20
-23.5658
 10
267.9845
 20
-23.7115
 10
267.9619
 20
-23.867
 10
267.9483
 20
-24.0322
 10
267.9438
 20
-24.2073
 10
267.9483
 20
-24.3823
 10
267.9619
 20
-24.5474
 10
267.9845
 20
-24.7025
 10
268.0163
 20
-24.8477
 10
268.0571
 20
-24.983
 10
268.1069
 20
-25.1084
 10
268.1659
 20
-25.2239
 10
268.234
 20
-25.3295
 10
268.3099
 20
-25.4239
 10
268.3924
 20
-25.5056
 10
268.4816
 20
-25.5748
 10
268.5774
 20
-25.6314
 10
268.6799
 20
-25.6753
 10
268.7891
 20
-25.7068
 10
268.9049
 20
-25.7256
 10
269.0273
 20
-25.7319
 10
269.1498
 20
-25.7256
 10
269.2658
 20
-25.7068
 10
269.3753
 20
-25.6753
 10
269.4782
 20
-25.6314
 10
269.5746
 20
-25.5748
 10
269.6644
 20
-25.5056
 10
269.7478
 20
-25.4239
 10
269.8246
 20
-25.3295
 10
269.8936
 20
-25.2239
 10
269.9533
 20
-25.1084
 10
270.0038
 20
-24.983
 10
270.0452
 20
-24.8477
 10
270.0773
 20
-24.7025
 10
270.1003
 20
-24.5474
 10
270.114
 20
-24.3823
 10
270.1186
 20
-24.2073
  0
LWPOLYLINE
  5
9E
330
1F
100
AcDbEntity
  8
Layer 1
 62
     7
370
    18
100
AcDbPolyline
 90
       97
 70
     1
 43
0.0
 10
267.8738
 20
-24.2073
 10
267.8713
 20
-24.3554
 10
267.8636
 20
-24.4977
 10
267.8509
 20
-24.6344
 10
267.8331
 20
-24.7655
 10
267.8101
 20
-24.8908
 10
267.7822
 20
-25.0104
 10
267.7491
 20
-25.1244
 10
267.711
 20
-25.2327
 10
267.6682
 20
-25.335
 10
267.6209
 20
-25.4312
 10
267.5691
 20
-25.5213
 10
267.5128
 20
-25.6052
 10
267.452
 20
-25.6829
 10
267.3867
 20
-25.7545
 10
267.317
 20
-25.8199
 10
267.2427
 20
-25.8791
 10
267.1644
 20
-25.9317
 10
267.0824
 20
-25.9773
 10
266.9966
 20
-26.0158
 10
266.9071
 20
-26.0474
 10
266.8138
 20
-26.0719
 10
266.7167
 20
-26.0894
 10
266.6159
 20
-26.0999
 10
266.5113
 20
-26.1034
 10
266.4011
 20
-26.0997
 10
266.2948
 20
-26.0887
 10
266.1926
 20
-26.0703
 10
266.0944
 20
-26.0445
 10
266.0001
 20
-26.0114
 10
265.9098
 20
-25.9708
 10
265.8235
 20
-25.9229
 10
265.7412
 20
-25.8675
 10
265.6633
 20
-25.8055
 10
265.5901
 20
-25.7376
 10
265.5215
 20
-25.6637
 10
265.4577
 20
-25.584
 10
265.3986
 20
-25.4983
 10
265.3442
 20
-25.4067
 10
265.2946
 20
-25.3092
 10
265.2497
 20
-25.2058
 10
265.2098
 20
-25.097
 10
265.1753
 20
-24.9837
 10
265.146
 20
-24.8657
 10
265.1221
 20
-24.7432
 10
265.1035
 20
-24.6161
 10
265.0901
 20
-24.4845
 10
265.0822
 20
-24.3482
 10
265.0795
 20
-24.2073
 10
265.0822
 20
-24.0663
 10
265.0901
 20
-23.9297
 10
265.1035
 20
-23.7977
 10
265.1221
 20
-23.6702
 10
265.146
 20
-23.5471
 10
265.1753
 20
-23.4285
 10
265.2098
 20
-23.3144
 10
265.2497
 20
-23.2047
 10
265.2946
 20
-23.1003
 10
265.3442
 20
-23.0018
 10
265.3986
 20
-22.9093
 10
265.4577
 20
-22.8226
 10
265.5215
 20
-22.7418
 10
265.5901
 20
-22.667
 10
265.6633
 20
-22.5981
 10
265.7412
 20
-22.5352
 10
265.8235
 20
-22.479
 10
265.9098
 20
-22.4302
 10
266.0001
 20
-22.389
 10
266.0944
 20
-22.3552
 10
266.1926
 20
-22.329
 10
266.2948
 20
-22.3102
 10
266.4011
 20
-22.299
 10
266.5113
 20
-22.2952
 10
266.6159
 20
-22.2987
 10
266.7167
 20
-22.3093
 10
266.8138
 20
-22.3268
 10
266.9071
 20
-22.3514
 10
266.9966
 20
-22.383
 10
267.0824
 20
-22.4216
 10
267.1644
 20
-22.4673
 10
267.2427
 20
-22.5199
 10
267.317
 20
-22.5792
 10
267.3867
 20
-22.6449
 10
267.452
 20
-22.717
 10
267.5128
 20
-22.7955
 10
267.5691
 20
-22.8804
 10
267.6209
 20
-22.9718
 10
267.6682
 20
-23.0696
 10
267.711
 20
-23.1738
 10
267.7491
 20
-23.2839
 10
267.7822
 20
-23.3995
 10
267.8101
 20
-23.5205
 10
267.8331
 20
-23.647
 10
267.8509
 20
-23.7789
 10
267.8636
 20
-23.9162
 10
267.8713
 20
-24.059
 10
267.8738
 20
-24.2073
  0
LWPOLYLINE
  5
9F
330
1F
100
AcDbEntity
  8
Layer 1
 62
     7
370
    18
100
AcDbPolyline
 90
       65
 70
     1
 43
0.0
 10
267.502
 20
-24.2073
 10
267.4979
 20
-24.0529
 10
267.4856
 20
-23.9072
 10
267.4651
 20
-23.7703
 10
267.4363
 20
-23.6421
 10
267.3993
 20
-23.5225
 10
267.3541
 20
-23.4118
 10
267.3006
 20
-23.3097
 10
267.2389
 20
-23.2163
 10
267.1704
 20
-23.1329
 10
267.0963
 20
-23.0606
 10
267.0166
 20
-22.9995
 10
266.9314
 20
-22.9494
 10
266.8405
 20
-22.9105
 10
266.7441
 20
-22.8827
 10
266.6422
 20
-22.866
 10
266.5347
 20
-22.8604
 10
266.4218
 20
-22.8661
 10
266.3153
 20
-22.8834
 10
266.2152
 20
-22.9121
 10
266.1215
 20
-22.9523
 10
266.0342
 20
-23.004
 10
265.9533
 20
-23.0672
 10
265.8788
 20
-23.1419
 10
265.8108
 20
-23.2281
 10
265.7501
 20
-23.3238
 10
265.6974
 20
-23.4271
 10
265.6529
 20
-23.5381
 10
265.6164
 20
-23.6567
 10
265.588
 20
-23.7829
 10
265.5677
 20
-23.9168
 10
265.5556
 20
-24.0582
 10
265.5515
 20
-24.2073
 10
265.5556
 20
-24.3562
 10
265.5677
 20
-24.4974
 10
265.588
 20
-24.6309
 10
265.6164
 20
-24.7567
 10
265.6529
 20
-24.8747
 10
265.6974
 20
-24.985
 10
265.7501
 20
-25.0876
 10
265.8108
 20
-25.1824
 10
265.8787
 20
-25.2676
 10
265.9528
 20
-25.3415
 10
266.033
 20
-25.4041
 10
266.1194
 20
-25.4553
 10
266.212
 20
-25.4951
 10
266.3108
 20
-25.5235
 10
266.4158
 20
-25.5406
 10
266.5269
 20
-25.5463
 10
266.6362
 20
-25.5408
 10
266.7398
 20
-25.5243
 10
266.8375
 20
-25.4968
 10
266.9294
 20
-25.4582
 10
267.0155
 20
-25.4087
 10
267.0958
 20
-25.3481
 10
267.1703
 20
-25.2765
 10
267.2389
 20
-25.1939
 10
267.3006
 20
-25.1015
 10
267.3541
 20
-25.0003
 10
267.3993
 20
-24.8902
 10
267.4363
 20
-24.7713
 10
267.4651
 20
-24.6435
 10
267.4856
 20
-24.5069
 10
267.4979
 20
-24.3615
 10
267.502
 20
-24.2073
  0
LWPOLYLINE
  5
A0
330
1F
100
AcDbEntity
  8
Layer 1
 62
     7
370
    18
100
AcDbPolyline
 90
       97
 70
     1
 43
0.0
 10
270.5909
 20
-19.1682
 10
270.5858
 20
-19.3228
 10
270.5703
 20
-19.473
 10
270.5447
 20
-19.6189
 10
270.5087
 20
-19.7605
 10
270.4624
 20
-19.8976
 10
270.4059
 20
-20.0304
 10
270.3391
 20
-20.1589
 10
270.262
 20
-20.2829
 10
270.1752
 20
-20.4016
 10
270.0795
 20
-20.5137
 10
269.9749
 20
-20.6193
 10
269.8613
 20
-20.7184
 10
269.7388
 20
-20.8109
 10
269.6073
 20
-20.8969
 10
269.4669
 20
-20.9763
 10
269.3175
 20
-21.0493
 10
269.1597
 20
-21.1146
 10
268.9941
 20
-21.1711
 10
268.8206
 20
-21.219
 10
268.6393
 20
-21.2583
 10
268.45
 20
-21.2888
 10
268.2529
 20
-21.3106
 10
268.0479
 20
-21.3236
 10
267.835
 20
-21.328
 10
267.6222
 20
-21.3236
 10
267.4173
 20
-21.3106
 10
267.2202
 20
-21.2888
 10
267.0309
 20
-21.2583
 10
266.8495
 20
-21.219
 10
266.676
 20
-21.1711
 10
266.5104
 20
-21.1146
 10
266.3526
 20
-21.0493
 10
266.2033
 20
-20.9763
 10
266.0629
 20
-20.8969
 10
265.9314
 20
-20.8109
 10
265.809
 20
-20.7184
 10
265.6954
 20
-20.6193
 10
265.5908
 20
-20.5137
 10
265.4951
 20
-20.4016
 10
265.4084
 20
-20.2829
 10
265.3313
 20
-20.1589
 10
265.2645
 20
-20.0304
 10
265.208
 20
-19.8976
 10
265.1617
 20
-19.7605
 10
265.1257
 20
-19.6189
 10
265.1001
 20
-19.473
 10
265.0846
 20
-19.3228
 10
265.0795
 20
-19.1682
 10
265.0846
 20
-19.0137
 10
265.1001
 20
-18.8635
 10
265.1257
 20
-18.7177
 10
265.1617
 20
-18.5762
 10
265.208
 20
-18.439
 10
265.2645
 20
-18.3063
 10
265.3313
 20
-18.1778
 10
265.4084
 20
-18.0538
 10
265.4951
 20
-17.935
 10
265.5908
 20
-17.8227
 10
265.6954
 20
-17.7168
 10
265.809
 20
-17.6174
 10
265.9314
 20
-17.5243
 10
266.0629
 20
-17.4377
 10
266.2033
 20
-17.3574
 10
266.3526
 20
-17.2836
 10
266.5104
 20
-17.2174
 10
266.676
 20
-17.1599
 10
266.8495
 20
-17.1114
 10
267.0309
 20
-17.0716
 10
267.2202
 20
-17.0407
 10
267.4173
 20
-17.0186
 10
267.6222
 20
-17.0053
 10
267.835
 20
-17.0009
 10
268.0479
 20
-17.0053
 10
268.2529
 20
-17.0186
 10
268.45
 20
-17.0407
 10
268.6393
 20
-17.0716
 10
268.8206
 20
-17.1114
 10
268.9941
 20
-17.1599
 10
269.1597
 20
-17.2174
 10
269.3175
 20
-17.2836
 10
269.4669
 20
-17.3574
 10
269.6073
 20
-17.4377
 10
269.7388
 20
-17.5243
 10
269.8613
 20
-17.6174
 10
269.9749
 20
-17.7168
 10
270.0795
 20
-17.8227
 10
270.1752
 20
-17.935
 10
270.262
 20
-18.0538
 10
270.3391
 20
-18.1778
 10
270.4059
 20
-18.3063
 10
270.4624
 20
-18.439
 10
270.5087
 20
-18.5762
 10
270.5447
 20
-18.7177
 10
270.5703
 20
-18.8635
 10
270.5858
 20
-19.0137
 10
270.5909
 20
-19.1682
  0
LWPOLYLINE
  5
A1
330
1F
100
AcDbEntity
  8
Layer 1
 62
     7
370
    18
100
AcDbPolyline
 90
       97
 70
     1
 43
0.0
 10
270.0801
 20
-19.1682
 10
270.076
 20
-19.0502
 10
270.0639
 20
-18.936
 10
270.0436
 20
-18.8258
 10
270.0153
 20
-18.7194
 10
269.9788
 20
-18.6169
 10
269.9342
 20
-18.5182
 10
269.8816
 20
-18.4234
 10
269.8208
 20
-18.3325
 10
269.7522
 20
-18.2459
 10
269.676
 20
-18.1641
 10
269.5925
 20
-18.0871
 10
269.5014
 20
-18.015
 10
269.4028
 20
-17.9477
 10
269.2968
 20
-17.8853
 10
269.1832
 20
-17.8278
 10
269.0622
 20
-17.7751
 10
268.9338
 20
-17.728
 10
268.7982
 20
-17.6871
 10
268.6555
 20
-17.6526
 10
268.5057
 20
-17.6243
 10
268.3487
 20
-17.6022
 10
268.1846
 20
-17.5865
 10
268.0134
 20
-17.577
 10
267.835
 20
-17.5739
 10
267.6566
 20
-17.577
 10
267.4854
 20
-17.5865
 10
267.3213
 20
-17.6022
 10
267.1644
 20
-17.6243
 10
267.0146
 20
-17.6526
 10
266.872
 20
-17.6871
 10
266.7365
 20
-17.728
 10
266.6081
 20
-17.7751
 10
266.4871
 20
-17.8278
 10
266.3735
 20
-17.8853
 10
266.2675
 20
-17.9477
 10
266.1689
 20
-18.015
 10
266.0778
 20
-18.0871
 10
265.9942
 20
-18.1641
 10
265.9182
 20
-18.2459
 10
265.8496
 20
-18.3325
 10
265.7888
 20
-18.4234
 10
265.7362
 20
-18.5182
 10
265.6916
 20
-18.6169
 10
265.6552
 20
-18.7194
 10
265.6268
 20
-18.8258
 10
265.6065
 20
-18.936
 10
265.5944
 20
-19.0502
 10
265.5903
 20
-19.1682
 10
265.5944
 20
-19.2827
 10
265.6065
 20
-19.3941
 10
265.6268
 20
-19.5024
 10
265.6552
 20
-19.6075
 10
265.6916
 20
-19.7095
 10
265.7362
 20
-19.8083
 10
265.7888
 20
-19.9039
 10
265.8496
 20
-19.9964
 10
265.9182
 20
-20.0849
 10
265.9942
 20
-20.1683
 10
266.0778
 20
-20.2466
 10
266.1689
 20
-20.3198
 10
266.2675
 20
-20.3879
 10
266.3735
 20
-20.4509
 10
266.4871
 20
-20.5088
 10
266.6081
 20
-20.5616
 10
266.7365
 20
-20.6087
 10
266.872
 20
-20.6496
 10
267.0146
 20
-20.6841
 10
267.1644
 20
-20.7125
 10
267.3213
 20
-20.7345
 10
267.4854
 20
-20.7502
 10
267.6566
 20
-20.7597
 10
267.835
 20
-20.7628
 10
268.0134
 20
-20.7597
 10
268.1846
 20
-20.7502
 10
268.3487
 20
-20.7345
 10
268.5057
 20
-20.7125
 10
268.6555
 20
-20.6841
 10
268.7982
 20
-20.6496
 10
268.9338
 20
-20.6087
 10
269.0622
 20
-20.5616
 10
269.1832
 20
-20.5088
 10
269.2968
 20
-20.4509
 10
269.4028
 20
-20.3879
 10
269.5014
 20
-20.3198
 10
269.5925
 20
-20.2466
 10
269.676
 20
-20.1683
 10
269.7522
 20
-20.0849
 10
269.8208
 20
-19.9964
 10
269.8816
 20
-19.9039
 10
269.9342
 20
-19.8083
 10
269.9788
 20
-19.7095
 10
270.0153
 20
-19.6075
 10
270.0436
 20
-19.5024
 10
270.0639
 20
-19.3941
 10
270.076
 20
-19.2827
 10
270.0801
 20
-19.1682
  0
LWPOLYLINE
  5
A2
330
1F
100
AcDbEntity
  8
Layer 1
 62
     7
370
    18
100
AcDbPolyline
 90
       12
 70
     1
 43
0.0
 10
708.4999
 20
34.327
 10
716.0458
 20
49.6512
 10
716.5952
 20
48.9173
 10
705.7776
 20
48.9173
 10
706.7012
 20
49.72
 10
706.7012
 20
45.9119
 10
704.9268
 20
45.9119
 10
704.9268
 20
50.3852
 10
717.7687
 20
50.3852
 10
717.7687
 20
49.2155
 10
710.4484
 20
34.327
 10
708.4999
 20
34.327
  0
LWPOLYLINE
  5
A3
330
1F
100
AcDbEntity
  8
Layer 1
 62
     7
370
    18
100
AcDbPolyline
 90
      131
 70
     1
 43
0.0
 10
725.1881
 20
34.1895
 10
724.7227
 20
34.1983
 10
724.2627
 20
34.2247
 10
723.808
 20
34.2686
 10
723.3588
 20
34.3302
 10
722.915
 20
34.4092
 10
722.4766
 20
34.5058
 10
722.0436
 20
34.62
 10
721.616
 20
34.7516
 10
721.2024
 20
34.8979
 10
720.8106
 20
35.0561
 10
720.4406
 20
35.2261
 10
720.0925
 20
35.4079
 10
719.7661
 20
35.6016
 10
719.4616
 20
35.8072
 10
719.1788
 20
36.0246
 10
718.9179
 20
36.2538
 10
719.793
 20
37.5619
 10
720.0086
 20
37.3655
 10
720.2433
 20
37.1777
 10
720.4971
 20
36.9984
 10
720.7701
 20
36.8277
 10
721.0622
 20
36.6657
 10
721.3734
 20
36.5123
 10
721.7037
 20
36.3676
 10
722.053
 20
36.2315
 10
722.416
 20
36.1077
 10
722.7863
 20
36.0005
 10
723.1641
 20
35.9098
 10
723.5491
 20
35.8356
 10
723.9416
 20
35.7779
 10
724.3413
 20
35.7367
 10
724.7484
 20
35.712
 10
725.1628
 20
35.7038
 10
725.7026
 20
35.718
 10
726.2091
 20
35.7604
 10
726.6823
 20
35.8312
 10
727.1221
 20
35.9303
 10
727.5287
 20
36.0577
 10
727.902
 20
36.2133
 10
728.242
 20
36.3973
 10
728.5488
 20
36.6096
 10
728.8213
 20
36.8449
 10
729.0574
 20
37.0977
 10
729.2572
 20
37.3681
 10
729.4206
 20
37.6562
 10
729.5478
 20
37.9618
 10
729.6386
 20
38.285
 10
729.693
 20
38.6258
 10
729.7112
 20
38.9842
 10
729.7028
 20
39.2376
 10
729.6776
 20
39.482
 10
729.6357
 20
39.7176
 10
729.5769
 20
39.9442
 10
729.5014
 20
40.1619
 10
729.4091
 20
40.3707
 10
729.2999
 20
40.5705
 10
729.174
 20
40.7614
 10
729.0282
 20
40.9426
 10
728.8593
 20
41.1135
 10
728.6674
 20
41.2739
 10
728.4525
 20
41.4239
 10
728.2145
 20
41.5636
 10
727.9534
 20
41.6928
 10
727.6693
 20
41.8116
 10
727.3622
 20
41.9199
 10
727.029
 20
42.0169
 10
726.6661
 20
42.1009
 10
726.2734
 20
42.1719
 10
725.8509
 20
42.2301
 10
725.3987
 20
42.2752
 10
724.9168
 20
42.3075
 10
724.4052
 20
42.3269
 10
723.8639
 20
42.3333
 10
720.142
 20
42.3333
 10
721.0414
 20
50.3852
 10
730.6106
 20
50.3852
 10
730.6106
 20
48.9173
 10
721.7657
 20
48.9173
 10
722.6904
 20
49.72
 10
721.9154
 20
42.9753
 10
720.9918
 20
43.8012
 10
724.2645
 20
43.8012
 10
724.9104
 20
43.7919
 10
725.5234
 20
43.7639
 10
726.1036
 20
43.7173
 10
726.6508
 20
43.6521
 10
727.1652
 20
43.5682
 10
727.6468
 20
43.4657
 10
728.0955
 20
43.3446
 10
728.5114
 20
43.2048
 10
728.8974
 20
43.0483
 10
729.2556
 20
42.8771
 10
729.586
 20
42.6912
 10
729.8886
 20
42.4907
 10
730.1635
 20
42.2754
 10
730.4107
 20
42.0455
 10
730.6302
 20
41.801
 10
730.822
 20
41.5418
 10
730.9891
 20
41.2694
 10
731.1339
 20
40.986
 10
731.2563
 20
40.6915
 10
731.3564
 20
40.3859
 10
731.4342
 20
40.0693
 10
731.4898
 20
39.7416
 10
731.5231
 20
39.4028
 10
731.5342
 20
39.053
 10
731.5233
 20
38.7182
 10
731.4906
 20
38.391
 10
731.436
 20
38.0714
 10
731.3596
 20
37.7594
 10
731.2613
 20
37.4549
 10
731.1411
 20
37.158
 10
730.9991
 20
36.8685
 10
730.8352
 20
36.5864
 10
730.6493
 20
36.3157
 10
730.4416
 20
36.0596
 10
730.212
 20
35.8183
 10
729.9606
 20
35.5915
 10
729.6873
 20
35.3795
 10
729.3923
 20
35.1821
 10
729.0755
 20
34.9995
 10
728.737
 20
34.8315
 10
728.3755
 20
34.6809
 10
727.9906
 20
34.5505
 10
727.5822
 20
34.4401
 10
727.1504
 20
34.3499
 10
726.695
 20
34.2797
 10
726.2162
 20
34.2296
 10
725.7139
 20
34.1995
 10
725.1881
 20
34.1895
  0
LWPOLYLINE
  5
A4
330
1F
100
AcDbEntity
  8
Layer 1
 62
     7
370
    35
100
AcDbPolyline
 90
       33
 70
     1
 43
0.0
 10
694.088
 20
48.4705
 10
695.863
 20
48.3062
 10
697.5162
 20
47.8349
 10
699.0123
 20
47.0893
 10
700.3158
 20
46.1017
 10
701.3913
 20
44.9048
 10
702.2033
 20
43.531
 10
702.7166
 20
42.013
 10
702.8955
 20
40.3831
 10
702.7166
 20
38.7533
 10
702.2033
 20
37.2352
 10
701.3913
 20
35.8615
 10
700.3158
 20
34.6646
 10
699.0123
 20
33.677
 10
697.5162
 20
32.9314
 10
695.863
 20
32.4601
 10
694.088
 20
32.2958
 10
692.313
 20
32.4601
 10
690.6597
 20
32.9314
 10
689.1636
 20
33.677
 10
687.8601
 20
34.6646
 10
686.7846
 20
35.8615
 10
685.9726
 20
37.2352
 10
685.4593
 20
38.7533
 10
685.2804
 20
40.3831
 10
685.4593
 20
42.013
 10
685.9726
 20
43.531
 10
686.7846
 20
44.9048
 10
687.8601
 20
46.1017
 10
689.1636
 20
47.0893
 10
690.6597
 20
47.8349
 10
692.313
 20
48.3062
 10
694.088
 20
48.4705
  0
LWPOLYLINE
  5
A5
330
1F
100
AcDbEntity
  8
Layer 1
 62
     7
370
    35
100
AcDbPolyline
 90
        2
 70
     0
 43
0.0
 10
696.9603
 20
53.4589
 10
691.1706
 20
26.2731
  0
LWPOLYLINE
  5
A6
330
1F
100
AcDbEntity
  8
Layer 1
 62
     7
370
    18
100
AcDbPolyline
 90
        9
 70
     1
 43
0.0
 10
823.0532
 20
37.9595
 10
823.0532
 20
39.1524
 10
832.3219
 20
49.7962
 10
834.3199
 20
49.7962
 10
825.127
 20
39.1524
 10
824.1518
 20
39.4274
 10
838.2178
 20
39.4274
 10
838.2178
 20
37.9595
 10
823.0532
 20
37.9595
  0
LWPOLYLINE
  5
A7
330
1F
100
AcDbEntity
  8
Layer 1
 62
     7
370
    18
100
AcDbPolyline
 90
        7
 70
     1
 43
0.0
 10
832.9208
 20
33.738
 10
832.9208
 20
37.9595
 10
832.9714
 20
39.4274
 10
832.9714
 20
43.1434
 10
834.7195
 20
43.1434
 10
834.7195
 20
33.738
 10
832.9208
 20
33.738
  0
LWPOLYLINE
  5
A8
330
1F
100
AcDbEntity
  8
Layer 1
 62
     7
370
    18
100
AcDbPolyline
 90
      131
 70
     1
 43
0.0
 10
845.3388
 20
33.6005
 10
844.873
 20
33.6093
 10
844.4127
 20
33.6357
 10
843.9579
 20
33.6796
 10
843.5086
 20
33.7412
 10
843.0647
 20
33.8202
 10
842.6263
 20
33.9168
 10
842.1933
 20
34.031
 10
841.7657
 20
34.1626
 10
841.3521
 20
34.3089
 10
840.9603
 20
34.4671
 10
840.5903
 20
34.6371
 10
840.2421
 20
34.8189
 10
839.9158
 20
35.0126
 10
839.6112
 20
35.2182
 10
839.3285
 20
35.4356
 10
839.0676
 20
35.6648
 10
839.9427
 20
36.9729
 10
840.1583
 20
36.7765
 10
840.393
 20
36.5887
 10
840.6468
 20
36.4094
 10
840.9198
 20
36.2387
 10
841.2119
 20
36.0767
 10
841.5231
 20
35.9233
 10
841.8534
 20
35.7786
 10
842.2027
 20
35.6425
 10
842.5657
 20
35.5187
 10
842.936
 20
35.4115
 10
843.3138
 20
35.3208
 10
843.6989
 20
35.2466
 10
844.0915
 20
35.1889
 10
844.4914
 20
35.1477
 10
844.8988
 20
35.123
 10
845.3135
 20
35.1148
 10
845.853
 20
35.129
 10
846.3593
 20
35.1714
 10
846.8322
 20
35.2422
 10
847.272
 20
35.3413
 10
847.6784
 20
35.4687
 10
848.0517
 20
35.6243
 10
848.3917
 20
35.8083
 10
848.6985
 20
36.0206
 10
848.9709
 20
36.2559
 10
849.207
 20
36.5087
 10
849.4068
 20
36.7791
 10
849.5703
 20
37.0672
 10
849.6974
 20
37.3728
 10
849.7882
 20
37.696
 10
849.8427
 20
38.0368
 10
849.8609
 20
38.3952
 10
849.8525
 20
38.6486
 10
849.8273
 20
38.893
 10
849.7853
 20
39.1286
 10
849.7266
 20
39.3552
 10
849.651
 20
39.5729
 10
849.5587
 20
39.7817
 10
849.4496
 20
39.9815
 10
849.3237
 20
40.1724
 10
849.1779
 20
40.3536
 10
849.009
 20
40.5245
 10
848.8171
 20
40.6849
 10
848.6021
 20
40.8349
 10
848.3641
 20
40.9746
 10
848.1031
 20
41.1038
 10
847.819
 20
41.2226
 10
847.5118
 20
41.3309
 10
847.1787
 20
41.4279
 10
846.8158
 20
41.5119
 10
846.4233
 20
41.5829
 10
846.0009
 20
41.6411
 10
845.5488
 20
41.6862
 10
845.0669
 20
41.7185
 10
844.5551
 20
41.7379
 10
844.0135
 20
41.7443
 10
840.2917
 20
41.7443
 10
841.191
 20
49.7962
 10
850.7602
 20
49.7962
 10
850.7602
 20
48.3283
 10
841.9154
 20
48.3283
 10
842.84
 20
49.131
 10
842.0651
 20
42.3863
 10
841.1415
 20
43.2122
 10
844.4142
 20
43.2122
 10
845.0601
 20
43.2029
 10
845.6731
 20
43.1749
 10
846.2533
 20
43.1283
 10
846.8005
 20
43.0631
 10
847.3149
 20
42.9792
 10
847.7965
 20
42.8767
 10
848.2452
 20
42.7556
 10
848.6611
 20
42.6158
 10
849.047
 20
42.4593
 10
849.4052
 20
42.2881
 10
849.7356
 20
42.1022
 10
850.0383
 20
41.9017
 10
850.3132
 20
41.6864
 10
850.5604
 20
41.4565
 10
850.7799
 20
41.212
 10
850.9717
 20
40.9528
 10
851.1388
 20
40.6804
 10
851.2836
 20
40.397
 10
851.406
 20
40.1025
 10
851.5061
 20
39.7969
 10
851.5839
 20
39.4803
 10
851.6395
 20
39.1526
 10
851.6728
 20
38.8138
 10
851.6839
 20
38.464
 10
851.673
 20
38.1292
 10
851.6403
 20
37.802
 10
851.5857
 20
37.4824
 10
851.5093
 20
37.1704
 10
851.411
 20
36.8659
 10
851.2908
 20
36.569
 10
851.1487
 20
36.2795
 10
850.9848
 20
35.9974
 10
850.799
 20
35.7267
 10
850.5913
 20
35.4706
 10
850.3617
 20
35.2293
 10
850.1103
 20
35.0025
 10
849.837
 20
34.7905
 10
849.542
 20
34.5931
 10
849.2252
 20
34.4105
 10
848.8867
 20
34.2425
 10
848.5252
 20
34.0919
 10
848.1403
 20
33.9615
 10
847.7319
 20
33.8511
 10
847.3001
 20
33.7609
 10
846.8449
 20
33.6907
 10
846.3663
 20
33.6406
 10
845.8643
 20
33.6105
 10
845.3388
 20
33.6005
  0
LWPOLYLINE
  5
A9
330
1F
100
AcDbEntity
  8
Layer 1
 62
     7
370
    35
100
AcDbPolyline
 90
       33
 70
     1
 43
0.0
 10
809.0031
 20
49.3852
 10
810.9667
 20
49.2034
 10
812.7957
 20
48.6821
 10
814.4508
 20
47.8571
 10
815.8929
 20
46.7646
 10
817.0827
 20
45.4404
 10
817.9811
 20
43.9207
 10
818.5488
 20
42.2412
 10
818.7468
 20
40.4381
 10
818.5488
 20
38.635
 10
817.9811
 20
36.9556
 10
817.0827
 20
35.4358
 10
815.8929
 20
34.1117
 10
814.4508
 20
33.0192
 10
812.7957
 20
32.1942
 10
810.9667
 20
31.6729
 10
809.0031
 20
31.4911
 10
807.0394
 20
31.6729
 10
805.2104
 20
32.1942
 10
803.5553
 20
33.0192
 10
802.1133
 20
34.1117
 10
800.9234
 20
35.4358
 10
800.025
 20
36.9556
 10
799.4573
 20
38.635
 10
799.2593
 20
40.4381
 10
799.4573
 20
42.2412
 10
800.025
 20
43.9207
 10
800.9234
 20
45.4404
 10
802.1133
 20
46.7646
 10
803.5553
 20
47.8571
 10
805.2104
 20
48.6821
 10
807.0394
 20
49.2034
 10
809.0031
 20
49.3852
  0
LWPOLYLINE
  5
AA
330
1F
100
AcDbEntity
  8
Layer 1
 62
     7
370
    35
100
AcDbPolyline
 90
        2
 70
     0
 43
0.0
 10
812.1808
 20
54.9039
 10
805.7756
 20
24.8282
  0
LWPOLYLINE
  5
AB
330
1F
100
AcDbEntity
  8
Layer 1
 62
     7
370
    18
100
AcDbPolyline
 90
      117
 70
     1
 43
0.0
 10
528.756
 20
-31.2871
 10
528.7464
 20
-31.7213
 10
528.7175
 20
-32.1493
 10
528.6695
 20
-32.5713
 10
528.6022
 20
-32.9872
 10
528.5158
 20
-33.397
 10
528.4103
 20
-33.8006
 10
528.2856
 20
-34.1982
 10
528.1419
 20
-34.5897
 10
527.9818
 20
-34.9686
 10
527.8088
 20
-35.3285
 10
527.6229
 20
-35.6692
 10
527.424
 20
-35.9909
 10
527.2122
 20
-36.2936
 10
526.9875
 20
-36.5771
 10
526.7497
 20
-36.8416
 10
526.499
 20
-37.087
 10
525.0705
 20
-36.2815
 10
525.2851
 20
-36.0773
 10
525.4903
 20
-35.8563
 10
525.6861
 20
-35.6184
 10
525.8726
 20
-35.3636
 10
526.0496
 20
-35.092
 10
526.2172
 20
-34.8034
 10
526.3755
 20
-34.4979
 10
526.5243
 20
-34.1754
 10
526.6598
 20
-33.8407
 10
526.7771
 20
-33.4985
 10
526.8764
 20
-33.1488
 10
526.9576
 20
-32.7915
 10
527.0208
 20
-32.4267
 10
527.0658
 20
-32.0544
 10
527.0929
 20
-31.6745
 10
527.1019
 20
-31.2871
 10
527.087
 20
-30.801
 10
527.0423
 20
-30.344
 10
526.9678
 20
-29.9162
 10
526.8636
 20
-29.5174
 10
526.7294
 20
-29.1478
 10
526.5654
 20
-28.8073
 10
526.3716
 20
-28.496
 10
526.1479
 20
-28.2139
 10
525.8995
 20
-27.9631
 10
525.6308
 20
-27.7457
 10
525.3418
 20
-27.5617
 10
525.0325
 20
-27.4112
 10
524.7028
 20
-27.2941
 10
524.3527
 20
-27.2105
 10
523.9823
 20
-27.1603
 10
523.5915
 20
-27.1436
 10
523.2007
 20
-27.16
 10
522.8303
 20
-27.2091
 10
522.4802
 20
-27.2909
 10
522.1506
 20
-27.4055
 10
521.8412
 20
-27.5527
 10
521.5522
 20
-27.7327
 10
521.2835
 20
-27.9453
 10
521.0351
 20
-28.1906
 10
520.8118
 20
-28.4715
 10
520.6183
 20
-28.7901
 10
520.4547
 20
-29.1464
 10
520.3208
 20
-29.5404
 10
520.2168
 20
-29.9722
 10
520.1425
 20
-30.4418
 10
520.0979
 20
-30.9491
 10
520.0831
 20
-31.4942
 10
520.0831
 20
-32.6444
 10
518.7538
 20
-32.6444
 10
511.9606
 20
-27.6732
 10
512.6626
 20
-27.4428
 10
512.6626
 20
-36.4199
 10
511.0592
 20
-36.4199
 10
511.0592
 20
-26.0622
 10
512.3369
 20
-26.0622
 10
519.1301
 20
-31.0334
 10
518.5535
 20
-31.8389
 10
518.5535
 20
-31.2174
 10
518.5755
 20
-30.5153
 10
518.6413
 20
-29.8588
 10
518.7511
 20
-29.2481
 10
518.9047
 20
-28.683
 10
519.1022
 20
-28.1636
 10
519.3435
 20
-27.6898
 10
519.6287
 20
-27.2615
 10
519.9577
 20
-26.8789
 10
520.3211
 20
-26.5418
 10
520.7096
 20
-26.2497
 10
521.1231
 20
-26.0025
 10
521.5616
 20
-25.8003
 10
522.0252
 20
-25.6429
 10
522.5138
 20
-25.5306
 10
523.0275
 20
-25.4632
 10
523.5662
 20
-25.4407
 10
523.9314
 20
-25.4508
 10
524.287
 20
-25.481
 10
524.6333
 20
-25.5313
 10
524.97
 20
-25.6018
 10
525.2974
 20
-25.6924
 10
525.6152
 20
-25.8033
 10
525.9237
 20
-25.9343
 10
526.2228
 20
-26.0855
 10
526.51
 20
-26.2567
 10
526.7815
 20
-26.4485
 10
527.0371
 20
-26.6608
 10
527.277
 20
-26.8936
 10
527.5011
 20
-27.1469
 10
527.7095
 20
-27.4208
 10
527.9022
 20
-27.7151
 10
528.0792
 20
-28.0299
 10
528.2378
 20
-28.3652
 10
528.3753
 20
-28.7211
 10
528.4916
 20
-29.0975
 10
528.5868
 20
-29.4944
 10
528.6608
 20
-29.9118
 10
528.7137
 20
-30.3498
 10
528.7454
 20
-30.8082
 10
528.756
 20
-31.2871
  0
LWPOLYLINE
  5
AC
330
1F
100
AcDbEntity
  8
Layer 1
 62
     7
370
    18
100
AcDbPolyline
 90
      180
 70
     1
 43
0.0
 10
510.9084
 20
-18.0987
 10
510.9247
 20
-17.574
 10
510.9734
 20
-17.0701
 10
511.0547
 20
-16.587
 10
511.1685
 20
-16.1248
 10
511.3148
 20
-15.6835
 10
511.4935
 20
-15.263
 10
511.7047
 20
-14.8635
 10
511.9484
 20
-14.4848
 10
512.2226
 20
-14.1277
 10
512.5254
 20
-13.7929
 10
512.8569
 20
-13.4804
 10
513.217
 20
-13.1902
 10
513.6058
 20
-12.9222
 10
514.0232
 20
-12.6766
 10
514.4692
 20
-12.4533
 10
514.9439
 20
-12.2523
 10
515.4455
 20
-12.0743
 10
515.9731
 20
-11.92
 10
516.5266
 20
-11.7894
 10
517.1059
 20
-11.6825
 10
517.7111
 20
-11.5993
 10
518.3422
 20
-11.5399
 10
518.999
 20
-11.5043
 10
519.6815
 20
-11.4924
 10
520.4064
 20
-11.507
 10
521.1022
 20
-11.5507
 10
521.7691
 20
-11.6236
 10
522.407
 20
-11.7257
 10
523.0159
 20
-11.8569
 10
523.5958
 20
-12.0172
 10
524.1468
 20
-12.2066
 10
524.6689
 20
-12.4251
 10
525.1609
 20
-12.6695
 10
525.6217
 20
-12.9365
 10
526.0511
 20
-13.2262
 10
526.4493
 20
-13.5385
 10
526.8161
 20
-13.8735
 10
527.1516
 20
-14.2311
 10
527.4556
 20
-14.6114
 10
527.7281
 20
-15.0143
 10
527.9689
 20
-15.4368
 10
528.1777
 20
-15.8758
 10
528.3543
 20
-16.3314
 10
528.4989
 20
-16.8036
 10
528.6114
 20
-17.2923
 10
528.6917
 20
-17.7975
 10
528.7399
 20
-18.3193
 10
528.756
 20
-18.8577
 10
528.7524
 20
-19.1267
 10
528.7418
 20
-19.3925
 10
528.7241
 20
-19.6549
 10
528.6993
 20
-19.9141
 10
528.6676
 20
-20.17
 10
528.6288
 20
-20.4226
 10
528.5831
 20
-20.672
 10
528.5304
 20
-20.9182
 10
528.4696
 20
-21.1597
 10
528.4002
 20
-21.395
 10
528.3223
 20
-21.6242
 10
528.2357
 20
-21.8472
 10
528.1406
 20
-22.0642
 10
528.0367
 20
-22.2751
 10
527.9242
 20
-22.4799
 10
527.803
 20
-22.6787
 10
526.3483
 20
-22.0117
 10
526.4575
 20
-21.8532
 10
526.5583
 20
-21.6886
 10
526.6507
 20
-21.5179
 10
526.7348
 20
-21.341
 10
526.8106
 20
-21.158
 10
526.8782
 20
-20.9689
 10
526.9375
 20
-20.7738
 10
526.9886
 20
-20.5726
 10
527.0327
 20
-20.3675
 10
527.071
 20
-20.1606
 10
527.1033
 20
-19.9519
 10
527.1298
 20
-19.7414
 10
527.1503
 20
-19.529
 10
527.165
 20
-19.3148
 10
527.1739
 20
-19.0988
 10
527.1768
 20
-18.8809
 10
527.1485
 20
-18.2471
 10
527.0638
 20
-17.6461
 10
526.9226
 20
-17.0777
 10
526.725
 20
-16.542
 10
526.471
 20
-16.039
 10
526.1606
 20
-15.5687
 10
525.794
 20
-15.1311
 10
525.371
 20
-14.7263
 10
524.8921
 20
-14.3621
 10
524.3575
 20
-14.0466
 10
523.7673
 20
-13.7796
 10
523.1215
 20
-13.5612
 10
522.42
 20
-13.3913
 10
521.6629
 20
-13.27
 10
520.8502
 20
-13.1973
 10
519.9819
 20
-13.173
 10
518.6041
 20
-13.2306
 10
518.4034
 20
-13.2472
 10
518.2029
 20
-13.2686
 10
518.0023
 20
-13.2946
 10
517.8019
 20
-13.3254
 10
517.6014
 20
-13.3608
 10
517.4008
 20
-13.401
 10
517.2003
 20
-13.4458
 10
516.9996
 20
-13.4954
 10
517.4761
 20
-12.9194
 10
517.7959
 20
-12.9853
 10
518.1036
 20
-13.0673
 10
518.399
 20
-13.1654
 10
518.6824
 20
-13.2796
 10
518.9535
 20
-13.4099
 10
519.2124
 20
-13.5564
 10
519.4591
 20
-13.7189
 10
519.6936
 20
-13.8976
 10
519.9155
 20
-14.0901
 10
520.1238
 20
-14.2934
 10
520.3184
 20
-14.5074
 10
520.4993
 20
-14.7322
 10
520.6664
 20
-14.9678
 10
520.8199
 20
-15.2141
 10
520.9596
 20
-15.4711
 10
521.0856
 20
-15.7389
 10
521.197
 20
-16.0161
 10
521.2935
 20
-16.3009
 10
521.3752
 20
-16.5931
 10
521.4421
 20
-16.8929
 10
521.4942
 20
-17.2002
 10
521.5313
 20
-17.515
 10
521.5537
 20
-17.8374
 10
521.5611
 20
-18.1674
 10
521.5509
 20
-18.5589
 10
521.5205
 20
-18.9393
 10
521.4697
 20
-19.3084
 10
521.3985
 20
-19.6664
 10
521.3069
 20
-20.0132
 10
521.1949
 20
-20.3489
 10
521.0625
 20
-20.6735
 10
520.9096
 20
-20.987
 10
520.7386
 20
-21.2865
 10
520.5511
 20
-21.569
 10
520.3472
 20
-21.8345
 10
520.1267
 20
-22.0832
 10
519.8898
 20
-22.315
 10
519.6365
 20
-22.5299
 10
519.3668
 20
-22.7279
 10
519.0806
 20
-22.9091
 10
518.7792
 20
-23.0708
 10
518.4646
 20
-23.211
 10
518.1367
 20
-23.3296
 10
517.7955
 20
-23.4267
 10
517.4409
 20
-23.5022
 10
517.0729
 20
-23.5562
 10
516.6915
 20
-23.5886
 10
516.2965
 20
-23.5994
 10
515.89
 20
-23.5883
 10
515.4977
 20
-23.5548
 10
515.1195
 20
-23.4991
 10
514.7554
 20
-23.421
 10
514.4053
 20
-23.3207
 10
514.0694
 20
-23.1981
 10
513.7474
 20
-23.0531
 10
513.4396
 20
-22.8859
 10
513.1472
 20
-22.6991
 10
512.8717
 20
-22.4954
 10
512.613
 20
-22.2748
 10
512.3712
 20
-22.0373
 10
512.1462
 20
-21.7829
 10
511.938
 20
-21.5115
 10
511.7467
 20
-21.2233
 10
511.5721
 20
-20.9182
 10
511.4167
 20
-20.5998
 10
511.2819
 20
-20.2716
 10
511.1678
 20
-19.9338
 10
511.0745
 20
-19.5862
 10
511.0018
 20
-19.2288
 10
510.9499
 20
-18.8618
 10
510.9188
 20
-18.4851
 10
510.9084
 20
-18.0987
  0
LWPOLYLINE
  5
AD
330
1F
100
AcDbEntity
  8
Layer 1
 62
     7
370
    18
100
AcDbPolyline
 90
       89
 70
     1
 43
0.0
 10
512.437
 20
-18.029
 10
512.4443
 20
-18.3126
 10
512.466
 20
-18.588
 10
512.5023
 20
-18.8551
 10
512.553
 20
-19.1139
 10
512.6182
 20
-19.3644
 10
512.6978
 20
-19.6066
 10
512.7919
 20
-19.8406
 10
512.9004
 20
-20.0663
 10
513.0226
 20
-20.282
 10
513.1568
 20
-20.4858
 10
513.3032
 20
-20.6777
 10
513.4617
 20
-20.8577
 10
513.6323
 20
-21.0259
 10
513.815
 20
-21.1821
 10
514.0097
 20
-21.3265
 10
514.2165
 20
-21.4589
 10
514.4348
 20
-21.5775
 10
514.6632
 20
-21.6803
 10
514.9018
 20
-21.7674
 10
515.1506
 20
-21.8386
 10
515.4094
 20
-21.894
 10
515.6784
 20
-21.9336
 10
515.9576
 20
-21.9574
 10
516.2469
 20
-21.9653
 10
516.6687
 20
-21.9482
 10
517.0685
 20
-21.897
 10
517.4462
 20
-21.8116
 10
517.8018
 20
-21.692
 10
518.1355
 20
-21.5383
 10
518.4472
 20
-21.3503
 10
518.7369
 20
-21.1282
 10
519.0047
 20
-20.8718
 10
519.2455
 20
-20.5866
 10
519.4542
 20
-20.2771
 10
519.6309
 20
-19.9436
 10
519.7754
 20
-19.5859
 10
519.8879
 20
-19.2041
 10
519.9682
 20
-18.7983
 10
520.0164
 20
-18.3685
 10
520.0325
 20
-17.9147
 10
520.0247
 20
-17.6088
 10
520.0012
 20
-17.3125
 10
519.962
 20
-17.026
 10
519.9072
 20
-16.7491
 10
519.8366
 20
-16.482
 10
519.7504
 20
-16.2246
 10
519.6484
 20
-15.9769
 10
519.5307
 20
-15.7389
 10
519.3996
 20
-15.5123
 10
519.2568
 20
-15.2987
 10
519.1022
 20
-15.0981
 10
518.9359
 20
-14.9103
 10
518.7578
 20
-14.7356
 10
518.5679
 20
-14.5737
 10
518.3663
 20
-14.4247
 10
518.1529
 20
-14.2887
 10
517.9305
 20
-14.1675
 10
517.7018
 20
-14.0625
 10
517.4668
 20
-13.9736
 10
517.2254
 20
-13.9008
 10
516.9777
 20
-13.8441
 10
516.7237
 20
-13.8037
 10
516.4632
 20
-13.7794
 10
516.1963
 20
-13.7713
 10
515.9539
 20
-13.7788
 10
515.7155
 20
-13.8014
 10
515.4809
 20
-13.8391
 10
515.2503
 20
-13.892
 10
515.0236
 20
-13.9599
 10
514.8009
 20
-14.0429
 10
514.5821
 20
-14.1411
 10
514.3673
 20
-14.2544
 10
514.159
 20
-14.3825
 10
513.9606
 20
-14.5249
 10
513.772
 20
-14.6817
 10
513.5932
 20
-14.8529
 10
513.4243
 20
-15.0384
 10
513.2652
 20
-15.2384
 10
513.1158
 20
-15.4526
 10
512.9763
 20
-15.6813
 10
512.85
 20
-15.9247
 10
512.7405
 20
-16.1823
 10
512.6478
 20
-16.4543
 10
512.572
 20
-16.7406
 10
512.5129
 20
-17.0412
 10
512.4708
 20
-17.3561
 10
512.4454
 20
-17.6854
 10
512.437
 20
-18.029
  0
LWPOLYLINE
  5
AE
330
1F
100
AcDbEntity
  8
Layer 1
 62
     7
370
    18
100
AcDbPolyline
 90
      131
 70
     1
 43
0.0
 10
528.756
 20
-4.0119
 10
528.7464
 20
-4.441
 10
528.7175
 20
-4.8651
 10
528.6695
 20
-5.2841
 10
528.6022
 20
-5.698
 10
528.5158
 20
-6.107
 10
528.4103
 20
-6.5108
 10
528.2856
 20
-6.9096
 10
528.1419
 20
-7.3034
 10
527.9818
 20
-7.6846
 10
527.8088
 20
-8.0456
 10
527.6229
 20
-8.3866
 10
527.424
 20
-8.7074
 10
527.2122
 20
-9.0081
 10
526.9875
 20
-9.2887
 10
526.7497
 20
-9.5492
 10
526.499
 20
-9.7895
 10
525.0705
 20
-8.984
 10
525.2851
 20
-8.7853
 10
525.4903
 20
-8.5689
 10
525.6861
 20
-8.3349
 10
525.8726
 20
-8.0833
 10
526.0496
 20
-7.8141
 10
526.2172
 20
-7.5273
 10
526.3755
 20
-7.223
 10
526.5243
 20
-6.9011
 10
526.6598
 20
-6.5668
 10
526.7771
 20
-6.2256
 10
526.8764
 20
-5.8776
 10
526.9576
 20
-5.5228
 10
527.0208
 20
-5.1612
 10
527.0658
 20
-4.7927
 10
527.0929
 20
-4.4173
 10
527.1019
 20
-4.0351
 10
527.0864
 20
-3.5383
 10
527.0399
 20
-3.072
 10
526.9624
 20
-2.6363
 10
526.8539
 20
-2.2312
 10
526.7145
 20
-1.8567
 10
526.5441
 20
-1.5127
 10
526.3428
 20
-1.1992
 10
526.1105
 20
-0.9164
 10
525.8532
 20
-0.6656
 10
525.5769
 20
-0.4482
 10
525.2814
 20
-0.2642
 10
524.9669
 20
-0.1137
 10
524.6331
 20
0.0033
 10
524.2802
 20
0.0869
 10
523.908
 20
0.1371
 10
523.5166
 20
0.1538
 10
523.2393
 20
0.1461
 10
522.9719
 20
0.1228
 10
522.7143
 20
0.0841
 10
522.4666
 20
0.0299
 10
522.2287
 20
-0.0397
 10
522.0007
 20
-0.1248
 10
521.7826
 20
-0.2253
 10
521.5743
 20
-0.3413
 10
521.3763
 20
-0.4756
 10
521.1896
 20
-0.6311
 10
521.0143
 20
-0.8079
 10
520.8503
 20
-1.0059
 10
520.6977
 20
-1.2251
 10
520.5564
 20
-1.4655
 10
520.4264
 20
-1.7271
 10
520.3077
 20
-2.0098
 10
520.2021
 20
-2.3169
 10
520.1106
 20
-2.6514
 10
520.0332
 20
-3.0132
 10
519.9699
 20
-3.4025
 10
519.9207
 20
-3.819
 10
519.8856
 20
-4.2629
 10
519.8645
 20
-4.7341
 10
519.8575
 20
-5.2326
 10
519.8575
 20
-8.6616
 10
511.0592
 20
-7.833
 10
511.0592
 20
0.9825
 10
512.6626
 20
0.9825
 10
512.6626
 20
-7.1659
 10
511.7855
 20
-6.314
 10
519.1554
 20
-7.0275
 10
518.253
 20
-7.8794
 10
518.253
 20
-4.8638
 10
518.2632
 20
-4.2689
 10
518.2938
 20
-3.7042
 10
518.3447
 20
-3.1697
 10
518.416
 20
-2.6655
 10
518.5076
 20
-2.1915
 10
518.6196
 20
-1.7477
 10
518.7519
 20
-1.3341
 10
518.9045
 20
-0.9508
 10
519.0756
 20
-0.5953
 10
519.2627
 20
-0.2654
 10
519.4657
 20
0.0391
 10
519.6848
 20
0.3179
 10
519.9198
 20
0.5712
 10
520.171
 20
0.7989
 10
520.4382
 20
1.0011
 10
520.7215
 20
1.1776
 10
521.0189
 20
1.3314
 10
521.3285
 20
1.4647
 10
521.6502
 20
1.5774
 10
521.984
 20
1.6697
 10
522.33
 20
1.7414
 10
522.6881
 20
1.7926
 10
523.0584
 20
1.8233
 10
523.4408
 20
1.8335
 10
523.8065
 20
1.8234
 10
524.164
 20
1.7933
 10
524.5133
 20
1.743
 10
524.8543
 20
1.6726
 10
525.1871
 20
1.582
 10
525.5116
 20
1.4714
 10
525.8278
 20
1.3406
 10
526.1358
 20
1.1897
 10
526.432
 20
1.0184
 10
526.7119
 20
0.827
 10
526.9758
 20
0.6156
 10
527.2235
 20
0.384
 10
527.4551
 20
0.1324
 10
527.6707
 20
-0.1394
 10
527.8703
 20
-0.4314
 10
528.0539
 20
-0.7436
 10
528.2183
 20
-1.0766
 10
528.3608
 20
-1.4313
 10
528.4814
 20
-1.8075
 10
528.5802
 20
-2.2053
 10
528.6571
 20
-2.6246
 10
528.712
 20
-3.0655
 10
528.745
 20
-3.528
 10
528.756
 20
-4.0119
  0
LWPOLYLINE
  5
AF
330
1F
100
AcDbEntity
  8
Layer 1
 62
     7
370
    18
100
AcDbPolyline
 90
        9
 70
     1
 43
0.0
 10
741.3371
 20
-199.2339
 10
741.3371
 20
-198.0411
 10
750.6058
 20
-187.3972
 10
752.6049
 20
-187.3972
 10
743.411
 20
-198.0411
 10
742.4368
 20
-197.7661
 10
756.5017
 20
-197.7661
 10
756.5017
 20
-199.2339
 10
741.3371
 20
-199.2339
  0
LWPOLYLINE
  5
B0
330
1F
100
AcDbEntity
  8
Layer 1
 62
     7
370
    18
100
AcDbPolyline
 90
        7
 70
     1
 43
0.0
 10
751.2047
 20
-203.4554
 10
751.2047
 20
-199.2339
 10
751.2553
 20
-197.7661
 10
751.2553
 20
-194.05
 10
753.0045
 20
-194.05
 10
753.0045
 20
-203.4554
 10
751.2047
 20
-203.4554
  0
LWPOLYLINE
  5
B1
330
1F
100
AcDbEntity
  8
Layer 1
 62
     7
370
    18
100
AcDbPolyline
 90
      178
 70
     1
 43
0.0
 10
765.3213
 20
-203.5929
 10
764.7518
 20
-203.578
 10
764.2048
 20
-203.5335
 10
763.6805
 20
-203.4592
 10
763.1788
 20
-203.3551
 10
762.6996
 20
-203.2212
 10
762.2431
 20
-203.0575
 10
761.8093
 20
-202.864
 10
761.3981
 20
-202.6407
 10
761.0107
 20
-202.3895
 10
760.6474
 20
-202.1118
 10
760.3082
 20
-201.8076
 10
759.9932
 20
-201.4768
 10
759.7024
 20
-201.1195
 10
759.4358
 20
-200.7356
 10
759.1934
 20
-200.3251
 10
758.9752
 20
-199.888
 10
758.7821
 20
-199.4266
 10
758.6146
 20
-198.9425
 10
758.4729
 20
-198.4358
 10
758.357
 20
-197.9066
 10
758.2667
 20
-197.3548
 10
758.2023
 20
-196.7805
 10
758.1636
 20
-196.1836
 10
758.1507
 20
-195.5643
 10
758.1665
 20
-194.8956
 10
758.2139
 20
-194.2545
 10
758.2929
 20
-193.641
 10
758.4035
 20
-193.0551
 10
758.5457
 20
-192.4968
 10
758.7196
 20
-191.966
 10
758.9252
 20
-191.4627
 10
759.1624
 20
-190.987
 10
759.4277
 20
-190.5395
 10
759.7176
 20
-190.1204
 10
760.0321
 20
-189.7295
 10
760.3711
 20
-189.367
 10
760.7346
 20
-189.0328
 10
761.1228
 20
-188.7268
 10
761.5355
 20
-188.4492
 10
761.9728
 20
-188.1999
 10
762.4317
 20
-187.9795
 10
762.9085
 20
-187.7885
 10
763.4032
 20
-187.6269
 10
763.9159
 20
-187.4947
 10
764.4465
 20
-187.3919
 10
764.995
 20
-187.3185
 10
765.5614
 20
-187.2745
 10
766.1458
 20
-187.2598
 10
766.4378
 20
-187.263
 10
766.7266
 20
-187.2727
 10
767.0123
 20
-187.2888
 10
767.2948
 20
-187.3113
 10
767.5741
 20
-187.3403
 10
767.8504
 20
-187.3758
 10
768.1236
 20
-187.4177
 10
768.3937
 20
-187.466
 10
768.6584
 20
-187.5215
 10
768.9153
 20
-187.585
 10
769.1644
 20
-187.6563
 10
769.4057
 20
-187.7355
 10
769.6392
 20
-187.8226
 10
769.8648
 20
-187.9176
 10
770.0826
 20
-188.0205
 10
770.2926
 20
-188.1312
 10
769.5682
 20
-189.4615
 10
769.3963
 20
-189.3621
 10
769.2182
 20
-189.2703
 10
769.0339
 20
-189.1859
 10
768.8435
 20
-189.1091
 10
768.6468
 20
-189.0398
 10
768.4439
 20
-188.978
 10
768.2348
 20
-188.9238
 10
768.0194
 20
-188.8772
 10
767.7993
 20
-188.8367
 10
767.5761
 20
-188.8016
 10
767.3497
 20
-188.7719
 10
767.1202
 20
-188.7476
 10
766.8875
 20
-188.7287
 10
766.6515
 20
-188.7152
 10
766.4124
 20
-188.7071
 10
766.1701
 20
-188.7044
 10
765.4822
 20
-188.7302
 10
764.8299
 20
-188.8077
 10
764.2131
 20
-188.9368
 10
763.6317
 20
-189.1175
 10
763.0858
 20
-189.3498
 10
762.5752
 20
-189.6337
 10
762.1001
 20
-189.9691
 10
761.6602
 20
-190.3562
 10
761.2651
 20
-190.7948
 10
760.9227
 20
-191.2841
 10
760.633
 20
-191.8243
 10
760.396
 20
-192.4154
 10
760.2116
 20
-193.0573
 10
760.08
 20
-193.75
 10
760.001
 20
-194.4938
 10
759.9747
 20
-195.2884
 10
760.0365
 20
-196.5388
 10
760.0782
 20
-196.9109
 10
760.1399
 20
-197.2816
 10
760.1782
 20
-197.4664
 10
760.2217
 20
-197.6509
 10
760.2702
 20
-197.835
 10
760.3238
 20
-198.0188
 10
759.6996
 20
-197.5831
 10
759.7765
 20
-197.2904
 10
759.8697
 20
-197.0088
 10
759.9794
 20
-196.7382
 10
760.1055
 20
-196.4788
 10
760.248
 20
-196.2305
 10
760.4069
 20
-195.9933
 10
760.5822
 20
-195.7672
 10
760.7739
 20
-195.5522
 10
760.9801
 20
-195.3491
 10
761.1987
 20
-195.1587
 10
761.4298
 20
-194.9808
 10
761.6733
 20
-194.8155
 10
761.9294
 20
-194.6627
 10
762.198
 20
-194.5224
 10
762.4792
 20
-194.3947
 10
762.773
 20
-194.2794
 10
763.0762
 20
-194.1772
 10
763.3866
 20
-194.0887
 10
763.704
 20
-194.0138
 10
764.0284
 20
-193.9525
 10
764.3599
 20
-193.9049
 10
764.6984
 20
-193.8709
 10
765.0438
 20
-193.8505
 10
765.3962
 20
-193.8437
 10
765.8266
 20
-193.853
 10
766.2439
 20
-193.881
 10
766.6479
 20
-193.9276
 10
767.0386
 20
-193.9928
 10
767.4161
 20
-194.0767
 10
767.7802
 20
-194.1792
 10
768.1311
 20
-194.3004
 10
768.4686
 20
-194.4402
 10
768.7908
 20
-194.5968
 10
769.0949
 20
-194.7685
 10
769.3811
 20
-194.9553
 10
769.6493
 20
-195.157
 10
769.8995
 20
-195.3738
 10
770.1317
 20
-195.6056
 10
770.346
 20
-195.8525
 10
770.5424
 20
-196.1143
 10
770.7181
 20
-196.39
 10
770.8704
 20
-196.6779
 10
770.9992
 20
-196.978
 10
771.1047
 20
-197.2903
 10
771.1867
 20
-197.6147
 10
771.2452
 20
-197.9513
 10
771.2804
 20
-198.2999
 10
771.2921
 20
-198.6607
 10
771.28
 20
-199.0276
 10
771.2436
 20
-199.3826
 10
771.1829
 20
-199.7258
 10
771.0981
 20
-200.0572
 10
770.9891
 20
-200.3768
 10
770.8559
 20
-200.6845
 10
770.6985
 20
-200.9806
 10
770.5171
 20
-201.2648
 10
770.3144
 20
-201.535
 10
770.0934
 20
-201.7894
 10
769.854
 20
-202.0282
 10
769.5962
 20
-202.2512
 10
769.32
 20
-202.4584
 10
769.0255
 20
-202.6499
 10
768.7127
 20
-202.8255
 10
768.3816
 20
-202.9853
 10
768.036
 20
-203.1277
 10
767.6798
 20
-203.2511
 10
767.313
 20
-203.3556
 10
766.9356
 20
-203.441
 10
766.5478
 20
-203.5075
 10
766.1494
 20
-203.5549
 10
765.7406
 20
-203.5834
 10
765.3213
 20
-203.5929
  0
LWPOLYLINE
  5
B2
330
1F
100
AcDbEntity
  8
Layer 1
 62
     7
370
    18
100
AcDbPolyline
 90
       89
 70
     1
 43
0.0
 10
765.2465
 20
-202.1938
 10
765.5542
 20
-202.1872
 10
765.8529
 20
-202.1673
 10
766.1426
 20
-202.1342
 10
766.4234
 20
-202.0878
 10
766.6952
 20
-202.0281
 10
766.958
 20
-201.9551
 10
767.2119
 20
-201.8688
 10
767.4569
 20
-201.7692
 10
767.691
 20
-201.6575
 10
767.9122
 20
-201.5343
 10
768.1204
 20
-201.3995
 10
768.3158
 20
-201.2531
 10
768.4983
 20
-201.0953
 10
768.6679
 20
-200.926
 10
768.8245
 20
-200.7453
 10
768.9683
 20
-200.5531
 10
769.097
 20
-200.3511
 10
769.2086
 20
-200.141
 10
769.303
 20
-199.9226
 10
769.3803
 20
-199.696
 10
769.4404
 20
-199.4612
 10
769.4833
 20
-199.2181
 10
769.509
 20
-198.9668
 10
769.5176
 20
-198.7072
 10
769.4991
 20
-198.3214
 10
769.4434
 20
-197.9557
 10
769.3507
 20
-197.6101
 10
769.221
 20
-197.2845
 10
769.0541
 20
-196.979
 10
768.8502
 20
-196.6935
 10
768.6091
 20
-196.4282
 10
768.331
 20
-196.183
 10
768.0213
 20
-195.9626
 10
767.6855
 20
-195.7715
 10
767.3235
 20
-195.6099
 10
766.9354
 20
-195.4777
 10
766.5211
 20
-195.3749
 10
766.0806
 20
-195.3015
 10
765.6139
 20
-195.2575
 10
765.121
 20
-195.2428
 10
764.7892
 20
-195.25
 10
764.4684
 20
-195.2715
 10
764.1586
 20
-195.3074
 10
763.8597
 20
-195.3577
 10
763.5717
 20
-195.4222
 10
763.2946
 20
-195.5011
 10
763.0284
 20
-195.5943
 10
762.773
 20
-195.7018
 10
762.5296
 20
-195.8216
 10
762.2995
 20
-195.9519
 10
762.0828
 20
-196.0926
 10
761.8793
 20
-196.2438
 10
761.6891
 20
-196.4053
 10
761.5123
 20
-196.5772
 10
761.3489
 20
-196.7595
 10
761.1988
 20
-196.9522
 10
761.064
 20
-197.1532
 10
760.9473
 20
-197.3612
 10
760.8485
 20
-197.576
 10
760.7677
 20
-197.7978
 10
760.7049
 20
-198.0263
 10
760.6601
 20
-198.2617
 10
760.6332
 20
-198.5038
 10
760.6242
 20
-198.7527
 10
760.6324
 20
-198.9692
 10
760.6569
 20
-199.1833
 10
760.6977
 20
-199.3949
 10
760.755
 20
-199.604
 10
760.8286
 20
-199.8107
 10
760.9187
 20
-200.0148
 10
761.0253
 20
-200.2165
 10
761.1483
 20
-200.4156
 10
761.2875
 20
-200.6088
 10
761.4427
 20
-200.7927
 10
761.6139
 20
-200.9673
 10
761.8012
 20
-201.1326
 10
762.0045
 20
-201.2886
 10
762.2239
 20
-201.4352
 10
762.4595
 20
-201.5725
 10
762.7113
 20
-201.7005
 10
762.9776
 20
-201.8161
 10
763.2583
 20
-201.9163
 10
763.5535
 20
-202.0011
 10
763.8631
 20
-202.0705
 10
764.1872
 20
-202.1244
 10
764.5258
 20
-202.163
 10
764.8789
 20
-202.1861
 10
765.2465
 20
-202.1938
  0
LWPOLYLINE
  5
B3
330
1F
100
AcDbEntity
  8
Layer 1
 62
     7
370
    18
100
AcDbPolyline
 90
       97
 70
     1
 43
0.0
 10
780.3352
 20
-203.5929
 10
779.8365
 20
-203.5777
 10
779.3519
 20
-203.5319
 10
778.8813
 20
-203.4558
 10
778.4247
 20
-203.3491
 10
777.9822
 20
-203.2121
 10
777.5537
 20
-203.0446
 10
777.1392
 20
-202.8467
 10
776.7388
 20
-202.6184
 10
776.3556
 20
-202.3613
 10
775.9937
 20
-202.0777
 10
775.6529
 20
-201.7675
 10
775.3332
 20
-201.4309
 10
775.0347
 20
-201.0678
 10
774.7572
 20
-200.6782
 10
774.5007
 20
-200.262
 10
774.2653
 20
-199.8192
 10
774.0544
 20
-199.3515
 10
773.8717
 20
-198.8606
 10
773.7171
 20
-198.3464
 10
773.5907
 20
-197.8089
 10
773.4924
 20
-197.2481
 10
773.4222
 20
-196.6641
 10
773.38
 20
-196.0566
 10
773.366
 20
-195.4259
 10
773.38
 20
-194.7954
 10
773.4222
 20
-194.1881
 10
773.4924
 20
-193.6041
 10
773.5907
 20
-193.0433
 10
773.7171
 20
-192.5058
 10
773.8717
 20
-191.9916
 10
774.0544
 20
-191.5008
 10
774.2653
 20
-191.0334
 10
774.5007
 20
-190.5907
 10
774.7572
 20
-190.1745
 10
775.0347
 20
-189.7848
 10
775.3332
 20
-189.4217
 10
775.6529
 20
-189.0851
 10
775.9937
 20
-188.775
 10
776.3556
 20
-188.4914
 10
776.7388
 20
-188.2343
 10
777.1392
 20
-188.006
 10
777.5537
 20
-187.8081
 10
777.9822
 20
-187.6406
 10
778.4247
 20
-187.5035
 10
778.8813
 20
-187.3969
 10
779.3519
 20
-187.3207
 10
779.8365
 20
-187.275
 10
780.3352
 20
-187.2598
 10
780.8343
 20
-187.275
 10
781.3193
 20
-187.3207
 10
781.7903
 20
-187.3969
 10
782.2471
 20
-187.5035
 10
782.6899
 20
-187.6406
 10
783.1186
 20
-187.8081
 10
783.5332
 20
-188.006
 10
783.9337
 20
-188.2343
 10
784.3167
 20
-188.4914
 10
784.6791
 20
-188.775
 10
785.0208
 20
-189.0851
 10
785.3419
 20
-189.4217
 10
785.6422
 20
-189.7848
 10
785.9219
 20
-190.1745
 10
786.181
 20
-190.5907
 10
786.4193
 20
-191.0334
 10
786.633
 20
-191.5008
 10
786.8182
 20
-191.9916
 10
786.9749
 20
-192.5058
 10
787.1031
 20
-193.0433
 10
787.2027
 20
-193.6041
 10
787.2739
 20
-194.1881
 10
787.3166
 20
-194.7954
 10
787.3308
 20
-195.4259
 10
787.3166
 20
-196.0566
 10
787.2739
 20
-196.6641
 10
787.2027
 20
-197.2481
 10
787.1031
 20
-197.8089
 10
786.9749
 20
-198.3464
 10
786.8182
 20
-198.8606
 10
786.633
 20
-199.3515
 10
786.4193
 20
-199.8192
 10
786.181
 20
-200.262
 10
785.9219
 20
-200.6782
 10
785.6422
 20
-201.0678
 10
785.3419
 20
-201.4309
 10
785.0208
 20
-201.7675
 10
784.6791
 20
-202.0777
 10
784.3167
 20
-202.3613
 10
783.9337
 20
-202.6184
 10
783.5332
 20
-202.8467
 10
783.1186
 20
-203.0446
 10
782.6899
 20
-203.2121
 10
782.2471
 20
-203.3491
 10
781.7903
 20
-203.4558
 10
781.3193
 20
-203.5319
 10
780.8343
 20
-203.5777
 10
780.3352
 20
-203.5929
  0
LWPOLYLINE
  5
B4
330
1F
100
AcDbEntity
  8
Layer 1
 62
     7
370
    18
100
AcDbPolyline
 90
       97
 70
     1
 43
0.0
 10
780.3352
 20
-202.0786
 10
780.7163
 20
-202.0666
 10
781.0849
 20
-202.0307
 10
781.4409
 20
-201.9707
 10
781.7845
 20
-201.8868
 10
782.1157
 20
-201.7787
 10
782.4343
 20
-201.6467
 10
782.7405
 20
-201.4905
 10
783.0343
 20
-201.3103
 10
783.3137
 20
-201.1072
 10
783.5775
 20
-200.8818
 10
783.8258
 20
-200.6341
 10
784.0585
 20
-200.3642
 10
784.2755
 20
-200.072
 10
784.477
 20
-199.7576
 10
784.6628
 20
-199.421
 10
784.833
 20
-199.0621
 10
784.9852
 20
-198.6816
 10
785.1172
 20
-198.2799
 10
785.2288
 20
-197.8572
 10
785.3201
 20
-197.4133
 10
785.3912
 20
-196.9482
 10
785.4419
 20
-196.462
 10
785.4724
 20
-195.9546
 10
785.4825
 20
-195.4259
 10
785.4724
 20
-194.8975
 10
785.4419
 20
-194.3902
 10
785.3912
 20
-193.904
 10
785.3201
 20
-193.4389
 10
785.2288
 20
-192.9951
 10
785.1172
 20
-192.5724
 10
784.9852
 20
-192.1709
 10
784.833
 20
-191.7906
 10
784.6628
 20
-191.4317
 10
784.477
 20
-191.0951
 10
784.2755
 20
-190.7807
 10
784.0585
 20
-190.4885
 10
783.8258
 20
-190.2186
 10
783.5775
 20
-189.9709
 10
783.3137
 20
-189.7455
 10
783.0343
 20
-189.5424
 10
782.7405
 20
-189.3621
 10
782.4343
 20
-189.2058
 10
782.1157
 20
-189.0736
 10
781.7845
 20
-188.9654
 10
781.4409
 20
-188.8813
 10
781.0849
 20
-188.8212
 10
780.7163
 20
-188.7851
 10
780.3352
 20
-188.7731
 10
779.9658
 20
-188.7851
 10
779.6065
 20
-188.8212
 10
779.2572
 20
-188.8813
 10
778.918
 20
-188.9654
 10
778.589
 20
-189.0736
 10
778.27
 20
-189.2058
 10
777.9611
 20
-189.3621
 10
777.6624
 20
-189.5424
 10
777.3773
 20
-189.7455
 10
777.1085
 20
-189.9709
 10
776.8561
 20
-190.2186
 10
776.62
 20
-190.4885
 10
776.4003
 20
-190.7807
 10
776.1969
 20
-191.0951
 10
776.01
 20
-191.4317
 10
775.8394
 20
-191.7906
 10
775.6872
 20
-192.1709
 10
775.5553
 20
-192.5724
 10
775.4437
 20
-192.9951
 10
775.3524
 20
-193.4389
 10
775.2813
 20
-193.904
 10
775.2306
 20
-194.3902
 10
775.2001
 20
-194.8975
 10
775.19
 20
-195.4259
 10
775.2001
 20
-195.9546
 10
775.2306
 20
-196.462
 10
775.2813
 20
-196.9482
 10
775.3524
 20
-197.4133
 10
775.4437
 20
-197.8572
 10
775.5553
 20
-198.2799
 10
775.6872
 20
-198.6816
 10
775.8394
 20
-199.0621
 10
776.01
 20
-199.421
 10
776.1969
 20
-199.7576
 10
776.4003
 20
-200.072
 10
776.62
 20
-200.3642
 10
776.8561
 20
-200.6341
 10
777.1085
 20
-200.8818
 10
777.3773
 20
-201.1072
 10
777.6624
 20
-201.3103
 10
777.9611
 20
-201.4905
 10
778.27
 20
-201.6467
 10
778.589
 20
-201.7787
 10
778.918
 20
-201.8868
 10
779.2572
 20
-201.9707
 10
779.6065
 20
-202.0307
 10
779.9658
 20
-202.0666
 10
780.3352
 20
-202.0786
  0
LWPOLYLINE
  5
B5
330
1F
100
AcDbEntity
  8
Layer 1
 62
     7
370
    18
100
AcDbPolyline
 90
      117
 70
     1
 43
0.0
 10
1017.8454
 20
41.3077
 10
1017.8358
 20
40.8735
 10
1017.8069
 20
40.4455
 10
1017.7589
 20
40.0235
 10
1017.6917
 20
39.6076
 10
1017.6053
 20
39.1978
 10
1017.4998
 20
38.7941
 10
1017.3751
 20
38.3965
 10
1017.2314
 20
38.005
 10
1017.0713
 20
37.6261
 10
1016.8983
 20
37.2663
 10
1016.7124
 20
36.9255
 10
1016.5136
 20
36.6039
 10
1016.3019
 20
36.3012
 10
1016.0773
 20
36.0177
 10
1015.8398
 20
35.7532
 10
1015.5894
 20
35.5078
 10
1014.16
 20
36.3133
 10
1014.3746
 20
36.5175
 10
1014.5799
 20
36.7385
 10
1014.7759
 20
36.9764
 10
1014.9625
 20
37.2312
 10
1015.1397
 20
37.5028
 10
1015.3075
 20
37.7914
 10
1015.4658
 20
38.0969
 10
1015.6147
 20
38.4194
 10
1015.7499
 20
38.7541
 10
1015.867
 20
39.0963
 10
1015.9661
 20
39.446
 10
1016.0472
 20
39.8033
 10
1016.1103
 20
40.168
 10
1016.1554
 20
40.5404
 10
1016.1824
 20
40.9202
 10
1016.1914
 20
41.3077
 10
1016.1765
 20
41.7938
 10
1016.1318
 20
42.2508
 10
1016.0574
 20
42.6786
 10
1015.9531
 20
43.0774
 10
1015.8191
 20
43.447
 10
1015.6553
 20
43.7874
 10
1015.4617
 20
44.0988
 10
1015.2384
 20
44.3809
 10
1014.9897
 20
44.6317
 10
1014.7207
 20
44.8491
 10
1014.4315
 20
45.0331
 10
1014.1221
 20
45.1836
 10
1013.7923
 20
45.3006
 10
1013.4422
 20
45.3842
 10
1013.0718
 20
45.4344
 10
1012.681
 20
45.4511
 10
1012.2902
 20
45.4347
 10
1011.9197
 20
45.3856
 10
1011.5697
 20
45.3038
 10
1011.24
 20
45.1892
 10
1010.9306
 20
45.042
 10
1010.6416
 20
44.862
 10
1010.3729
 20
44.6494
 10
1010.1245
 20
44.4041
 10
1009.9012
 20
44.1233
 10
1009.7077
 20
43.8047
 10
1009.5441
 20
43.4484
 10
1009.4103
 20
43.0544
 10
1009.3063
 20
42.6226
 10
1009.232
 20
42.153
 10
1009.1874
 20
41.6456
 10
1009.1726
 20
41.1005
 10
1009.1726
 20
39.9504
 10
1007.8432
 20
39.9504
 10
1001.05
 20
44.9216
 10
1001.7521
 20
45.152
 10
1001.7521
 20
36.1748
 10
1000.1486
 20
36.1748
 10
1000.1486
 20
46.5325
 10
1001.4263
 20
46.5325
 10
1008.2196
 20
41.5613
 10
1007.6429
 20
40.7559
 10
1007.6429
 20
41.3774
 10
1007.6649
 20
42.0795
 10
1007.7307
 20
42.7359
 10
1007.8405
 20
43.3467
 10
1007.9941
 20
43.9118
 10
1008.1916
 20
44.4312
 10
1008.4329
 20
44.905
 10
1008.7181
 20
45.3332
 10
1009.0471
 20
45.7159
 10
1009.4105
 20
46.053
 10
1009.799
 20
46.3451
 10
1010.2125
 20
46.5923
 10
1010.6511
 20
46.7945
 10
1011.1147
 20
46.9518
 10
1011.6033
 20
47.0641
 10
1012.117
 20
47.1315
 10
1012.6557
 20
47.154
 10
1013.0208
 20
47.1439
 10
1013.3765
 20
47.1137
 10
1013.7227
 20
47.0634
 10
1014.0596
 20
46.9929
 10
1014.387
 20
46.9023
 10
1014.7051
 20
46.7915
 10
1015.0139
 20
46.6605
 10
1015.3133
 20
46.5093
 10
1015.6002
 20
46.3381
 10
1015.8713
 20
46.1463
 10
1016.1268
 20
45.934
 10
1016.3665
 20
45.7012
 10
1016.5905
 20
45.4478
 10
1016.7989
 20
45.174
 10
1016.9916
 20
44.8796
 10
1017.1686
 20
44.5648
 10
1017.3272
 20
44.2295
 10
1017.4647
 20
43.8737
 10
1017.581
 20
43.4973
 10
1017.6762
 20
43.1004
 10
1017.7502
 20
42.6829
 10
1017.8031
 20
42.245
 10
1017.8348
 20
41.7866
 10
1017.8454
 20
41.3077
  0
LWPOLYLINE
  5
B6
330
1F
100
AcDbEntity
  8
Layer 1
 62
     7
370
    18
100
AcDbPolyline
 90
      125
 70
     1
 43
0.0
 10
1017.6947
 20
49.0641
 10
1016.416
 20
49.0641
 10
1009.2727
 20
55.7624
 10
1009.0318
 20
55.9852
 10
1008.7985
 20
56.1936
 10
1008.5727
 20
56.3878
 10
1008.3544
 20
56.5676
 10
1008.1436
 20
56.733
 10
1007.9403
 20
56.8841
 10
1007.7444
 20
57.0207
 10
1007.5559
 20
57.1429
 10
1007.3722
 20
57.2535
 10
1007.1913
 20
57.3547
 10
1007.0133
 20
57.4465
 10
1006.838
 20
57.5289
 10
1006.6656
 20
57.6019
 10
1006.4959
 20
57.6655
 10
1006.329
 20
57.7196
 10
1006.1649
 20
57.7644
 10
1005.8434
 20
57.8351
 10
1005.5315
 20
57.8857
 10
1005.2293
 20
57.916
 10
1004.9368
 20
57.9261
 10
1004.5642
 20
57.9112
 10
1004.2122
 20
57.8663
 10
1003.8806
 20
57.7917
 10
1003.5694
 20
57.6871
 10
1003.2787
 20
57.5526
 10
1003.0084
 20
57.3883
 10
1002.7585
 20
57.1942
 10
1002.529
 20
56.9701
 10
1002.3234
 20
56.7172
 10
1002.1453
 20
56.4359
 10
1001.9945
 20
56.126
 10
1001.8712
 20
55.7878
 10
1001.7753
 20
55.4211
 10
1001.7067
 20
55.026
 10
1001.6656
 20
54.6024
 10
1001.6519
 20
54.1505
 10
1001.6593
 20
53.799
 10
1001.6817
 20
53.4579
 10
1001.7189
 20
53.1273
 10
1001.7711
 20
52.8071
 10
1001.8381
 20
52.4974
 10
1001.92
 20
52.1981
 10
1002.0167
 20
51.9093
 10
1002.1284
 20
51.631
 10
1002.2557
 20
51.3624
 10
1002.3995
 20
51.1035
 10
1002.5596
 20
50.8544
 10
1002.7362
 20
50.615
 10
1002.9292
 20
50.3853
 10
1003.1385
 20
50.1653
 10
1003.3643
 20
49.955
 10
1003.6065
 20
49.7544
 10
1002.5038
 20
48.581
 10
1002.2119
 20
48.8251
 10
1001.937
 20
49.0858
 10
1001.6794
 20
49.3631
 10
1001.4389
 20
49.6568
 10
1001.2156
 20
49.9671
 10
1001.0096
 20
50.294
 10
1000.8208
 20
50.6374
 10
1000.6494
 20
50.9974
 10
1000.4968
 20
51.371
 10
1000.3645
 20
51.7555
 10
1000.2525
 20
52.1507
 10
1000.1609
 20
52.5568
 10
1000.0896
 20
52.9736
 10
1000.0387
 20
53.4013
 10
1000.0081
 20
53.8397
 10
999.9979
 20
54.2889
 10
1000.0067
 20
54.6907
 10
1000.0332
 20
55.0789
 10
1000.0772
 20
55.4533
 10
1000.1389
 20
55.8141
 10
1000.2182
 20
56.1611
 10
1000.315
 20
56.4944
 10
1000.4294
 20
56.8139
 10
1000.5614
 20
57.1197
 10
1000.7105
 20
57.4105
 10
1000.8757
 20
57.6844
 10
1001.0569
 20
57.9414
 10
1001.2541
 20
58.1816
 10
1001.4674
 20
58.4048
 10
1001.6966
 20
58.6111
 10
1001.942
 20
58.8006
 10
1002.2033
 20
58.9731
 10
1002.4785
 20
59.1269
 10
1002.7655
 20
59.2602
 10
1003.0643
 20
59.3729
 10
1003.3748
 20
59.4651
 10
1003.6971
 20
59.5368
 10
1004.0311
 20
59.588
 10
1004.3769
 20
59.6188
 10
1004.7344
 20
59.629
 10
1004.9475
 20
59.6256
 10
1005.1597
 20
59.6153
 10
1005.371
 20
59.5981
 10
1005.5814
 20
59.5742
 10
1005.791
 20
59.5434
 10
1005.9997
 20
59.5059
 10
1006.2076
 20
59.4616
 10
1006.4148
 20
59.4106
 10
1006.6229
 20
59.3505
 10
1006.8338
 20
59.2796
 10
1007.0474
 20
59.1979
 10
1007.2638
 20
59.1055
 10
1007.4829
 20
59.0022
 10
1007.7048
 20
58.8881
 10
1007.9295
 20
58.7632
 10
1008.1569
 20
58.6275
 10
1008.3894
 20
58.4786
 10
1008.6292
 20
58.3134
 10
1008.8765
 20
58.132
 10
1009.1312
 20
57.9344
 10
1009.3934
 20
57.7206
 10
1009.663
 20
57.4906
 10
1009.9401
 20
57.2445
 10
1010.2247
 20
56.9822
 10
1016.7923
 20
50.8367
 10
1016.0902
 20
50.3759
 10
1016.0902
 20
60.3657
 10
1017.6947
 20
60.3657
 10
1017.6947
 20
49.0641
  0
LWPOLYLINE
  5
B7
330
1F
100
AcDbEntity
  8
Layer 1
 62
     7
370
    18
100
AcDbPolyline
 90
      131
 70
     1
 43
0.0
 10
1017.8454
 20
67.5238
 10
1017.8358
 20
67.0947
 10
1017.8069
 20
66.6706
 10
1017.7589
 20
66.2516
 10
1017.6917
 20
65.8376
 10
1017.6053
 20
65.4287
 10
1017.4998
 20
65.0249
 10
1017.3751
 20
64.6261
 10
1017.2314
 20
64.2323
 10
1017.0713
 20
63.8511
 10
1016.8983
 20
63.4901
 10
1016.7124
 20
63.1491
 10
1016.5136
 20
62.8283
 10
1016.3019
 20
62.5276
 10
1016.0773
 20
62.247
 10
1015.8398
 20
61.9865
 10
1015.5894
 20
61.7462
 10
1014.16
 20
62.5517
 10
1014.3746
 20
62.7504
 10
1014.5799
 20
62.9668
 10
1014.7759
 20
63.2008
 10
1014.9625
 20
63.4524
 10
1015.1397
 20
63.7216
 10
1015.3075
 20
64.0083
 10
1015.4658
 20
64.3127
 10
1015.6147
 20
64.6345
 10
1015.7499
 20
64.9689
 10
1015.867
 20
65.31
 10
1015.9661
 20
65.658
 10
1016.0472
 20
66.0128
 10
1016.1103
 20
66.3745
 10
1016.1554
 20
66.743
 10
1016.1824
 20
67.1184
 10
1016.1914
 20
67.5006
 10
1016.1759
 20
67.9974
 10
1016.1294
 20
68.4637
 10
1016.0519
 20
68.8994
 10
1015.9436
 20
69.3045
 10
1015.8042
 20
69.679
 10
1015.634
 20
70.023
 10
1015.4329
 20
70.3365
 10
1015.201
 20
70.6193
 10
1014.9434
 20
70.8701
 10
1014.6668
 20
71.0875
 10
1014.3712
 20
71.2715
 10
1014.0564
 20
71.422
 10
1013.7226
 20
71.539
 10
1013.3696
 20
71.6226
 10
1012.9975
 20
71.6728
 10
1012.6061
 20
71.6895
 10
1012.3288
 20
71.6818
 10
1012.0613
 20
71.6585
 10
1011.8037
 20
71.6198
 10
1011.556
 20
71.5656
 10
1011.3181
 20
71.496
 10
1011.0901
 20
71.4109
 10
1010.872
 20
71.3104
 10
1010.6637
 20
71.1944
 10
1010.4657
 20
71.0601
 10
1010.279
 20
70.9046
 10
1010.1037
 20
70.7278
 10
1009.9398
 20
70.5298
 10
1009.7871
 20
70.3106
 10
1009.6458
 20
70.0702
 10
1009.5158
 20
69.8086
 10
1009.3971
 20
69.5258
 10
1009.2915
 20
69.2188
 10
1009.2
 20
68.8843
 10
1009.1227
 20
68.5224
 10
1009.0594
 20
68.1332
 10
1009.0102
 20
67.7166
 10
1008.9751
 20
67.2727
 10
1008.954
 20
66.8015
 10
1008.947
 20
66.303
 10
1008.947
 20
62.874
 10
1000.1486
 20
63.7027
 10
1000.1486
 20
72.5182
 10
1001.7521
 20
72.5182
 10
1001.7521
 20
64.3698
 10
1000.875
 20
65.2217
 10
1008.2449
 20
64.5082
 10
1007.3425
 20
63.6563
 10
1007.3425
 20
66.6719
 10
1007.3527
 20
67.2668
 10
1007.3833
 20
67.8315
 10
1007.4342
 20
68.3659
 10
1007.5055
 20
68.8702
 10
1007.5971
 20
69.3442
 10
1007.7091
 20
69.788
 10
1007.8414
 20
70.2015
 10
1007.994
 20
70.5849
 10
1008.1651
 20
70.9404
 10
1008.3522
 20
71.2703
 10
1008.5552
 20
71.5748
 10
1008.7742
 20
71.8536
 10
1009.0093
 20
72.1069
 10
1009.2604
 20
72.3346
 10
1009.5276
 20
72.5368
 10
1009.8109
 20
72.7133
 10
1010.1083
 20
72.8671
 10
1010.4179
 20
73.0004
 10
1010.7396
 20
73.1131
 10
1011.0734
 20
73.2054
 10
1011.4194
 20
73.2771
 10
1011.7775
 20
73.3283
 10
1012.1478
 20
73.359
 10
1012.5302
 20
73.3692
 10
1012.896
 20
73.3591
 10
1013.2535
 20
73.329
 10
1013.6028
 20
73.2787
 10
1013.9439
 20
73.2083
 10
1014.2768
 20
73.1177
 10
1014.6014
 20
73.0071
 10
1014.9179
 20
72.8763
 10
1015.2263
 20
72.7254
 10
1015.5221
 20
72.5541
 10
1015.8018
 20
72.3627
 10
1016.0654
 20
72.1512
 10
1016.313
 20
71.9197
 10
1016.5446
 20
71.668
 10
1016.7601
 20
71.3962
 10
1016.9597
 20
71.1042
 10
1017.1433
 20
70.7921
 10
1017.3077
 20
70.459
 10
1017.4502
 20
70.1044
 10
1017.5708
 20
69.7282
 10
1017.6696
 20
69.3304
 10
1017.7465
 20
68.911
 10
1017.8014
 20
68.4702
 10
1017.8344
 20
68.0077
 10
1017.8454
 20
67.5238
  0
LWPOLYLINE
  5
B8
330
1F
100
AcDbEntity
  8
Layer 1
 62
     7
370
    70
100
AcDbPolyline
 90
       40
 70
     0
 43
0.0
 10
1031.5705
 20
169.1651
 10
1031.568
 20
169.3515
 10
1031.5624
 20
169.5984
 10
1031.5562
 20
169.8836
 10
1031.5521
 20
170.1855
 10
1031.5526
 20
170.482
 10
1031.5605
 20
170.7513
 10
1031.5783
 20
170.9714
 10
1031.6086
 20
171.1204
 10
1031.5752
 20
171.2035
 10
1031.5641
 20
171.2601
 10
1031.5752
 20
171.3166
 10
1031.6086
 20
171.3997
 10
1031.5808
 20
171.4748
 10
1031.5716
 20
171.5044
 10
1031.5808
 20
171.534
 10
1031.6086
 20
171.6094
 10
1031.5843
 20
171.6814
 10
1031.5765
 20
171.6974
 10
1031.5848
 20
171.713
 10
1031.6086
 20
171.7837
 10
1031.5705
 20
171.9236
 10
1031.6034
 20
172.213
 10
1031.6224
 20
172.8222
 10
1031.6304
 20
173.6515
 10
1031.6304
 20
174.6014
 10
1031.6252
 20
175.5723
 10
1031.6179
 20
176.4646
 10
1031.6114
 20
177.1788
 10
1031.6086
 20
177.6153
 10
1031.4944
 20
178.383
 10
1031.4187
 20
178.6622
 10
1031.4117
 20
178.7595
 10
1031.3956
 20
178.8725
 10
1031.3712
 20
178.9951
 10
1031.3393
 20
179.121
 10
1031.3006
 20
179.2442
 10
1031.256
 20
179.3584
 10
1031.2063
 20
179.4575
 10
1031.1522
 20
179.5352
  0
LWPOLYLINE
  5
B9
330
1F
100
AcDbEntity
  8
Layer 1
 62
     7
370
    70
100
AcDbPolyline
 90
       44
 70
     0
 43
0.0
 10
866.9163
 20
179.8843
 10
867.0177
 20
179.8538
 10
867.1376
 20
179.8294
 10
867.27
 20
179.8099
 10
867.4087
 20
179.7941
 10
867.6808
 20
179.769
 10
867.9052
 20
179.7449
 10
868.2092
 20
179.675
 10
868.7417
 20
179.6401
 10
869.2701
 20
179.5935
 10
870.3457
 20
179.5684
 10
871.7979
 20
179.56
 10
873.4563
 20
179.5637
 10
875.1505
 20
179.5748
 10
876.7098
 20
179.5885
 10
877.964
 20
179.6002
 10
878.7424
 20
179.6051
 10
1029.2888
 20
179.6051
 10
1029.4204
 20
179.5857
 10
1029.4912
 20
179.5788
 10
1029.5215
 20
179.5804
 10
1029.5319
 20
179.5863
 10
1029.5428
 20
179.5923
 10
1029.5747
 20
179.5944
 10
1029.648
 20
179.5884
 10
1029.7832
 20
179.5702
 10
1030.734
 20
179.5702
 10
1030.8446
 20
179.5435
 10
1030.937
 20
179.5338
 10
1031.0324
 20
179.5336
 10
1031.1522
 20
179.5352
 10
1031.2447
 20
179.6542
 10
1031.3205
 20
179.7983
 10
1031.3828
 20
179.9605
 10
1031.4349
 20
180.1336
 10
1031.5221
 20
180.484
 10
1031.6086
 20
180.7923
 10
1031.6086
 20
190.2549
 10
1031.5797
 20
190.3604
 10
1031.5626
 20
190.4738
 10
1031.5548
 20
190.593
 10
1031.554
 20
190.7158
 10
1031.5631
 20
190.963
 10
1031.5705
 20
191.1978
  0
LWPOLYLINE
  5
BA
330
1F
100
AcDbEntity
  8
Layer 1
 62
     7
370
    70
100
AcDbPolyline
 90
       39
 70
     0
 43
0.0
 10
613.2418
 20
169.4094
 10
613.2418
 20
169.8284
 10
613.2681
 20
169.9349
 10
613.2785
 20
170.0479
 10
613.2784
 20
170.1652
 10
613.2736
 20
170.2844
 10
613.2696
 20
170.4034
 10
613.2719
 20
170.5199
 10
613.2862
 20
170.6317
 10
613.318
 20
170.7364
 10
613.3068
 20
170.8177
 10
613.3
 20
170.951
 10
613.2976
 20
171.1194
 10
613.2998
 20
171.3057
 10
613.3066
 20
171.4928
 10
613.3182
 20
171.6637
 10
613.3346
 20
171.8014
 10
613.356
 20
171.8886
 10
613.3367
 20
172.0692
 10
613.3277
 20
172.3945
 10
613.3265
 20
172.8199
 10
613.3308
 20
173.301
 10
613.3383
 20
173.7932
 10
613.3466
 20
174.2521
 10
613.3532
 20
174.6331
 10
613.356
 20
174.8918
 10
613.3541
 20
175.1914
 10
613.3497
 20
175.5932
 10
613.3451
 20
176.0606
 10
613.3424
 20
176.5572
 10
613.3438
 20
177.0464
 10
613.3514
 20
177.4915
 10
613.3675
 20
177.8562
 10
613.3941
 20
178.1038
 10
613.5459
 20
178.837
 10
613.6449
 20
178.9979
 10
613.7395
 20
179.1652
 10
613.8324
 20
179.3342
 10
613.9261
 20
179.5002
  0
LWPOLYLINE
  5
BB
330
1F
100
AcDbEntity
  8
Layer 1
 62
     7
370
    70
100
AcDbPolyline
 90
       58
 70
     0
 43
0.0
 10
778.0102
 20
179.7449
 10
777.8871
 20
179.7075
 10
777.7825
 20
179.6879
 10
777.6898
 20
179.6814
 10
777.6024
 20
179.6831
 10
777.5138
 20
179.6881
 10
777.4172
 20
179.6917
 10
777.3063
 20
179.6889
 10
777.1742
 20
179.675
 10
777.0876
 20
179.6485
 10
777.0408
 20
179.6396
 10
776.994
 20
179.6485
 10
776.9077
 20
179.675
 10
776.7767
 20
179.6468
 10
776.6495
 20
179.6373
 10
776.5183
 20
179.638
 10
776.3757
 20
179.6401
 10
776.1905
 20
179.6163
 10
776.1238
 20
179.6195
 10
776.107
 20
179.633
 10
776.0711
 20
179.6401
 10
775.1681
 20
179.5935
 10
773.0437
 20
179.5684
 10
770.0792
 20
179.56
 10
766.6557
 20
179.5637
 10
763.1542
 20
179.5748
 10
759.9559
 20
179.5885
 10
757.4419
 20
179.6002
 10
755.9932
 20
179.6051
 10
635.5253
 20
179.6051
 10
634.0765
 20
179.61
 10
631.5624
 20
179.6217
 10
628.3641
 20
179.6355
 10
624.8627
 20
179.6465
 10
621.4392
 20
179.6502
 10
618.4748
 20
179.6419
 10
616.3505
 20
179.6168
 10
615.4474
 20
179.5702
 10
615.3067
 20
179.5859
 10
615.1419
 20
179.5842
 10
614.9681
 20
179.5754
 10
614.8007
 20
179.5702
 10
613.9261
 20
179.5002
 10
613.7915
 20
179.6604
 10
613.6898
 20
179.7983
 10
613.6137
 20
179.9223
 10
613.5556
 20
180.0404
 10
613.4641
 20
180.2918
 10
613.356
 20
180.618
 10
613.356
 20
190.0805
 10
613.3355
 20
190.2381
 10
613.3214
 20
190.4211
 10
613.3114
 20
190.6179
 10
613.3032
 20
190.817
 10
613.2944
 20
191.007
 10
613.2828
 20
191.1763
 10
613.2661
 20
191.3135
 10
613.2418
 20
191.4071
  0
LWPOLYLINE
  5
BC
330
1F
100
AcDbEntity
  8
Layer 1
 62
     7
370
    18
100
AcDbPolyline
 90
        9
 70
     1
 43
0.0
 10
797.947
 20
176.2585
 10
797.947
 20
177.4513
 10
807.2158
 20
188.0951
 10
809.2138
 20
188.0951
 10
800.0209
 20
177.4513
 10
799.0457
 20
177.7263
 10
813.1117
 20
177.7263
 10
813.1117
 20
176.2585
 10
797.947
 20
176.2585
  0
LWPOLYLINE
  5
BD
330
1F
100
AcDbEntity
  8
Layer 1
 62
     7
370
    18
100
AcDbPolyline
 90
        7
 70
     1
 43
0.0
 10
807.8147
 20
172.037
 10
807.8147
 20
176.2585
 10
807.8653
 20
177.7263
 10
807.8653
 20
181.4424
 10
809.6134
 20
181.4424
 10
809.6134
 20
172.037
 10
807.8147
 20
172.037
  0
LWPOLYLINE
  5
BE
330
1F
100
AcDbEntity
  8
Layer 1
 62
     7
370
    18
100
AcDbPolyline
 90
       12
 70
     1
 43
0.0
 10
816.5837
 20
172.037
 10
824.1296
 20
187.3612
 10
824.6789
 20
186.6273
 10
813.8613
 20
186.6273
 10
814.7849
 20
187.43
 10
814.7849
 20
183.6219
 10
813.0115
 20
183.6219
 10
813.0115
 20
188.0951
 10
825.8524
 20
188.0951
 10
825.8524
 20
186.9255
 10
818.5321
 20
172.037
 10
816.5837
 20
172.037
  0
LWPOLYLINE
  5
BF
330
1F
100
AcDbEntity
  8
Layer 1
 62
     7
370
    18
100
AcDbPolyline
 90
       97
 70
     1
 43
0.0
 10
834.6962
 20
171.8995
 10
834.1975
 20
171.9147
 10
833.7129
 20
171.9604
 10
833.2423
 20
172.0366
 10
832.7857
 20
172.1432
 10
832.3432
 20
172.2803
 10
831.9147
 20
172.4478
 10
831.5002
 20
172.6457
 10
831.0998
 20
172.874
 10
830.7163
 20
173.1311
 10
830.3541
 20
173.4147
 10
830.0131
 20
173.7248
 10
829.6934
 20
174.0614
 10
829.3947
 20
174.4246
 10
829.1172
 20
174.8142
 10
828.8608
 20
175.2304
 10
828.6253
 20
175.6732
 10
828.4144
 20
176.1409
 10
828.2317
 20
176.6318
 10
828.0771
 20
177.146
 10
827.9507
 20
177.6835
 10
827.8524
 20
178.2443
 10
827.7822
 20
178.8283
 10
827.74
 20
179.4358
 10
827.726
 20
180.0665
 10
827.74
 20
180.697
 10
827.7822
 20
181.3043
 10
827.8524
 20
181.8883
 10
827.9507
 20
182.4491
 10
828.0771
 20
182.9866
 10
828.2317
 20
183.5007
 10
828.4144
 20
183.9915
 10
828.6253
 20
184.4589
 10
828.8608
 20
184.9017
 10
829.1172
 20
185.3179
 10
829.3947
 20
185.7075
 10
829.6934
 20
186.0707
 10
830.0131
 20
186.4073
 10
830.3541
 20
186.7174
 10
830.7163
 20
187.001
 10
831.0998
 20
187.2581
 10
831.5002
 20
187.4864
 10
831.9147
 20
187.6843
 10
832.3432
 20
187.8518
 10
832.7857
 20
187.9889
 10
833.2423
 20
188.0955
 10
833.7129
 20
188.1717
 10
834.1975
 20
188.2174
 10
834.6962
 20
188.2326
 10
835.1952
 20
188.2174
 10
835.6801
 20
188.1717
 10
836.1509
 20
188.0955
 10
836.6076
 20
187.9889
 10
837.0502
 20
187.8518
 10
837.4788
 20
187.6843
 10
837.8933
 20
187.4864
 10
838.2937
 20
187.2581
 10
838.6768
 20
187.001
 10
839.0392
 20
186.7174
 10
839.3809
 20
186.4073
 10
839.702
 20
186.0707
 10
840.0025
 20
185.7075
 10
840.2824
 20
185.3179
 10
840.5416
 20
184.9017
 10
840.7803
 20
184.4589
 10
840.994
 20
183.9915
 10
841.1792
 20
183.5007
 10
841.3359
 20
182.9866
 10
841.4641
 20
182.4491
 10
841.5637
 20
181.8883
 10
841.6349
 20
181.3043
 10
841.6776
 20
180.697
 10
841.6918
 20
180.0665
 10
841.6776
 20
179.4358
 10
841.6349
 20
178.8283
 10
841.5637
 20
178.2443
 10
841.4641
 20
177.6835
 10
841.3359
 20
177.146
 10
841.1792
 20
176.6318
 10
840.994
 20
176.1409
 10
840.7803
 20
175.6732
 10
840.5416
 20
175.2304
 10
840.2824
 20
174.8142
 10
840.0025
 20
174.4246
 10
839.702
 20
174.0614
 10
839.3809
 20
173.7248
 10
839.0392
 20
173.4147
 10
838.6768
 20
173.1311
 10
838.2937
 20
172.874
 10
837.8933
 20
172.6457
 10
837.4788
 20
172.4478
 10
837.0502
 20
172.2803
 10
836.6076
 20
172.1432
 10
836.1509
 20
172.0366
 10
835.6801
 20
171.9604
 10
835.1952
 20
171.9147
 10
834.6962
 20
171.8995
  0
LWPOLYLINE
  5
C0
330
1F
100
AcDbEntity
  8
Layer 1
 62
     7
370
    18
100
AcDbPolyline
 90
       97
 70
     1
 43
0.0
 10
834.6962
 20
173.4138
 10
835.0773
 20
173.4258
 10
835.4458
 20
173.4617
 10
835.8019
 20
173.5217
 10
836.1454
 20
173.6057
 10
836.4764
 20
173.7137
 10
836.7949
 20
173.8457
 10
837.1009
 20
174.0019
 10
837.3943
 20
174.1821
 10
837.6737
 20
174.3852
 10
837.9375
 20
174.6106
 10
838.1858
 20
174.8583
 10
838.4185
 20
175.1282
 10
838.6355
 20
175.4204
 10
838.837
 20
175.7348
 10
839.0228
 20
176.0714
 10
839.193
 20
176.4303
 10
839.3452
 20
176.8108
 10
839.4772
 20
177.2124
 10
839.5888
 20
177.6352
 10
839.6801
 20
178.0791
 10
839.7512
 20
178.5441
 10
839.8019
 20
179.0304
 10
839.8324
 20
179.5378
 10
839.8425
 20
180.0665
 10
839.8324
 20
180.5949
 10
839.8019
 20
181.1022
 10
839.7512
 20
181.5884
 10
839.6801
 20
182.0535
 10
839.5888
 20
182.4973
 10
839.4772
 20
182.92
 10
839.3452
 20
183.3215
 10
839.193
 20
183.7018
 10
839.0228
 20
184.0607
 10
838.837
 20
184.3973
 10
838.6355
 20
184.7117
 10
838.4185
 20
185.0039
 10
838.1858
 20
185.2738
 10
837.9375
 20
185.5215
 10
837.6737
 20
185.7469
 10
837.3943
 20
185.95
 10
837.1009
 20
186.1303
 10
836.7949
 20
186.2865
 10
836.4764
 20
186.4188
 10
836.1454
 20
186.527
 10
835.8019
 20
186.6111
 10
835.4458
 20
186.6712
 10
835.0773
 20
186.7073
 10
834.6962
 20
186.7193
 10
834.3268
 20
186.7073
 10
833.9675
 20
186.6712
 10
833.6182
 20
186.6111
 10
833.279
 20
186.527
 10
832.95
 20
186.4188
 10
832.631
 20
186.2865
 10
832.3222
 20
186.1303
 10
832.0235
 20
185.95
 10
831.7384
 20
185.7469
 10
831.4696
 20
185.5215
 10
831.2172
 20
185.2738
 10
830.981
 20
185.0039
 10
830.7612
 20
184.7117
 10
830.5576
 20
184.3973
 10
830.3704
 20
184.0607
 10
830.1995
 20
183.7018
 10
830.0473
 20
183.3215
 10
829.9153
 20
182.92
 10
829.8037
 20
182.4973
 10
829.7124
 20
182.0535
 10
829.6413
 20
181.5884
 10
829.5906
 20
181.1022
 10
829.5601
 20
180.5949
 10
829.55
 20
180.0665
 10
829.5601
 20
179.5378
 10
829.5906
 20
179.0304
 10
829.6413
 20
178.5441
 10
829.7124
 20
178.0791
 10
829.8037
 20
177.6352
 10
829.9153
 20
177.2124
 10
830.0473
 20
176.8108
 10
830.1995
 20
176.4303
 10
830.3704
 20
176.0714
 10
830.5576
 20
175.7348
 10
830.7612
 20
175.4204
 10
830.981
 20
175.1282
 10
831.2172
 20
174.8583
 10
831.4696
 20
174.6106
 10
831.7384
 20
174.3852
 10
832.0235
 20
174.1821
 10
832.3222
 20
174.0019
 10
832.631
 20
173.8457
 10
832.95
 20
173.7137
 10
833.279
 20
173.6057
 10
833.6182
 20
173.5217
 10
833.9675
 20
173.4617
 10
834.3268
 20
173.4258
 10
834.6962
 20
173.4138
  0
ENDSEC
  0
SECTION
  2
OBJECTS
  0
DICTIONARY
  5
C
330
0
100
AcDbDictionary
281
     1
  3
ACAD_DETAILVIEWSTYLE
350
C8
  3
ACAD_GROUP
350
D
  3
ACAD_LAYOUT
350
1A
  3
ACAD_MATERIAL
350
43
  3
ACAD_MLEADERSTYLE
350
5B
  3
ACAD_MLINESTYLE
350
17
  3
ACAD_PLOTSETTINGS
350
19
  3
ACAD_PLOTSTYLENAME
350
E
  3
ACAD_SCALELIST
350
47
  3
ACAD_SECTIONVIEWSTYLE
350
C9
  3
ACAD_TABLESTYLE
350
59
  3
ACAD_VISUALSTYLE
350
2A
  3
ACDB_RECOMPOSE_DATA
350
C5
  3
AcDbVariableDictionary
350
C1
  0
SUN
  5
5D
330
29
100
AcDbSun
 90
        1
290
     0
 63
     7
421
 16777215
 40
1.0
291
     1
 91
  2455826
 92
 54000000
292
     0
 70
     2
 71
   256
280
     1
  0
DICTIONARY
  5
C8
102
{ACAD_REACTORS
330
C
102
}
330
C
100
AcDbDictionary
281
     1
  0
DICTIONARY
  5
D
102
{ACAD_REACTORS
330
C
102
}
330
C
100
AcDbDictionary
281
     1
  0
DICTIONARY
  5
1A
102
{ACAD_REACTORS
330
C
102
}
330
C
100
AcDbDictionary
281
     1
  3
Layout1
350
1E
  3
Layout2
350
26
  3
Model
350
22
  0
DICTIONARY
  5
43
102
{ACAD_REACTORS
330
C
102
}
330
C
100
AcDbDictionary
281
     1
  3
ByBlock
350
45
  3
ByLayer
350
44
  3
Global
350
46
  0
DICTIONARY
  5
5B
102
{ACAD_REACTORS
330
C
102
}
330
C
100
AcDbDictionary
281
     1
  3
Standard
350
5C
  0
DICTIONARY
  5
17
102
{ACAD_REACTORS
330
C
102
}
330
C
100
AcDbDictionary
281
     1
  3
Standard
350
18
  0
DICTIONARY
  5
19
102
{ACAD_REACTORS
330
C
102
}
330
C
100
AcDbDictionary
281
     1
  0
ACDBDICTIONARYWDFLT
  5
E
102
{ACAD_REACTORS
330
C
102
}
330
C
100
AcDbDictionary
281
     1
  3
Normal
350
F
100
AcDbDictionaryWithDefault
340
F
  0
DICTIONARY
  5
47
102
{ACAD_REACTORS
330
C
102
}
330
C
100
AcDbDictionary
281
     1
  3
A0
350
48
  3
A1
350
49
  3
A2
350
4A
  3
A3
350
4B
  3
A4
350
4C
  3
A5
350
4D
  3
A6
350
4E
  3
A7
350
4F
  3
A8
350
50
  3
A9
350
51
  3
B1
350
52
  3
B2
350
53
  3
B3
350
54
  3
B4
350
55
  3
B5
350
56
  3
B6
350
57
  3
B7
350
58
  0
DICTIONARY
  5
C9
102
{ACAD_REACTORS
330
C
102
}
330
C
100
AcDbDictionary
281
     1
  0
DICTIONARY
  5
59
102
{ACAD_REACTORS
330
C
102
}
330
C
100
AcDbDictionary
281
     1
  3
Standard
350
5A
  0
DICTIONARY
  5
2A
102
{ACAD_REACTORS
330
C
102
}
330
C
100
AcDbDictionary
281
     1
  3
2dWireframe
350
2F
  3
Basic
350
32
  3
Brighten
350
36
  3
ColorChange
350
3A
  3
Conceptual
350
34
  3
Dim
350
35
  3
EdgeColorOff
350
3D
  3
Facepattern
350
39
  3
Flat
350
2B
  3
FlatWithEdges
350
2C
  3
Gouraud
350
2D
  3
GouraudWithEdges
350
2E
  3
Hidden
350
31
  3
JitterOff
350
3B
  3
Linepattern
350
38
  3
OverhangOff
350
3C
  3
Realistic
350
33
  3
Shaded
350
42
  3
Shaded with edges
350
41
  3
Shades of Gray
350
3E
  3
Sketchy
350
3F
  3
Thicken
350
37
  3
Wireframe
350
30
  3
X-Ray
350
40
  0
XRECORD
  5
C5
102
{ACAD_REACTORS
330
C
102
}
330
C
100
AcDbXrecord
280
     1
 90
        1
330
5A
  0
DICTIONARY
  5
C1
102
{ACAD_REACTORS
330
C
102
}
330
C
100
AcDbDictionary
281
     1
  3
CANNOSCALE
350
C2
  3
CMLEADERSTYLE
350
C7
  3
CTABLESTYLE
350
C6
  0
LAYOUT
  5
1E
102
{ACAD_REACTORS
330
1A
102
}
330
1A
100
AcDbPlotSettings
  1

  2
none_device
  4

  6

 40
0.0
 41
0.0
 42
0.0
 43
0.0
 44
0.0
 45
0.0
 46
0.0
 47
0.0
 48
0.0
 49
0.0
140
0.0
141
0.0
142
1.0
143
1.0
 70
   688
 72
     0
 73
     0
 74
     5
  7

 75
    16
 76
     0
 77
     2
 78
   300
147
1.0
148
0.0
149
0.0
100
AcDbLayout
  1
Layout1
 70
     1
 71
     1
 10
0.0
 20
0.0
 11
12.0
 21
9.0
 12
0.0
 22
0.0
 32
0.0
 14
1.000000000000000E+20
 24
1.000000000000000E+20
 34
1.000000000000000E+20
 15
-1.000000000000000E+20
 25
-1.000000000000000E+20
 35
-1.000000000000000E+20
146
0.0
 13
0.0
 23
0.0
 33
0.0
 16
1.0
 26
0.0
 36
0.0
 17
0.0
 27
1.0
 37
0.0
 76
     0
330
1B
  0
LAYOUT
  5
26
102
{ACAD_REACTORS
330
1A
102
}
330
1A
100
AcDbPlotSettings
  1

  2
none_device
  4

  6

 40
0.0
 41
0.0
 42
0.0
 43
0.0
 44
0.0
 45
0.0
 46
0.0
 47
0.0
 48
0.0
 49
0.0
140
0.0
141
0.0
142
1.0
143
1.0
 70
   688
 72
     0
 73
     0
 74
     5
  7

 75
    16
 76
     0
 77
     2
 78
   300
147
1.0
148
0.0
149
0.0
100
AcDbLayout
  1
Layout2
 70
     1
 71
     2
 10
0.0
 20
0.0
 11
0.0
 21
0.0
 12
0.0
 22
0.0
 32
0.0
 14
0.0
 24
0.0
 34
0.0
 15
0.0
 25
0.0
 35
0.0
146
0.0
 13
0.0
 23
0.0
 33
0.0
 16
1.0
 26
0.0
 36
0.0
 17
0.0
 27
1.0
 37
0.0
 76
     0
330
23
  0
LAYOUT
  5
22
102
{ACAD_REACTORS
330
1A
102
}
330
1A
100
AcDbPlotSettings
  1

  2
none_device
  4
Letter_(8.50_x_11.00_Inches)
  6

 40
6.35
 41
6.35
 42
6.35000508
 43
6.35000508
 44
215.9
 45
279.4
 46
0.0
 47
0.0
 48
0.0
 49
0.0
140
0.0
141
0.0
142
1.0
143
1.0
 70
  1712
 72
     0
 73
     0
 74
     0
  7

 75
     0
 76
     0
 77
     2
 78
   300
147
1.0
148
0.0
149
0.0
100
AcDbLayout
  1
Model
 70
     1
 71
     0
 10
0.0
 20
0.0
 11
12.0
 21
9.0
 12
0.0
 22
0.0
 32
0.0
 14
209.6257
 24
-310.9852
 34
0.0
 15
1107.2074
 25
266.7765
 35
0.0
146
0.0
 13
0.0
 23
0.0
 33
0.0
 16
1.0
 26
0.0
 36
0.0
 17
0.0
 27
1.0
 37
0.0
 76
     0
330
1F
331
29
  0
MATERIAL
  5
45
102
{ACAD_REACTORS
330
43
102
}
330
43
100
AcDbMaterial
  1
ByBlock
 72
     1
 94
      127
  0
MATERIAL
  5
44
102
{ACAD_REACTORS
330
43
102
}
330
43
100
AcDbMaterial
  1
ByLayer
 72
     1
 94
      127
  0
MATERIAL
  5
46
102
{ACAD_REACTORS
330
43
102
}
330
43
100
AcDbMaterial
  1
Global
 72
     1
 94
      127
  0
MLEADERSTYLE
  5
5C
102
{ACAD_REACTORS
330
5B
102
}
330
5B
100
AcDbMLeaderStyle
179
     2
170
     2
171
     1
172
     0
 90
        2
 40
0.0
 41
0.0
173
     1
 91
-1056964608
340
14
 92
       -2
290
     1
 42
0.09
291
     1
 43
0.36
  3
Standard
341
0
 44
0.18
300

342
11
174
     1
178
     6
175
     1
176
     0
 93
-1056964608
 45
0.18
292
     0
297
     0
 46
0.18
343
0
 94
-1056964608
 47
1.0
 49
1.0
140
1.0
293
     1
141
0.0
294
     1
177
     0
142
1.0
295
     0
296
     0
143
0.125
271
     0
272
     9
273
     9
298
     0
  0
MLINESTYLE
  5
18
102
{ACAD_REACTORS
330
17
102
}
330
17
100
AcDbMlineStyle
  2
Standard
 70
     0
  3

 62
   256
 51
90.0
 52
90.0
 71
     2
 49
0.5
 62
   256
  6
BYLAYER
 49
-0.5
 62
   256
  6
BYLAYER
  0
ACDBPLACEHOLDER
  5
F
102
{ACAD_REACTORS
330
E
102
}
330
E
  0
SCALE
  5
48
102
{ACAD_REACTORS
330
47
102
}
330
47
100
AcDbScale
 70
     0
300
1:1
140
1.0
141
1.0
290
     1
  0
SCALE
  5
49
102
{ACAD_REACTORS
330
47
102
}
330
47
100
AcDbScale
 70
     0
300
1/128" = 1'-0"
140
0.0078125
141
12.0
290
     0
  0
SCALE
  5
4A
102
{ACAD_REACTORS
330
47
102
}
330
47
100
AcDbScale
 70
     0
300
1/64" = 1'-0"
140
0.015625
141
12.0
290
     0
  0
SCALE
  5
4B
102
{ACAD_REACTORS
330
47
102
}
330
47
100
AcDbScale
 70
     0
300
1/32" = 1'-0"
140
0.03125
141
12.0
290
     0
  0
SCALE
  5
4C
102
{ACAD_REACTORS
330
47
102
}
330
47
100
AcDbScale
 70
     0
300
1/16" = 1'-0"
140
0.0625
141
12.0
290
     0
  0
SCALE
  5
4D
102
{ACAD_REACTORS
330
47
102
}
330
47
100
AcDbScale
 70
     0
300
3/32" = 1'-0"
140
0.09375
141
12.0
290
     0
  0
SCALE
  5
4E
102
{ACAD_REACTORS
330
47
102
}
330
47
100
AcDbScale
 70
     0
300
1/8" = 1'-0"
140
0.125
141
12.0
290
     0
  0
SCALE
  5
4F
102
{ACAD_REACTORS
330
47
102
}
330
47
100
AcDbScale
 70
     0
300
3/16" = 1'-0"
140
0.1875
141
12.0
290
     0
  0
SCALE
  5
50
102
{ACAD_REACTORS
330
47
102
}
330
47
100
AcDbScale
 70
     0
300
1/4" = 1'-0"
140
0.25
141
12.0
290
     0
  0
SCALE
  5
51
102
{ACAD_REACTORS
330
47
102
}
330
47
100
AcDbScale
 70
     0
300
3/8" = 1'-0"
140
0.375
141
12.0
290
     0
  0
SCALE
  5
52
102
{ACAD_REACTORS
330
47
102
}
330
47
100
AcDbScale
 70
     0
300
1/2" = 1'-0"
140
0.5
141
12.0
290
     0
  0
SCALE
  5
53
102
{ACAD_REACTORS
330
47
102
}
330
47
100
AcDbScale
 70
     0
300
3/4" = 1'-0"
140
0.75
141
12.0
290
     0
  0
SCALE
  5
54
102
{ACAD_REACTORS
330
47
102
}
330
47
100
AcDbScale
 70
     0
300
1" = 1'-0"
140
1.0
141
12.0
290
     0
  0
SCALE
  5
55
102
{ACAD_REACTORS
330
47
102
}
330
47
100
AcDbScale
 70
     0
300
1-1/2" = 1'-0"
140
1.5
141
12.0
290
     0
  0
SCALE
  5
56
102
{ACAD_REACTORS
330
47
102
}
330
47
100
AcDbScale
 70
     0
300
3" = 1'-0"
140
3.0
141
12.0
290
     0
  0
SCALE
  5
57
102
{ACAD_REACTORS
330
47
102
}
330
47
100
AcDbScale
 70
     0
300
6" = 1'-0"
140
6.0
141
12.0
290
     0
  0
SCALE
  5
58
102
{ACAD_REACTORS
330
47
102
}
330
47
100
AcDbScale
 70
     0
300
1'-0" = 1'-0"
140
12.0
141
12.0
290
     0
  0
TABLESTYLE
  5
5A
102
{ACAD_REACTORS
330
59
102
}
102
{ACAD_XDICTIONARY
360
C3
102
}
330
59
100
AcDbTableStyle
  3
Standard
 70
     0
 71
     0
 40
0.06
 41
0.06
280
     0
281
     0
  7
Standard
140
0.18
170
     2
 62
     0
 63
   257
283
     0
 90
        4
 91
        0
  1

274
    -2
284
     1
 64
     0
275
    -2
285
     1
 65
     0
276
    -2
286
     1
 66
     0
277
    -2
287
     1
 67
     0
278
    -2
288
     1
 68
     0
279
    -2
289
     1
 69
     0
  7
Standard
140
0.25
170
     5
 62
     0
 63
   257
283
     0
 90
        4
 91
        0
  1

274
    -2
284
     1
 64
     0
275
    -2
285
     1
 65
     0
276
    -2
286
     1
 66
     0
277
    -2
287
     1
 67
     0
278
    -2
288
     1
 68
     0
279
    -2
289
     1
 69
     0
  7
Standard
140
0.18
170
     5
 62
     0
 63
   257
283
     0
 90
        4
 91
        0
  1

274
    -2
284
     1
 64
     0
275
    -2
285
     1
 65
     0
276
    -2
286
     1
 66
     0
277
    -2
287
     1
 67
     0
278
    -2
288
     1
 68
     0
279
    -2
289
     1
 69
     0
  0
VISUALSTYLE
  5
2F
102
{ACAD_REACTORS
330
2A
102
}
330
2A
100
AcDbVisualStyle
  2
2dWireframe
 70
     4
177
     3
291
     0
 70
    58
 90
        0
176
     1
 90
        2
176
     1
 90
        0
176
     1
 90
        0
176
     1
 40
0.6
176
     1
 40
30.0
176
     1
 62
     7
420
 16777215
176
     1
 90
        1
176
     1
 90
        4
176
     1
 62
     7
176
     1
 62
   257
176
     1
 90
        1
176
     1
 90
        1
176
     1
 40
1.0
176
     1
 90
        0
176
     1
 62
   257
176
     1
 40
1.0
176
     1
 90
        1
176
     1
 90
        6
176
     1
 90
        2
176
     1
 62
     7
176
     1
 90
        5
176
     1
 90
        0
176
     1
 90
        0
176
     1
290
     0
176
     1
 90
        1
176
     1
 40
0.0
176
     1
 90
        0
176
     1
290
     1
176
     1
290
     1
176
     1
290
     0
176
     1
290
     0
176
     1
290
     0
176
     1
290
     0
176
     1
290
     0
176
     1
290
     0
176
     1
290
     0
176
     1
 90
       50
176
     1
 40
0.0
176
     1
 40
1.0
176
     1
 90
        0
176
     1
 62
    18
420
        0
176
     1
 90
       50
176
     1
 90
        3
176
     1
 62
     5
420
      255
176
     1
290
     0
176
     1
 90
       50
176
     1
 90
       50
176
     1
 90
       50
176
     1
290
     0
176
     1
 90
       50
176
     1
 62
   256
176
     0
 40
1.0
176
     0
 90
        2
176
     1
  1
strokes_ogs.tif
176
     1
290
     0
176
     1
 40
1.0
176
     1
 40
1.0
176
     1
  0
VISUALSTYLE
  5
32
102
{ACAD_REACTORS
330
2A
102
}
330
2A
100
AcDbVisualStyle
  2
Basic
 70
     7
177
     3
291
     1
 70
    58
 90
        1
176
     1
 90
        0
176
     1
 90
        1
176
     1
 90
        0
176
     1
 40
0.6
176
     1
 40
30.0
176
     1
 62
     7
420
 16777215
176
     1
 90
        0
176
     1
 90
        4
176
     1
 62
     7
176
     1
 62
   257
176
     1
 90
        1
176
     1
 90
        1
176
     1
 40
1.0
176
     1
 90
        8
176
     1
 62
     7
176
     1
 40
1.0
176
     1
 90
        1
176
     1
 90
        6
176
     1
 90
        2
176
     1
 62
     7
176
     1
 90
        5
176
     1
 90
        0
176
     1
 90
        0
176
     1
290
     0
176
     1
 90
        1
176
     1
 40
0.0
176
     1
 90
        0
176
     1
290
     0
176
     1
290
     1
176
     1
290
     1
176
     1
290
     0
176
     1
290
     0
176
     1
290
     0
176
     1
290
     0
176
     1
290
     0
176
     1
290
     0
176
     1
 90
       50
176
     1
 40
0.0
176
     1
 40
1.0
176
     1
 90
        0
176
     1
 62
    18
420
        0
176
     1
 90
       50
176
     1
 90
        3
176
     1
 62
     5
420
      255
176
     1
290
     0
176
     1
 90
       50
176
     1
 90
       50
176
     1
 90
       50
176
     1
290
     0
176
     1
 90
       50
176
     1
 62
   256
176
     0
 40
1.0
176
     0
 90
        2
176
     1
  1
strokes_ogs.tif
176
     1
290
     0
176
     1
 40
1.0
176
     1
 40
1.0
176
     1
  0
VISUALSTYLE
  5
36
102
{ACAD_REACTORS
330
2A
102
}
330
2A
100
AcDbVisualStyle
  2
Brighten
 70
    12
177
     3
291
     1
 70
    58
 90
        2
176
     1
 90
        2
176
     1
 90
        0
176
     1
 90
        0
176
     1
 40
0.6
176
     1
 40
30.0
176
     1
 62
     7
420
 16777215
176
     1
 90
        1
176
     1
 90
        4
176
     1
 62
     7
176
     1
 62
   257
176
     1
 90
        1
176
     1
 90
        1
176
     1
 40
1.0
176
     1
 90
        8
176
     1
 62
     7
176
     1
 40
1.0
176
     1
 90
        1
176
     1
 90
        6
176
     1
 90
        2
176
     1
 62
     7
176
     1
 90
        5
176
     1
 90
        0
176
     1
 90
        0
176
     1
290
     0
176
     1
 90
        1
176
     1
 40
50.0
176
     1
 90
        0
176
     1
290
     0
176
     1
290
     1
176
     1
290
     1
176
     1
290
     0
176
     1
290
     0
176
     1
290
     0
176
     1
290
     0
176
     1
290
     0
176
     1
290
     0
176
     1
 90
       50
176
     1
 40
0.0
176
     1
 40
1.0
176
     1
 90
        0
176
     1
 62
    18
420
        0
176
     1
 90
       50
176
     1
 90
        3
176
     1
 62
     5
420
      255
176
     1
290
     0
176
     1
 90
       50
176
     1
 90
       50
176
     1
 90
       50
176
     1
290
     0
176
     1
 90
       50
176
     1
 62
   256
176
     0
 40
1.0
176
     0
 90
        2
176
     1
  1
strokes_ogs.tif
176
     1
290
     0
176
     1
 40
1.0
176
     1
 40
1.0
176
     1
  0
VISUALSTYLE
  5
3A
102
{ACAD_REACTORS
330
2A
102
}
330
2A
100
AcDbVisualStyle
  2
ColorChange
 70
    16
177
     3
291
     1
 70
    58
 90
        2
176
     1
 90
        2
176
     1
 90
        3
176
     1
 90
        0
176
     1
 40
0.6
176
     1
 40
30.0
176
     1
 62
     8
420
  8421504
176
     1
 90
        1
176
     1
 90
        4
176
     1
 62
     7
176
     1
 62
   257
176
     1
 90
        1
176
     1
 90
        1
176
     1
 40
1.0
176
     1
 90
        8
176
     1
 62
     8
420
  8421504
176
     1
 40
1.0
176
     1
 90
        1
176
     1
 90
        6
176
     1
 90
        2
176
     1
 62
     7
176
     1
 90
        5
176
     1
 90
        0
176
     1
 90
        0
176
     1
290
     0
176
     1
 90
        1
176
     1
 40
0.0
176
     1
 90
        0
176
     1
290
     0
176
     1
290
     1
176
     1
290
     1
176
     1
290
     0
176
     1
290
     0
176
     1
290
     0
176
     1
290
     0
176
     1
290
     0
176
     1
290
     0
176
     1
 90
       50
176
     1
 40
0.0
176
     1
 40
1.0
176
     1
 90
        0
176
     1
 62
    18
420
        0
176
     1
 90
       50
176
     1
 90
        3
176
     1
 62
     5
420
      255
176
     1
290
     0
176
     1
 90
       50
176
     1
 90
       50
176
     1
 90
       50
176
     1
290
     0
176
     1
 90
       50
176
     1
 62
   256
176
     0
 40
1.0
176
     0
 90
        2
176
     1
  1
strokes_ogs.tif
176
     1
290
     0
176
     1
 40
1.0
176
     1
 40
1.0
176
     1
  0
VISUALSTYLE
  5
34
102
{ACAD_REACTORS
330
2A
102
}
330
2A
100
AcDbVisualStyle
  2
Conceptual
 70
     9
177
     3
291
     0
 70
    58
 90
        3
176
     1
 90
        2
176
     1
 90
        0
176
     1
 90
        0
176
     1
 40
0.6
176
     1
 40
30.0
176
     1
 62
     7
420
 16777215
176
     1
 90
        2
176
     1
 90
        2
176
     1
 62
     7
176
     1
 62
   257
176
     1
 90
        1
176
     1
 90
        1
176
     1
 40
179.0
176
     1
 90
        8
176
     1
 62
     7
176
     1
 40
1.0
176
     1
 90
        1
176
     1
 90
        6
176
     1
 90
        2
176
     1
 62
     7
176
     1
 90
        3
176
     1
 90
        0
176
     1
 90
        0
176
     1
290
     0
176
     1
 90
        1
176
     1
 40
0.0
176
     1
 90
        0
176
     1
290
     0
176
     1
290
     1
176
     1
290
     1
176
     1
290
     0
176
     1
290
     0
176
     1
290
     0
176
     1
290
     0
176
     1
290
     0
176
     1
290
     0
176
     1
 90
       50
176
     1
 40
0.0
176
     1
 40
1.0
176
     1
 90
        0
176
     1
 62
    18
420
        0
176
     1
 90
       50
176
     1
 90
        3
176
     1
 62
     5
420
      255
176
     1
290
     0
176
     1
 90
       50
176
     1
 90
       50
176
     1
 90
       50
176
     1
290
     0
176
     1
 90
       50
176
     1
 62
   256
176
     0
 40
1.0
176
     0
 90
        2
176
     1
  1
strokes_ogs.tif
176
     1
290
     0
176
     1
 40
1.0
176
     1
 40
1.0
176
     1
  0
VISUALSTYLE
  5
35
102
{ACAD_REACTORS
330
2A
102
}
330
2A
100
AcDbVisualStyle
  2
Dim
 70
    11
177
     3
291
     1
 70
    58
 90
        2
176
     1
 90
        2
176
     1
 90
        0
176
     1
 90
        0
176
     1
 40
0.6
176
     1
 40
30.0
176
     1
 62
     7
420
 16777215
176
     1
 90
        1
176
     1
 90
        4
176
     1
 62
     7
176
     1
 62
   257
176
     1
 90
        1
176
     1
 90
        1
176
     1
 40
1.0
176
     1
 90
        8
176
     1
 62
     7
176
     1
 40
1.0
176
     1
 90
        1
176
     1
 90
        6
176
     1
 90
        2
176
     1
 62
     7
176
     1
 90
        5
176
     1
 90
        0
176
     1
 90
        0
176
     1
290
     0
176
     1
 90
        1
176
     1
 40
-50.0
176
     1
 90
        0
176
     1
290
     0
176
     1
290
     1
176
     1
290
     1
176
     1
290
     0
176
     1
290
     0
176
     1
290
     0
176
     1
290
     0
176
     1
290
     0
176
     1
290
     0
176
     1
 90
       50
176
     1
 40
0.0
176
     1
 40
1.0
176
     1
 90
        0
176
     1
 62
    18
420
        0
176
     1
 90
       50
176
     1
 90
        3
176
     1
 62
     5
420
      255
176
     1
290
     0
176
     1
 90
       50
176
     1
 90
       50
176
     1
 90
       50
176
     1
290
     0
176
     1
 90
       50
176
     1
 62
   256
176
     0
 40
1.0
176
     0
 90
        2
176
     1
  1
strokes_ogs.tif
176
     1
290
     0
176
     1
 40
1.0
176
     1
 40
1.0
176
     1
  0
VISUALSTYLE
  5
3D
102
{ACAD_REACTORS
330
2A
102
}
330
2A
100
AcDbVisualStyle
  2
EdgeColorOff
 70
    22
177
     3
291
     1
 70
    58
 90
        2
176
     0
 90
        2
176
     0
 90
        0
176
     0
 90
        0
176
     0
 40
0.6
176
     0
 40
30.0
176
     0
 62
     7
420
 16777215
176
     0
 90
        1
176
     0
 90
        4
176
     0
 62
     7
176
     0
 62
   257
176
     0
 90
        1
176
     0
 90
        1
176
     0
 40
1.0
176
     0
 90
        8
176
     2
 62
     7
176
     0
 40
1.0
176
     0
 90
        1
176
     0
 90
        6
176
     0
 90
        2
176
     0
 62
     7
176
     0
 90
        5
176
     0
 90
        0
176
     0
 90
        0
176
     0
290
     0
176
     0
 90
        1
176
     0
 40
0.0
176
     0
 90
        0
176
     0
290
     0
176
     0
290
     1
176
     0
290
     1
176
     0
290
     0
176
     0
290
     0
176
     0
290
     0
176
     0
290
     0
176
     0
290
     0
176
     0
290
     0
176
     0
 90
       50
176
     0
 40
0.0
176
     0
 40
1.0
176
     0
 90
        0
176
     0
 62
    18
420
        0
176
     0
 90
       50
176
     0
 90
        3
176
     0
 62
     5
420
      255
176
     0
290
     0
176
     0
 90
       50
176
     0
 90
       50
176
     0
 90
       50
176
     0
290
     0
176
     0
 90
       50
176
     0
 62
   256
176
     0
 40
1.0
176
     0
 90
        2
176
     0
  1
strokes_ogs.tif
176
     0
290
     0
176
     0
 40
1.0
176
     0
 40
1.0
176
     0
  0
VISUALSTYLE
  5
39
102
{ACAD_REACTORS
330
2A
102
}
330
2A
100
AcDbVisualStyle
  2
Facepattern
 70
    15
177
     3
291
     1
 70
    58
 90
        2
176
     1
 90
        2
176
     1
 90
        0
176
     1
 90
        0
176
     1
 40
0.6
176
     1
 40
30.0
176
     1
 62
     7
420
 16777215
176
     1
 90
        1
176
     1
 90
        4
176
     1
 62
     7
176
     1
 62
   257
176
     1
 90
        1
176
     1
 90
        1
176
     1
 40
1.0
176
     1
 90
        8
176
     1
 62
     7
176
     1
 40
1.0
176
     1
 90
        1
176
     1
 90
        6
176
     1
 90
        2
176
     1
 62
     7
176
     1
 90
        5
176
     1
 90
        0
176
     1
 90
        0
176
     1
290
     0
176
     1
 90
        1
176
     1
 40
0.0
176
     1
 90
        0
176
     1
290
     0
176
     1
290
     1
176
     1
290
     1
176
     1
290
     0
176
     1
290
     0
176
     1
290
     0
176
     1
290
     0
176
     1
290
     0
176
     1
290
     0
176
     1
 90
       50
176
     1
 40
0.0
176
     1
 40
1.0
176
     1
 90
        0
176
     1
 62
    18
420
        0
176
     1
 90
       50
176
     1
 90
        3
176
     1
 62
     5
420
      255
176
     1
290
     0
176
     1
 90
       50
176
     1
 90
       50
176
     1
 90
       50
176
     1
290
     0
176
     1
 90
       50
176
     1
 62
   256
176
     0
 40
1.0
176
     0
 90
        2
176
     1
  1
strokes_ogs.tif
176
     1
290
     0
176
     1
 40
1.0
176
     1
 40
1.0
176
     1
  0
VISUALSTYLE
  5
2B
102
{ACAD_REACTORS
330
2A
102
}
330
2A
100
AcDbVisualStyle
  2
Flat
 70
     0
177
     3
291
     1
 70
    58
 90
        2
176
     1
 90
        1
176
     1
 90
        1
176
     1
 90
        2
176
     1
 40
0.6
176
     1
 40
30.0
176
     1
 62
     7
420
 16777215
176
     1
 90
        0
176
     1
 90
        0
176
     1
 62
     7
176
     1
 62
   257
176
     1
 90
        1
176
     1
 90
        1
176
     1
 40
1.0
176
     1
 90
        8
176
     1
 62
     7
176
     1
 40
1.0
176
     1
 90
        1
176
     1
 90
        6
176
     1
 90
        2
176
     1
 62
     7
176
     1
 90
        5
176
     1
 90
        0
176
     1
 90
        0
176
     1
290
     0
176
     1
 90
       13
176
     1
 40
0.0
176
     1
 90
        0
176
     1
290
     0
176
     1
290
     1
176
     1
290
     1
176
     1
290
     0
176
     1
290
     0
176
     1
290
     0
176
     1
290
     0
176
     1
290
     0
176
     1
290
     0
176
     1
 90
       50
176
     1
 40
0.0
176
     1
 40
1.0
176
     1
 90
        0
176
     1
 62
    18
420
        0
176
     1
 90
       50
176
     1
 90
        3
176
     1
 62
     5
420
      255
176
     1
290
     0
176
     1
 90
       50
176
     1
 90
       50
176
     1
 90
       50
176
     1
290
     0
176
     1
 90
       50
176
     1
 62
   256
176
     0
 40
1.0
176
     0
 90
        2
176
     1
  1
strokes_ogs.tif
176
     1
290
     0
176
     1
 40
1.0
176
     1
 40
1.0
176
     1
  0
VISUALSTYLE
  5
2C
102
{ACAD_REACTORS
330
2A
102
}
330
2A
100
AcDbVisualStyle
  2
FlatWithEdges
 70
     1
177
     3
291
     1
 70
    58
 90
        2
176
     1
 90
        1
176
     1
 90
        1
176
     1
 90
        2
176
     1
 40
0.6
176
     1
 40
30.0
176
     1
 62
     7
420
 16777215
176
     1
 90
        1
176
     1
 90
        0
176
     1
 62
     7
176
     1
 62
   257
176
     1
 90
        1
176
     1
 90
        1
176
     1
 40
1.0
176
     1
 90
        0
176
     1
 62
   257
176
     1
 40
1.0
176
     1
 90
        1
176
     1
 90
        6
176
     1
 90
        2
176
     1
 62
     7
176
     1
 90
        5
176
     1
 90
        0
176
     1
 90
        0
176
     1
290
     0
176
     1
 90
       13
176
     1
 40
0.0
176
     1
 90
        0
176
     1
290
     0
176
     1
290
     1
176
     1
290
     1
176
     1
290
     0
176
     1
290
     0
176
     1
290
     0
176
     1
290
     0
176
     1
290
     0
176
     1
290
     0
176
     1
 90
       50
176
     1
 40
0.0
176
     1
 40
1.0
176
     1
 90
        0
176
     1
 62
    18
420
        0
176
     1
 90
       50
176
     1
 90
        3
176
     1
 62
     5
420
      255
176
     1
290
     0
176
     1
 90
       50
176
     1
 90
       50
176
     1
 90
       50
176
     1
290
     0
176
     1
 90
       50
176
     1
 62
   256
176
     0
 40
1.0
176
     0
 90
        2
176
     1
  1
strokes_ogs.tif
176
     1
290
     0
176
     1
 40
1.0
176
     1
 40
1.0
176
     1
  0
VISUALSTYLE
  5
2D
102
{ACAD_REACTORS
330
2A
102
}
330
2A
100
AcDbVisualStyle
  2
Gouraud
 70
     2
177
     3
291
     1
 70
    58
 90
        2
176
     1
 90
        2
176
     1
 90
        1
176
     1
 90
        2
176
     1
 40
0.6
176
     1
 40
30.0
176
     1
 62
     7
420
 16777215
176
     1
 90
        0
176
     1
 90
        0
176
     1
 62
     7
176
     1
 62
   257
176
     1
 90
        1
176
     1
 90
        1
176
     1
 40
1.0
176
     1
 90
        0
176
     1
 62
     7
176
     1
 40
1.0
176
     1
 90
        1
176
     1
 90
        6
176
     1
 90
        2
176
     1
 62
     7
176
     1
 90
        5
176
     1
 90
        0
176
     1
 90
        0
176
     1
290
     0
176
     1
 90
       13
176
     1
 40
0.0
176
     1
 90
        0
176
     1
290
     0
176
     1
290
     1
176
     1
290
     1
176
     1
290
     0
176
     1
290
     0
176
     1
290
     0
176
     1
290
     0
176
     1
290
     0
176
     1
290
     0
176
     1
 90
       50
176
     1
 40
0.0
176
     1
 40
1.0
176
     1
 90
        0
176
     1
 62
    18
420
        0
176
     1
 90
       50
176
     1
 90
        3
176
     1
 62
     5
420
      255
176
     1
290
     0
176
     1
 90
       50
176
     1
 90
       50
176
     1
 90
       50
176
     1
290
     0
176
     1
 90
       50
176
     1
 62
   256
176
     0
 40
1.0
176
     0
 90
        2
176
     1
  1
strokes_ogs.tif
176
     1
290
     0
176
     1
 40
1.0
176
     1
 40
1.0
176
     1
  0
VISUALSTYLE
  5
2E
102
{ACAD_REACTORS
330
2A
102
}
330
2A
100
AcDbVisualStyle
  2
GouraudWithEdges
 70
     3
177
     3
291
     1
 70
    58
 90
        2
176
     1
 90
        2
176
     1
 90
        1
176
     1
 90
        2
176
     1
 40
0.6
176
     1
 40
30.0
176
     1
 62
     7
420
 16777215
176
     1
 90
        1
176
     1
 90
        0
176
     1
 62
     7
176
     1
 62
   257
176
     1
 90
        1
176
     1
 90
        1
176
     1
 40
1.0
176
     1
 90
        0
176
     1
 62
   257
176
     1
 40
1.0
176
     1
 90
        1
176
     1
 90
        6
176
     1
 90
        2
176
     1
 62
     7
176
     1
 90
        5
176
     1
 90
        0
176
     1
 90
        0
176
     1
290
     0
176
     1
 90
       13
176
     1
 40
0.0
176
     1
 90
        0
176
     1
290
     0
176
     1
290
     1
176
     1
290
     1
176
     1
290
     0
176
     1
290
     0
176
     1
290
     0
176
     1
290
     0
176
     1
290
     0
176
     1
290
     0
176
     1
 90
       50
176
     1
 40
0.0
176
     1
 40
1.0
176
     1
 90
        0
176
     1
 62
    18
420
        0
176
     1
 90
       50
176
     1
 90
        3
176
     1
 62
     5
420
      255
176
     1
290
     0
176
     1
 90
       50
176
     1
 90
       50
176
     1
 90
       50
176
     1
290
     0
176
     1
 90
       50
176
     1
 62
   256
176
     0
 40
1.0
176
     0
 90
        2
176
     1
  1
strokes_ogs.tif
176
     1
290
     0
176
     1
 40
1.0
176
     1
 40
1.0
176
     1
  0
VISUALSTYLE
  5
31
102
{ACAD_REACTORS
330
2A
102
}
330
2A
100
AcDbVisualStyle
  2
Hidden
 70
     6
177
     3
291
     0
 70
    58
 90
        1
176
     1
 90
        2
176
     1
 90
        2
176
     1
 90
        0
176
     1
 40
0.6
176
     1
 40
30.0
176
     1
 62
     7
420
 16777215
176
     1
 90
        2
176
     1
 90
        2
176
     1
 62
     7
176
     1
 62
   257
176
     1
 90
        2
176
     1
 90
        1
176
     1
 40
40.0
176
     1
 90
        0
176
     1
 62
   257
176
     1
 40
1.0
176
     1
 90
        1
176
     1
 90
        6
176
     1
 90
        2
176
     1
 62
     7
176
     1
 90
        3
176
     1
 90
        0
176
     1
 90
        0
176
     1
290
     0
176
     1
 90
        1
176
     1
 40
0.0
176
     1
 90
        0
176
     1
290
     0
176
     1
290
     1
176
     1
290
     1
176
     1
290
     0
176
     1
290
     0
176
     1
290
     0
176
     1
290
     0
176
     1
290
     0
176
     1
290
     0
176
     1
 90
       50
176
     1
 40
0.0
176
     1
 40
1.0
176
     1
 90
        0
176
     1
 62
    18
420
        0
176
     1
 90
       50
176
     1
 90
        3
176
     1
 62
     5
420
      255
176
     1
290
     0
176
     1
 90
       50
176
     1
 90
       50
176
     1
 90
       50
176
     1
290
     0
176
     1
 90
       50
176
     1
 62
   256
176
     0
 40
1.0
176
     0
 90
        2
176
     1
  1
strokes_ogs.tif
176
     1
290
     0
176
     1
 40
1.0
176
     1
 40
1.0
176
     1
  0
VISUALSTYLE
  5
3B
102
{ACAD_REACTORS
330
2A
102
}
330
2A
100
AcDbVisualStyle
  2
JitterOff
 70
    20
177
     3
291
     1
 70
    58
 90
        2
176
     0
 90
        2
176
     0
 90
        0
176
     0
 90
        0
176
     0
 40
0.6
176
     0
 40
30.0
176
     0
 62
     7
420
 16777215
176
     0
 90
        1
176
     0
 90
        4
176
     0
 62
     7
176
     0
 62
   257
176
     0
 90
        1
176
     0
 90
        1
176
     0
 40
1.0
176
     0
 90
       10
176
     2
 62
     7
176
     0
 40
1.0
176
     0
 90
        1
176
     0
 90
        6
176
     0
 90
        2
176
     0
 62
     7
176
     0
 90
        5
176
     0
 90
        0
176
     0
 90
        0
176
     0
290
     0
176
     0
 90
        1
176
     0
 40
0.0
176
     0
 90
        0
176
     0
290
     0
176
     0
290
     1
176
     0
290
     1
176
     0
290
     0
176
     0
290
     0
176
     0
290
     0
176
     0
290
     0
176
     0
290
     0
176
     0
290
     0
176
     0
 90
       50
176
     0
 40
0.0
176
     0
 40
1.0
176
     0
 90
        0
176
     0
 62
    18
420
        0
176
     0
 90
       50
176
     0
 90
        3
176
     0
 62
     5
420
      255
176
     0
290
     0
176
     0
 90
       50
176
     0
 90
       50
176
     0
 90
       50
176
     0
290
     0
176
     0
 90
       50
176
     0
 62
   256
176
     0
 40
1.0
176
     0
 90
        2
176
     0
  1
strokes_ogs.tif
176
     0
290
     0
176
     0
 40
1.0
176
     0
 40
1.0
176
     0
  0
VISUALSTYLE
  5
38
102
{ACAD_REACTORS
330
2A
102
}
330
2A
100
AcDbVisualStyle
  2
Linepattern
 70
    14
177
     3
291
     1
 70
    58
 90
        2
176
     1
 90
        2
176
     1
 90
        0
176
     1
 90
        0
176
     1
 40
0.6
176
     1
 40
30.0
176
     1
 62
     7
420
 16777215
176
     1
 90
        1
176
     1
 90
        4
176
     1
 62
     7
176
     1
 62
   257
176
     1
 90
        7
176
     1
 90
        7
176
     1
 40
1.0
176
     1
 90
        8
176
     1
 62
     7
176
     1
 40
1.0
176
     1
 90
        1
176
     1
 90
        6
176
     1
 90
        2
176
     1
 62
     7
176
     1
 90
        5
176
     1
 90
        0
176
     1
 90
        0
176
     1
290
     0
176
     1
 90
        1
176
     1
 40
0.0
176
     1
 90
        0
176
     1
290
     0
176
     1
290
     1
176
     1
290
     1
176
     1
290
     0
176
     1
290
     0
176
     1
290
     0
176
     1
290
     0
176
     1
290
     0
176
     1
290
     0
176
     1
 90
       50
176
     1
 40
0.0
176
     1
 40
1.0
176
     1
 90
        0
176
     1
 62
    18
420
        0
176
     1
 90
       50
176
     1
 90
        3
176
     1
 62
     5
420
      255
176
     1
290
     0
176
     1
 90
       50
176
     1
 90
       50
176
     1
 90
       50
176
     1
290
     0
176
     1
 90
       50
176
     1
 62
   256
176
     0
 40
1.0
176
     0
 90
        2
176
     1
  1
strokes_ogs.tif
176
     1
290
     0
176
     1
 40
1.0
176
     1
 40
1.0
176
     1
  0
VISUALSTYLE
  5
3C
102
{ACAD_REACTORS
330
2A
102
}
330
2A
100
AcDbVisualStyle
  2
OverhangOff
 70
    21
177
     3
291
     1
 70
    58
 90
        2
176
     0
 90
        2
176
     0
 90
        0
176
     0
 90
        0
176
     0
 40
0.6
176
     0
 40
30.0
176
     0
 62
     7
420
 16777215
176
     0
 90
        1
176
     0
 90
        4
176
     0
 62
     7
176
     0
 62
   257
176
     0
 90
        1
176
     0
 90
        1
176
     0
 40
1.0
176
     0
 90
        9
176
     2
 62
     7
176
     0
 40
1.0
176
     0
 90
        1
176
     0
 90
        6
176
     0
 90
        2
176
     0
 62
     7
176
     0
 90
        5
176
     0
 90
        0
176
     0
 90
        0
176
     0
290
     0
176
     0
 90
        1
176
     0
 40
0.0
176
     0
 90
        0
176
     0
290
     0
176
     0
290
     1
176
     0
290
     1
176
     0
290
     0
176
     0
290
     0
176
     0
290
     0
176
     0
290
     0
176
     0
290
     0
176
     0
290
     0
176
     0
 90
       50
176
     0
 40
0.0
176
     0
 40
1.0
176
     0
 90
        0
176
     0
 62
    18
420
        0
176
     0
 90
       50
176
     0
 90
        3
176
     0
 62
     5
420
      255
176
     0
290
     0
176
     0
 90
       50
176
     0
 90
       50
176
     0
 90
       50
176
     0
290
     0
176
     0
 90
       50
176
     0
 62
   256
176
     0
 40
1.0
176
     0
 90
        2
176
     0
  1
strokes_ogs.tif
176
     0
290
     0
176
     0
 40
1.0
176
     0
 40
1.0
176
     0
  0
VISUALSTYLE
  5
33
102
{ACAD_REACTORS
330
2A
102
}
330
2A
100
AcDbVisualStyle
  2
Realistic
 70
     8
177
     3
291
     0
 70
    58
 90
        2
176
     1
 90
        3
176
     1
 90
        0
176
     1
 90
        2
176
     1
 40
0.6
176
     1
 40
30.0
176
     1
 62
     7
420
 16777215
176
     1
 90
        0
176
     1
 90
        0
176
     1
 62
     7
176
     1
 62
   257
176
     1
 90
        1
176
     1
 90
        1
176
     1
 40
1.0
176
     1
 90
        8
176
     1
 62
   257
176
     1
 40
1.0
176
     1
 90
        1
176
     1
 90
        6
176
     1
 90
        2
176
     1
 62
     7
176
     1
 90
        3
176
     1
 90
        0
176
     1
 90
        0
176
     1
290
     0
176
     1
 90
       13
176
     1
 40
0.0
176
     1
 90
        0
176
     1
290
     0
176
     1
290
     1
176
     1
290
     1
176
     1
290
     0
176
     1
290
     0
176
     1
290
     0
176
     1
290
     0
176
     1
290
     0
176
     1
290
     0
176
     1
 90
       50
176
     1
 40
0.0
176
     1
 40
1.0
176
     1
 90
        0
176
     1
 62
    18
420
        0
176
     1
 90
       50
176
     1
 90
        3
176
     1
 62
     5
420
      255
176
     1
290
     0
176
     1
 90
       50
176
     1
 90
       50
176
     1
 90
       50
176
     1
290
     0
176
     1
 90
       50
176
     1
 62
   256
176
     0
 40
1.0
176
     0
 90
        2
176
     1
  1
strokes_ogs.tif
176
     1
290
     0
176
     1
 40
1.0
176
     1
 40
1.0
176
     1
  0
VISUALSTYLE
  5
42
102
{ACAD_REACTORS
330
2A
102
}
330
2A
100
AcDbVisualStyle
  2
Shaded
 70
    27
177
     3
291
     0
 70
    58
 90
        2
176
     1
 90
        2
176
     1
 90
        1
176
     1
 90
        2
176
     1
 40
0.6
176
     1
 40
30.0
176
     1
 62
     7
420
 16777215
176
     1
 90
        0
176
     1
 90
        4
176
     1
 62
     7
176
     1
 62
   257
176
     1
 90
        1
176
     1
 90
        1
176
     1
 40
1.0
176
     1
 90
        8
176
     1
 62
   257
176
     1
 40
1.0
176
     1
 90
        1
176
     1
 90
        6
176
     1
 90
        2
176
     1
 62
     8
420
  7895160
176
     1
 90
        3
176
     1
 90
        0
176
     1
 90
        0
176
     1
290
     0
176
     1
 90
        5
176
     1
 40
0.0
176
     1
 90
        0
176
     1
290
     0
176
     1
290
     1
176
     1
290
     1
176
     1
290
     0
176
     1
290
     0
176
     1
290
     0
176
     1
290
     0
176
     1
290
     0
176
     1
290
     0
176
     1
 90
       50
176
     1
 40
0.0
176
     1
 40
1.0
176
     1
 90
        0
176
     1
 62
    18
420
        0
176
     1
 90
       50
176
     1
 90
        3
176
     1
 62
     5
420
      255
176
     1
290
     0
176
     1
 90
       50
176
     1
 90
       50
176
     1
 90
       50
176
     1
290
     0
176
     1
 90
       50
176
     1
 62
   256
176
     0
 40
1.0
176
     0
 90
        2
176
     1
  1
strokes_ogs.tif
176
     1
290
     0
176
     1
 40
1.0
176
     1
 40
1.0
176
     1
  0
VISUALSTYLE
  5
41
102
{ACAD_REACTORS
330
2A
102
}
330
2A
100
AcDbVisualStyle
  2
Shaded with edges
 70
    26
177
     3
291
     0
 70
    58
 90
        2
176
     1
 90
        2
176
     1
 90
        1
176
     1
 90
        2
176
     1
 40
0.6
176
     1
 40
30.0
176
     1
 62
     7
420
 16777215
176
     1
 90
        1
176
     1
 90
       10
176
     1
 62
     7
176
     1
 62
   257
176
     1
 90
        2
176
     1
 90
        1
176
     1
 40
1.0
176
     1
 90
        8
176
     1
 62
   257
176
     1
 40
1.0
176
     1
 90
        1
176
     1
 90
        6
176
     1
 90
        2
176
     1
 62
     7
176
     1
 90
        3
176
     1
 90
        0
176
     1
 90
        0
176
     1
290
     0
176
     1
 90
        5
176
     1
 40
0.0
176
     1
 90
        0
176
     1
290
     0
176
     1
290
     1
176
     1
290
     1
176
     1
290
     0
176
     1
290
     0
176
     1
290
     0
176
     1
290
     0
176
     1
290
     0
176
     1
290
     0
176
     1
 90
       50
176
     1
 40
0.0
176
     1
 40
1.0
176
     1
 90
        0
176
     1
 62
    18
420
        0
176
     1
 90
       50
176
     1
 90
        3
176
     1
 62
     5
420
      255
176
     1
290
     0
176
     1
 90
       50
176
     1
 90
       50
176
     1
 90
       50
176
     1
290
     0
176
     1
 90
       50
176
     1
 62
   256
176
     0
 40
1.0
176
     0
 90
        2
176
     1
  1
strokes_ogs.tif
176
     1
290
     0
176
     1
 40
1.0
176
     1
 40
1.0
176
     1
  0
VISUALSTYLE
  5
3E
102
{ACAD_REACTORS
330
2A
102
}
330
2A
100
AcDbVisualStyle
  2
Shades of Gray
 70
    23
177
     3
291
     0
 70
    58
 90
        2
176
     1
 90
        2
176
     1
 90
        3
176
     1
 90
        0
176
     1
 40
0.6
176
     1
 40
30.0
176
     1
 62
     7
420
 16777215
176
     1
 90
        2
176
     1
 90
        2
176
     1
 62
     7
176
     1
 62
     7
176
     1
 90
        1
176
     1
 90
        1
176
     1
 40
40.0
176
     1
 90
        8
176
     1
 62
     7
176
     1
 40
1.0
176
     1
 90
        1
176
     1
 90
        6
176
     1
 90
        2
176
     1
 62
     7
176
     1
 90
        3
176
     1
 90
        0
176
     1
 90
        0
176
     1
290
     0
176
     1
 90
        1
176
     1
 40
0.0
176
     1
 90
        0
176
     1
290
     0
176
     1
290
     1
176
     1
290
     1
176
     1
290
     0
176
     1
290
     0
176
     1
290
     0
176
     1
290
     0
176
     1
290
     0
176
     1
290
     0
176
     1
 90
       50
176
     1
 40
0.0
176
     1
 40
1.0
176
     1
 90
        0
176
     1
 62
    18
420
        0
176
     1
 90
       50
176
     1
 90
        3
176
     1
 62
     5
420
      255
176
     1
290
     0
176
     1
 90
       50
176
     1
 90
       50
176
     1
 90
       50
176
     1
290
     0
176
     1
 90
       50
176
     1
 62
   256
176
     0
 40
1.0
176
     0
 90
        2
176
     1
  1
strokes_ogs.tif
176
     1
290
     0
176
     1
 40
1.0
176
     1
 40
1.0
176
     1
  0
VISUALSTYLE
  5
3F
102
{ACAD_REACTORS
330
2A
102
}
330
2A
100
AcDbVisualStyle
  2
Sketchy
 70
    24
177
     3
291
     0
 70
    58
 90
        1
176
     1
 90
        2
176
     1
 90
        2
176
     1
 90
        0
176
     1
 40
0.6
176
     1
 40
30.0
176
     1
 62
     7
420
 16777215
176
     1
 90
        2
176
     1
 90
        2
176
     1
 62
     7
176
     1
 62
     7
176
     1
 90
        1
176
     1
 90
        1
176
     1
 40
40.0
176
     1
 90
       11
176
     1
 62
     7
176
     1
 40
1.0
176
     1
 90
        1
176
     1
 90
        6
176
     1
 90
        2
176
     1
 62
     7
176
     1
 90
        6
176
     1
 90
        0
176
     1
 90
        0
176
     1
290
     0
176
     1
 90
        1
176
     1
 40
0.0
176
     1
 90
        0
176
     1
290
     0
176
     1
290
     1
176
     1
290
     1
176
     1
290
     0
176
     1
290
     0
176
     1
290
     0
176
     1
290
     0
176
     1
290
     0
176
     1
290
     0
176
     1
 90
       50
176
     1
 40
0.0
176
     1
 40
1.0
176
     1
 90
        0
176
     1
 62
    18
420
        0
176
     1
 90
       50
176
     1
 90
        3
176
     1
 62
     5
420
      255
176
     1
290
     0
176
     1
 90
       50
176
     1
 90
       50
176
     1
 90
       50
176
     1
290
     0
176
     1
 90
       50
176
     1
 62
   256
176
     0
 40
1.0
176
     0
 90
        2
176
     1
  1
strokes_ogs.tif
176
     1
290
     0
176
     1
 40
1.0
176
     1
 40
1.0
176
     1
  0
VISUALSTYLE
  5
37
102
{ACAD_REACTORS
330
2A
102
}
330
2A
100
AcDbVisualStyle
  2
Thicken
 70
    13
177
     3
291
     1
 70
    58
 90
        2
176
     1
 90
        2
176
     1
 90
        0
176
     1
 90
        0
176
     1
 40
0.6
176
     1
 40
30.0
176
     1
 62
     7
420
 16777215
176
     1
 90
        1
176
     1
 90
        4
176
     1
 62
     7
176
     1
 62
   257
176
     1
 90
        1
176
     1
 90
        1
176
     1
 40
1.0
176
     1
 90
       12
176
     1
 62
     7
176
     1
 40
1.0
176
     1
 90
        1
176
     1
 90
        6
176
     1
 90
        2
176
     1
 62
     7
176
     1
 90
        5
176
     1
 90
        0
176
     1
 90
        0
176
     1
290
     0
176
     1
 90
        1
176
     1
 40
0.0
176
     1
 90
        0
176
     1
290
     0
176
     1
290
     1
176
     1
290
     1
176
     1
290
     0
176
     1
290
     0
176
     1
290
     0
176
     1
290
     0
176
     1
290
     0
176
     1
290
     0
176
     1
 90
       50
176
     1
 40
0.0
176
     1
 40
1.0
176
     1
 90
        0
176
     1
 62
    18
420
        0
176
     1
 90
       50
176
     1
 90
        3
176
     1
 62
     5
420
      255
176
     1
290
     0
176
     1
 90
       50
176
     1
 90
       50
176
     1
 90
       50
176
     1
290
     0
176
     1
 90
       50
176
     1
 62
   256
176
     0
 40
1.0
176
     0
 90
        2
176
     1
  1
strokes_ogs.tif
176
     1
290
     0
176
     1
 40
1.0
176
     1
 40
1.0
176
     1
  0
VISUALSTYLE
  5
30
102
{ACAD_REACTORS
330
2A
102
}
330
2A
100
AcDbVisualStyle
  2
Wireframe
 70
     5
177
     3
291
     0
 70
    58
 90
        0
176
     1
 90
        2
176
     1
 90
        0
176
     1
 90
        0
176
     1
 40
0.6
176
     1
 40
30.0
176
     1
 62
     7
420
 16777215
176
     1
 90
        1
176
     1
 90
        4
176
     1
 62
     7
176
     1
 62
   257
176
     1
 90
        1
176
     1
 90
        1
176
     1
 40
1.0
176
     1
 90
        0
176
     1
 62
   257
176
     1
 40
1.0
176
     1
 90
        1
176
     1
 90
        6
176
     1
 90
        2
176
     1
 62
     7
176
     1
 90
        3
176
     1
 90
        0
176
     1
 90
        0
176
     1
290
     0
176
     1
 90
        1
176
     1
 40
0.0
176
     1
 90
        0
176
     1
290
     0
176
     1
290
     1
176
     1
290
     1
176
     1
290
     0
176
     1
290
     0
176
     1
290
     0
176
     1
290
     0
176
     1
290
     0
176
     1
290
     0
176
     1
 90
       50
176
     1
 40
0.0
176
     1
 40
1.0
176
     1
 90
        0
176
     1
 62
    18
420
        0
176
     1
 90
       50
176
     1
 90
        3
176
     1
 62
     5
420
      255
176
     1
290
     0
176
     1
 90
       50
176
     1
 90
       50
176
     1
 90
       50
176
     1
290
     0
176
     1
 90
       50
176
     1
 62
   256
176
     0
 40
1.0
176
     0
 90
        2
176
     1
  1
strokes_ogs.tif
176
     1
290
     0
176
     1
 40
1.0
176
     1
 40
1.0
176
     1
  0
VISUALSTYLE
  5
40
102
{ACAD_REACTORS
330
2A
102
}
330
2A
100
AcDbVisualStyle
  2
X-Ray
 70
    25
177
     3
291
     0
 70
    58
 90
        2
176
     1
 90
        2
176
     1
 90
        1
176
     1
 90
        1
176
     1
 40
0.5
176
     1
 40
30.0
176
     1
 62
     7
420
 16777215
176
     1
 90
        1
176
     1
 90
        0
176
     1
 62
     7
176
     1
 62
   257
176
     1
 90
        1
176
     1
 90
        1
176
     1
 40
1.0
176
     1
 90
        8
176
     1
 62
     7
176
     1
 40
1.0
176
     1
 90
        1
176
     1
 90
        6
176
     1
 90
        2
176
     1
 62
     7
176
     1
 90
        3
176
     1
 90
        0
176
     1
 90
        0
176
     1
290
     0
176
     1
 90
       13
176
     1
 40
0.0
176
     1
 90
        0
176
     1
290
     0
176
     1
290
     1
176
     1
290
     1
176
     1
290
     0
176
     1
290
     0
176
     1
290
     0
176
     1
290
     0
176
     1
290
     0
176
     1
290
     0
176
     1
 90
       50
176
     1
 40
0.0
176
     1
 40
1.0
176
     1
 90
        0
176
     1
 62
    18
420
        0
176
     1
 90
       50
176
     1
 90
        3
176
     1
 62
     5
420
      255
176
     1
290
     0
176
     1
 90
       50
176
     1
 90
       50
176
     1
 90
       50
176
     1
290
     0
176
     1
 90
       50
176
     1
 62
   256
176
     0
 40
1.0
176
     0
 90
        2
176
     1
  1
strokes_ogs.tif
176
     1
290
     0
176
     1
 40
1.0
176
     1
 40
1.0
176
     1
  0
DICTIONARYVAR
  5
C2
102
{ACAD_REACTORS
330
C1
102
}
330
C1
100
DictionaryVariables
280
     0
  1
1:1
  0
DICTIONARYVAR
  5
C7
102
{ACAD_REACTORS
330
C1
102
}
330
C1
100
DictionaryVariables
280
     0
  1
Standard
  0
DICTIONARYVAR
  5
C6
102
{ACAD_REACTORS
330
C1
102
}
330
C1
100
DictionaryVariables
280
     0
  1
Standard
  0
DICTIONARY
  5
C3
330
5A
100
AcDbDictionary
280
     1
281
     1
  3
ACAD_ROUNDTRIP_2008_TABLESTYLE_CELLSTYLEMAP
360
C4
  0
CELLSTYLEMAP
  5
C4
102
{ACAD_REACTORS
330
C3
102
}
330
C3
100
AcDbCellStyleMap
 90
        3
300
CELLSTYLE
  1
TABLEFORMAT_BEGIN
 90
        5
170
     1
 91
        0
 92
    32768
 62
   257
 93
        1
300
CONTENTFORMAT
  1
CONTENTFORMAT_BEGIN
 90
        0
 91
        0
 92
        4
 93
        0
300

 40
0.0
140
1.0
 94
        5
 62
     0
340
11
144
0.25
309
CONTENTFORMAT_END
171
     1
301
MARGIN
  1
CELLMARGIN_BEGIN
 40
0.06
 40
0.06
 40
0.06
 40
0.06
 40
0.06
 40
0.06
309
CELLMARGIN_END
 94
        6
 95
        1
302
GRIDFORMAT
  1
GRIDFORMAT_BEGIN
 90
        0
 91
        1
 62
     0
 92
       -2
340
14
 93
        0
 40
0.045
309
GRIDFORMAT_END
 95
        2
302
GRIDFORMAT
  1
GRIDFORMAT_BEGIN
 90
        0
 91
        1
 62
     0
 92
       -2
340
14
 93
        0
 40
0.045
309
GRIDFORMAT_END
 95
        4
302
GRIDFORMAT
  1
GRIDFORMAT_BEGIN
 90
        0
 91
        1
 62
     0
 92
       -2
340
14
 93
        0
 40
0.045
309
GRIDFORMAT_END
 95
        8
302
GRIDFORMAT
  1
GRIDFORMAT_BEGIN
 90
        0
 91
        1
 62
     0
 92
       -2
340
14
 93
        0
 40
0.045
309
GRIDFORMAT_END
 95
       16
302
GRIDFORMAT
  1
GRIDFORMAT_BEGIN
 90
        0
 91
        1
 62
     0
 92
       -2
340
14
 93
        0
 40
0.045
309
GRIDFORMAT_END
 95
       32
302
GRIDFORMAT
  1
GRIDFORMAT_BEGIN
 90
        0
 91
        1
 62
     0
 92
       -2
340
14
 93
        0
 40
0.045
309
GRIDFORMAT_END
309
TABLEFORMAT_END
  1
CELLSTYLE_BEGIN
 90
        1
 91
        1
300
_TITLE
309
CELLSTYLE_END
300
CELLSTYLE
  1
TABLEFORMAT_BEGIN
 90
        5
170
     1
 91
        0
 92
        0
 62
   257
 93
        1
300
CONTENTFORMAT
  1
CONTENTFORMAT_BEGIN
 90
        0
 91
        0
 92
        4
 93
        0
300

 40
0.0
140
1.0
 94
        5
 62
     0
340
11
144
0.18
309
CONTENTFORMAT_END
171
     1
301
MARGIN
  1
CELLMARGIN_BEGIN
 40
0.06
 40
0.06
 40
0.06
 40
0.06
 40
0.06
 40
0.06
309
CELLMARGIN_END
 94
        6
 95
        1
302
GRIDFORMAT
  1
GRIDFORMAT_BEGIN
 90
        0
 91
        1
 62
     0
 92
       -2
340
14
 93
        0
 40
0.045
309
GRIDFORMAT_END
 95
        2
302
GRIDFORMAT
  1
GRIDFORMAT_BEGIN
 90
        0
 91
        1
 62
     0
 92
       -2
340
14
 93
        0
 40
0.045
309
GRIDFORMAT_END
 95
        4
302
GRIDFORMAT
  1
GRIDFORMAT_BEGIN
 90
        0
 91
        1
 62
     0
 92
       -2
340
14
 93
        0
 40
0.045
309
GRIDFORMAT_END
 95
        8
302
GRIDFORMAT
  1
GRIDFORMAT_BEGIN
 90
        0
 91
        1
 62
     0
 92
       -2
340
14
 93
        0
 40
0.045
309
GRIDFORMAT_END
 95
       16
302
GRIDFORMAT
  1
GRIDFORMAT_BEGIN
 90
        0
 91
        1
 62
     0
 92
       -2
340
14
 93
        0
 40
0.045
309
GRIDFORMAT_END
 95
       32
302
GRIDFORMAT
  1
GRIDFORMAT_BEGIN
 90
        0
 91
        1
 62
     0
 92
       -2
340
14
 93
        0
 40
0.045
309
GRIDFORMAT_END
309
TABLEFORMAT_END
  1
CELLSTYLE_BEGIN
 90
        2
 91
        1
300
_HEADER
309
CELLSTYLE_END
300
CELLSTYLE
  1
TABLEFORMAT_BEGIN
 90
        5
170
     1
 91
        0
 92
        0
 62
   257
 93
        1
300
CONTENTFORMAT
  1
CONTENTFORMAT_BEGIN
 90
        0
 91
        0
 92
        4
 93
        0
300

 40
0.0
140
1.0
 94
        2
 62
     0
340
11
144
0.18
309
CONTENTFORMAT_END
171
     1
301
MARGIN
  1
CELLMARGIN_BEGIN
 40
0.06
 40
0.06
 40
0.06
 40
0.06
 40
0.06
 40
0.06
309
CELLMARGIN_END
 94
        6
 95
        1
302
GRIDFORMAT
  1
GRIDFORMAT_BEGIN
 90
        0
 91
        1
 62
     0
 92
       -2
340
14
 93
        0
 40
0.045
309
GRIDFORMAT_END
 95
        2
302
GRIDFORMAT
  1
GRIDFORMAT_BEGIN
 90
        0
 91
        1
 62
     0
 92
       -2
340
14
 93
        0
 40
0.045
309
GRIDFORMAT_END
 95
        4
302
GRIDFORMAT
  1
GRIDFORMAT_BEGIN
 90
        0
 91
        1
 62
     0
 92
       -2
340
14
 93
        0
 40
0.045
309
GRIDFORMAT_END
 95
        8
302
GRIDFORMAT
  1
GRIDFORMAT_BEGIN
 90
        0
 91
        1
 62
     0
 92
       -2
340
14
 93
        0
 40
0.045
309
GRIDFORMAT_END
 95
       16
302
GRIDFORMAT
  1
GRIDFORMAT_BEGIN
 90
        0
 91
        1
 62
     0
 92
       -2
340
14
 93
        0
 40
0.045
309
GRIDFORMAT_END
 95
       32
302
GRIDFORMAT
  1
GRIDFORMAT_BEGIN
 90
        0
 91
        1
 62
     0
 92
       -2
340
14
 93
        0
 40
0.045
309
GRIDFORMAT_END
309
TABLEFORMAT_END
  1
CELLSTYLE_BEGIN
 90
        3
 91
        2
300
_DATA
309
CELLSTYLE_END
  0
ENDSEC
  0
EOF
