  0
SECTION
  2
HEADER
  9
$ACADVER
  1
AC1027
  9
$ACADMAINTVER
 70
   105
  9
$DWGCODEPAGE
  3
ANSI_1252
  9
$LASTSAVEDBY
  1
Office Desk
  9
$REQUIREDVERSIONS
160
                 0
  9
$INSBASE
 10
0.0
 20
0.0
 30
0.0
  9
$EXTMIN
 10
408.4443
 20
-265.9511
 30
0.0
  9
$EXTMAX
 10
1217.0231
 20
199.4886
 30
0.0
  9
$LIMMIN
 10
0.0
 20
0.0
  9
$LIMMAX
 10
12.0
 20
9.0
  9
$ORTHOMODE
 70
     0
  9
$REGENMODE
 70
     1
  9
$FILLMODE
 70
     1
  9
$QTEXTMODE
 70
     0
  9
$MIRRTEXT
 70
     1
  9
$LTSCALE
 40
1.0
  9
$ATTMODE
 70
     1
  9
$TEXTSIZE
 40
0.2
  9
$TRACEWID
 40
0.05
  9
$TEXTSTYLE
  7
Standard
  9
$CLAYER
  8
0
  9
$CELTYPE
  6
ByLayer
  9
$CECOLOR
 62
   256
  9
$CELTSCALE
 40
1.0
  9
$DISPSILH
 70
     0
  9
$DIMSCALE
 40
1.0
  9
$DIMASZ
 40
0.18
  9
$DIMEXO
 40
0.0625
  9
$DIMDLI
 40
0.38
  9
$DIMRND
 40
0.0
  9
$DIMDLE
 40
0.0
  9
$DIMEXE
 40
0.18
  9
$DIMTP
 40
0.0
  9
$DIMTM
 40
0.0
  9
$DIMTXT
 40
0.18
  9
$DIMCEN
 40
0.09
  9
$DIMTSZ
 40
0.0
  9
$DIMTOL
 70
     0
  9
$DIMLIM
 70
     0
  9
$DIMTIH
 70
     1
  9
$DIMTOH
 70
     1
  9
$DIMSE1
 70
     0
  9
$DIMSE2
 70
     0
  9
$DIMTAD
 70
     0
  9
$DIMZIN
 70
     0
  9
$DIMBLK
  1

  9
$DIMASO
 70
     1
  9
$DIMSHO
 70
     1
  9
$DIMPOST
  1

  9
$DIMAPOST
  1

  9
$DIMALT
 70
     0
  9
$DIMALTD
 70
     2
  9
$DIMALTF
 40
25.4
  9
$DIMLFAC
 40
1.0
  9
$DIMTOFL
 70
     0
  9
$DIMTVP
 40
0.0
  9
$DIMTIX
 70
     0
  9
$DIMSOXD
 70
     0
  9
$DIMSAH
 70
     0
  9
$DIMBLK1
  1

  9
$DIMBLK2
  1

  9
$DIMSTYLE
  2
Standard
  9
$DIMCLRD
 70
     0
  9
$DIMCLRE
 70
     0
  9
$DIMCLRT
 70
     0
  9
$DIMTFAC
 40
1.0
  9
$DIMGAP
 40
0.09
  9
$DIMJUST
 70
     0
  9
$DIMSD1
 70
     0
  9
$DIMSD2
 70
     0
  9
$DIMTOLJ
 70
     1
  9
$DIMTZIN
 70
     0
  9
$DIMALTZ
 70
     0
  9
$DIMALTTZ
 70
     0
  9
$DIMUPT
 70
     0
  9
$DIMDEC
 70
     4
  9
$DIMTDEC
 70
     4
  9
$DIMALTU
 70
     2
  9
$DIMALTTD
 70
     2
  9
$DIMTXSTY
  7
Standard
  9
$DIMAUNIT
 70
     0
  9
$DIMADEC
 70
     0
  9
$DIMALTRND
 40
0.0
  9
$DIMAZIN
 70
     0
  9
$DIMDSEP
 70
    46
  9
$DIMATFIT
 70
     3
  9
$DIMFRAC
 70
     0
  9
$DIMLDRBLK
  1

  9
$DIMLUNIT
 70
     2
  9
$DIMLWD
 70
    -2
  9
$DIMLWE
 70
    -2
  9
$DIMTMOVE
 70
     0
  9
$DIMFXL
 40
1.0
  9
$DIMFXLON
 70
     0
  9
$DIMJOGANG
 40
0.7853981633974483
  9
$DIMTFILL
 70
     0
  9
$DIMTFILLCLR
 70
     0
  9
$DIMARCSYM
 70
     0
  9
$DIMLTYPE
  6

  9
$DIMLTEX1
  6

  9
$DIMLTEX2
  6

  9
$DIMTXTDIRECTION
 70
     0
  9
$LUNITS
 70
     2
  9
$LUPREC
 70
     4
  9
$SKETCHINC
 40
0.1
  9
$FILLETRAD
 40
0.0
  9
$AUNITS
 70
     0
  9
$AUPREC
 70
     0
  9
$MENU
  1
.
  9
$ELEVATION
 40
0.0
  9
$PELEVATION
 40
0.0
  9
$THICKNESS
 40
0.0
  9
$LIMCHECK
 70
     0
  9
$CHAMFERA
 40
0.0
  9
$CHAMFERB
 40
0.0
  9
$CHAMFERC
 40
0.0
  9
$CHAMFERD
 40
0.0
  9
$SKPOLY
 70
     0
  9
$TDCREATE
 40
2461016.637829583
  9
$TDUCREATE
 40
2461016.408662917
  9
$TDUPDATE
 40
2461016.637829642
  9
$TDUUPDATE
 40
2461016.408662975
  9
$TDINDWG
 40
0.0000000116
  9
$TDUSRTIMER
 40
0.0000000116
  9
$USRTIMER
 70
     1
  9
$ANGBASE
 50
0.0
  9
$ANGDIR
 70
     0
  9
$PDMODE
 70
     0
  9
$PDSIZE
 40
0.0
  9
$PLINEWID
 40
0.0
  9
$SPLFRAME
 70
     0
  9
$SPLINETYPE
 70
     6
  9
$SPLINESEGS
 70
     8
  9
$HANDSEED
  5
A3
  9
$SURFTAB1
 70
     6
  9
$SURFTAB2
 70
     6
  9
$SURFTYPE
 70
     6
  9
$SURFU
 70
     6
  9
$SURFV
 70
     6
  9
$UCSBASE
  2

  9
$UCSNAME
  2

  9
$UCSORG
 10
0.0
 20
0.0
 30
0.0
  9
$UCSXDIR
 10
1.0
 20
0.0
 30
0.0
  9
$UCSYDIR
 10
0.0
 20
1.0
 30
0.0
  9
$UCSORTHOREF
  2

  9
$UCSORTHOVIEW
 70
     0
  9
$UCSORGTOP
 10
0.0
 20
0.0
 30
0.0
  9
$UCSORGBOTTOM
 10
0.0
 20
0.0
 30
0.0
  9
$UCSORGLEFT
 10
0.0
 20
0.0
 30
0.0
  9
$UCSORGRIGHT
 10
0.0
 20
0.0
 30
0.0
  9
$UCSORGFRONT
 10
0.0
 20
0.0
 30
0.0
  9
$UCSORGBACK
 10
0.0
 20
0.0
 30
0.0
  9
$PUCSBASE
  2

  9
$PUCSNAME
  2

  9
$PUCSORG
 10
0.0
 20
0.0
 30
0.0
  9
$PUCSXDIR
 10
1.0
 20
0.0
 30
0.0
  9
$PUCSYDIR
 10
0.0
 20
1.0
 30
0.0
  9
$PUCSORTHOREF
  2

  9
$PUCSORTHOVIEW
 70
     0
  9
$PUCSORGTOP
 10
0.0
 20
0.0
 30
0.0
  9
$PUCSORGBOTTOM
 10
0.0
 20
0.0
 30
0.0
  9
$PUCSORGLEFT
 10
0.0
 20
0.0
 30
0.0
  9
$PUCSORGRIGHT
 10
0.0
 20
0.0
 30
0.0
  9
$PUCSORGFRONT
 10
0.0
 20
0.0
 30
0.0
  9
$PUCSORGBACK
 10
0.0
 20
0.0
 30
0.0
  9
$USERI1
 70
     0
  9
$USERI2
 70
     0
  9
$USERI3
 70
     0
  9
$USERI4
 70
     0
  9
$USERI5
 70
     0
  9
$USERR1
 40
0.0
  9
$USERR2
 40
0.0
  9
$USERR3
 40
0.0
  9
$USERR4
 40
0.0
  9
$USERR5
 40
0.0
  9
$WORLDVIEW
 70
     1
  9
$SHADEDGE
 70
     3
  9
$SHADEDIF
 70
    70
  9
$TILEMODE
 70
     1
  9
$MAXACTVP
 70
    64
  9
$PINSBASE
 10
0.0
 20
0.0
 30
0.0
  9
$PLIMCHECK
 70
     0
  9
$PEXTMIN
 10
1.000000000000000E+20
 20
1.000000000000000E+20
 30
1.000000000000000E+20
  9
$PEXTMAX
 10
-1.000000000000000E+20
 20
-1.000000000000000E+20
 30
-1.000000000000000E+20
  9
$PLIMMIN
 10
0.0
 20
0.0
  9
$PLIMMAX
 10
12.0
 20
9.0
  9
$UNITMODE
 70
     0
  9
$VISRETAIN
 70
     1
  9
$PLINEGEN
 70
     0
  9
$PSLTSCALE
 70
     1
  9
$TREEDEPTH
 70
  3020
  9
$CMLSTYLE
  2
Standard
  9
$CMLJUST
 70
     0
  9
$CMLSCALE
 40
1.0
  9
$PROXYGRAPHICS
 70
     1
  9
$MEASUREMENT
 70
     0
  9
$CELWEIGHT
370
    -1
  9
$ENDCAPS
280
     0
  9
$JOINSTYLE
280
     0
  9
$LWDISPLAY
290
     0
  9
$INSUNITS
 70
     4
  9
$HYPERLINKBASE
  1

  9
$STYLESHEET
  1

  9
$XEDIT
290
     1
  9
$CEPSNTYPE
380
     0
  9
$PSTYLEMODE
290
     1
  9
$FINGERPRINTGUID
  2
{d8705f88-180c-4fd4-a8f4-b6dbaa2f6289}
  9
$VERSIONGUID
  2
{FAEB1C32-E019-11D5-929B-00C0DF256EC4}
  9
$EXTNAMES
290
     1
  9
$PSVPSCALE
 40
0.0
  9
$OLESTARTUP
290
     0
  9
$SORTENTS
280
   127
  9
$INDEXCTL
280
     0
  9
$HIDETEXT
280
     1
  9
$XCLIPFRAME
280
     2
  9
$HALOGAP
280
     0
  9
$OBSCOLOR
 70
   257
  9
$OBSLTYPE
280
     0
  9
$INTERSECTIONDISPLAY
280
     0
  9
$INTERSECTIONCOLOR
 70
   257
  9
$DIMASSOC
280
     2
  9
$PROJECTNAME
  1

  9
$CAMERADISPLAY
290
     0
  9
$LENSLENGTH
 40
50.0
  9
$CAMERAHEIGHT
 40
0.0
  9
$STEPSPERSEC
 40
2.0
  9
$STEPSIZE
 40
6.0
  9
$3DDWFPREC
 40
2.0
  9
$PSOLWIDTH
 40
0.25
  9
$PSOLHEIGHT
 40
4.0
  9
$LOFTANG1
 40
1.570796326794897
  9
$LOFTANG2
 40
1.570796326794897
  9
$LOFTMAG1
 40
0.0
  9
$LOFTMAG2
 40
0.0
  9
$LOFTPARAM
 70
     7
  9
$LOFTNORMALS
280
     1
  9
$LATITUDE
 40
37.795
  9
$LONGITUDE
 40
-122.394
  9
$NORTHDIRECTION
 40
0.0
  9
$TIMEZONE
 70
 -8000
  9
$LIGHTGLYPHDISPLAY
280
     1
  9
$TILEMODELIGHTSYNCH
280
     1
  9
$CMATERIAL
347
44
  9
$SOLIDHIST
280
     0
  9
$SHOWHIST
280
     1
  9
$DWFFRAME
280
     2
  9
$DGNFRAME
280
     2
  9
$REALWORLDSCALE
290
     1
  9
$INTERFERECOLOR
 62
   256
  9
$CSHADOW
280
     0
  9
$SHADOWPLANELOCATION
 40
0.0
  0
ENDSEC
  0
SECTION
  2
CLASSES
  0
CLASS
  1
ACDBDICTIONARYWDFLT
  2
AcDbDictionaryWithDefault
  3
ObjectDBX Classes
 90
        0
 91
        3
280
     0
281
     0
  0
CLASS
  1
VISUALSTYLE
  2
AcDbVisualStyle
  3
ObjectDBX Classes
 90
     4095
 91
        3
280
     0
281
     0
  0
CLASS
  1
MATERIAL
  2
AcDbMaterial
  3
ObjectDBX Classes
 90
     1153
 91
        3
280
     0
281
     0
  0
CLASS
  1
SCALE
  2
AcDbScale
  3
ObjectDBX Classes
 90
     1153
 91
        3
280
     0
281
     0
  0
CLASS
  1
TABLESTYLE
  2
AcDbTableStyle
  3
ObjectDBX Classes
 90
     4095
 91
        3
280
     0
281
     0
  0
CLASS
  1
MLEADERSTYLE
  2
AcDbMLeaderStyle
  3
ACDB_MLEADERSTYLE_CLASS
 90
     4095
 91
        3
280
     0
281
     0
  0
CLASS
  1
SUN
  2
AcDbSun
  3
SCENEOE
 90
     1153
 91
        3
280
     0
281
     0
  0
CLASS
  1
DICTIONARYVAR
  2
AcDbDictionaryVar
  3
ObjectDBX Classes
 90
        0
 91
        3
280
     0
281
     0
  0
CLASS
  1
CELLSTYLEMAP
  2
AcDbCellStyleMap
  3
ObjectDBX Classes
 90
     1152
 91
        3
280
     0
281
     0
  0
ENDSEC
  0
SECTION
  2
TABLES
  0
TABLE
  2
VPORT
  5
8
330
0
100
AcDbSymbolTable
 70
     1
  0
VPORT
  5
29
330
8
100
AcDbSymbolTableRecord
100
AcDbViewportTableRecord
  2
*Active
 70
     0
 10
0.0
 20
0.0
 11
1.0
 21
1.0
 12
10.42990654205607
 22
4.5
 13
0.0
 23
0.0
 14
0.5
 24
0.5
 15
0.5
 25
0.5
 16
0.0
 26
0.0
 36
1.0
 17
0.0
 27
0.0
 37
0.0
 40
9.0
 41
1.972972972850329
 42
50.0
 43
0.0
 44
0.0
 50
0.0
 51
0.0
 71
     0
 72
   100
 73
     1
 74
     3
 75
     0
 76
     0
 77
     0
 78
     0
281
     0
 65
     1
110
0.0
120
0.0
130
0.0
111
1.0
121
0.0
131
0.0
112
0.0
122
1.0
132
0.0
 79
     0
146
0.0
348
2F
 60
     3
 61
     5
292
     1
282
     1
141
0.0
142
0.0
 63
   250
361
5D
  0
ENDTAB
  0
TABLE
  2
LTYPE
  5
5
330
0
100
AcDbSymbolTable
 70
     3
  0
LTYPE
  5
14
330
5
100
AcDbSymbolTableRecord
100
AcDbLinetypeTableRecord
  2
ByBlock
 70
     0
  3

 72
    65
 73
     0
 40
0.0
  0
LTYPE
  5
15
330
5
100
AcDbSymbolTableRecord
100
AcDbLinetypeTableRecord
  2
ByLayer
 70
     0
  3

 72
    65
 73
     0
 40
0.0
  0
LTYPE
  5
16
330
5
100
AcDbSymbolTableRecord
100
AcDbLinetypeTableRecord
  2
Continuous
 70
     0
  3
Solid line
 72
    65
 73
     0
 40
0.0
  0
LTYPE
  5
7F
330
5
100
AcDbSymbolTableRecord
100
AcDbLinetypeTableRecord
  2
New Line1
 70
     0
  3

 72
    65
 73
     2
 40
0.2
 49
0.1
 74
     4
 75
     0
340
0
 46
1.0
 50
0.0
 44
0.0
 45
0.0
 49
-0.1
 74
     4
 75
     0
340
0
 46
1.0
 50
0.0
 44
0.0
 45
0.0
  0
LTYPE
  5
81
330
5
100
AcDbSymbolTableRecord
100
AcDbLinetypeTableRecord
  2
New Line2
 70
     0
  3

 72
    65
 73
     2
 40
0.2
 49
0.1
 74
     4
 75
     0
340
0
 46
1.0
 50
0.0
 44
0.0
 45
0.0
 49
-0.1
 74
     4
 75
     0
340
0
 46
1.0
 50
0.0
 44
0.0
 45
0.0
  0
ENDTAB
  0
TABLE
  2
LAYER
  5
2
330
0
100
AcDbSymbolTable
 70
     2
  0
LAYER
  5
10
330
2
100
AcDbSymbolTableRecord
100
AcDbLayerTableRecord
  2
0
 70
     0
 62
     7
  6
Continuous
370
    -3
390
F
347
46
348
0
  0
LAYER
  5
5F
330
2
100
AcDbSymbolTableRecord
100
AcDbLayerTableRecord
  2
Layer 1
 70
     0
 62
     7
  6
Continuous
370
    -3
390
F
347
46
348
0
  0
ENDTAB
  0
TABLE
  2
STYLE
  5
3
330
0
100
AcDbSymbolTable
 70
     1
  0
STYLE
  5
11
330
3
100
AcDbSymbolTableRecord
100
AcDbTextStyleTableRecord
  2
Standard
 70
     0
 40
0.0
 41
1.0
 50
0.0
 71
     0
 42
0.2
  3
txt
  4

  0
ENDTAB
  0
TABLE
  2
VIEW
  5
6
330
0
100
AcDbSymbolTable
 70
     0
  0
ENDTAB
  0
TABLE
  2
UCS
  5
7
330
0
100
AcDbSymbolTable
 70
     0
  0
ENDTAB
  0
TABLE
  2
APPID
  5
9
330
0
100
AcDbSymbolTable
 70
     2
  0
APPID
  5
12
330
9
100
AcDbSymbolTableRecord
100
AcDbRegAppTableRecord
  2
ACAD
 70
     0
  0
APPID
  5
5E
330
9
100
AcDbSymbolTableRecord
100
AcDbRegAppTableRecord
  2
ODA
 70
     0
  0
ENDTAB
  0
TABLE
  2
DIMSTYLE
  5
A
330
0
100
AcDbSymbolTable
 70
     1
100
AcDbDimStyleTable
  0
DIMSTYLE
105
27
330
A
100
AcDbSymbolTableRecord
100
AcDbDimStyleTableRecord
  2
Standard
 70
     0
178
     0
340
11
  0
ENDTAB
  0
TABLE
  2
BLOCK_RECORD
  5
1
330
0
100
AcDbSymbolTable
 70
     1
  0
BLOCK_RECORD
  5
1F
330
1
100
AcDbSymbolTableRecord
100
AcDbBlockTableRecord
  2
*Model_Space
340
22
 70
     0
280
     1
281
     0
  0
BLOCK_RECORD
  5
1B
330
1
100
AcDbSymbolTableRecord
100
AcDbBlockTableRecord
  2
*Paper_Space
340
1E
 70
     0
280
     1
281
     0
  0
BLOCK_RECORD
  5
23
330
1
100
AcDbSymbolTableRecord
100
AcDbBlockTableRecord
  2
*Paper_Space0
340
26
 70
     0
280
     1
281
     0
  0
ENDTAB
  0
ENDSEC
  0
SECTION
  2
BLOCKS
  0
BLOCK
  5
20
330
1F
100
AcDbEntity
  8
0
100
AcDbBlockBegin
  2
*Model_Space
 70
     0
 10
0.0
 20
0.0
 30
0.0
  3
*Model_Space
  1

  0
ENDBLK
  5
21
330
1F
100
AcDbEntity
  8
0
100
AcDbBlockEnd
  0
BLOCK
  5
1C
330
1B
100
AcDbEntity
 67
     1
  8
0
100
AcDbBlockBegin
  2
*Paper_Space
 70
     0
 10
0.0
 20
0.0
 30
0.0
  3
*Paper_Space
  1

  0
ENDBLK
  5
1D
330
1B
100
AcDbEntity
 67
     1
  8
0
100
AcDbBlockEnd
  0
BLOCK
  5
24
330
23
100
AcDbEntity
  8
0
100
AcDbBlockBegin
  2
*Paper_Space0
 70
     0
 10
0.0
 20
0.0
 30
0.0
  3
*Paper_Space0
  1

  0
ENDBLK
  5
25
330
23
100
AcDbEntity
  8
0
100
AcDbBlockEnd
  0
ENDSEC
  0
SECTION
  2
ENTITIES
  0
LWPOLYLINE
  5
60
330
1F
100
AcDbEntity
  8
Layer 1
 62
   250
370
    18
100
AcDbPolyline
 90
        5
 70
     1
 43
0.0
 10
408.5325
 20
-265.8628
 10
1216.9349
 20
-265.8628
 10
1216.9349
 20
199.4004
 10
408.5325
 20
199.4004
 10
408.5325
 20
-265.8628
  0
LWPOLYLINE
  5
61
330
1F
100
AcDbEntity
  8
Layer 1
 62
     7
370
    60
100
AcDbPolyline
 90
       67
 70
     1
 43
0.0
 10
587.3943
 20
110.9295
 10
597.5912
 20
109.3661
 10
613.9832
 20
107.9944
 10
635.1054
 20
106.884
 10
659.4932
 20
106.1046
 10
685.682
 20
105.7256
 10
712.207
 20
105.8167
 10
737.6035
 20
106.4475
 10
760.4068
 20
107.6876
 10
764.6696
 20
107.9089
 10
768.5384
 20
107.9243
 10
771.9833
 20
107.7738
 10
774.9742
 20
107.497
 10
777.4811
 20
107.134
 10
779.474
 20
106.7245
 10
780.9231
 20
106.3084
 10
781.7982
 20
105.9256
 10
781.9212
 20
105.6785
 10
782.22
 20
104.8863
 10
782.5892
 20
103.4727
 10
782.9231
 20
101.3616
 10
783.1165
 20
98.4767
 10
783.0637
 20
94.7418
 10
782.6595
 20
90.0806
 10
781.7982
 20
84.4169
 10
779.8183
 20
68.6949
 10
776.4666
 20
37.5151
 10
772.2475
 20
-3.7122
 10
767.665
 20
-49.5763
 10
763.2232
 20
-94.6667
 10
759.4263
 20
-133.5729
 10
756.7784
 20
-160.8843
 10
755.7838
 20
-171.1905
 10
755.7975
 20
-172.0249
 10
755.7771
 20
-174.2568
 10
755.6306
 20
-177.4792
 10
755.2657
 20
-181.285
 10
754.5904
 20
-185.2671
 10
753.5124
 20
-189.0186
 10
751.9396
 20
-192.1325
 10
749.78
 20
-194.2016
 10
745.8519
 20
-196.3506
 10
738.6247
 20
-199.519
 10
727.4841
 20
-202.9988
 10
711.8158
 20
-206.0817
 10
691.0053
 20
-208.0598
 10
664.4383
 20
-208.2249
 10
631.5006
 20
-205.8689
 10
591.5776
 20
-200.2838
 10
591.5776
 20
-200.2838
 10
592.2514
 20
-199.7288
 10
592.8584
 20
-199.1029
 10
593.3913
 20
-198.4123
 10
593.8431
 20
-197.6631
 10
594.2068
 20
-196.8613
 10
594.4754
 20
-196.013
 10
594.6417
 20
-195.1244
 10
594.6987
 20
-194.2016
 10
594.6987
 20
103.4251
 10
594.5506
 20
104.9091
 10
594.1259
 20
106.2948
 10
593.4534
 20
107.5534
 10
592.5624
 20
108.6559
 10
591.4819
 20
109.5736
 10
590.241
 20
110.2777
 10
588.8688
 20
110.7392
 10
587.3943
 20
110.9295
  0
LWPOLYLINE
  5
62
330
1F
100
AcDbEntity
  8
Layer 1
 62
     7
370
    60
100
AcDbPolyline
 90
       37
 70
     1
 43
0.0
 10
493.1446
 20
110.9295
 10
587.1953
 20
110.9295
 10
588.701
 20
110.7761
 10
590.1065
 20
110.3367
 10
591.3806
 20
109.6422
 10
592.4926
 20
108.7234
 10
593.4113
 20
107.6114
 10
594.1059
 20
106.337
 10
594.5453
 20
104.9313
 10
594.6987
 20
103.4251
 10
594.6987
 20
-194.2016
 10
594.5453
 20
-195.7072
 10
594.1059
 20
-197.1125
 10
593.4113
 20
-198.3865
 10
592.4926
 20
-199.4983
 10
591.3806
 20
-200.4169
 10
590.1065
 20
-201.1114
 10
588.701
 20
-201.5509
 10
587.1953
 20
-201.7042
 10
493.1446
 20
-201.7042
 10
491.6438
 20
-201.5509
 10
490.2504
 20
-201.1114
 10
488.9911
 20
-200.4169
 10
487.8926
 20
-199.4983
 10
486.9816
 20
-198.3865
 10
486.2849
 20
-197.1125
 10
485.8292
 20
-195.7072
 10
485.6412
 20
-194.2016
 10
485.6412
 20
103.4251
 10
485.7601
 20
104.9313
 10
486.1834
 20
106.337
 10
486.8759
 20
107.6114
 10
487.8023
 20
108.7234
 10
488.9276
 20
109.6422
 10
490.2166
 20
110.3367
 10
491.6339
 20
110.7761
 10
493.1446
 20
110.9295
  0
LWPOLYLINE
  5
63
330
1F
100
AcDbEntity
  8
Layer 1
 62
     7
370
    60
100
AcDbPolyline
 90
        2
 70
     0
 43
0.0
 10
453.9557
 20
104.1214
 10
428.1326
 20
104.1214
  0
LWPOLYLINE
  5
64
330
1F
100
AcDbEntity
  8
Layer 1
 62
     7
370
    60
100
AcDbPolyline
 90
        2
 70
     0
 43
0.0
 10
453.9557
 20
-201.7821
 10
428.1326
 20
-201.7821
  0
LWPOLYLINE
  5
65
330
1F
100
AcDbEntity
  8
Layer 1
 62
     7
370
    60
100
AcDbPolyline
 90
        2
 70
     0
 43
0.0
 10
442.3207
 20
-14.6609
 10
442.3207
 20
104.1214
  0
LWPOLYLINE
  5
66
330
1F
100
AcDbEntity
  8
Layer 1
 62
     7
370
    60
100
AcDbPolyline
 90
        2
 70
     0
 43
0.0
 10
442.3207
 20
-201.7821
 10
442.3207
 20
-82.4942
  0
LWPOLYLINE
  5
67
330
1F
100
AcDbEntity
  8
Layer 1
 62
     7
370
    18
100
AcDbPolyline
 90
      117
 70
     1
 43
0.0
 10
453.9421
 20
-62.5786
 10
453.9318
 20
-63.0868
 10
453.9008
 20
-63.5878
 10
453.8491
 20
-64.0816
 10
453.7769
 20
-64.5684
 10
453.684
 20
-65.048
 10
453.5706
 20
-65.5204
 10
453.4367
 20
-65.9857
 10
453.2822
 20
-66.4439
 10
453.1101
 20
-66.8873
 10
452.9242
 20
-67.3085
 10
452.7244
 20
-67.7073
 10
452.5107
 20
-68.0837
 10
452.2832
 20
-68.4379
 10
452.0418
 20
-68.7697
 10
451.7866
 20
-69.0792
 10
451.5175
 20
-69.3664
 10
449.9812
 20
-68.4238
 10
450.2118
 20
-68.1848
 10
450.4324
 20
-67.9261
 10
450.6429
 20
-67.6477
 10
450.8433
 20
-67.3495
 10
451.0337
 20
-67.0316
 10
451.214
 20
-66.6939
 10
451.3844
 20
-66.3363
 10
451.5447
 20
-65.9589
 10
451.69
 20
-65.5672
 10
451.8159
 20
-65.1667
 10
451.9224
 20
-64.7574
 10
452.0096
 20
-64.3393
 10
452.0773
 20
-63.9124
 10
452.1258
 20
-63.4766
 10
452.1548
 20
-63.032
 10
452.1645
 20
-62.5786
 10
452.1485
 20
-62.0097
 10
452.1005
 20
-61.4749
 10
452.0204
 20
-60.9742
 10
451.9083
 20
-60.5075
 10
451.7642
 20
-60.075
 10
451.5879
 20
-59.6765
 10
451.3796
 20
-59.3122
 10
451.1392
 20
-58.982
 10
450.8722
 20
-58.6884
 10
450.5835
 20
-58.434
 10
450.2728
 20
-58.2188
 10
449.9404
 20
-58.0426
 10
449.586
 20
-57.9056
 10
449.2098
 20
-57.8078
 10
448.8117
 20
-57.7491
 10
448.3917
 20
-57.7295
 10
447.9717
 20
-57.7487
 10
447.5736
 20
-57.8061
 10
447.1973
 20
-57.9019
 10
446.843
 20
-58.036
 10
446.5105
 20
-58.2083
 10
446.1999
 20
-58.4189
 10
445.9112
 20
-58.6677
 10
445.6442
 20
-58.9548
 10
445.4042
 20
-59.2835
 10
445.1963
 20
-59.6563
 10
445.0204
 20
-60.0733
 10
444.8766
 20
-60.5344
 10
444.7647
 20
-61.0398
 10
444.6849
 20
-61.5893
 10
444.637
 20
-62.1831
 10
444.621
 20
-62.8211
 10
444.621
 20
-64.1671
 10
443.1924
 20
-64.1671
 10
435.8914
 20
-58.3492
 10
436.646
 20
-58.0796
 10
436.646
 20
-68.5858
 10
434.9227
 20
-68.5858
 10
434.9227
 20
-56.4639
 10
436.2959
 20
-56.4639
 10
443.5968
 20
-62.2818
 10
442.9771
 20
-63.2245
 10
442.9771
 20
-62.4971
 10
443.0007
 20
-61.6754
 10
443.0715
 20
-60.9071
 10
443.1894
 20
-60.1924
 10
443.3545
 20
-59.531
 10
443.5668
 20
-58.9231
 10
443.8261
 20
-58.3686
 10
444.1326
 20
-57.8674
 10
444.4862
 20
-57.4196
 10
444.8768
 20
-57.0251
 10
445.2943
 20
-56.6832
 10
445.7387
 20
-56.3939
 10
446.2101
 20
-56.1573
 10
446.7083
 20
-55.9732
 10
447.2335
 20
-55.8417
 10
447.7855
 20
-55.7628
 10
448.3645
 20
-55.7365
 10
448.7569
 20
-55.7483
 10
449.1392
 20
-55.7836
 10
449.5113
 20
-55.8425
 10
449.8732
 20
-55.925
 10
450.225
 20
-56.0311
 10
450.5666
 20
-56.1608
 10
450.8982
 20
-56.3141
 10
451.2196
 20
-56.4911
 10
451.5283
 20
-56.6915
 10
451.82
 20
-56.9159
 10
452.0947
 20
-57.1644
 10
452.3525
 20
-57.4369
 10
452.5934
 20
-57.7333
 10
452.8174
 20
-58.0538
 10
453.0245
 20
-58.3983
 10
453.2148
 20
-58.7667
 10
453.3853
 20
-59.1591
 10
453.533
 20
-59.5756
 10
453.658
 20
-60.0161
 10
453.7603
 20
-60.4806
 10
453.8398
 20
-60.9691
 10
453.8966
 20
-61.4816
 10
453.9307
 20
-62.0181
 10
453.9421
 20
-62.5786
  0
LWPOLYLINE
  5
68
330
1F
100
AcDbEntity
  8
Layer 1
 62
     7
370
    18
100
AcDbPolyline
 90
      131
 70
     1
 43
0.0
 10
453.9421
 20
-47.332
 10
453.9318
 20
-47.8342
 10
453.9008
 20
-48.3305
 10
453.8491
 20
-48.8209
 10
453.7769
 20
-49.3053
 10
453.684
 20
-49.7839
 10
453.5706
 20
-50.2565
 10
453.4367
 20
-50.7233
 10
453.2822
 20
-51.1841
 10
453.1101
 20
-51.6302
 10
452.9242
 20
-52.0528
 10
452.7244
 20
-52.4518
 10
452.5107
 20
-52.8273
 10
452.2832
 20
-53.1792
 10
452.0418
 20
-53.5075
 10
451.7866
 20
-53.8123
 10
451.5175
 20
-54.0936
 10
449.9812
 20
-53.151
 10
450.2118
 20
-52.9184
 10
450.4324
 20
-52.6652
 10
450.6429
 20
-52.3914
 10
450.8433
 20
-52.0969
 10
451.0337
 20
-51.7818
 10
451.214
 20
-51.4462
 10
451.3844
 20
-51.09
 10
451.5447
 20
-50.7133
 10
451.69
 20
-50.322
 10
451.8159
 20
-49.9227
 10
451.9224
 20
-49.5155
 10
452.0096
 20
-49.1002
 10
452.0773
 20
-48.677
 10
452.1258
 20
-48.2457
 10
452.1548
 20
-47.8064
 10
452.1645
 20
-47.3591
 10
452.1478
 20
-46.7777
 10
452.0978
 20
-46.232
 10
452.0145
 20
-45.7221
 10
451.898
 20
-45.248
 10
451.7481
 20
-44.8096
 10
451.565
 20
-44.407
 10
451.3486
 20
-44.0402
 10
451.099
 20
-43.7092
 10
450.8225
 20
-43.4156
 10
450.5255
 20
-43.1612
 10
450.2079
 20
-42.946
 10
449.8698
 20
-42.7698
 10
449.5111
 20
-42.6328
 10
449.1318
 20
-42.535
 10
448.7318
 20
-42.4763
 10
448.3112
 20
-42.4567
 10
448.0132
 20
-42.4658
 10
447.7257
 20
-42.493
 10
447.4489
 20
-42.5383
 10
447.1826
 20
-42.6017
 10
446.927
 20
-42.6832
 10
446.6819
 20
-42.7828
 10
446.4475
 20
-42.9005
 10
446.2237
 20
-43.0362
 10
446.0109
 20
-43.1934
 10
445.8102
 20
-43.3754
 10
445.6218
 20
-43.5823
 10
445.4456
 20
-43.814
 10
445.2815
 20
-44.0705
 10
445.1297
 20
-44.3518
 10
444.99
 20
-44.658
 10
444.8624
 20
-44.9889
 10
444.7489
 20
-45.3483
 10
444.6506
 20
-45.7397
 10
444.5674
 20
-46.1632
 10
444.4994
 20
-46.6187
 10
444.4465
 20
-47.1062
 10
444.4088
 20
-47.6257
 10
444.3861
 20
-48.1772
 10
444.3786
 20
-48.7606
 10
444.3786
 20
-52.7737
 10
434.9227
 20
-51.8039
 10
434.9227
 20
-41.4868
 10
436.646
 20
-41.4868
 10
436.646
 20
-51.0232
 10
435.7033
 20
-50.0262
 10
443.624
 20
-50.8612
 10
442.6542
 20
-51.8582
 10
442.6542
 20
-48.329
 10
442.6652
 20
-47.6328
 10
442.698
 20
-46.9719
 10
442.7527
 20
-46.3464
 10
442.8294
 20
-45.7563
 10
442.9278
 20
-45.2015
 10
443.0482
 20
-44.6821
 10
443.1904
 20
-44.1981
 10
443.3544
 20
-43.7494
 10
443.5383
 20
-43.3334
 10
443.7393
 20
-42.9472
 10
443.9575
 20
-42.591
 10
444.1929
 20
-42.2646
 10
444.4456
 20
-41.9682
 10
444.7155
 20
-41.7017
 10
445.0026
 20
-41.4651
 10
445.3071
 20
-41.2585
 10
445.6268
 20
-41.0785
 10
445.9595
 20
-40.9225
 10
446.3052
 20
-40.7906
 10
446.664
 20
-40.6827
 10
447.0359
 20
-40.5987
 10
447.4208
 20
-40.5388
 10
447.8187
 20
-40.5029
 10
448.2297
 20
-40.4909
 10
448.6228
 20
-40.5027
 10
449.007
 20
-40.538
 10
449.3823
 20
-40.5969
 10
449.7488
 20
-40.6793
 10
450.1064
 20
-40.7853
 10
450.4552
 20
-40.9148
 10
450.7951
 20
-41.0678
 10
451.1261
 20
-41.2444
 10
451.4444
 20
-41.4449
 10
451.7453
 20
-41.6689
 10
452.0288
 20
-41.9163
 10
452.2951
 20
-42.1873
 10
452.544
 20
-42.4819
 10
452.7757
 20
-42.8
 10
452.9903
 20
-43.1417
 10
453.1876
 20
-43.507
 10
453.3642
 20
-43.8968
 10
453.5174
 20
-44.3118
 10
453.6471
 20
-44.7521
 10
453.7532
 20
-45.2176
 10
453.8358
 20
-45.7084
 10
453.8948
 20
-46.2244
 10
453.9303
 20
-46.7656
 10
453.9421
 20
-47.332
  0
LWPOLYLINE
  5
69
330
1F
100
AcDbEntity
  8
Layer 1
 62
     7
370
    18
100
AcDbPolyline
 90
      131
 70
     1
 43
0.0
 10
453.9421
 20
-32.2201
 10
453.9318
 20
-32.7223
 10
453.9008
 20
-33.2186
 10
453.8491
 20
-33.709
 10
453.7769
 20
-34.1935
 10
453.684
 20
-34.6721
 10
453.5706
 20
-35.1447
 10
453.4367
 20
-35.6115
 10
453.2822
 20
-36.0723
 10
453.1101
 20
-36.5184
 10
452.9242
 20
-36.941
 10
452.7244
 20
-37.34
 10
452.5107
 20
-37.7154
 10
452.2832
 20
-38.0673
 10
452.0418
 20
-38.3957
 10
451.7866
 20
-38.7005
 10
451.5175
 20
-38.9818
 10
449.9812
 20
-38.0391
 10
450.2118
 20
-37.8066
 10
450.4324
 20
-37.5534
 10
450.6429
 20
-37.2795
 10
450.8433
 20
-36.985
 10
451.0337
 20
-36.67
 10
451.214
 20
-36.3343
 10
451.3844
 20
-35.9782
 10
451.5447
 20
-35.6015
 10
451.69
 20
-35.2102
 10
451.8159
 20
-34.8109
 10
451.9224
 20
-34.4037
 10
452.0096
 20
-33.9884
 10
452.0773
 20
-33.5652
 10
452.1258
 20
-33.1339
 10
452.1548
 20
-32.6946
 10
452.1645
 20
-32.2473
 10
452.1478
 20
-31.6658
 10
452.0978
 20
-31.1201
 10
452.0145
 20
-30.6102
 10
451.898
 20
-30.1361
 10
451.7481
 20
-29.6977
 10
451.565
 20
-29.2952
 10
451.3486
 20
-28.9283
 10
451.099
 20
-28.5973
 10
450.8225
 20
-28.3037
 10
450.5255
 20
-28.0493
 10
450.2079
 20
-27.8341
 10
449.8698
 20
-27.6579
 10
449.5111
 20
-27.5209
 10
449.1318
 20
-27.4231
 10
448.7318
 20
-27.3644
 10
448.3112
 20
-27.3448
 10
448.0132
 20
-27.3539
 10
447.7257
 20
-27.3811
 10
447.4489
 20
-27.4264
 10
447.1826
 20
-27.4898
 10
446.927
 20
-27.5713
 10
446.6819
 20
-27.6709
 10
446.4475
 20
-27.7886
 10
446.2237
 20
-27.9243
 10
446.0109
 20
-28.0815
 10
445.8102
 20
-28.2635
 10
445.6218
 20
-28.4704
 10
445.4456
 20
-28.7021
 10
445.2815
 20
-28.9587
 10
445.1297
 20
-29.24
 10
444.99
 20
-29.5461
 10
444.8624
 20
-29.877
 10
444.7489
 20
-30.2364
 10
444.6506
 20
-30.6278
 10
444.5674
 20
-31.0513
 10
444.4994
 20
-31.5069
 10
444.4465
 20
-31.9944
 10
444.4088
 20
-32.5139
 10
444.3861
 20
-33.0654
 10
444.3786
 20
-33.6488
 10
444.3786
 20
-37.6618
 10
434.9227
 20
-36.692
 10
434.9227
 20
-26.375
 10
436.646
 20
-26.375
 10
436.646
 20
-35.9114
 10
435.7033
 20
-34.9143
 10
443.624
 20
-35.7493
 10
442.6542
 20
-36.7464
 10
442.6542
 20
-33.2171
 10
442.6652
 20
-32.5209
 10
442.698
 20
-31.86
 10
442.7527
 20
-31.2345
 10
442.8294
 20
-30.6444
 10
442.9278
 20
-30.0896
 10
443.0482
 20
-29.5702
 10
443.1904
 20
-29.0862
 10
443.3544
 20
-28.6376
 10
443.5383
 20
-28.2216
 10
443.7393
 20
-27.8354
 10
443.9575
 20
-27.4791
 10
444.1929
 20
-27.1528
 10
444.4456
 20
-26.8563
 10
444.7155
 20
-26.5898
 10
445.0026
 20
-26.3532
 10
445.3071
 20
-26.1466
 10
445.6268
 20
-25.9666
 10
445.9595
 20
-25.8106
 10
446.3052
 20
-25.6787
 10
446.664
 20
-25.5708
 10
447.0359
 20
-25.4868
 10
447.4208
 20
-25.4269
 10
447.8187
 20
-25.391
 10
448.2297
 20
-25.379
 10
448.6228
 20
-25.3908
 10
449.007
 20
-25.4261
 10
449.3823
 20
-25.485
 10
449.7488
 20
-25.5674
 10
450.1064
 20
-25.6734
 10
450.4552
 20
-25.8029
 10
450.7951
 20
-25.9559
 10
451.1261
 20
-26.1325
 10
451.4444
 20
-26.333
 10
451.7453
 20
-26.557
 10
452.0288
 20
-26.8044
 10
452.2951
 20
-27.0754
 10
452.544
 20
-27.37
 10
452.7757
 20
-27.6881
 10
452.9903
 20
-28.0298
 10
453.1876
 20
-28.3951
 10
453.3642
 20
-28.7849
 10
453.5174
 20
-29.1999
 10
453.6471
 20
-29.6402
 10
453.7532
 20
-30.1058
 10
453.8358
 20
-30.5965
 10
453.8948
 20
-31.1125
 10
453.9303
 20
-31.6537
 10
453.9421
 20
-32.2201
  0
LWPOLYLINE
  5
6A
330
1F
100
AcDbEntity
  8
Layer 1
 62
     7
370
    35
100
AcDbPolyline
 90
       79
 70
     1
 43
0.0
 10
901.7079
 20
93.9909
 10
1115.2061
 20
93.9909
 10
1116.5216
 20
93.8572
 10
1117.7489
 20
93.4741
 10
1118.8612
 20
92.8683
 10
1119.8315
 20
92.0669
 10
1120.633
 20
91.0966
 10
1121.2388
 20
89.9844
 10
1121.622
 20
88.757
 10
1121.7557
 20
87.4415
 10
1121.7557
 20
-7.1129
 10
1121.7565
 20
-7.3799
 10
1121.8075
 20
-8.1446
 10
1121.9818
 20
-9.3524
 10
1122.3524
 20
-10.9488
 10
1122.9925
 20
-12.8793
 10
1123.9751
 20
-15.0894
 10
1125.3732
 20
-17.5245
 10
1127.2599
 20
-20.1302
 10
1127.987
 20
-20.8055
 10
1128.7082
 20
-21.4878
 10
1129.4233
 20
-22.1772
 10
1130.1321
 20
-22.8737
 10
1130.8345
 20
-23.5776
 10
1131.5304
 20
-24.2887
 10
1132.2197
 20
-25.0073
 10
1132.9021
 20
-25.7333
 10
1132.9318
 20
-25.7577
 10
1132.9264
 20
-25.7577
 10
1139.1164
 20
-33.0617
 10
1144.6394
 20
-40.9655
 10
1149.4468
 20
-49.4175
 10
1153.4897
 20
-58.366
 10
1156.7191
 20
-67.7594
 10
1159.0863
 20
-77.5461
 10
1160.5425
 20
-87.6746
 10
1161.0387
 20
-98.0931
 10
1157.1551
 20
-128.1816
 10
1146.3564
 20
-151.6995
 10
1129.9206
 20
-169.4356
 10
1109.1258
 20
-182.1783
 10
1085.2498
 20
-190.7165
 10
1059.5708
 20
-195.8388
 10
1033.3669
 20
-198.3338
 10
1007.9159
 20
-198.9902
 10
973.5272
 20
-197.6285
 10
943.2292
 20
-193.4206
 10
917.1744
 20
-186.1825
 10
895.5151
 20
-175.7299
 10
878.4037
 20
-161.8788
 10
865.9926
 20
-144.4451
 10
858.4341
 20
-123.2445
 10
855.8808
 20
-98.0931
 10
856.4669
 20
-86.7749
 10
858.1833
 20
-75.805
 10
860.9673
 20
-65.2497
 10
864.7563
 20
-55.1756
 10
869.4875
 20
-45.649
 10
875.0981
 20
-36.7364
 10
881.5256
 20
-28.5043
 10
888.7072
 20
-21.0191
 10
888.7072
 20
-21.0132
 10
888.9844
 20
-20.7292
 10
889.7152
 20
-19.9153
 10
890.7484
 20
-18.6289
 10
891.9328
 20
-16.9271
 10
893.1171
 20
-14.8674
 10
894.1503
 20
-12.5069
 10
894.8811
 20
-9.903
 10
895.1583
 20
-7.1129
 10
895.1583
 20
87.4415
 10
895.292
 20
88.757
 10
895.6752
 20
89.9844
 10
896.281
 20
91.0966
 10
897.0825
 20
92.0669
 10
898.0528
 20
92.8683
 10
899.1651
 20
93.4741
 10
900.3924
 20
93.8572
 10
901.7079
 20
93.9909
  0
LWPOLYLINE
  5
6B
330
1F
100
AcDbEntity
  8
Layer 1
 62
     7
370
    35
100
AcDbPolyline
 90
       65
 70
     1
 43
0.0
 10
862.9715
 20
-96.8676
 10
863.1672
 20
-104.1172
 10
863.7842
 20
-111.2994
 10
864.8672
 20
-118.3781
 10
866.461
 20
-125.3172
 10
868.6101
 20
-132.0806
 10
871.3594
 20
-138.632
 10
874.7536
 20
-144.9355
 10
878.8374
 20
-150.9547
 10
890.5658
 20
-163.1005
 10
904.78
 20
-172.6137
 10
920.8667
 20
-179.8066
 10
938.2124
 20
-184.9913
 10
956.2036
 20
-188.4803
 10
974.2269
 20
-190.5858
 10
991.6688
 20
-191.62
 10
1007.9159
 20
-191.8954
 10
1013.7131
 20
-191.8649
 10
1019.5151
 20
-191.7681
 10
1025.3187
 20
-191.5971
 10
1031.1206
 20
-191.344
 10
1036.9176
 20
-191.0007
 10
1042.7063
 20
-190.5594
 10
1048.4834
 20
-190.012
 10
1054.2458
 20
-189.3508
 10
1074.3371
 20
-185.9821
 10
1093.0508
 20
-180.8506
 10
1109.9856
 20
-173.6673
 10
1124.7407
 20
-164.1436
 10
1136.915
 20
-151.9905
 10
1146.1074
 20
-136.9194
 10
1151.917
 20
-118.6414
 10
1153.9426
 20
-96.8676
 10
1151.917
 20
-75.094
 10
1146.1074
 20
-56.8166
 10
1136.915
 20
-41.7463
 10
1124.7407
 20
-29.5939
 10
1109.9856
 20
-20.0705
 10
1093.0508
 20
-12.8868
 10
1074.3371
 20
-7.7537
 10
1054.2458
 20
-4.3822
 10
1048.4834
 20
-3.7211
 10
1042.7063
 20
-3.174
 10
1036.9176
 20
-2.7329
 10
1031.1206
 20
-2.3898
 10
1025.3187
 20
-2.1368
 10
1019.5151
 20
-1.9659
 10
1013.7131
 20
-1.8692
 10
1007.9159
 20
-1.8387
 10
991.6688
 20
-2.1141
 10
974.2269
 20
-3.1485
 10
956.2036
 20
-5.2543
 10
938.2124
 20
-8.7438
 10
920.8667
 20
-13.9293
 10
904.78
 20
-21.1233
 10
890.5658
 20
-30.638
 10
878.8374
 20
-42.7858
 10
874.7536
 20
-48.8051
 10
871.3594
 20
-55.1079
 10
868.6101
 20
-61.6583
 10
866.461
 20
-68.4204
 10
864.8672
 20
-75.3583
 10
863.7842
 20
-82.4361
 10
863.1672
 20
-89.6178
 10
862.9715
 20
-96.8676
  0
LWPOLYLINE
  5
6C
330
1F
100
AcDbEntity
  8
Layer 1
 62
     7
370
    35
100
AcDbPolyline
 90
       33
 70
     1
 43
0.0
 10
1008.457
 20
-80.505
 10
1011.7552
 20
-80.8375
 10
1014.8276
 20
-81.7909
 10
1017.6083
 20
-83.2996
 10
1020.0312
 20
-85.2977
 10
1022.0306
 20
-87.7194
 10
1023.5403
 20
-90.4988
 10
1024.4945
 20
-93.5701
 10
1024.8272
 20
-96.8676
 10
1024.4945
 20
-100.1655
 10
1023.5403
 20
-103.2376
 10
1022.0306
 20
-106.0181
 10
1020.0312
 20
-108.4409
 10
1017.6083
 20
-110.4401
 10
1014.8276
 20
-111.9498
 10
1011.7552
 20
-112.904
 10
1008.457
 20
-113.2367
 10
1005.159
 20
-112.904
 10
1002.0873
 20
-111.9498
 10
999.3075
 20
-110.4401
 10
996.8855
 20
-108.4409
 10
994.8872
 20
-106.0181
 10
993.3783
 20
-103.2376
 10
992.4247
 20
-100.1655
 10
992.0922
 20
-96.8676
 10
992.4247
 20
-93.5701
 10
993.3783
 20
-90.4988
 10
994.8872
 20
-87.7194
 10
996.8855
 20
-85.2977
 10
999.3075
 20
-83.2996
 10
1002.0873
 20
-81.7909
 10
1005.159
 20
-80.8375
 10
1008.457
 20
-80.505
  0
LWPOLYLINE
  5
6D
330
1F
100
AcDbEntity
  8
Layer 1
 62
     7
370
    35
100
AcDbPolyline
 90
       33
 70
     1
 43
0.0
 10
1008.457
 20
-65.5918
 10
1014.7597
 20
-66.2273
 10
1020.6306
 20
-68.0499
 10
1025.9437
 20
-70.9338
 10
1030.5732
 20
-74.753
 10
1034.393
 20
-79.3819
 10
1037.2773
 20
-84.6945
 10
1039.1003
 20
-90.565
 10
1039.7359
 20
-96.8676
 10
1039.1003
 20
-103.1717
 10
1037.2773
 20
-109.0428
 10
1034.393
 20
-114.3554
 10
1030.5732
 20
-118.9838
 10
1025.9437
 20
-122.8024
 10
1020.6306
 20
-125.6855
 10
1014.7597
 20
-127.5075
 10
1008.457
 20
-128.1427
 10
1002.1538
 20
-127.5075
 10
996.2828
 20
-125.6855
 10
990.9697
 20
-122.8024
 10
986.3403
 20
-118.9838
 10
982.5207
 20
-114.3554
 10
979.6365
 20
-109.0428
 10
977.8138
 20
-103.1717
 10
977.1782
 20
-96.8676
 10
977.8138
 20
-90.565
 10
979.6365
 20
-84.6945
 10
982.5207
 20
-79.3819
 10
986.3403
 20
-74.753
 10
990.9697
 20
-70.9338
 10
996.2828
 20
-68.0499
 10
1002.1538
 20
-66.2273
 10
1008.457
 20
-65.5918
  0
LWPOLYLINE
  5
6E
330
1F
100
AcDbEntity
  8
Layer 1
 62
     7
370
    35
100
AcDbPolyline
 90
       33
 70
     1
 43
0.0
 10
1008.457
 20
62.528
 10
1011.7552
 20
62.1955
 10
1014.8276
 20
61.2421
 10
1017.6083
 20
59.7334
 10
1020.0312
 20
57.7354
 10
1022.0306
 20
55.3139
 10
1023.5403
 20
52.5347
 10
1024.4945
 20
49.4636
 10
1024.8272
 20
46.1665
 10
1024.4945
 20
42.8665
 10
1023.5403
 20
39.7933
 10
1022.0306
 20
37.0125
 10
1020.0312
 20
34.59
 10
1017.6083
 20
32.5913
 10
1014.8276
 20
31.0824
 10
1011.7552
 20
30.1288
 10
1008.457
 20
29.7963
 10
1005.159
 20
30.1288
 10
1002.0873
 20
31.0824
 10
999.3075
 20
32.5913
 10
996.8855
 20
34.59
 10
994.8872
 20
37.0125
 10
993.3783
 20
39.7933
 10
992.4247
 20
42.8665
 10
992.0922
 20
46.1665
 10
992.4247
 20
49.4636
 10
993.3783
 20
52.5347
 10
994.8872
 20
55.3139
 10
996.8855
 20
57.7354
 10
999.3075
 20
59.7334
 10
1002.0873
 20
61.2421
 10
1005.159
 20
62.1955
 10
1008.457
 20
62.528
  0
LWPOLYLINE
  5
6F
330
1F
100
AcDbEntity
  8
Layer 1
 62
     7
370
    35
100
AcDbPolyline
 90
        2
 70
     0
 43
0.0
 10
832.9112
 20
93.9909
 10
814.1449
 20
93.9909
  0
LWPOLYLINE
  5
70
330
1F
100
AcDbEntity
  8
Layer 1
 62
     7
370
    35
100
AcDbPolyline
 90
        2
 70
     0
 43
0.0
 10
832.9112
 20
-198.9902
 10
814.1449
 20
-198.9902
  0
LWPOLYLINE
  5
71
330
1F
100
AcDbEntity
  8
Layer 1
 62
     7
370
    35
100
AcDbPolyline
 90
        2
 70
     0
 43
0.0
 10
824.452
 20
-16.8779
 10
824.452
 20
93.985
  0
LWPOLYLINE
  5
72
330
1F
100
AcDbEntity
  8
Layer 1
 62
     7
370
    35
100
AcDbPolyline
 90
        2
 70
     0
 43
0.0
 10
824.452
 20
-198.9902
 10
824.452
 20
-87.3953
  0
LWPOLYLINE
  5
73
330
1F
100
AcDbEntity
  8
Layer 1
 62
     7
370
    35
100
AcDbPolyline
 90
        2
 70
     0
 43
0.0
 10
1161.0338
 20
137.2451
 10
1161.0338
 20
156.0078
  0
LWPOLYLINE
  5
74
330
1F
100
AcDbEntity
  8
Layer 1
 62
     7
370
    35
100
AcDbPolyline
 90
        2
 70
     0
 43
0.0
 10
868.0281
 20
137.2451
 10
868.0281
 20
156.0078
  0
LWPOLYLINE
  5
75
330
1F
100
AcDbEntity
  8
Layer 1
 62
     7
370
    35
100
AcDbPolyline
 90
        2
 70
     0
 43
0.0
 10
1049.8244
 20
145.6969
 10
1161.0338
 20
145.6969
  0
LWPOLYLINE
  5
76
330
1F
100
AcDbEntity
  8
Layer 1
 62
     7
370
    35
100
AcDbPolyline
 90
        2
 70
     0
 43
0.0
 10
868.0281
 20
145.6969
 10
978.7582
 20
145.6969
  0
LWPOLYLINE
  5
77
330
1F
100
AcDbEntity
  8
Layer 1
 62
     7
370
    60
100
AcDbPolyline
 90
        2
 70
     0
 43
0.0
 10
1097.6569
 20
-96.8703
 10
1024.8294
 20
-96.8703
  0
LWPOLYLINE
  5
78
330
1F
100
AcDbEntity
  8
Layer 1
 62
     7
370
    60
100
AcDbPolyline
 90
        2
 70
     0
 43
0.0
 10
929.0129
 20
-96.8649
 10
977.1803
 20
-96.8649
  0
LWPOLYLINE
  5
79
330
1F
100
AcDbEntity
  8
Layer 1
 62
     7
370
    35
100
AcDbPolyline
 90
        2
 70
     0
 43
0.0
 10
1059.7451
 20
46.1665
 10
1024.8272
 20
46.1665
  0
LWPOLYLINE
  5
7A
330
1F
100
AcDbEntity
  8
Layer 1
 62
     7
370
    60
100
AcDbPolyline
 90
        2
 70
     0
 43
0.0
 10
1033.2161
 20
118.4326
 10
1059.3977
 20
118.4326
  0
LWPOLYLINE
  5
7B
330
1F
100
AcDbEntity
  8
Layer 1
 62
     7
370
    60
100
AcDbPolyline
 90
        2
 70
     0
 43
0.0
 10
957.5094
 20
118.4326
 10
985.3597
 20
118.4326
  0
LWPOLYLINE
  5
7C
330
1F
100
AcDbEntity
  8
Layer 1
 62
     7
370
    60
100
AcDbPolyline
 90
        2
 70
     0
 43
0.0
 10
1059.4047
 20
108.185
 10
1059.4047
 20
128.6802
  0
LWPOLYLINE
  5
7D
330
1F
100
AcDbEntity
  8
Layer 1
 62
     7
370
    60
100
AcDbPolyline
 90
        2
 70
     0
 43
0.0
 10
957.5186
 20
108.185
 10
957.5186
 20
128.6802
  0
LWPOLYLINE
  5
7E
330
1F
100
AcDbEntity
  8
Layer 1
  6
New Line1
 62
     7
370
    35
100
AcDbPolyline
 90
        5
 70
     1
 43
0.0
 10
950.6881
 20
94.6061
 10
964.3398
 20
94.6061
 10
964.3398
 20
68.0571
 10
950.6881
 20
68.0571
 10
950.6881
 20
94.6061
  0
LWPOLYLINE
  5
80
330
1F
100
AcDbEntity
  8
Layer 1
  6
New Line2
 62
     7
370
    35
100
AcDbPolyline
 90
        5
 70
     1
 43
0.0
 10
1052.5727
 20
94.6061
 10
1066.2314
 20
94.6061
 10
1066.2314
 20
68.0571
 10
1052.5727
 20
68.0571
 10
1052.5727
 20
94.6061
  0
LWPOLYLINE
  5
82
330
1F
100
AcDbEntity
  8
Layer 1
 62
     7
370
    18
100
AcDbPolyline
 90
      117
 70
     1
 43
0.0
 10
995.5687
 20
137.129
 10
995.1139
 20
137.1382
 10
994.6656
 20
137.166
 10
994.2236
 20
137.2121
 10
993.788
 20
137.2768
 10
993.3587
 20
137.3598
 10
992.9358
 20
137.4614
 10
992.5192
 20
137.5813
 10
992.109
 20
137.7196
 10
991.7123
 20
137.8734
 10
991.3355
 20
138.0396
 10
990.9786
 20
138.2182
 10
990.6417
 20
138.4093
 10
990.3248
 20
138.6129
 10
990.0278
 20
138.8289
 10
989.7508
 20
139.0573
 10
989.4937
 20
139.2982
 10
990.3371
 20
140.6727
 10
990.5509
 20
140.4663
 10
990.7825
 20
140.2689
 10
991.0317
 20
140.0806
 10
991.2986
 20
139.9013
 10
991.5832
 20
139.731
 10
991.8855
 20
139.5698
 10
992.2056
 20
139.4177
 10
992.5434
 20
139.2747
 10
992.8937
 20
139.1447
 10
993.252
 20
139.032
 10
993.6182
 20
138.9367
 10
993.9924
 20
138.8587
 10
994.3745
 20
138.7981
 10
994.7646
 20
138.7548
 10
995.1627
 20
138.7289
 10
995.5687
 20
138.7202
 10
996.0777
 20
138.7345
 10
996.5564
 20
138.7773
 10
997.0045
 20
138.8488
 10
997.4222
 20
138.9489
 10
997.8093
 20
139.0776
 10
998.1659
 20
139.235
 10
998.4919
 20
139.4211
 10
998.7873
 20
139.6359
 10
999.0502
 20
139.8746
 10
999.278
 20
140.1329
 10
999.4708
 20
140.4108
 10
999.6286
 20
140.7085
 10
999.7513
 20
141.0257
 10
999.8389
 20
141.3626
 10
999.8915
 20
141.719
 10
999.909
 20
142.0951
 10
999.8918
 20
142.4708
 10
999.8404
 20
142.827
 10
999.7546
 20
143.1637
 10
999.6346
 20
143.4808
 10
999.4802
 20
143.7783
 10
999.2916
 20
144.0562
 10
999.0688
 20
144.3145
 10
998.8117
 20
144.5532
 10
998.5177
 20
144.768
 10
998.1841
 20
144.9542
 10
997.8109
 20
145.1118
 10
997.3982
 20
145.2407
 10
996.9459
 20
145.341
 10
996.4541
 20
145.4126
 10
995.9228
 20
145.4556
 10
995.352
 20
145.4699
 10
994.1464
 20
145.4699
 10
994.1464
 20
146.7468
 10
999.3545
 20
153.2797
 10
999.5957
 20
152.6051
 10
990.1927
 20
152.6051
 10
990.1927
 20
154.1475
 10
1001.0414
 20
154.1475
 10
1001.0414
 20
152.9185
 10
995.8333
 20
146.3856
 10
994.9898
 20
146.9401
 10
995.641
 20
146.9401
 10
996.3767
 20
146.919
 10
997.0645
 20
146.8557
 10
997.7044
 20
146.7502
 10
998.2965
 20
146.6025
 10
998.8408
 20
146.4127
 10
999.3371
 20
146.1806
 10
999.7856
 20
145.9063
 10
1000.1863
 20
145.5899
 10
1000.5391
 20
145.2404
 10
1000.845
 20
144.8667
 10
1001.1039
 20
144.469
 10
1001.3158
 20
144.0471
 10
1001.4806
 20
143.6012
 10
1001.5984
 20
143.1311
 10
1001.669
 20
142.6369
 10
1001.6926
 20
142.1185
 10
1001.682
 20
141.7676
 10
1001.6503
 20
141.4257
 10
1001.5975
 20
141.0928
 10
1001.5236
 20
140.769
 10
1001.4286
 20
140.4542
 10
1001.3124
 20
140.1484
 10
1001.1753
 20
139.8515
 10
1001.017
 20
139.5637
 10
1000.8378
 20
139.2879
 10
1000.6371
 20
139.0272
 10
1000.4147
 20
138.7816
 10
1000.1709
 20
138.5511
 10
999.9055
 20
138.3357
 10
999.6187
 20
138.1354
 10
999.3104
 20
137.9502
 10
998.9806
 20
137.7801
 10
998.6293
 20
137.6274
 10
998.2565
 20
137.4951
 10
997.8622
 20
137.3832
 10
997.4464
 20
137.2917
 10
997.0091
 20
137.2205
 10
996.5503
 20
137.1696
 10
996.0702
 20
137.1392
 10
995.5687
 20
137.129
  0
LWPOLYLINE
  5
83
330
1F
100
AcDbEntity
  8
Layer 1
 62
     7
370
    18
100
AcDbPolyline
 90
       12
 70
     1
 43
0.0
 10
1006.7787
 20
137.2735
 10
1014.0604
 20
153.3763
 10
1014.5905
 20
152.6051
 10
1004.1517
 20
152.6051
 10
1005.043
 20
153.4485
 10
1005.043
 20
149.447
 10
1003.3317
 20
149.447
 10
1003.3317
 20
154.1475
 10
1015.7229
 20
154.1475
 10
1015.7229
 20
152.9185
 10
1008.6599
 20
137.2735
 10
1006.7787
 20
137.2735
  0
LWPOLYLINE
  5
84
330
1F
100
AcDbEntity
  8
Layer 1
 62
     7
370
    18
100
AcDbPolyline
 90
       97
 70
     1
 43
0.0
 10
1024.257
 20
137.129
 10
1023.7758
 20
137.145
 10
1023.3081
 20
137.1931
 10
1022.854
 20
137.2731
 10
1022.4134
 20
137.3852
 10
1021.9864
 20
137.5292
 10
1021.5729
 20
137.7052
 10
1021.1729
 20
137.9132
 10
1020.7865
 20
138.1531
 10
1020.4168
 20
138.4233
 10
1020.0675
 20
138.7212
 10
1019.7386
 20
139.0471
 10
1019.4302
 20
139.4008
 10
1019.1421
 20
139.7823
 10
1018.8744
 20
140.1918
 10
1018.6269
 20
140.6291
 10
1018.3997
 20
141.0944
 10
1018.1962
 20
141.5858
 10
1018.0199
 20
142.1017
 10
1017.8707
 20
142.642
 10
1017.7487
 20
143.2068
 10
1017.6538
 20
143.7961
 10
1017.586
 20
144.4099
 10
1017.5453
 20
145.0482
 10
1017.5318
 20
145.711
 10
1017.5453
 20
146.3735
 10
1017.586
 20
147.0117
 10
1017.6538
 20
147.6254
 10
1017.7487
 20
148.2147
 10
1017.8707
 20
148.7795
 10
1018.0199
 20
149.3197
 10
1018.1962
 20
149.8355
 10
1018.3997
 20
150.3266
 10
1018.6269
 20
150.7919
 10
1018.8744
 20
151.2292
 10
1019.1421
 20
151.6387
 10
1019.4302
 20
152.0202
 10
1019.7386
 20
152.3739
 10
1020.0675
 20
152.6998
 10
1020.4168
 20
152.9977
 10
1020.7865
 20
153.2679
 10
1021.1729
 20
153.5078
 10
1021.5729
 20
153.7158
 10
1021.9864
 20
153.8918
 10
1022.4134
 20
154.0359
 10
1022.854
 20
154.1479
 10
1023.3081
 20
154.2279
 10
1023.7758
 20
154.276
 10
1024.257
 20
154.292
 10
1024.7386
 20
154.276
 10
1025.2066
 20
154.2279
 10
1025.6611
 20
154.1479
 10
1026.102
 20
154.0359
 10
1026.5293
 20
153.8918
 10
1026.943
 20
153.7158
 10
1027.343
 20
153.5078
 10
1027.7295
 20
153.2679
 10
1028.0991
 20
152.9977
 10
1028.4488
 20
152.6998
 10
1028.7786
 20
152.3739
 10
1029.0884
 20
152.0202
 10
1029.3782
 20
151.6387
 10
1029.6481
 20
151.2292
 10
1029.898
 20
150.7919
 10
1030.128
 20
150.3266
 10
1030.3342
 20
149.8355
 10
1030.513
 20
149.3197
 10
1030.6641
 20
148.7795
 10
1030.7878
 20
148.2147
 10
1030.884
 20
147.6254
 10
1030.9527
 20
147.0117
 10
1030.9939
 20
146.3735
 10
1031.0076
 20
145.711
 10
1030.9939
 20
145.0482
 10
1030.9527
 20
144.4099
 10
1030.884
 20
143.7961
 10
1030.7878
 20
143.2068
 10
1030.6641
 20
142.642
 10
1030.513
 20
142.1017
 10
1030.3342
 20
141.5858
 10
1030.128
 20
141.0944
 10
1029.898
 20
140.6291
 10
1029.6481
 20
140.1918
 10
1029.3782
 20
139.7823
 10
1029.0884
 20
139.4008
 10
1028.7786
 20
139.0471
 10
1028.4488
 20
138.7212
 10
1028.0991
 20
138.4233
 10
1027.7295
 20
138.1531
 10
1027.343
 20
137.9132
 10
1026.943
 20
137.7052
 10
1026.5293
 20
137.5292
 10
1026.102
 20
137.3852
 10
1025.6611
 20
137.2731
 10
1025.2066
 20
137.1931
 10
1024.7386
 20
137.145
 10
1024.257
 20
137.129
  0
LWPOLYLINE
  5
85
330
1F
100
AcDbEntity
  8
Layer 1
 62
     7
370
    18
100
AcDbPolyline
 90
       97
 70
     1
 43
0.0
 10
1024.257
 20
138.7202
 10
1024.6247
 20
138.7328
 10
1024.9804
 20
138.7706
 10
1025.324
 20
138.8336
 10
1025.6556
 20
138.9218
 10
1025.9751
 20
139.0353
 10
1026.2826
 20
139.1741
 10
1026.5781
 20
139.3382
 10
1026.8616
 20
139.5276
 10
1027.1312
 20
139.741
 10
1027.3858
 20
139.9779
 10
1027.6254
 20
140.2381
 10
1027.8499
 20
140.5218
 10
1028.0594
 20
140.8288
 10
1028.2538
 20
141.1592
 10
1028.4331
 20
141.5129
 10
1028.5973
 20
141.89
 10
1028.7442
 20
142.2899
 10
1028.8715
 20
142.7119
 10
1028.9792
 20
143.1562
 10
1029.0674
 20
143.6226
 10
1029.1359
 20
144.1113
 10
1029.1849
 20
144.6222
 10
1029.2143
 20
145.1555
 10
1029.2241
 20
145.711
 10
1029.2143
 20
146.2662
 10
1029.1849
 20
146.7993
 10
1029.1359
 20
147.3102
 10
1029.0674
 20
147.7989
 10
1028.9792
 20
148.2653
 10
1028.8715
 20
148.7095
 10
1028.7442
 20
149.1314
 10
1028.5973
 20
149.531
 10
1028.4331
 20
149.9081
 10
1028.2538
 20
150.2618
 10
1028.0594
 20
150.5922
 10
1027.8499
 20
150.8993
 10
1027.6254
 20
151.1829
 10
1027.3858
 20
151.4431
 10
1027.1312
 20
151.68
 10
1026.8616
 20
151.8934
 10
1026.5781
 20
152.0829
 10
1026.2826
 20
152.247
 10
1025.9751
 20
152.386
 10
1025.6556
 20
152.4996
 10
1025.324
 20
152.588
 10
1024.9804
 20
152.6512
 10
1024.6247
 20
152.6891
 10
1024.257
 20
152.7017
 10
1023.9005
 20
152.6891
 10
1023.5538
 20
152.6512
 10
1023.2167
 20
152.588
 10
1022.8894
 20
152.4996
 10
1022.5719
 20
152.386
 10
1022.2641
 20
152.247
 10
1021.966
 20
152.0829
 10
1021.6778
 20
151.8934
 10
1021.4027
 20
151.68
 10
1021.1433
 20
151.4431
 10
1020.8998
 20
151.1829
 10
1020.672
 20
150.8993
 10
1020.4599
 20
150.5922
 10
1020.2637
 20
150.2618
 10
1020.0833
 20
149.9081
 10
1019.9187
 20
149.531
 10
1019.7718
 20
149.1314
 10
1019.6445
 20
148.7095
 10
1019.5368
 20
148.2653
 10
1019.4486
 20
147.7989
 10
1019.3801
 20
147.3102
 10
1019.3311
 20
146.7993
 10
1019.3017
 20
146.2662
 10
1019.2919
 20
145.711
 10
1019.3017
 20
145.1555
 10
1019.3311
 20
144.6222
 10
1019.3801
 20
144.1113
 10
1019.4486
 20
143.6226
 10
1019.5368
 20
143.1562
 10
1019.6445
 20
142.7119
 10
1019.7718
 20
142.2899
 10
1019.9187
 20
141.89
 10
1020.0833
 20
141.5129
 10
1020.2637
 20
141.1592
 10
1020.4599
 20
140.8288
 10
1020.672
 20
140.5218
 10
1020.8998
 20
140.2381
 10
1021.1433
 20
139.9779
 10
1021.4027
 20
139.741
 10
1021.6778
 20
139.5276
 10
1021.966
 20
139.3382
 10
1022.2641
 20
139.1741
 10
1022.5719
 20
139.0353
 10
1022.8894
 20
138.9218
 10
1023.2167
 20
138.8336
 10
1023.5538
 20
138.7706
 10
1023.9005
 20
138.7328
 10
1024.257
 20
138.7202
  0
LWPOLYLINE
  5
86
330
1F
100
AcDbEntity
  8
Layer 1
 62
     7
370
    18
100
AcDbPolyline
 90
       12
 70
     1
 43
0.0
 10
957.3154
 20
-85.251
 10
964.597
 20
-69.1481
 10
965.1271
 20
-69.9194
 10
954.6884
 20
-69.9194
 10
955.5797
 20
-69.0759
 10
955.5797
 20
-73.0774
 10
953.8683
 20
-73.0774
 10
953.8683
 20
-68.3769
 10
966.2596
 20
-68.3769
 10
966.2596
 20
-69.606
 10
959.1956
 20
-85.251
 10
957.3154
 20
-85.251
  0
LWPOLYLINE
  5
87
330
1F
100
AcDbEntity
  8
Layer 1
 62
     7
370
    18
100
AcDbPolyline
 90
      131
 70
     1
 43
0.0
 10
973.4202
 20
-85.3954
 10
972.971
 20
-85.3862
 10
972.527
 20
-85.3584
 10
972.0881
 20
-85.3123
 10
971.6544
 20
-85.2476
 10
971.226
 20
-85.1646
 10
970.8027
 20
-85.063
 10
970.3848
 20
-84.9431
 10
969.9721
 20
-84.8048
 10
969.573
 20
-84.6511
 10
969.1949
 20
-84.4849
 10
968.8379
 20
-84.3062
 10
968.5019
 20
-84.1151
 10
968.187
 20
-83.9116
 10
967.8931
 20
-83.6956
 10
967.6203
 20
-83.4672
 10
967.3685
 20
-83.2263
 10
968.213
 20
-81.8517
 10
968.421
 20
-82.0581
 10
968.6475
 20
-82.2555
 10
968.8925
 20
-82.4438
 10
969.1559
 20
-82.6232
 10
969.4378
 20
-82.7935
 10
969.7381
 20
-82.9547
 10
970.0568
 20
-83.1067
 10
970.3939
 20
-83.2497
 10
970.7442
 20
-83.3798
 10
971.1016
 20
-83.4924
 10
971.4663
 20
-83.5877
 10
971.8381
 20
-83.6657
 10
972.217
 20
-83.7263
 10
972.6029
 20
-83.7696
 10
972.9959
 20
-83.7955
 10
973.3958
 20
-83.8042
 10
973.9164
 20
-83.7893
 10
974.4049
 20
-83.7447
 10
974.8613
 20
-83.6703
 10
975.2856
 20
-83.5662
 10
975.6778
 20
-83.4324
 10
976.038
 20
-83.2688
 10
976.3661
 20
-83.0755
 10
976.6622
 20
-82.8524
 10
976.9251
 20
-82.6052
 10
977.1529
 20
-82.3395
 10
977.3457
 20
-82.0553
 10
977.5035
 20
-81.7527
 10
977.6262
 20
-81.4315
 10
977.7138
 20
-81.0919
 10
977.7664
 20
-80.7337
 10
977.7839
 20
-80.3571
 10
977.7758
 20
-80.0909
 10
977.7515
 20
-79.834
 10
977.711
 20
-79.5865
 10
977.6543
 20
-79.3483
 10
977.5814
 20
-79.1195
 10
977.4923
 20
-78.9002
 10
977.387
 20
-78.6902
 10
977.2655
 20
-78.4896
 10
977.1248
 20
-78.2992
 10
976.9618
 20
-78.1197
 10
976.7766
 20
-77.9511
 10
976.5692
 20
-77.7934
 10
976.3395
 20
-77.6467
 10
976.0876
 20
-77.5109
 10
975.8135
 20
-77.3861
 10
975.5171
 20
-77.2723
 10
975.1956
 20
-77.1704
 10
974.8455
 20
-77.0821
 10
974.4667
 20
-77.0074
 10
974.0592
 20
-76.9464
 10
973.623
 20
-76.8989
 10
973.1582
 20
-76.865
 10
972.6646
 20
-76.8447
 10
972.1423
 20
-76.8379
 10
968.5498
 20
-76.8379
 10
969.4176
 20
-68.3769
 10
978.6517
 20
-68.3769
 10
978.6517
 20
-69.9194
 10
970.1166
 20
-69.9194
 10
971.0089
 20
-69.0759
 10
970.2611
 20
-76.1633
 10
969.3698
 20
-75.2954
 10
972.5289
 20
-75.2954
 10
973.1519
 20
-75.3052
 10
973.7432
 20
-75.3346
 10
974.3028
 20
-75.3835
 10
974.8308
 20
-75.4521
 10
975.3271
 20
-75.5402
 10
975.7918
 20
-75.648
 10
976.2248
 20
-75.7753
 10
976.6261
 20
-75.9222
 10
976.9985
 20
-76.0866
 10
977.3442
 20
-76.2665
 10
977.663
 20
-76.4618
 10
977.9551
 20
-76.6725
 10
978.2204
 20
-76.8987
 10
978.4589
 20
-77.1403
 10
978.6707
 20
-77.3972
 10
978.8558
 20
-77.6696
 10
979.0171
 20
-77.9558
 10
979.1567
 20
-78.2537
 10
979.2749
 20
-78.5632
 10
979.3715
 20
-78.8843
 10
979.4465
 20
-79.217
 10
979.5001
 20
-79.5613
 10
979.5323
 20
-79.9173
 10
979.543
 20
-80.2849
 10
979.5325
 20
-80.6367
 10
979.5009
 20
-80.9805
 10
979.4482
 20
-81.3163
 10
979.3745
 20
-81.6442
 10
979.2797
 20
-81.9641
 10
979.1637
 20
-82.2762
 10
979.0267
 20
-82.5804
 10
978.8685
 20
-82.8768
 10
978.6892
 20
-83.1612
 10
978.4887
 20
-83.4303
 10
978.2671
 20
-83.6839
 10
978.0245
 20
-83.9222
 10
977.7609
 20
-84.145
 10
977.4762
 20
-84.3524
 10
977.1705
 20
-84.5444
 10
976.8438
 20
-84.7209
 10
976.495
 20
-84.8791
 10
976.1235
 20
-85.0161
 10
975.7295
 20
-85.1321
 10
975.3128
 20
-85.2269
 10
974.8736
 20
-85.3006
 10
974.4117
 20
-85.3533
 10
973.9273
 20
-85.3849
 10
973.4202
 20
-85.3954
  0
LWPOLYLINE
  5
88
330
1F
100
AcDbEntity
  8
Layer 1
 62
     7
370
    35
100
AcDbPolyline
 90
       33
 70
     1
 43
0.0
 10
940.6114
 20
-69.8812
 10
942.3827
 20
-70.0597
 10
944.0324
 20
-70.5718
 10
945.5254
 20
-71.3821
 10
946.8262
 20
-72.4552
 10
947.8994
 20
-73.7559
 10
948.7098
 20
-75.2487
 10
949.2219
 20
-76.8983
 10
949.4005
 20
-78.6694
 10
949.2219
 20
-80.4405
 10
948.7098
 20
-82.0901
 10
947.8994
 20
-83.5829
 10
946.8262
 20
-84.8835
 10
945.5254
 20
-85.9567
 10
944.0324
 20
-86.767
 10
942.3827
 20
-87.279
 10
940.6114
 20
-87.4576
 10
938.8401
 20
-87.279
 10
937.1904
 20
-86.767
 10
935.6974
 20
-85.9567
 10
934.3966
 20
-84.8835
 10
933.3234
 20
-83.5829
 10
932.513
 20
-82.0901
 10
932.0009
 20
-80.4405
 10
931.8223
 20
-78.6694
 10
932.0009
 20
-76.8983
 10
932.513
 20
-75.2487
 10
933.3234
 20
-73.7559
 10
934.3966
 20
-72.4552
 10
935.6974
 20
-71.3821
 10
937.1904
 20
-70.5718
 10
938.8401
 20
-70.0597
 10
940.6114
 20
-69.8812
  0
LWPOLYLINE
  5
89
330
1F
100
AcDbEntity
  8
Layer 1
 62
     7
370
    35
100
AcDbPolyline
 90
        2
 70
     0
 43
0.0
 10
943.4777
 20
-64.4605
 10
937.7001
 20
-94.0022
  0
LWPOLYLINE
  5
8A
330
1F
100
AcDbEntity
  8
Layer 1
 62
     7
370
    18
100
AcDbPolyline
 90
        9
 70
     1
 43
0.0
 10
1067.492
 20
-81.2582
 10
1067.492
 20
-80.0047
 10
1076.4362
 20
-68.8201
 10
1078.3642
 20
-68.8201
 10
1069.4923
 20
-80.0047
 10
1068.5522
 20
-79.7158
 10
1082.1247
 20
-79.7158
 10
1082.1247
 20
-81.2582
 10
1067.492
 20
-81.2582
  0
LWPOLYLINE
  5
8B
330
1F
100
AcDbEntity
  8
Layer 1
 62
     7
370
    18
100
AcDbPolyline
 90
        7
 70
     1
 43
0.0
 10
1077.0141
 20
-85.6942
 10
1077.0141
 20
-81.2582
 10
1077.0629
 20
-79.7158
 10
1077.0629
 20
-75.8109
 10
1078.7498
 20
-75.8109
 10
1078.7498
 20
-85.6942
 10
1077.0141
 20
-85.6942
  0
LWPOLYLINE
  5
8C
330
1F
100
AcDbEntity
  8
Layer 1
 62
     7
370
    18
100
AcDbPolyline
 90
      131
 70
     1
 43
0.0
 10
1088.9963
 20
-85.8386
 10
1088.5471
 20
-85.8294
 10
1088.1032
 20
-85.8016
 10
1087.6645
 20
-85.7555
 10
1087.231
 20
-85.6908
 10
1086.8027
 20
-85.6078
 10
1086.3797
 20
-85.5062
 10
1085.9618
 20
-85.3863
 10
1085.5492
 20
-85.248
 10
1085.1498
 20
-85.0943
 10
1084.7715
 20
-84.9281
 10
1084.4143
 20
-84.7494
 10
1084.0782
 20
-84.5583
 10
1083.7632
 20
-84.3548
 10
1083.4693
 20
-84.1388
 10
1083.1965
 20
-83.9104
 10
1082.9447
 20
-83.6695
 10
1083.7891
 20
-82.2949
 10
1083.9971
 20
-82.5013
 10
1084.2237
 20
-82.6987
 10
1084.4687
 20
-82.887
 10
1084.7322
 20
-83.0664
 10
1085.0141
 20
-83.2367
 10
1085.3146
 20
-83.3979
 10
1085.6336
 20
-83.5499
 10
1085.971
 20
-83.6929
 10
1086.3213
 20
-83.823
 10
1086.6786
 20
-83.9356
 10
1087.0431
 20
-84.0309
 10
1087.4147
 20
-84.1089
 10
1087.7934
 20
-84.1695
 10
1088.1792
 20
-84.2128
 10
1088.572
 20
-84.2387
 10
1088.9719
 20
-84.2474
 10
1089.4925
 20
-84.2325
 10
1089.981
 20
-84.1879
 10
1090.4374
 20
-84.1135
 10
1090.8617
 20
-84.0094
 10
1091.2539
 20
-83.8756
 10
1091.6141
 20
-83.712
 10
1091.9422
 20
-83.5187
 10
1092.2383
 20
-83.2956
 10
1092.5012
 20
-83.0484
 10
1092.729
 20
-82.7827
 10
1092.9218
 20
-82.4985
 10
1093.0796
 20
-82.1959
 10
1093.2023
 20
-81.8747
 10
1093.2899
 20
-81.5351
 10
1093.3425
 20
-81.1769
 10
1093.36
 20
-80.8003
 10
1093.3519
 20
-80.5341
 10
1093.3276
 20
-80.2772
 10
1093.2871
 20
-80.0297
 10
1093.2304
 20
-79.7915
 10
1093.1575
 20
-79.5627
 10
1093.0684
 20
-79.3434
 10
1092.9631
 20
-79.1334
 10
1092.8416
 20
-78.9328
 10
1092.7009
 20
-78.7424
 10
1092.538
 20
-78.5629
 10
1092.3528
 20
-78.3943
 10
1092.1454
 20
-78.2366
 10
1091.9157
 20
-78.0899
 10
1091.6638
 20
-77.9541
 10
1091.3896
 20
-77.8293
 10
1091.0932
 20
-77.7155
 10
1090.7717
 20
-77.6136
 10
1090.4216
 20
-77.5253
 10
1090.0428
 20
-77.4506
 10
1089.6354
 20
-77.3896
 10
1089.1992
 20
-77.3421
 10
1088.7343
 20
-77.3082
 10
1088.2407
 20
-77.2879
 10
1087.7184
 20
-77.2811
 10
1084.1259
 20
-77.2811
 10
1084.9938
 20
-68.8201
 10
1094.2279
 20
-68.8201
 10
1094.2279
 20
-70.3626
 10
1085.6937
 20
-70.3626
 10
1086.586
 20
-69.5191
 10
1085.8382
 20
-76.6065
 10
1084.9459
 20
-75.7386
 10
1088.105
 20
-75.7386
 10
1088.728
 20
-75.7484
 10
1089.3193
 20
-75.7778
 10
1089.879
 20
-75.8267
 10
1090.407
 20
-75.8953
 10
1090.9033
 20
-75.9834
 10
1091.3679
 20
-76.0912
 10
1091.8009
 20
-76.2185
 10
1092.2022
 20
-76.3654
 10
1092.5747
 20
-76.5298
 10
1092.9203
 20
-76.7097
 10
1093.2392
 20
-76.905
 10
1093.5313
 20
-77.1157
 10
1093.7965
 20
-77.3419
 10
1094.0351
 20
-77.5835
 10
1094.2469
 20
-77.8404
 10
1094.4319
 20
-78.1128
 10
1094.5935
 20
-78.399
 10
1094.7334
 20
-78.6969
 10
1094.8517
 20
-79.0064
 10
1094.9484
 20
-79.3275
 10
1095.0236
 20
-79.6602
 10
1095.0772
 20
-80.0046
 10
1095.1094
 20
-80.3605
 10
1095.1201
 20
-80.7281
 10
1095.1096
 20
-81.0799
 10
1095.078
 20
-81.4237
 10
1095.0253
 20
-81.7595
 10
1094.9515
 20
-82.0874
 10
1094.8565
 20
-82.4073
 10
1094.7404
 20
-82.7194
 10
1094.6031
 20
-83.0236
 10
1094.4446
 20
-83.32
 10
1094.2653
 20
-83.6044
 10
1094.0648
 20
-83.8735
 10
1093.8433
 20
-84.1271
 10
1093.6007
 20
-84.3654
 10
1093.337
 20
-84.5882
 10
1093.0523
 20
-84.7956
 10
1092.7466
 20
-84.9876
 10
1092.4199
 20
-85.1641
 10
1092.0711
 20
-85.3223
 10
1091.6996
 20
-85.4593
 10
1091.3056
 20
-85.5753
 10
1090.8889
 20
-85.6701
 10
1090.4497
 20
-85.7438
 10
1089.9878
 20
-85.7965
 10
1089.5034
 20
-85.8281
 10
1088.9963
 20
-85.8386
  0
LWPOLYLINE
  5
8D
330
1F
100
AcDbEntity
  8
Layer 1
 62
     7
370
    35
100
AcDbPolyline
 90
       33
 70
     1
 43
0.0
 10
1053.5036
 20
-68.6909
 10
1055.4631
 20
-68.8884
 10
1057.2883
 20
-69.455
 10
1058.9399
 20
-70.3514
 10
1060.379
 20
-71.5386
 10
1061.5663
 20
-72.9774
 10
1062.4628
 20
-74.6289
 10
1063.0294
 20
-76.4539
 10
1063.2269
 20
-78.4132
 10
1063.0294
 20
-80.3726
 10
1062.4628
 20
-82.1975
 10
1061.5663
 20
-83.849
 10
1060.379
 20
-85.2879
 10
1058.9399
 20
-86.4751
 10
1057.2883
 20
-87.3715
 10
1055.4631
 20
-87.9381
 10
1053.5036
 20
-88.1356
 10
1051.544
 20
-87.9381
 10
1049.7189
 20
-87.3715
 10
1048.0672
 20
-86.4751
 10
1046.6282
 20
-85.2879
 10
1045.4409
 20
-83.849
 10
1044.5443
 20
-82.1975
 10
1043.9778
 20
-80.3726
 10
1043.7802
 20
-78.4132
 10
1043.9778
 20
-76.4539
 10
1044.5443
 20
-74.6289
 10
1045.4409
 20
-72.9774
 10
1046.6282
 20
-71.5386
 10
1048.0672
 20
-70.3514
 10
1049.7189
 20
-69.455
 10
1051.544
 20
-68.8884
 10
1053.5036
 20
-68.6909
  0
LWPOLYLINE
  5
8E
330
1F
100
AcDbEntity
  8
Layer 1
 62
     7
370
    35
100
AcDbPolyline
 90
        2
 70
     0
 43
0.0
 10
1056.6746
 20
-62.6939
 10
1050.2828
 20
-95.3759
  0
LWPOLYLINE
  5
8F
330
1F
100
AcDbEntity
  8
Layer 1
 62
     7
370
    18
100
AcDbPolyline
 90
      117
 70
     1
 43
0.0
 10
837.3921
 20
-70.5314
 10
837.3828
 20
-70.9876
 10
837.355
 20
-71.4375
 10
837.3086
 20
-71.8809
 10
837.2437
 20
-72.3179
 10
837.1603
 20
-72.7485
 10
837.0585
 20
-73.1727
 10
836.9383
 20
-73.5905
 10
836.7996
 20
-74.0019
 10
836.6451
 20
-74.4001
 10
836.4782
 20
-74.7782
 10
836.2988
 20
-75.1363
 10
836.1069
 20
-75.4743
 10
835.9026
 20
-75.7923
 10
835.6859
 20
-76.0902
 10
835.4567
 20
-76.3681
 10
835.2151
 20
-76.626
 10
833.8367
 20
-75.7796
 10
834.0438
 20
-75.565
 10
834.2418
 20
-75.3328
 10
834.4307
 20
-75.0828
 10
834.6106
 20
-74.8151
 10
834.7814
 20
-74.5296
 10
834.9432
 20
-74.2264
 10
835.0959
 20
-73.9054
 10
835.2395
 20
-73.5665
 10
835.3699
 20
-73.2148
 10
835.483
 20
-72.8552
 10
835.5786
 20
-72.4877
 10
835.6569
 20
-72.1123
 10
835.7177
 20
-71.729
 10
835.7612
 20
-71.3377
 10
835.7873
 20
-70.9385
 10
835.796
 20
-70.5314
 10
835.7816
 20
-70.0206
 10
835.7385
 20
-69.5404
 10
835.6667
 20
-69.0908
 10
835.5661
 20
-68.6718
 10
835.4368
 20
-68.2834
 10
835.2787
 20
-67.9257
 10
835.0919
 20
-67.5986
 10
834.8764
 20
-67.3021
 10
834.6367
 20
-67.0385
 10
834.3774
 20
-66.8101
 10
834.0985
 20
-66.6168
 10
833.8
 20
-66.4587
 10
833.4818
 20
-66.3357
 10
833.144
 20
-66.2478
 10
832.7866
 20
-66.1951
 10
832.4095
 20
-66.1775
 10
832.0324
 20
-66.1947
 10
831.6749
 20
-66.2463
 10
831.3371
 20
-66.3323
 10
831.019
 20
-66.4527
 10
830.7204
 20
-66.6074
 10
830.4416
 20
-66.7965
 10
830.1823
 20
-67.0199
 10
829.9426
 20
-67.2777
 10
829.7271
 20
-67.5728
 10
829.5404
 20
-67.9075
 10
829.3825
 20
-68.2819
 10
829.2533
 20
-68.696
 10
829.1529
 20
-69.1497
 10
829.0812
 20
-69.6432
 10
829.0382
 20
-70.1763
 10
829.0239
 20
-70.7491
 10
829.0239
 20
-71.9577
 10
827.7402
 20
-71.9577
 10
821.1858
 20
-66.7339
 10
821.8633
 20
-66.4918
 10
821.8633
 20
-75.9251
 10
820.316
 20
-75.9251
 10
820.316
 20
-65.0412
 10
821.549
 20
-65.0412
 10
828.1034
 20
-70.2649
 10
827.5469
 20
-71.1113
 10
827.5469
 20
-70.4582
 10
827.5681
 20
-69.7204
 10
827.6317
 20
-69.0306
 10
827.7376
 20
-68.3889
 10
827.8859
 20
-67.7951
 10
828.0766
 20
-67.2493
 10
828.3097
 20
-66.7514
 10
828.5851
 20
-66.3014
 10
828.9029
 20
-65.8993
 10
829.2536
 20
-65.5451
 10
829.6285
 20
-65.2381
 10
830.0275
 20
-64.9784
 10
830.4507
 20
-64.7659
 10
830.898
 20
-64.6006
 10
831.3696
 20
-64.4825
 10
831.8652
 20
-64.4117
 10
832.3851
 20
-64.3881
 10
832.7375
 20
-64.3987
 10
833.0807
 20
-64.4304
 10
833.4147
 20
-64.4833
 10
833.7397
 20
-64.5574
 10
834.0556
 20
-64.6526
 10
834.3623
 20
-64.7691
 10
834.66
 20
-64.9067
 10
834.9486
 20
-65.0656
 10
835.2255
 20
-65.2455
 10
835.4872
 20
-65.447
 10
835.7337
 20
-65.6701
 10
835.965
 20
-65.9148
 10
836.1812
 20
-66.181
 10
836.3822
 20
-66.4687
 10
836.5682
 20
-66.778
 10
836.739
 20
-67.1088
 10
836.8921
 20
-67.4611
 10
837.0247
 20
-67.8351
 10
837.137
 20
-68.2306
 10
837.2288
 20
-68.6477
 10
837.3003
 20
-69.0863
 10
837.3513
 20
-69.5465
 10
837.3819
 20
-70.0282
 10
837.3921
 20
-70.5314
  0
LWPOLYLINE
  5
90
330
1F
100
AcDbEntity
  8
Layer 1
 62
     7
370
    18
100
AcDbPolyline
 90
      131
 70
     1
 43
0.0
 10
837.3921
 20
-56.8419
 10
837.3828
 20
-57.2928
 10
837.355
 20
-57.7384
 10
837.3086
 20
-58.1787
 10
837.2437
 20
-58.6137
 10
837.1603
 20
-59.0434
 10
837.0585
 20
-59.4678
 10
836.9383
 20
-59.8868
 10
836.7996
 20
-60.3006
 10
836.6451
 20
-60.7011
 10
836.4782
 20
-61.0805
 10
836.2988
 20
-61.4388
 10
836.1069
 20
-61.7759
 10
835.9026
 20
-62.0919
 10
835.6859
 20
-62.3867
 10
835.4567
 20
-62.6604
 10
835.2151
 20
-62.913
 10
833.8367
 20
-62.0666
 10
834.0438
 20
-61.8578
 10
834.2418
 20
-61.6305
 10
834.4307
 20
-61.3846
 10
834.6106
 20
-61.1202
 10
834.7814
 20
-60.8373
 10
834.9432
 20
-60.5359
 10
835.0959
 20
-60.2161
 10
835.2395
 20
-59.8779
 10
835.3699
 20
-59.5266
 10
835.483
 20
-59.1681
 10
835.5786
 20
-58.8024
 10
835.6569
 20
-58.4296
 10
835.7177
 20
-58.0495
 10
835.7612
 20
-57.6623
 10
835.7873
 20
-57.2679
 10
835.796
 20
-56.8663
 10
835.781
 20
-56.3442
 10
835.7362
 20
-55.8542
 10
835.6614
 20
-55.3964
 10
835.5568
 20
-54.9707
 10
835.4224
 20
-54.5771
 10
835.2582
 20
-54.2156
 10
835.0641
 20
-53.8863
 10
834.8403
 20
-53.5891
 10
834.592
 20
-53.3255
 10
834.3254
 20
-53.0971
 10
834.0402
 20
-52.9038
 10
833.7367
 20
-52.7456
 10
833.4146
 20
-52.6226
 10
833.074
 20
-52.5348
 10
832.7149
 20
-52.4821
 10
832.3372
 20
-52.4645
 10
832.0696
 20
-52.4726
 10
831.8115
 20
-52.4971
 10
831.5629
 20
-52.5377
 10
831.3239
 20
-52.5947
 10
831.0944
 20
-52.6679
 10
830.8743
 20
-52.7573
 10
830.6639
 20
-52.8629
 10
830.4629
 20
-52.9848
 10
830.2718
 20
-53.1259
 10
830.0917
 20
-53.2894
 10
829.9225
 20
-53.4751
 10
829.7643
 20
-53.6832
 10
829.617
 20
-53.9135
 10
829.4807
 20
-54.1661
 10
829.3552
 20
-54.441
 10
829.2407
 20
-54.7381
 10
829.1388
 20
-55.0608
 10
829.0505
 20
-55.4122
 10
828.9758
 20
-55.7925
 10
828.9147
 20
-56.2015
 10
828.8672
 20
-56.6392
 10
828.8333
 20
-57.1057
 10
828.813
 20
-57.6008
 10
828.8062
 20
-58.1246
 10
828.8062
 20
-61.7279
 10
820.316
 20
-60.8571
 10
820.316
 20
-51.5937
 10
821.8633
 20
-51.5937
 10
821.8633
 20
-60.1561
 10
821.0169
 20
-59.2609
 10
828.1278
 20
-60.0107
 10
827.257
 20
-60.9059
 10
827.257
 20
-57.737
 10
827.2668
 20
-57.1119
 10
827.2963
 20
-56.5185
 10
827.3455
 20
-55.9569
 10
827.4143
 20
-55.4271
 10
827.5027
 20
-54.929
 10
827.6108
 20
-54.4626
 10
827.7384
 20
-54.028
 10
827.8857
 20
-53.6252
 10
828.0508
 20
-53.2517
 10
828.2314
 20
-52.9049
 10
828.4275
 20
-52.5851
 10
828.6391
 20
-52.292
 10
828.8661
 20
-52.0259
 10
829.1085
 20
-51.7866
 10
829.3665
 20
-51.5742
 10
829.6399
 20
-51.3887
 10
829.9269
 20
-51.2271
 10
830.2257
 20
-51.087
 10
830.5361
 20
-50.9685
 10
830.8583
 20
-50.8716
 10
831.1921
 20
-50.7963
 10
831.5377
 20
-50.7424
 10
831.895
 20
-50.7102
 10
832.264
 20
-50.6994
 10
832.6169
 20
-50.71
 10
832.9619
 20
-50.7417
 10
833.299
 20
-50.7946
 10
833.628
 20
-50.8686
 10
833.9491
 20
-50.9637
 10
834.2623
 20
-51.08
 10
834.5675
 20
-51.2174
 10
834.8647
 20
-51.376
 10
835.1501
 20
-51.556
 10
835.42
 20
-51.7571
 10
835.6744
 20
-51.9793
 10
835.9134
 20
-52.2226
 10
836.1368
 20
-52.4871
 10
836.3448
 20
-52.7727
 10
836.5374
 20
-53.0795
 10
836.7146
 20
-53.4075
 10
836.8732
 20
-53.7575
 10
837.0107
 20
-54.1301
 10
837.1272
 20
-54.5255
 10
837.2225
 20
-54.9435
 10
837.2967
 20
-55.3841
 10
837.3497
 20
-55.8474
 10
837.3815
 20
-56.3333
 10
837.3921
 20
-56.8419
  0
LWPOLYLINE
  5
91
330
1F
100
AcDbEntity
  8
Layer 1
 62
     7
370
    18
100
AcDbPolyline
 90
      131
 70
     1
 43
0.0
 10
837.3921
 20
-43.2733
 10
837.3828
 20
-43.7242
 10
837.355
 20
-44.1699
 10
837.3086
 20
-44.6102
 10
837.2437
 20
-45.0452
 10
837.1603
 20
-45.4749
 10
837.0585
 20
-45.8993
 10
836.9383
 20
-46.3183
 10
836.7996
 20
-46.7321
 10
836.6451
 20
-47.1326
 10
836.4782
 20
-47.512
 10
836.2988
 20
-47.8703
 10
836.1069
 20
-48.2074
 10
835.9026
 20
-48.5234
 10
835.6859
 20
-48.8182
 10
835.4567
 20
-49.0919
 10
835.2151
 20
-49.3445
 10
833.8367
 20
-48.4981
 10
834.0438
 20
-48.2893
 10
834.2418
 20
-48.0619
 10
834.4307
 20
-47.816
 10
834.6106
 20
-47.5516
 10
834.7814
 20
-47.2687
 10
834.9432
 20
-46.9674
 10
835.0959
 20
-46.6476
 10
835.2395
 20
-46.3094
 10
835.3699
 20
-45.9581
 10
835.483
 20
-45.5995
 10
835.5786
 20
-45.2339
 10
835.6569
 20
-44.861
 10
835.7177
 20
-44.481
 10
835.7612
 20
-44.0938
 10
835.7873
 20
-43.6994
 10
835.796
 20
-43.2977
 10
835.781
 20
-42.7756
 10
835.7362
 20
-42.2857
 10
835.6614
 20
-41.8279
 10
835.5568
 20
-41.4022
 10
835.4224
 20
-41.0086
 10
835.2582
 20
-40.6471
 10
835.0641
 20
-40.3177
 10
834.8403
 20
-40.0205
 10
834.592
 20
-39.7569
 10
834.3254
 20
-39.5285
 10
834.0402
 20
-39.3352
 10
833.7367
 20
-39.1771
 10
833.4146
 20
-39.0541
 10
833.074
 20
-38.9662
 10
832.7149
 20
-38.9135
 10
832.3372
 20
-38.8959
 10
832.0696
 20
-38.904
 10
831.8115
 20
-38.9285
 10
831.5629
 20
-38.9692
 10
831.3239
 20
-39.0261
 10
831.0944
 20
-39.0993
 10
830.8743
 20
-39.1888
 10
830.6639
 20
-39.2944
 10
830.4629
 20
-39.4163
 10
830.2718
 20
-39.5574
 10
830.0917
 20
-39.7208
 10
829.9225
 20
-39.9066
 10
829.7643
 20
-40.1146
 10
829.617
 20
-40.345
 10
829.4807
 20
-40.5976
 10
829.3552
 20
-40.8724
 10
829.2407
 20
-41.1695
 10
829.1388
 20
-41.4922
 10
829.0505
 20
-41.8436
 10
828.9758
 20
-42.2239
 10
828.9147
 20
-42.6329
 10
828.8672
 20
-43.0706
 10
828.8333
 20
-43.5371
 10
828.813
 20
-44.0323
 10
828.8062
 20
-44.5561
 10
828.8062
 20
-48.1593
 10
820.316
 20
-47.2885
 10
820.316
 20
-38.0251
 10
821.8633
 20
-38.0251
 10
821.8633
 20
-46.5876
 10
821.0169
 20
-45.6924
 10
828.1278
 20
-46.4421
 10
827.257
 20
-47.3373
 10
827.257
 20
-44.1685
 10
827.2668
 20
-43.5434
 10
827.2963
 20
-42.95
 10
827.3455
 20
-42.3884
 10
827.4143
 20
-41.8585
 10
827.5027
 20
-41.3604
 10
827.6108
 20
-40.8941
 10
827.7384
 20
-40.4595
 10
827.8857
 20
-40.0567
 10
828.0508
 20
-39.6832
 10
828.2314
 20
-39.3364
 10
828.4275
 20
-39.0166
 10
828.6391
 20
-38.7235
 10
828.8661
 20
-38.4574
 10
829.1085
 20
-38.2181
 10
829.3665
 20
-38.0056
 10
829.6399
 20
-37.8201
 10
829.9269
 20
-37.6585
 10
830.2257
 20
-37.5184
 10
830.5361
 20
-37.4
 10
830.8583
 20
-37.3031
 10
831.1921
 20
-37.2277
 10
831.5377
 20
-37.1739
 10
831.895
 20
-37.1417
 10
832.264
 20
-37.1309
 10
832.6169
 20
-37.1415
 10
832.9619
 20
-37.1732
 10
833.299
 20
-37.226
 10
833.628
 20
-37.3
 10
833.9491
 20
-37.3952
 10
834.2623
 20
-37.5114
 10
834.5675
 20
-37.6488
 10
834.8647
 20
-37.8074
 10
835.1501
 20
-37.9874
 10
835.42
 20
-38.1885
 10
835.6744
 20
-38.4107
 10
835.9134
 20
-38.654
 10
836.1368
 20
-38.9185
 10
836.3448
 20
-39.2041
 10
836.5374
 20
-39.511
 10
836.7146
 20
-39.839
 10
836.8732
 20
-40.189
 10
837.0107
 20
-40.5616
 10
837.1272
 20
-40.957
 10
837.2225
 20
-41.375
 10
837.2967
 20
-41.8156
 10
837.3497
 20
-42.2789
 10
837.3815
 20
-42.7648
 10
837.3921
 20
-43.2733
  0
LWPOLYLINE
  5
92
330
1F
100
AcDbEntity
  8
Layer 1
 62
     7
370
    18
100
AcDbPolyline
 90
      180
 70
     1
 43
0.0
 10
998.7317
 20
123.2178
 10
999.2812
 20
123.2022
 10
999.8089
 20
123.1554
 10
1000.3147
 20
123.0773
 10
1000.7987
 20
122.9679
 10
1001.2609
 20
122.8272
 10
1001.7012
 20
122.6552
 10
1002.1198
 20
122.4519
 10
1002.5165
 20
122.2172
 10
1002.8904
 20
121.9534
 10
1003.241
 20
121.6622
 10
1003.5683
 20
121.3435
 10
1003.8724
 20
120.9973
 10
1004.1531
 20
120.6236
 10
1004.4106
 20
120.2223
 10
1004.6447
 20
119.7936
 10
1004.8555
 20
119.3373
 10
1005.0419
 20
118.8548
 10
1005.2035
 20
118.3474
 10
1005.3402
 20
117.8152
 10
1005.4521
 20
117.2581
 10
1005.5392
 20
116.6761
 10
1005.6014
 20
116.0693
 10
1005.6388
 20
115.4377
 10
1005.6512
 20
114.7813
 10
1005.636
 20
114.084
 10
1005.5902
 20
113.4145
 10
1005.514
 20
112.773
 10
1005.4073
 20
112.1594
 10
1005.27
 20
111.5737
 10
1005.1022
 20
111.0159
 10
1004.9038
 20
110.486
 10
1004.6749
 20
109.9841
 10
1004.4186
 20
109.5108
 10
1004.1386
 20
109.0678
 10
1003.835
 20
108.6549
 10
1003.5077
 20
108.2722
 10
1003.1568
 20
107.9196
 10
1002.7822
 20
107.5972
 10
1002.384
 20
107.3049
 10
1001.962
 20
107.0428
 10
1001.5195
 20
106.8111
 10
1001.0596
 20
106.6104
 10
1000.5824
 20
106.4406
 10
1000.0878
 20
106.3017
 10
999.5759
 20
106.1936
 10
999.0466
 20
106.1165
 10
998.5
 20
106.0702
 10
997.9361
 20
106.0548
 10
997.6547
 20
106.0582
 10
997.3767
 20
106.0684
 10
997.102
 20
106.0853
 10
996.8306
 20
106.109
 10
996.5626
 20
106.1395
 10
996.2979
 20
106.1767
 10
996.0366
 20
106.2207
 10
995.7786
 20
106.2715
 10
995.5258
 20
106.3298
 10
995.2793
 20
106.3965
 10
995.0391
 20
106.4715
 10
994.8052
 20
106.5547
 10
994.5776
 20
106.6463
 10
994.3565
 20
106.7461
 10
994.1418
 20
106.8542
 10
993.9336
 20
106.9705
 10
994.6325
 20
108.3685
 10
994.7989
 20
108.2641
 10
994.9715
 20
108.1675
 10
995.1505
 20
108.0789
 10
995.3358
 20
107.9981
 10
995.5274
 20
107.9253
 10
995.7254
 20
107.8604
 10
995.9299
 20
107.8034
 10
996.1408
 20
107.7544
 10
996.3555
 20
107.7119
 10
996.5722
 20
107.6751
 10
996.7908
 20
107.6441
 10
997.0113
 20
107.6187
 10
997.2338
 20
107.599
 10
997.4581
 20
107.585
 10
997.6844
 20
107.5766
 10
997.9126
 20
107.5738
 10
998.5764
 20
107.6009
 10
999.2058
 20
107.6822
 10
999.801
 20
107.8177
 10
1000.362
 20
108.0074
 10
1000.8887
 20
108.2513
 10
1001.3812
 20
108.5495
 10
1001.8395
 20
108.9019
 10
1002.2637
 20
109.3086
 10
1002.645
 20
109.7695
 10
1002.9754
 20
110.2837
 10
1003.2549
 20
110.8513
 10
1003.4836
 20
111.4724
 10
1003.6615
 20
112.1469
 10
1003.7885
 20
112.8749
 10
1003.8647
 20
113.6563
 10
1003.8901
 20
114.4913
 10
1003.8305
 20
115.818
 10
1003.813
 20
116.0106
 10
1003.7906
 20
116.2033
 10
1003.7633
 20
116.3961
 10
1003.7311
 20
116.5889
 10
1003.6939
 20
116.7817
 10
1003.6519
 20
116.9746
 10
1003.605
 20
117.1676
 10
1003.5533
 20
117.3605
 10
1004.1556
 20
116.9026
 10
1004.0868
 20
116.5951
 10
1004.0011
 20
116.2991
 10
1003.8985
 20
116.0149
 10
1003.779
 20
115.7423
 10
1003.6426
 20
115.4813
 10
1003.4892
 20
115.232
 10
1003.3189
 20
114.9945
 10
1003.1315
 20
114.7686
 10
1002.93
 20
114.5552
 10
1002.7171
 20
114.3551
 10
1002.493
 20
114.1682
 10
1002.2575
 20
113.9945
 10
1002.0106
 20
113.8339
 10
1001.7525
 20
113.6865
 10
1001.4831
 20
113.5523
 10
1001.2025
 20
113.4312
 10
1000.9123
 20
113.3238
 10
1000.6142
 20
113.2307
 10
1000.3082
 20
113.152
 10
999.9943
 20
113.0877
 10
999.6725
 20
113.0376
 10
999.3428
 20
113.0019
 10
999.0051
 20
112.9804
 10
998.6595
 20
112.9733
 10
998.2495
 20
112.9831
 10
997.8512
 20
113.0125
 10
997.4645
 20
113.0614
 10
997.0896
 20
113.13
 10
996.7263
 20
113.2181
 10
996.3747
 20
113.3258
 10
996.0347
 20
113.4531
 10
995.7064
 20
113.6
 10
995.3924
 20
113.7646
 10
995.0963
 20
113.9451
 10
994.8179
 20
114.1413
 10
994.5574
 20
114.3533
 10
994.3145
 20
114.5812
 10
994.0895
 20
114.8247
 10
993.8821
 20
115.0841
 10
993.6924
 20
115.3592
 10
993.5229
 20
115.649
 10
993.3759
 20
115.9515
 10
993.2516
 20
116.2669
 10
993.1499
 20
116.595
 10
993.0707
 20
116.9359
 10
993.0142
 20
117.2895
 10
992.9803
 20
117.6559
 10
992.969
 20
118.035
 10
992.9807
 20
118.4261
 10
993.0158
 20
118.8036
 10
993.0744
 20
119.1675
 10
993.1562
 20
119.5178
 10
993.2614
 20
119.8545
 10
993.3899
 20
120.1776
 10
993.5417
 20
120.4871
 10
993.7168
 20
120.7831
 10
993.9124
 20
121.0642
 10
994.1259
 20
121.3293
 10
994.3571
 20
121.5781
 10
994.606
 20
121.8108
 10
994.8727
 20
122.0273
 10
995.157
 20
122.2276
 10
995.459
 20
122.4116
 10
995.7786
 20
122.5794
 10
996.1121
 20
122.729
 10
996.4558
 20
122.8587
 10
996.8098
 20
122.9684
 10
997.1739
 20
123.0582
 10
997.5482
 20
123.128
 10
997.9326
 20
123.1779
 10
998.3271
 20
123.2078
 10
998.7317
 20
123.2178
  0
LWPOLYLINE
  5
93
330
1F
100
AcDbEntity
  8
Layer 1
 62
     7
370
    18
100
AcDbPolyline
 90
       89
 70
     1
 43
0.0
 10
998.8039
 20
121.7476
 10
998.507
 20
121.7406
 10
998.2187
 20
121.7198
 10
997.9391
 20
121.6849
 10
997.6682
 20
121.6362
 10
997.4059
 20
121.5735
 10
997.1523
 20
121.4968
 10
996.9073
 20
121.4061
 10
996.6709
 20
121.3015
 10
996.445
 20
121.1843
 10
996.2316
 20
121.0553
 10
996.0306
 20
120.9146
 10
995.8421
 20
120.7622
 10
995.666
 20
120.5982
 10
995.5023
 20
120.4225
 10
995.3511
 20
120.2352
 10
995.2124
 20
120.0363
 10
995.0878
 20
119.8264
 10
994.9799
 20
119.6067
 10
994.8886
 20
119.3773
 10
994.814
 20
119.1381
 10
994.7559
 20
118.8891
 10
994.7144
 20
118.6304
 10
994.6896
 20
118.362
 10
994.6813
 20
118.0838
 10
994.6992
 20
117.6785
 10
994.753
 20
117.2942
 10
994.8426
 20
116.931
 10
994.9681
 20
116.5889
 10
995.1293
 20
116.2678
 10
995.3263
 20
115.9679
 10
995.559
 20
115.6891
 10
995.8274
 20
115.4314
 10
996.1263
 20
115.1998
 10
996.4503
 20
114.9991
 10
996.7996
 20
114.8293
 10
997.1741
 20
114.6904
 10
997.5739
 20
114.5823
 10
997.9989
 20
114.5052
 10
998.4493
 20
114.4589
 10
998.925
 20
114.4435
 10
999.2453
 20
114.451
 10
999.5554
 20
114.4737
 10
999.8553
 20
114.5114
 10
1000.145
 20
114.5642
 10
1000.4246
 20
114.632
 10
1000.694
 20
114.7149
 10
1000.9533
 20
114.8129
 10
1001.2025
 20
114.9258
 10
1001.4399
 20
115.0519
 10
1001.6636
 20
115.1893
 10
1001.8738
 20
115.3381
 10
1002.0704
 20
115.4982
 10
1002.2534
 20
115.6696
 10
1002.4229
 20
115.8523
 10
1002.5789
 20
116.0463
 10
1002.7215
 20
116.2515
 10
1002.8485
 20
116.4654
 10
1002.9585
 20
116.6853
 10
1003.0517
 20
116.9113
 10
1003.1279
 20
117.1433
 10
1003.1871
 20
117.3813
 10
1003.2294
 20
117.6254
 10
1003.2548
 20
117.8755
 10
1003.2633
 20
118.1317
 10
1003.2554
 20
118.3648
 10
1003.2318
 20
118.5942
 10
1003.1924
 20
118.8199
 10
1003.1371
 20
119.0418
 10
1003.0661
 20
119.2599
 10
1002.9791
 20
119.4743
 10
1002.8763
 20
119.6849
 10
1002.7576
 20
119.8918
 10
1002.6235
 20
120.0918
 10
1002.4743
 20
120.2824
 10
1002.3101
 20
120.4637
 10
1002.1308
 20
120.6356
 10
1001.9365
 20
120.7981
 10
1001.7271
 20
120.9512
 10
1001.5026
 20
121.0949
 10
1001.263
 20
121.2292
 10
1001.0084
 20
121.3507
 10
1000.7386
 20
121.456
 10
1000.4538
 20
121.5451
 10
1000.1539
 20
121.618
 10
999.839
 20
121.6747
 10
999.509
 20
121.7152
 10
999.164
 20
121.7395
 10
998.8039
 20
121.7476
  0
LWPOLYLINE
  5
94
330
1F
100
AcDbEntity
  8
Layer 1
 62
     7
370
    18
100
AcDbPolyline
 90
       97
 70
     1
 43
0.0
 10
1014.8843
 20
106.0548
 10
1014.4028
 20
106.0708
 10
1013.9348
 20
106.1189
 10
1013.4805
 20
106.1989
 10
1013.0398
 20
106.311
 10
1012.6127
 20
106.455
 10
1012.1992
 20
106.631
 10
1011.7992
 20
106.839
 10
1011.4128
 20
107.0789
 10
1011.0431
 20
107.3491
 10
1010.6938
 20
107.6471
 10
1010.3649
 20
107.9729
 10
1010.0565
 20
108.3266
 10
1009.7684
 20
108.7082
 10
1009.5007
 20
109.1176
 10
1009.2532
 20
109.555
 10
1009.026
 20
110.0202
 10
1008.8225
 20
110.5116
 10
1008.6462
 20
111.0275
 10
1008.497
 20
111.5678
 10
1008.375
 20
112.1326
 10
1008.2801
 20
112.7219
 10
1008.2123
 20
113.3357
 10
1008.1716
 20
113.974
 10
1008.1581
 20
114.6368
 10
1008.1716
 20
115.2993
 10
1008.2123
 20
115.9375
 10
1008.2801
 20
116.5512
 10
1008.375
 20
117.1405
 10
1008.497
 20
117.7053
 10
1008.6462
 20
118.2455
 10
1008.8225
 20
118.7613
 10
1009.026
 20
119.2524
 10
1009.2532
 20
119.7177
 10
1009.5007
 20
120.155
 10
1009.7684
 20
120.5645
 10
1010.0565
 20
120.946
 10
1010.3649
 20
121.2997
 10
1010.6938
 20
121.6256
 10
1011.0431
 20
121.9235
 10
1011.4128
 20
122.1937
 10
1011.7992
 20
122.4336
 10
1012.1992
 20
122.6416
 10
1012.6127
 20
122.8176
 10
1013.0398
 20
122.9617
 10
1013.4805
 20
123.0737
 10
1013.9348
 20
123.1537
 10
1014.4028
 20
123.2018
 10
1014.8843
 20
123.2178
 10
1015.3658
 20
123.2018
 10
1015.8338
 20
123.1537
 10
1016.2881
 20
123.0737
 10
1016.7288
 20
122.9617
 10
1017.1558
 20
122.8176
 10
1017.5694
 20
122.6416
 10
1017.9693
 20
122.4336
 10
1018.3557
 20
122.1937
 10
1018.7254
 20
121.9235
 10
1019.0751
 20
121.6256
 10
1019.4048
 20
121.2997
 10
1019.7146
 20
120.946
 10
1020.0045
 20
120.5645
 10
1020.2744
 20
120.155
 10
1020.5243
 20
119.7177
 10
1020.7543
 20
119.2524
 10
1020.9605
 20
118.7613
 10
1021.1393
 20
118.2455
 10
1021.2904
 20
117.7053
 10
1021.4141
 20
117.1405
 10
1021.5103
 20
116.5512
 10
1021.579
 20
115.9375
 10
1021.6202
 20
115.2993
 10
1021.6339
 20
114.6368
 10
1021.6202
 20
113.974
 10
1021.579
 20
113.3357
 10
1021.5103
 20
112.7219
 10
1021.4141
 20
112.1326
 10
1021.2904
 20
111.5678
 10
1021.1393
 20
111.0275
 10
1020.9605
 20
110.5116
 10
1020.7543
 20
110.0202
 10
1020.5243
 20
109.555
 10
1020.2744
 20
109.1176
 10
1020.0045
 20
108.7082
 10
1019.7146
 20
108.3266
 10
1019.4048
 20
107.9729
 10
1019.0751
 20
107.6471
 10
1018.7254
 20
107.3491
 10
1018.3557
 20
107.0789
 10
1017.9693
 20
106.839
 10
1017.5694
 20
106.631
 10
1017.1558
 20
106.455
 10
1016.7288
 20
106.311
 10
1016.2881
 20
106.1989
 10
1015.8338
 20
106.1189
 10
1015.3658
 20
106.0708
 10
1014.8843
 20
106.0548
  0
LWPOLYLINE
  5
95
330
1F
100
AcDbEntity
  8
Layer 1
 62
     7
370
    18
100
AcDbPolyline
 90
       97
 70
     1
 43
0.0
 10
1014.8843
 20
107.6461
 10
1015.252
 20
107.6587
 10
1015.6077
 20
107.6965
 10
1015.9512
 20
107.7594
 10
1016.2827
 20
107.8477
 10
1016.6022
 20
107.9611
 10
1016.9095
 20
108.0999
 10
1017.2047
 20
108.264
 10
1017.4879
 20
108.4534
 10
1017.7575
 20
108.6668
 10
1018.0121
 20
108.9037
 10
1018.2517
 20
109.1639
 10
1018.4762
 20
109.4476
 10
1018.6857
 20
109.7546
 10
1018.8801
 20
110.085
 10
1019.0594
 20
110.4388
 10
1019.2236
 20
110.8159
 10
1019.3705
 20
111.2157
 10
1019.4978
 20
111.6378
 10
1019.6055
 20
112.082
 10
1019.6936
 20
112.5484
 10
1019.7622
 20
113.0371
 10
1019.8111
 20
113.548
 10
1019.8405
 20
114.0813
 10
1019.8503
 20
114.6368
 10
1019.8405
 20
115.192
 10
1019.8111
 20
115.7251
 10
1019.7622
 20
116.236
 10
1019.6936
 20
116.7247
 10
1019.6055
 20
117.1911
 10
1019.4978
 20
117.6353
 10
1019.3705
 20
118.0572
 10
1019.2236
 20
118.4568
 10
1019.0594
 20
118.8339
 10
1018.8801
 20
119.1876
 10
1018.6857
 20
119.518
 10
1018.4762
 20
119.8251
 10
1018.2517
 20
120.1087
 10
1018.0121
 20
120.3689
 10
1017.7575
 20
120.6058
 10
1017.4879
 20
120.8192
 10
1017.2047
 20
121.0087
 10
1016.9095
 20
121.1728
 10
1016.6022
 20
121.3118
 10
1016.2827
 20
121.4254
 10
1015.9512
 20
121.5138
 10
1015.6077
 20
121.577
 10
1015.252
 20
121.6149
 10
1014.8843
 20
121.6275
 10
1014.5275
 20
121.6149
 10
1014.1805
 20
121.577
 10
1013.8433
 20
121.5138
 10
1013.5159
 20
121.4254
 10
1013.1982
 20
121.3118
 10
1012.8904
 20
121.1728
 10
1012.5923
 20
121.0087
 10
1012.3041
 20
120.8192
 10
1012.029
 20
120.6058
 10
1011.7696
 20
120.3689
 10
1011.5261
 20
120.1087
 10
1011.2983
 20
119.8251
 10
1011.0862
 20
119.518
 10
1010.89
 20
119.1876
 10
1010.7096
 20
118.8339
 10
1010.545
 20
118.4568
 10
1010.3981
 20
118.0572
 10
1010.2708
 20
117.6353
 10
1010.1631
 20
117.1911
 10
1010.0749
 20
116.7247
 10
1010.0064
 20
116.236
 10
1009.9574
 20
115.7251
 10
1009.928
 20
115.192
 10
1009.9182
 20
114.6368
 10
1009.928
 20
114.0813
 10
1009.9574
 20
113.548
 10
1010.0064
 20
113.0371
 10
1010.0749
 20
112.5484
 10
1010.1631
 20
112.082
 10
1010.2708
 20
111.6378
 10
1010.3981
 20
111.2157
 10
1010.545
 20
110.8159
 10
1010.7096
 20
110.4388
 10
1010.89
 20
110.085
 10
1011.0862
 20
109.7546
 10
1011.2983
 20
109.4476
 10
1011.5261
 20
109.1639
 10
1011.7696
 20
108.9037
 10
1012.029
 20
108.6668
 10
1012.3041
 20
108.4534
 10
1012.5923
 20
108.264
 10
1012.8904
 20
108.0999
 10
1013.1982
 20
107.9611
 10
1013.5159
 20
107.8477
 10
1013.8433
 20
107.7594
 10
1014.1805
 20
107.6965
 10
1014.5275
 20
107.6587
 10
1014.8843
 20
107.6461
  0
LWPOLYLINE
  5
96
330
1F
100
AcDbEntity
  8
Layer 1
 62
     7
370
    18
100
AcDbPolyline
 90
      117
 70
     1
 43
0.0
 10
1050.2012
 20
15.9425
 10
1049.7464
 20
15.9517
 10
1049.298
 20
15.9795
 10
1048.856
 20
16.0256
 10
1048.4204
 20
16.0903
 10
1047.9912
 20
16.1733
 10
1047.5682
 20
16.2749
 10
1047.1517
 20
16.3948
 10
1046.7414
 20
16.5331
 10
1046.3444
 20
16.6869
 10
1045.9673
 20
16.8531
 10
1045.6103
 20
17.0317
 10
1045.2733
 20
17.2228
 10
1044.9563
 20
17.4264
 10
1044.6593
 20
17.6424
 10
1044.3822
 20
17.8708
 10
1044.1251
 20
18.1117
 10
1044.9686
 20
19.4862
 10
1045.1825
 20
19.2798
 10
1045.4141
 20
19.0824
 10
1045.6635
 20
18.8941
 10
1045.9305
 20
18.7147
 10
1046.2153
 20
18.5444
 10
1046.5178
 20
18.3832
 10
1046.838
 20
18.2312
 10
1047.1758
 20
18.0882
 10
1047.5261
 20
17.9581
 10
1047.8844
 20
17.8455
 10
1048.2506
 20
17.7502
 10
1048.6248
 20
17.6722
 10
1049.0069
 20
17.6116
 10
1049.3971
 20
17.5683
 10
1049.7952
 20
17.5424
 10
1050.2012
 20
17.5337
 10
1050.7102
 20
17.548
 10
1051.1887
 20
17.5908
 10
1051.6367
 20
17.6623
 10
1052.0542
 20
17.7624
 10
1052.4411
 20
17.8911
 10
1052.7976
 20
18.0485
 10
1053.1235
 20
18.2346
 10
1053.4188
 20
18.4494
 10
1053.6817
 20
18.6881
 10
1053.9095
 20
18.9464
 10
1054.1023
 20
19.2243
 10
1054.2601
 20
19.5219
 10
1054.3828
 20
19.8392
 10
1054.4704
 20
20.176
 10
1054.523
 20
20.5325
 10
1054.5405
 20
20.9085
 10
1054.5233
 20
21.2842
 10
1054.4719
 20
21.6405
 10
1054.3861
 20
21.9772
 10
1054.2661
 20
22.2943
 10
1054.1117
 20
22.5918
 10
1053.9231
 20
22.8697
 10
1053.7003
 20
23.128
 10
1053.4432
 20
23.3667
 10
1053.1492
 20
23.5815
 10
1052.8157
 20
23.7677
 10
1052.4427
 20
23.9253
 10
1052.0301
 20
24.0542
 10
1051.578
 20
24.1544
 10
1051.0863
 20
24.226
 10
1050.5551
 20
24.269
 10
1049.9844
 20
24.2833
 10
1048.7788
 20
24.2833
 10
1048.7788
 20
25.5603
 10
1053.986
 20
32.0931
 10
1054.2271
 20
31.4186
 10
1044.8241
 20
31.4186
 10
1044.8241
 20
32.961
 10
1055.6739
 20
32.961
 10
1055.6739
 20
31.7319
 10
1050.4657
 20
25.199
 10
1049.6223
 20
25.7535
 10
1050.2734
 20
25.7535
 10
1051.0088
 20
25.7324
 10
1051.6964
 20
25.6691
 10
1052.3361
 20
25.5637
 10
1052.9281
 20
25.416
 10
1053.4723
 20
25.2261
 10
1053.9686
 20
24.9941
 10
1054.4171
 20
24.7198
 10
1054.8177
 20
24.4034
 10
1055.1709
 20
24.0538
 10
1055.477
 20
23.6802
 10
1055.7361
 20
23.2824
 10
1055.9481
 20
22.8606
 10
1056.113
 20
22.4146
 10
1056.2308
 20
21.9446
 10
1056.3014
 20
21.4504
 10
1056.325
 20
20.932
 10
1056.3144
 20
20.5811
 10
1056.2827
 20
20.2392
 10
1056.2299
 20
19.9063
 10
1056.156
 20
19.5825
 10
1056.061
 20
19.2677
 10
1055.9449
 20
18.9619
 10
1055.8077
 20
18.665
 10
1055.6495
 20
18.3772
 10
1055.47
 20
18.1014
 10
1055.2689
 20
17.8407
 10
1055.0464
 20
17.5951
 10
1054.8025
 20
17.3646
 10
1054.537
 20
17.1492
 10
1054.2502
 20
16.9489
 10
1053.9419
 20
16.7637
 10
1053.6121
 20
16.5936
 10
1053.2609
 20
16.4409
 10
1052.8882
 20
16.3086
 10
1052.494
 20
16.1967
 10
1052.0783
 20
16.1052
 10
1051.6412
 20
16.034
 10
1051.1826
 20
15.9831
 10
1050.7026
 20
15.9527
 10
1050.2012
 20
15.9425
  0
LWPOLYLINE
  5
97
330
1F
100
AcDbEntity
  8
Layer 1
 62
     7
370
    18
100
AcDbPolyline
 90
      131
 70
     1
 43
0.0
 10
1063.8458
 20
15.9425
 10
1063.3967
 20
15.9517
 10
1062.9528
 20
15.9795
 10
1062.5141
 20
16.0256
 10
1062.0806
 20
16.0903
 10
1061.6523
 20
16.1733
 10
1061.2293
 20
16.2749
 10
1060.8114
 20
16.3948
 10
1060.3988
 20
16.5331
 10
1059.9997
 20
16.6869
 10
1059.6216
 20
16.8531
 10
1059.2646
 20
17.0317
 10
1058.9286
 20
17.2228
 10
1058.6137
 20
17.4264
 10
1058.3198
 20
17.6424
 10
1058.047
 20
17.8708
 10
1057.7952
 20
18.1117
 10
1058.6396
 20
19.4862
 10
1058.8476
 20
19.2798
 10
1059.0741
 20
19.0824
 10
1059.3191
 20
18.8941
 10
1059.5825
 20
18.7147
 10
1059.8644
 20
18.5444
 10
1060.1647
 20
18.3832
 10
1060.4834
 20
18.2312
 10
1060.8205
 20
18.0882
 10
1061.1708
 20
17.9581
 10
1061.5281
 20
17.8455
 10
1061.8926
 20
17.7502
 10
1062.2642
 20
17.6722
 10
1062.6429
 20
17.6116
 10
1063.0287
 20
17.5683
 10
1063.4215
 20
17.5424
 10
1063.8214
 20
17.5337
 10
1064.3424
 20
17.5486
 10
1064.8311
 20
17.5932
 10
1065.2877
 20
17.6676
 10
1065.7121
 20
17.7717
 10
1066.1044
 20
17.9055
 10
1066.4647
 20
18.0691
 10
1066.7928
 20
18.2625
 10
1067.0889
 20
18.4856
 10
1067.3518
 20
18.7328
 10
1067.5796
 20
18.9985
 10
1067.7724
 20
19.2826
 10
1067.9301
 20
19.5853
 10
1068.0528
 20
19.9064
 10
1068.1404
 20
20.246
 10
1068.193
 20
20.6042
 10
1068.2105
 20
20.9808
 10
1068.2024
 20
21.247
 10
1068.1781
 20
21.5039
 10
1068.1376
 20
21.7514
 10
1068.0809
 20
21.9896
 10
1068.008
 20
22.2184
 10
1067.9189
 20
22.4377
 10
1067.8137
 20
22.6477
 10
1067.6922
 20
22.8483
 10
1067.5515
 20
23.0387
 10
1067.3885
 20
23.2182
 10
1067.2033
 20
23.3868
 10
1066.9959
 20
23.5445
 10
1066.7662
 20
23.6912
 10
1066.5143
 20
23.827
 10
1066.2401
 20
23.9518
 10
1065.9437
 20
24.0657
 10
1065.6219
 20
24.1676
 10
1065.2716
 20
24.2559
 10
1064.8926
 20
24.3305
 10
1064.485
 20
24.3916
 10
1064.0488
 20
24.4391
 10
1063.5839
 20
24.473
 10
1063.0903
 20
24.4933
 10
1062.568
 20
24.5001
 10
1058.9764
 20
24.5001
 10
1059.8443
 20
32.961
 10
1069.0784
 20
32.961
 10
1069.0784
 20
31.4186
 10
1060.5433
 20
31.4186
 10
1061.4355
 20
32.262
 10
1060.6878
 20
25.1746
 10
1059.7965
 20
26.0425
 10
1062.9545
 20
26.0425
 10
1063.5776
 20
26.0327
 10
1064.169
 20
26.0033
 10
1064.7288
 20
25.9544
 10
1065.257
 20
25.8858
 10
1065.7535
 20
25.7977
 10
1066.2183
 20
25.69
 10
1066.6514
 20
25.5627
 10
1067.0527
 20
25.4158
 10
1067.4252
 20
25.2514
 10
1067.7708
 20
25.0715
 10
1068.0897
 20
24.8761
 10
1068.3818
 20
24.6654
 10
1068.647
 20
24.4392
 10
1068.8856
 20
24.1976
 10
1069.0974
 20
23.9407
 10
1069.2824
 20
23.6683
 10
1069.4437
 20
23.3821
 10
1069.5834
 20
23.0842
 10
1069.7015
 20
22.7747
 10
1069.7981
 20
22.4537
 10
1069.8732
 20
22.1209
 10
1069.9268
 20
21.7766
 10
1069.959
 20
21.4206
 10
1069.9697
 20
21.053
 10
1069.9592
 20
20.7012
 10
1069.9276
 20
20.3574
 10
1069.8749
 20
20.0216
 10
1069.8012
 20
19.6938
 10
1069.7063
 20
19.3738
 10
1069.5904
 20
19.0618
 10
1069.4533
 20
18.7575
 10
1069.2951
 20
18.4611
 10
1069.1158
 20
18.1767
 10
1068.9153
 20
17.9076
 10
1068.6938
 20
17.654
 10
1068.4512
 20
17.4157
 10
1068.1875
 20
17.1929
 10
1067.9028
 20
16.9855
 10
1067.5971
 20
16.7936
 10
1067.2704
 20
16.6171
 10
1066.9216
 20
16.4589
 10
1066.5501
 20
16.3218
 10
1066.1561
 20
16.2059
 10
1065.7393
 20
16.111
 10
1065.3
 20
16.0373
 10
1064.8379
 20
15.9846
 10
1064.3532
 20
15.953
 10
1063.8458
 20
15.9425
  0
LWPOLYLINE
  5
98
330
1F
100
AcDbEntity
  8
Layer 1
 62
     7
370
    35
100
AcDbPolyline
 90
       33
 70
     1
 43
0.0
 10
1030.8852
 20
33.0898
 10
1032.8447
 20
32.8923
 10
1034.6699
 20
32.3257
 10
1036.3215
 20
31.4293
 10
1037.7606
 20
30.2421
 10
1038.9479
 20
28.8033
 10
1039.8444
 20
27.1518
 10
1040.411
 20
25.3268
 10
1040.6085
 20
23.3675
 10
1040.411
 20
21.4081
 10
1039.8444
 20
19.5832
 10
1038.9479
 20
17.9317
 10
1037.7606
 20
16.4928
 10
1036.3215
 20
15.3056
 10
1034.6699
 20
14.4092
 10
1032.8447
 20
13.8426
 10
1030.8852
 20
13.6451
 10
1028.9256
 20
13.8426
 10
1027.1005
 20
14.4092
 10
1025.4488
 20
15.3056
 10
1024.0098
 20
16.4928
 10
1022.8225
 20
17.9317
 10
1021.9259
 20
19.5832
 10
1021.3594
 20
21.4081
 10
1021.1618
 20
23.3675
 10
1021.3594
 20
25.3268
 10
1021.9259
 20
27.1518
 10
1022.8225
 20
28.8033
 10
1024.0098
 20
30.2421
 10
1025.4488
 20
31.4293
 10
1027.1005
 20
32.3257
 10
1028.9256
 20
32.8923
 10
1030.8852
 20
33.0898
  0
LWPOLYLINE
  5
99
330
1F
100
AcDbEntity
  8
Layer 1
 62
     7
370
    35
100
AcDbPolyline
 90
        2
 70
     0
 43
0.0
 10
1034.0562
 20
39.0868
 10
1027.6644
 20
6.4048
  0
ENDSEC
  0
SECTION
  2
OBJECTS
  0
DICTIONARY
  5
C
330
0
100
AcDbDictionary
281
     1
  3
ACAD_DETAILVIEWSTYLE
350
A1
  3
ACAD_GROUP
350
D
  3
ACAD_LAYOUT
350
1A
  3
ACAD_MATERIAL
350
43
  3
ACAD_MLEADERSTYLE
350
5B
  3
ACAD_MLINESTYLE
350
17
  3
ACAD_PLOTSETTINGS
350
19
  3
ACAD_PLOTSTYLENAME
350
E
  3
ACAD_SCALELIST
350
47
  3
ACAD_SECTIONVIEWSTYLE
350
A2
  3
ACAD_TABLESTYLE
350
59
  3
ACAD_VISUALSTYLE
350
2A
  3
ACDB_RECOMPOSE_DATA
350
9E
  3
AcDbVariableDictionary
350
9A
  0
SUN
  5
5D
330
29
100
AcDbSun
 90
        1
290
     0
 63
     7
421
 16777215
 40
1.0
291
     1
 91
  2455826
 92
 54000000
292
     0
 70
     2
 71
   256
280
     1
  0
DICTIONARY
  5
A1
102
{ACAD_REACTORS
330
C
102
}
330
C
100
AcDbDictionary
281
     1
  0
DICTIONARY
  5
D
102
{ACAD_REACTORS
330
C
102
}
330
C
100
AcDbDictionary
281
     1
  0
DICTIONARY
  5
1A
102
{ACAD_REACTORS
330
C
102
}
330
C
100
AcDbDictionary
281
     1
  3
Layout1
350
1E
  3
Layout2
350
26
  3
Model
350
22
  0
DICTIONARY
  5
43
102
{ACAD_REACTORS
330
C
102
}
330
C
100
AcDbDictionary
281
     1
  3
ByBlock
350
45
  3
ByLayer
350
44
  3
Global
350
46
  0
DICTIONARY
  5
5B
102
{ACAD_REACTORS
330
C
102
}
330
C
100
AcDbDictionary
281
     1
  3
Standard
350
5C
  0
DICTIONARY
  5
17
102
{ACAD_REACTORS
330
C
102
}
330
C
100
AcDbDictionary
281
     1
  3
Standard
350
18
  0
DICTIONARY
  5
19
102
{ACAD_REACTORS
330
C
102
}
330
C
100
AcDbDictionary
281
     1
  0
ACDBDICTIONARYWDFLT
  5
E
102
{ACAD_REACTORS
330
C
102
}
330
C
100
AcDbDictionary
281
     1
  3
Normal
350
F
100
AcDbDictionaryWithDefault
340
F
  0
DICTIONARY
  5
47
102
{ACAD_REACTORS
330
C
102
}
330
C
100
AcDbDictionary
281
     1
  3
A0
350
48
  3
A1
350
49
  3
A2
350
4A
  3
A3
350
4B
  3
A4
350
4C
  3
A5
350
4D
  3
A6
350
4E
  3
A7
350
4F
  3
A8
350
50
  3
A9
350
51
  3
B1
350
52
  3
B2
350
53
  3
B3
350
54
  3
B4
350
55
  3
B5
350
56
  3
B6
350
57
  3
B7
350
58
  0
DICTIONARY
  5
A2
102
{ACAD_REACTORS
330
C
102
}
330
C
100
AcDbDictionary
281
     1
  0
DICTIONARY
  5
59
102
{ACAD_REACTORS
330
C
102
}
330
C
100
AcDbDictionary
281
     1
  3
Standard
350
5A
  0
DICTIONARY
  5
2A
102
{ACAD_REACTORS
330
C
102
}
330
C
100
AcDbDictionary
281
     1
  3
2dWireframe
350
2F
  3
Basic
350
32
  3
Brighten
350
36
  3
ColorChange
350
3A
  3
Conceptual
350
34
  3
Dim
350
35
  3
EdgeColorOff
350
3D
  3
Facepattern
350
39
  3
Flat
350
2B
  3
FlatWithEdges
350
2C
  3
Gouraud
350
2D
  3
GouraudWithEdges
350
2E
  3
Hidden
350
31
  3
JitterOff
350
3B
  3
Linepattern
350
38
  3
OverhangOff
350
3C
  3
Realistic
350
33
  3
Shaded
350
42
  3
Shaded with edges
350
41
  3
Shades of Gray
350
3E
  3
Sketchy
350
3F
  3
Thicken
350
37
  3
Wireframe
350
30
  3
X-Ray
350
40
  0
XRECORD
  5
9E
102
{ACAD_REACTORS
330
C
102
}
330
C
100
AcDbXrecord
280
     1
 90
        1
330
5A
  0
DICTIONARY
  5
9A
102
{ACAD_REACTORS
330
C
102
}
330
C
100
AcDbDictionary
281
     1
  3
CANNOSCALE
350
9B
  3
CMLEADERSTYLE
350
A0
  3
CTABLESTYLE
350
9F
  0
LAYOUT
  5
1E
102
{ACAD_REACTORS
330
1A
102
}
330
1A
100
AcDbPlotSettings
  1

  2
none_device
  4

  6

 40
0.0
 41
0.0
 42
0.0
 43
0.0
 44
0.0
 45
0.0
 46
0.0
 47
0.0
 48
0.0
 49
0.0
140
0.0
141
0.0
142
1.0
143
1.0
 70
   688
 72
     0
 73
     0
 74
     5
  7

 75
    16
 76
     0
 77
     2
 78
   300
147
1.0
148
0.0
149
0.0
100
AcDbLayout
  1
Layout1
 70
     1
 71
     1
 10
0.0
 20
0.0
 11
12.0
 21
9.0
 12
0.0
 22
0.0
 32
0.0
 14
1.000000000000000E+20
 24
1.000000000000000E+20
 34
1.000000000000000E+20
 15
-1.000000000000000E+20
 25
-1.000000000000000E+20
 35
-1.000000000000000E+20
146
0.0
 13
0.0
 23
0.0
 33
0.0
 16
1.0
 26
0.0
 36
0.0
 17
0.0
 27
1.0
 37
0.0
 76
     0
330
1B
  0
LAYOUT
  5
26
102
{ACAD_REACTORS
330
1A
102
}
330
1A
100
AcDbPlotSettings
  1

  2
none_device
  4

  6

 40
0.0
 41
0.0
 42
0.0
 43
0.0
 44
0.0
 45
0.0
 46
0.0
 47
0.0
 48
0.0
 49
0.0
140
0.0
141
0.0
142
1.0
143
1.0
 70
   688
 72
     0
 73
     0
 74
     5
  7

 75
    16
 76
     0
 77
     2
 78
   300
147
1.0
148
0.0
149
0.0
100
AcDbLayout
  1
Layout2
 70
     1
 71
     2
 10
0.0
 20
0.0
 11
0.0
 21
0.0
 12
0.0
 22
0.0
 32
0.0
 14
0.0
 24
0.0
 34
0.0
 15
0.0
 25
0.0
 35
0.0
146
0.0
 13
0.0
 23
0.0
 33
0.0
 16
1.0
 26
0.0
 36
0.0
 17
0.0
 27
1.0
 37
0.0
 76
     0
330
23
  0
LAYOUT
  5
22
102
{ACAD_REACTORS
330
1A
102
}
330
1A
100
AcDbPlotSettings
  1

  2
none_device
  4
Letter_(8.50_x_11.00_Inches)
  6

 40
6.35
 41
6.35
 42
6.35000508
 43
6.35000508
 44
215.9
 45
279.4
 46
0.0
 47
0.0
 48
0.0
 49
0.0
140
0.0
141
0.0
142
1.0
143
1.0
 70
  1712
 72
     0
 73
     0
 74
     0
  7

 75
     0
 76
     0
 77
     2
 78
   300
147
1.0
148
0.0
149
0.0
100
AcDbLayout
  1
Model
 70
     1
 71
     0
 10
0.0
 20
0.0
 11
12.0
 21
9.0
 12
0.0
 22
0.0
 32
0.0
 14
408.4443
 24
-265.9511
 34
0.0
 15
1217.0231
 25
199.4886
 35
0.0
146
0.0
 13
0.0
 23
0.0
 33
0.0
 16
1.0
 26
0.0
 36
0.0
 17
0.0
 27
1.0
 37
0.0
 76
     0
330
1F
331
29
  0
MATERIAL
  5
45
102
{ACAD_REACTORS
330
43
102
}
330
43
100
AcDbMaterial
  1
ByBlock
 72
     1
 94
      127
  0
MATERIAL
  5
44
102
{ACAD_REACTORS
330
43
102
}
330
43
100
AcDbMaterial
  1
ByLayer
 72
     1
 94
      127
  0
MATERIAL
  5
46
102
{ACAD_REACTORS
330
43
102
}
330
43
100
AcDbMaterial
  1
Global
 72
     1
 94
      127
  0
MLEADERSTYLE
  5
5C
102
{ACAD_REACTORS
330
5B
102
}
330
5B
100
AcDbMLeaderStyle
179
     2
170
     2
171
     1
172
     0
 90
        2
 40
0.0
 41
0.0
173
     1
 91
-1056964608
340
14
 92
       -2
290
     1
 42
0.09
291
     1
 43
0.36
  3
Standard
341
0
 44
0.18
300

342
11
174
     1
178
     6
175
     1
176
     0
 93
-1056964608
 45
0.18
292
     0
297
     0
 46
0.18
343
0
 94
-1056964608
 47
1.0
 49
1.0
140
1.0
293
     1
141
0.0
294
     1
177
     0
142
1.0
295
     0
296
     0
143
0.125
271
     0
272
     9
273
     9
298
     0
  0
MLINESTYLE
  5
18
102
{ACAD_REACTORS
330
17
102
}
330
17
100
AcDbMlineStyle
  2
Standard
 70
     0
  3

 62
   256
 51
90.0
 52
90.0
 71
     2
 49
0.5
 62
   256
  6
BYLAYER
 49
-0.5
 62
   256
  6
BYLAYER
  0
ACDBPLACEHOLDER
  5
F
102
{ACAD_REACTORS
330
E
102
}
330
E
  0
SCALE
  5
48
102
{ACAD_REACTORS
330
47
102
}
330
47
100
AcDbScale
 70
     0
300
1:1
140
1.0
141
1.0
290
     1
  0
SCALE
  5
49
102
{ACAD_REACTORS
330
47
102
}
330
47
100
AcDbScale
 70
     0
300
1/128" = 1'-0"
140
0.0078125
141
12.0
290
     0
  0
SCALE
  5
4A
102
{ACAD_REACTORS
330
47
102
}
330
47
100
AcDbScale
 70
     0
300
1/64" = 1'-0"
140
0.015625
141
12.0
290
     0
  0
SCALE
  5
4B
102
{ACAD_REACTORS
330
47
102
}
330
47
100
AcDbScale
 70
     0
300
1/32" = 1'-0"
140
0.03125
141
12.0
290
     0
  0
SCALE
  5
4C
102
{ACAD_REACTORS
330
47
102
}
330
47
100
AcDbScale
 70
     0
300
1/16" = 1'-0"
140
0.0625
141
12.0
290
     0
  0
SCALE
  5
4D
102
{ACAD_REACTORS
330
47
102
}
330
47
100
AcDbScale
 70
     0
300
3/32" = 1'-0"
140
0.09375
141
12.0
290
     0
  0
SCALE
  5
4E
102
{ACAD_REACTORS
330
47
102
}
330
47
100
AcDbScale
 70
     0
300
1/8" = 1'-0"
140
0.125
141
12.0
290
     0
  0
SCALE
  5
4F
102
{ACAD_REACTORS
330
47
102
}
330
47
100
AcDbScale
 70
     0
300
3/16" = 1'-0"
140
0.1875
141
12.0
290
     0
  0
SCALE
  5
50
102
{ACAD_REACTORS
330
47
102
}
330
47
100
AcDbScale
 70
     0
300
1/4" = 1'-0"
140
0.25
141
12.0
290
     0
  0
SCALE
  5
51
102
{ACAD_REACTORS
330
47
102
}
330
47
100
AcDbScale
 70
     0
300
3/8" = 1'-0"
140
0.375
141
12.0
290
     0
  0
SCALE
  5
52
102
{ACAD_REACTORS
330
47
102
}
330
47
100
AcDbScale
 70
     0
300
1/2" = 1'-0"
140
0.5
141
12.0
290
     0
  0
SCALE
  5
53
102
{ACAD_REACTORS
330
47
102
}
330
47
100
AcDbScale
 70
     0
300
3/4" = 1'-0"
140
0.75
141
12.0
290
     0
  0
SCALE
  5
54
102
{ACAD_REACTORS
330
47
102
}
330
47
100
AcDbScale
 70
     0
300
1" = 1'-0"
140
1.0
141
12.0
290
     0
  0
SCALE
  5
55
102
{ACAD_REACTORS
330
47
102
}
330
47
100
AcDbScale
 70
     0
300
1-1/2" = 1'-0"
140
1.5
141
12.0
290
     0
  0
SCALE
  5
56
102
{ACAD_REACTORS
330
47
102
}
330
47
100
AcDbScale
 70
     0
300
3" = 1'-0"
140
3.0
141
12.0
290
     0
  0
SCALE
  5
57
102
{ACAD_REACTORS
330
47
102
}
330
47
100
AcDbScale
 70
     0
300
6" = 1'-0"
140
6.0
141
12.0
290
     0
  0
SCALE
  5
58
102
{ACAD_REACTORS
330
47
102
}
330
47
100
AcDbScale
 70
     0
300
1'-0" = 1'-0"
140
12.0
141
12.0
290
     0
  0
TABLESTYLE
  5
5A
102
{ACAD_REACTORS
330
59
102
}
102
{ACAD_XDICTIONARY
360
9C
102
}
330
59
100
AcDbTableStyle
  3
Standard
 70
     0
 71
     0
 40
0.06
 41
0.06
280
     0
281
     0
  7
Standard
140
0.18
170
     2
 62
     0
 63
   257
283
     0
 90
        4
 91
        0
  1

274
    -2
284
     1
 64
     0
275
    -2
285
     1
 65
     0
276
    -2
286
     1
 66
     0
277
    -2
287
     1
 67
     0
278
    -2
288
     1
 68
     0
279
    -2
289
     1
 69
     0
  7
Standard
140
0.25
170
     5
 62
     0
 63
   257
283
     0
 90
        4
 91
        0
  1

274
    -2
284
     1
 64
     0
275
    -2
285
     1
 65
     0
276
    -2
286
     1
 66
     0
277
    -2
287
     1
 67
     0
278
    -2
288
     1
 68
     0
279
    -2
289
     1
 69
     0
  7
Standard
140
0.18
170
     5
 62
     0
 63
   257
283
     0
 90
        4
 91
        0
  1

274
    -2
284
     1
 64
     0
275
    -2
285
     1
 65
     0
276
    -2
286
     1
 66
     0
277
    -2
287
     1
 67
     0
278
    -2
288
     1
 68
     0
279
    -2
289
     1
 69
     0
  0
VISUALSTYLE
  5
2F
102
{ACAD_REACTORS
330
2A
102
}
330
2A
100
AcDbVisualStyle
  2
2dWireframe
 70
     4
177
     3
291
     0
 70
    58
 90
        0
176
     1
 90
        2
176
     1
 90
        0
176
     1
 90
        0
176
     1
 40
0.6
176
     1
 40
30.0
176
     1
 62
     7
420
 16777215
176
     1
 90
        1
176
     1
 90
        4
176
     1
 62
     7
176
     1
 62
   257
176
     1
 90
        1
176
     1
 90
        1
176
     1
 40
1.0
176
     1
 90
        0
176
     1
 62
   257
176
     1
 40
1.0
176
     1
 90
        1
176
     1
 90
        6
176
     1
 90
        2
176
     1
 62
     7
176
     1
 90
        5
176
     1
 90
        0
176
     1
 90
        0
176
     1
290
     0
176
     1
 90
        1
176
     1
 40
0.0
176
     1
 90
        0
176
     1
290
     1
176
     1
290
     1
176
     1
290
     0
176
     1
290
     0
176
     1
290
     0
176
     1
290
     0
176
     1
290
     0
176
     1
290
     0
176
     1
290
     0
176
     1
 90
       50
176
     1
 40
0.0
176
     1
 40
1.0
176
     1
 90
        0
176
     1
 62
    18
420
        0
176
     1
 90
       50
176
     1
 90
        3
176
     1
 62
     5
420
      255
176
     1
290
     0
176
     1
 90
       50
176
     1
 90
       50
176
     1
 90
       50
176
     1
290
     0
176
     1
 90
       50
176
     1
 62
   256
176
     0
 40
1.0
176
     0
 90
        2
176
     1
  1
strokes_ogs.tif
176
     1
290
     0
176
     1
 40
1.0
176
     1
 40
1.0
176
     1
  0
VISUALSTYLE
  5
32
102
{ACAD_REACTORS
330
2A
102
}
330
2A
100
AcDbVisualStyle
  2
Basic
 70
     7
177
     3
291
     1
 70
    58
 90
        1
176
     1
 90
        0
176
     1
 90
        1
176
     1
 90
        0
176
     1
 40
0.6
176
     1
 40
30.0
176
     1
 62
     7
420
 16777215
176
     1
 90
        0
176
     1
 90
        4
176
     1
 62
     7
176
     1
 62
   257
176
     1
 90
        1
176
     1
 90
        1
176
     1
 40
1.0
176
     1
 90
        8
176
     1
 62
     7
176
     1
 40
1.0
176
     1
 90
        1
176
     1
 90
        6
176
     1
 90
        2
176
     1
 62
     7
176
     1
 90
        5
176
     1
 90
        0
176
     1
 90
        0
176
     1
290
     0
176
     1
 90
        1
176
     1
 40
0.0
176
     1
 90
        0
176
     1
290
     0
176
     1
290
     1
176
     1
290
     1
176
     1
290
     0
176
     1
290
     0
176
     1
290
     0
176
     1
290
     0
176
     1
290
     0
176
     1
290
     0
176
     1
 90
       50
176
     1
 40
0.0
176
     1
 40
1.0
176
     1
 90
        0
176
     1
 62
    18
420
        0
176
     1
 90
       50
176
     1
 90
        3
176
     1
 62
     5
420
      255
176
     1
290
     0
176
     1
 90
       50
176
     1
 90
       50
176
     1
 90
       50
176
     1
290
     0
176
     1
 90
       50
176
     1
 62
   256
176
     0
 40
1.0
176
     0
 90
        2
176
     1
  1
strokes_ogs.tif
176
     1
290
     0
176
     1
 40
1.0
176
     1
 40
1.0
176
     1
  0
VISUALSTYLE
  5
36
102
{ACAD_REACTORS
330
2A
102
}
330
2A
100
AcDbVisualStyle
  2
Brighten
 70
    12
177
     3
291
     1
 70
    58
 90
        2
176
     1
 90
        2
176
     1
 90
        0
176
     1
 90
        0
176
     1
 40
0.6
176
     1
 40
30.0
176
     1
 62
     7
420
 16777215
176
     1
 90
        1
176
     1
 90
        4
176
     1
 62
     7
176
     1
 62
   257
176
     1
 90
        1
176
     1
 90
        1
176
     1
 40
1.0
176
     1
 90
        8
176
     1
 62
     7
176
     1
 40
1.0
176
     1
 90
        1
176
     1
 90
        6
176
     1
 90
        2
176
     1
 62
     7
176
     1
 90
        5
176
     1
 90
        0
176
     1
 90
        0
176
     1
290
     0
176
     1
 90
        1
176
     1
 40
50.0
176
     1
 90
        0
176
     1
290
     0
176
     1
290
     1
176
     1
290
     1
176
     1
290
     0
176
     1
290
     0
176
     1
290
     0
176
     1
290
     0
176
     1
290
     0
176
     1
290
     0
176
     1
 90
       50
176
     1
 40
0.0
176
     1
 40
1.0
176
     1
 90
        0
176
     1
 62
    18
420
        0
176
     1
 90
       50
176
     1
 90
        3
176
     1
 62
     5
420
      255
176
     1
290
     0
176
     1
 90
       50
176
     1
 90
       50
176
     1
 90
       50
176
     1
290
     0
176
     1
 90
       50
176
     1
 62
   256
176
     0
 40
1.0
176
     0
 90
        2
176
     1
  1
strokes_ogs.tif
176
     1
290
     0
176
     1
 40
1.0
176
     1
 40
1.0
176
     1
  0
VISUALSTYLE
  5
3A
102
{ACAD_REACTORS
330
2A
102
}
330
2A
100
AcDbVisualStyle
  2
ColorChange
 70
    16
177
     3
291
     1
 70
    58
 90
        2
176
     1
 90
        2
176
     1
 90
        3
176
     1
 90
        0
176
     1
 40
0.6
176
     1
 40
30.0
176
     1
 62
     8
420
  8421504
176
     1
 90
        1
176
     1
 90
        4
176
     1
 62
     7
176
     1
 62
   257
176
     1
 90
        1
176
     1
 90
        1
176
     1
 40
1.0
176
     1
 90
        8
176
     1
 62
     8
420
  8421504
176
     1
 40
1.0
176
     1
 90
        1
176
     1
 90
        6
176
     1
 90
        2
176
     1
 62
     7
176
     1
 90
        5
176
     1
 90
        0
176
     1
 90
        0
176
     1
290
     0
176
     1
 90
        1
176
     1
 40
0.0
176
     1
 90
        0
176
     1
290
     0
176
     1
290
     1
176
     1
290
     1
176
     1
290
     0
176
     1
290
     0
176
     1
290
     0
176
     1
290
     0
176
     1
290
     0
176
     1
290
     0
176
     1
 90
       50
176
     1
 40
0.0
176
     1
 40
1.0
176
     1
 90
        0
176
     1
 62
    18
420
        0
176
     1
 90
       50
176
     1
 90
        3
176
     1
 62
     5
420
      255
176
     1
290
     0
176
     1
 90
       50
176
     1
 90
       50
176
     1
 90
       50
176
     1
290
     0
176
     1
 90
       50
176
     1
 62
   256
176
     0
 40
1.0
176
     0
 90
        2
176
     1
  1
strokes_ogs.tif
176
     1
290
     0
176
     1
 40
1.0
176
     1
 40
1.0
176
     1
  0
VISUALSTYLE
  5
34
102
{ACAD_REACTORS
330
2A
102
}
330
2A
100
AcDbVisualStyle
  2
Conceptual
 70
     9
177
     3
291
     0
 70
    58
 90
        3
176
     1
 90
        2
176
     1
 90
        0
176
     1
 90
        0
176
     1
 40
0.6
176
     1
 40
30.0
176
     1
 62
     7
420
 16777215
176
     1
 90
        2
176
     1
 90
        2
176
     1
 62
     7
176
     1
 62
   257
176
     1
 90
        1
176
     1
 90
        1
176
     1
 40
179.0
176
     1
 90
        8
176
     1
 62
     7
176
     1
 40
1.0
176
     1
 90
        1
176
     1
 90
        6
176
     1
 90
        2
176
     1
 62
     7
176
     1
 90
        3
176
     1
 90
        0
176
     1
 90
        0
176
     1
290
     0
176
     1
 90
        1
176
     1
 40
0.0
176
     1
 90
        0
176
     1
290
     0
176
     1
290
     1
176
     1
290
     1
176
     1
290
     0
176
     1
290
     0
176
     1
290
     0
176
     1
290
     0
176
     1
290
     0
176
     1
290
     0
176
     1
 90
       50
176
     1
 40
0.0
176
     1
 40
1.0
176
     1
 90
        0
176
     1
 62
    18
420
        0
176
     1
 90
       50
176
     1
 90
        3
176
     1
 62
     5
420
      255
176
     1
290
     0
176
     1
 90
       50
176
     1
 90
       50
176
     1
 90
       50
176
     1
290
     0
176
     1
 90
       50
176
     1
 62
   256
176
     0
 40
1.0
176
     0
 90
        2
176
     1
  1
strokes_ogs.tif
176
     1
290
     0
176
     1
 40
1.0
176
     1
 40
1.0
176
     1
  0
VISUALSTYLE
  5
35
102
{ACAD_REACTORS
330
2A
102
}
330
2A
100
AcDbVisualStyle
  2
Dim
 70
    11
177
     3
291
     1
 70
    58
 90
        2
176
     1
 90
        2
176
     1
 90
        0
176
     1
 90
        0
176
     1
 40
0.6
176
     1
 40
30.0
176
     1
 62
     7
420
 16777215
176
     1
 90
        1
176
     1
 90
        4
176
     1
 62
     7
176
     1
 62
   257
176
     1
 90
        1
176
     1
 90
        1
176
     1
 40
1.0
176
     1
 90
        8
176
     1
 62
     7
176
     1
 40
1.0
176
     1
 90
        1
176
     1
 90
        6
176
     1
 90
        2
176
     1
 62
     7
176
     1
 90
        5
176
     1
 90
        0
176
     1
 90
        0
176
     1
290
     0
176
     1
 90
        1
176
     1
 40
-50.0
176
     1
 90
        0
176
     1
290
     0
176
     1
290
     1
176
     1
290
     1
176
     1
290
     0
176
     1
290
     0
176
     1
290
     0
176
     1
290
     0
176
     1
290
     0
176
     1
290
     0
176
     1
 90
       50
176
     1
 40
0.0
176
     1
 40
1.0
176
     1
 90
        0
176
     1
 62
    18
420
        0
176
     1
 90
       50
176
     1
 90
        3
176
     1
 62
     5
420
      255
176
     1
290
     0
176
     1
 90
       50
176
     1
 90
       50
176
     1
 90
       50
176
     1
290
     0
176
     1
 90
       50
176
     1
 62
   256
176
     0
 40
1.0
176
     0
 90
        2
176
     1
  1
strokes_ogs.tif
176
     1
290
     0
176
     1
 40
1.0
176
     1
 40
1.0
176
     1
  0
VISUALSTYLE
  5
3D
102
{ACAD_REACTORS
330
2A
102
}
330
2A
100
AcDbVisualStyle
  2
EdgeColorOff
 70
    22
177
     3
291
     1
 70
    58
 90
        2
176
     0
 90
        2
176
     0
 90
        0
176
     0
 90
        0
176
     0
 40
0.6
176
     0
 40
30.0
176
     0
 62
     7
420
 16777215
176
     0
 90
        1
176
     0
 90
        4
176
     0
 62
     7
176
     0
 62
   257
176
     0
 90
        1
176
     0
 90
        1
176
     0
 40
1.0
176
     0
 90
        8
176
     2
 62
     7
176
     0
 40
1.0
176
     0
 90
        1
176
     0
 90
        6
176
     0
 90
        2
176
     0
 62
     7
176
     0
 90
        5
176
     0
 90
        0
176
     0
 90
        0
176
     0
290
     0
176
     0
 90
        1
176
     0
 40
0.0
176
     0
 90
        0
176
     0
290
     0
176
     0
290
     1
176
     0
290
     1
176
     0
290
     0
176
     0
290
     0
176
     0
290
     0
176
     0
290
     0
176
     0
290
     0
176
     0
290
     0
176
     0
 90
       50
176
     0
 40
0.0
176
     0
 40
1.0
176
     0
 90
        0
176
     0
 62
    18
420
        0
176
     0
 90
       50
176
     0
 90
        3
176
     0
 62
     5
420
      255
176
     0
290
     0
176
     0
 90
       50
176
     0
 90
       50
176
     0
 90
       50
176
     0
290
     0
176
     0
 90
       50
176
     0
 62
   256
176
     0
 40
1.0
176
     0
 90
        2
176
     0
  1
strokes_ogs.tif
176
     0
290
     0
176
     0
 40
1.0
176
     0
 40
1.0
176
     0
  0
VISUALSTYLE
  5
39
102
{ACAD_REACTORS
330
2A
102
}
330
2A
100
AcDbVisualStyle
  2
Facepattern
 70
    15
177
     3
291
     1
 70
    58
 90
        2
176
     1
 90
        2
176
     1
 90
        0
176
     1
 90
        0
176
     1
 40
0.6
176
     1
 40
30.0
176
     1
 62
     7
420
 16777215
176
     1
 90
        1
176
     1
 90
        4
176
     1
 62
     7
176
     1
 62
   257
176
     1
 90
        1
176
     1
 90
        1
176
     1
 40
1.0
176
     1
 90
        8
176
     1
 62
     7
176
     1
 40
1.0
176
     1
 90
        1
176
     1
 90
        6
176
     1
 90
        2
176
     1
 62
     7
176
     1
 90
        5
176
     1
 90
        0
176
     1
 90
        0
176
     1
290
     0
176
     1
 90
        1
176
     1
 40
0.0
176
     1
 90
        0
176
     1
290
     0
176
     1
290
     1
176
     1
290
     1
176
     1
290
     0
176
     1
290
     0
176
     1
290
     0
176
     1
290
     0
176
     1
290
     0
176
     1
290
     0
176
     1
 90
       50
176
     1
 40
0.0
176
     1
 40
1.0
176
     1
 90
        0
176
     1
 62
    18
420
        0
176
     1
 90
       50
176
     1
 90
        3
176
     1
 62
     5
420
      255
176
     1
290
     0
176
     1
 90
       50
176
     1
 90
       50
176
     1
 90
       50
176
     1
290
     0
176
     1
 90
       50
176
     1
 62
   256
176
     0
 40
1.0
176
     0
 90
        2
176
     1
  1
strokes_ogs.tif
176
     1
290
     0
176
     1
 40
1.0
176
     1
 40
1.0
176
     1
  0
VISUALSTYLE
  5
2B
102
{ACAD_REACTORS
330
2A
102
}
330
2A
100
AcDbVisualStyle
  2
Flat
 70
     0
177
     3
291
     1
 70
    58
 90
        2
176
     1
 90
        1
176
     1
 90
        1
176
     1
 90
        2
176
     1
 40
0.6
176
     1
 40
30.0
176
     1
 62
     7
420
 16777215
176
     1
 90
        0
176
     1
 90
        0
176
     1
 62
     7
176
     1
 62
   257
176
     1
 90
        1
176
     1
 90
        1
176
     1
 40
1.0
176
     1
 90
        8
176
     1
 62
     7
176
     1
 40
1.0
176
     1
 90
        1
176
     1
 90
        6
176
     1
 90
        2
176
     1
 62
     7
176
     1
 90
        5
176
     1
 90
        0
176
     1
 90
        0
176
     1
290
     0
176
     1
 90
       13
176
     1
 40
0.0
176
     1
 90
        0
176
     1
290
     0
176
     1
290
     1
176
     1
290
     1
176
     1
290
     0
176
     1
290
     0
176
     1
290
     0
176
     1
290
     0
176
     1
290
     0
176
     1
290
     0
176
     1
 90
       50
176
     1
 40
0.0
176
     1
 40
1.0
176
     1
 90
        0
176
     1
 62
    18
420
        0
176
     1
 90
       50
176
     1
 90
        3
176
     1
 62
     5
420
      255
176
     1
290
     0
176
     1
 90
       50
176
     1
 90
       50
176
     1
 90
       50
176
     1
290
     0
176
     1
 90
       50
176
     1
 62
   256
176
     0
 40
1.0
176
     0
 90
        2
176
     1
  1
strokes_ogs.tif
176
     1
290
     0
176
     1
 40
1.0
176
     1
 40
1.0
176
     1
  0
VISUALSTYLE
  5
2C
102
{ACAD_REACTORS
330
2A
102
}
330
2A
100
AcDbVisualStyle
  2
FlatWithEdges
 70
     1
177
     3
291
     1
 70
    58
 90
        2
176
     1
 90
        1
176
     1
 90
        1
176
     1
 90
        2
176
     1
 40
0.6
176
     1
 40
30.0
176
     1
 62
     7
420
 16777215
176
     1
 90
        1
176
     1
 90
        0
176
     1
 62
     7
176
     1
 62
   257
176
     1
 90
        1
176
     1
 90
        1
176
     1
 40
1.0
176
     1
 90
        0
176
     1
 62
   257
176
     1
 40
1.0
176
     1
 90
        1
176
     1
 90
        6
176
     1
 90
        2
176
     1
 62
     7
176
     1
 90
        5
176
     1
 90
        0
176
     1
 90
        0
176
     1
290
     0
176
     1
 90
       13
176
     1
 40
0.0
176
     1
 90
        0
176
     1
290
     0
176
     1
290
     1
176
     1
290
     1
176
     1
290
     0
176
     1
290
     0
176
     1
290
     0
176
     1
290
     0
176
     1
290
     0
176
     1
290
     0
176
     1
 90
       50
176
     1
 40
0.0
176
     1
 40
1.0
176
     1
 90
        0
176
     1
 62
    18
420
        0
176
     1
 90
       50
176
     1
 90
        3
176
     1
 62
     5
420
      255
176
     1
290
     0
176
     1
 90
       50
176
     1
 90
       50
176
     1
 90
       50
176
     1
290
     0
176
     1
 90
       50
176
     1
 62
   256
176
     0
 40
1.0
176
     0
 90
        2
176
     1
  1
strokes_ogs.tif
176
     1
290
     0
176
     1
 40
1.0
176
     1
 40
1.0
176
     1
  0
VISUALSTYLE
  5
2D
102
{ACAD_REACTORS
330
2A
102
}
330
2A
100
AcDbVisualStyle
  2
Gouraud
 70
     2
177
     3
291
     1
 70
    58
 90
        2
176
     1
 90
        2
176
     1
 90
        1
176
     1
 90
        2
176
     1
 40
0.6
176
     1
 40
30.0
176
     1
 62
     7
420
 16777215
176
     1
 90
        0
176
     1
 90
        0
176
     1
 62
     7
176
     1
 62
   257
176
     1
 90
        1
176
     1
 90
        1
176
     1
 40
1.0
176
     1
 90
        0
176
     1
 62
     7
176
     1
 40
1.0
176
     1
 90
        1
176
     1
 90
        6
176
     1
 90
        2
176
     1
 62
     7
176
     1
 90
        5
176
     1
 90
        0
176
     1
 90
        0
176
     1
290
     0
176
     1
 90
       13
176
     1
 40
0.0
176
     1
 90
        0
176
     1
290
     0
176
     1
290
     1
176
     1
290
     1
176
     1
290
     0
176
     1
290
     0
176
     1
290
     0
176
     1
290
     0
176
     1
290
     0
176
     1
290
     0
176
     1
 90
       50
176
     1
 40
0.0
176
     1
 40
1.0
176
     1
 90
        0
176
     1
 62
    18
420
        0
176
     1
 90
       50
176
     1
 90
        3
176
     1
 62
     5
420
      255
176
     1
290
     0
176
     1
 90
       50
176
     1
 90
       50
176
     1
 90
       50
176
     1
290
     0
176
     1
 90
       50
176
     1
 62
   256
176
     0
 40
1.0
176
     0
 90
        2
176
     1
  1
strokes_ogs.tif
176
     1
290
     0
176
     1
 40
1.0
176
     1
 40
1.0
176
     1
  0
VISUALSTYLE
  5
2E
102
{ACAD_REACTORS
330
2A
102
}
330
2A
100
AcDbVisualStyle
  2
GouraudWithEdges
 70
     3
177
     3
291
     1
 70
    58
 90
        2
176
     1
 90
        2
176
     1
 90
        1
176
     1
 90
        2
176
     1
 40
0.6
176
     1
 40
30.0
176
     1
 62
     7
420
 16777215
176
     1
 90
        1
176
     1
 90
        0
176
     1
 62
     7
176
     1
 62
   257
176
     1
 90
        1
176
     1
 90
        1
176
     1
 40
1.0
176
     1
 90
        0
176
     1
 62
   257
176
     1
 40
1.0
176
     1
 90
        1
176
     1
 90
        6
176
     1
 90
        2
176
     1
 62
     7
176
     1
 90
        5
176
     1
 90
        0
176
     1
 90
        0
176
     1
290
     0
176
     1
 90
       13
176
     1
 40
0.0
176
     1
 90
        0
176
     1
290
     0
176
     1
290
     1
176
     1
290
     1
176
     1
290
     0
176
     1
290
     0
176
     1
290
     0
176
     1
290
     0
176
     1
290
     0
176
     1
290
     0
176
     1
 90
       50
176
     1
 40
0.0
176
     1
 40
1.0
176
     1
 90
        0
176
     1
 62
    18
420
        0
176
     1
 90
       50
176
     1
 90
        3
176
     1
 62
     5
420
      255
176
     1
290
     0
176
     1
 90
       50
176
     1
 90
       50
176
     1
 90
       50
176
     1
290
     0
176
     1
 90
       50
176
     1
 62
   256
176
     0
 40
1.0
176
     0
 90
        2
176
     1
  1
strokes_ogs.tif
176
     1
290
     0
176
     1
 40
1.0
176
     1
 40
1.0
176
     1
  0
VISUALSTYLE
  5
31
102
{ACAD_REACTORS
330
2A
102
}
330
2A
100
AcDbVisualStyle
  2
Hidden
 70
     6
177
     3
291
     0
 70
    58
 90
        1
176
     1
 90
        2
176
     1
 90
        2
176
     1
 90
        0
176
     1
 40
0.6
176
     1
 40
30.0
176
     1
 62
     7
420
 16777215
176
     1
 90
        2
176
     1
 90
        2
176
     1
 62
     7
176
     1
 62
   257
176
     1
 90
        2
176
     1
 90
        1
176
     1
 40
40.0
176
     1
 90
        0
176
     1
 62
   257
176
     1
 40
1.0
176
     1
 90
        1
176
     1
 90
        6
176
     1
 90
        2
176
     1
 62
     7
176
     1
 90
        3
176
     1
 90
        0
176
     1
 90
        0
176
     1
290
     0
176
     1
 90
        1
176
     1
 40
0.0
176
     1
 90
        0
176
     1
290
     0
176
     1
290
     1
176
     1
290
     1
176
     1
290
     0
176
     1
290
     0
176
     1
290
     0
176
     1
290
     0
176
     1
290
     0
176
     1
290
     0
176
     1
 90
       50
176
     1
 40
0.0
176
     1
 40
1.0
176
     1
 90
        0
176
     1
 62
    18
420
        0
176
     1
 90
       50
176
     1
 90
        3
176
     1
 62
     5
420
      255
176
     1
290
     0
176
     1
 90
       50
176
     1
 90
       50
176
     1
 90
       50
176
     1
290
     0
176
     1
 90
       50
176
     1
 62
   256
176
     0
 40
1.0
176
     0
 90
        2
176
     1
  1
strokes_ogs.tif
176
     1
290
     0
176
     1
 40
1.0
176
     1
 40
1.0
176
     1
  0
VISUALSTYLE
  5
3B
102
{ACAD_REACTORS
330
2A
102
}
330
2A
100
AcDbVisualStyle
  2
JitterOff
 70
    20
177
     3
291
     1
 70
    58
 90
        2
176
     0
 90
        2
176
     0
 90
        0
176
     0
 90
        0
176
     0
 40
0.6
176
     0
 40
30.0
176
     0
 62
     7
420
 16777215
176
     0
 90
        1
176
     0
 90
        4
176
     0
 62
     7
176
     0
 62
   257
176
     0
 90
        1
176
     0
 90
        1
176
     0
 40
1.0
176
     0
 90
       10
176
     2
 62
     7
176
     0
 40
1.0
176
     0
 90
        1
176
     0
 90
        6
176
     0
 90
        2
176
     0
 62
     7
176
     0
 90
        5
176
     0
 90
        0
176
     0
 90
        0
176
     0
290
     0
176
     0
 90
        1
176
     0
 40
0.0
176
     0
 90
        0
176
     0
290
     0
176
     0
290
     1
176
     0
290
     1
176
     0
290
     0
176
     0
290
     0
176
     0
290
     0
176
     0
290
     0
176
     0
290
     0
176
     0
290
     0
176
     0
 90
       50
176
     0
 40
0.0
176
     0
 40
1.0
176
     0
 90
        0
176
     0
 62
    18
420
        0
176
     0
 90
       50
176
     0
 90
        3
176
     0
 62
     5
420
      255
176
     0
290
     0
176
     0
 90
       50
176
     0
 90
       50
176
     0
 90
       50
176
     0
290
     0
176
     0
 90
       50
176
     0
 62
   256
176
     0
 40
1.0
176
     0
 90
        2
176
     0
  1
strokes_ogs.tif
176
     0
290
     0
176
     0
 40
1.0
176
     0
 40
1.0
176
     0
  0
VISUALSTYLE
  5
38
102
{ACAD_REACTORS
330
2A
102
}
330
2A
100
AcDbVisualStyle
  2
Linepattern
 70
    14
177
     3
291
     1
 70
    58
 90
        2
176
     1
 90
        2
176
     1
 90
        0
176
     1
 90
        0
176
     1
 40
0.6
176
     1
 40
30.0
176
     1
 62
     7
420
 16777215
176
     1
 90
        1
176
     1
 90
        4
176
     1
 62
     7
176
     1
 62
   257
176
     1
 90
        7
176
     1
 90
        7
176
     1
 40
1.0
176
     1
 90
        8
176
     1
 62
     7
176
     1
 40
1.0
176
     1
 90
        1
176
     1
 90
        6
176
     1
 90
        2
176
     1
 62
     7
176
     1
 90
        5
176
     1
 90
        0
176
     1
 90
        0
176
     1
290
     0
176
     1
 90
        1
176
     1
 40
0.0
176
     1
 90
        0
176
     1
290
     0
176
     1
290
     1
176
     1
290
     1
176
     1
290
     0
176
     1
290
     0
176
     1
290
     0
176
     1
290
     0
176
     1
290
     0
176
     1
290
     0
176
     1
 90
       50
176
     1
 40
0.0
176
     1
 40
1.0
176
     1
 90
        0
176
     1
 62
    18
420
        0
176
     1
 90
       50
176
     1
 90
        3
176
     1
 62
     5
420
      255
176
     1
290
     0
176
     1
 90
       50
176
     1
 90
       50
176
     1
 90
       50
176
     1
290
     0
176
     1
 90
       50
176
     1
 62
   256
176
     0
 40
1.0
176
     0
 90
        2
176
     1
  1
strokes_ogs.tif
176
     1
290
     0
176
     1
 40
1.0
176
     1
 40
1.0
176
     1
  0
VISUALSTYLE
  5
3C
102
{ACAD_REACTORS
330
2A
102
}
330
2A
100
AcDbVisualStyle
  2
OverhangOff
 70
    21
177
     3
291
     1
 70
    58
 90
        2
176
     0
 90
        2
176
     0
 90
        0
176
     0
 90
        0
176
     0
 40
0.6
176
     0
 40
30.0
176
     0
 62
     7
420
 16777215
176
     0
 90
        1
176
     0
 90
        4
176
     0
 62
     7
176
     0
 62
   257
176
     0
 90
        1
176
     0
 90
        1
176
     0
 40
1.0
176
     0
 90
        9
176
     2
 62
     7
176
     0
 40
1.0
176
     0
 90
        1
176
     0
 90
        6
176
     0
 90
        2
176
     0
 62
     7
176
     0
 90
        5
176
     0
 90
        0
176
     0
 90
        0
176
     0
290
     0
176
     0
 90
        1
176
     0
 40
0.0
176
     0
 90
        0
176
     0
290
     0
176
     0
290
     1
176
     0
290
     1
176
     0
290
     0
176
     0
290
     0
176
     0
290
     0
176
     0
290
     0
176
     0
290
     0
176
     0
290
     0
176
     0
 90
       50
176
     0
 40
0.0
176
     0
 40
1.0
176
     0
 90
        0
176
     0
 62
    18
420
        0
176
     0
 90
       50
176
     0
 90
        3
176
     0
 62
     5
420
      255
176
     0
290
     0
176
     0
 90
       50
176
     0
 90
       50
176
     0
 90
       50
176
     0
290
     0
176
     0
 90
       50
176
     0
 62
   256
176
     0
 40
1.0
176
     0
 90
        2
176
     0
  1
strokes_ogs.tif
176
     0
290
     0
176
     0
 40
1.0
176
     0
 40
1.0
176
     0
  0
VISUALSTYLE
  5
33
102
{ACAD_REACTORS
330
2A
102
}
330
2A
100
AcDbVisualStyle
  2
Realistic
 70
     8
177
     3
291
     0
 70
    58
 90
        2
176
     1
 90
        3
176
     1
 90
        0
176
     1
 90
        2
176
     1
 40
0.6
176
     1
 40
30.0
176
     1
 62
     7
420
 16777215
176
     1
 90
        0
176
     1
 90
        0
176
     1
 62
     7
176
     1
 62
   257
176
     1
 90
        1
176
     1
 90
        1
176
     1
 40
1.0
176
     1
 90
        8
176
     1
 62
   257
176
     1
 40
1.0
176
     1
 90
        1
176
     1
 90
        6
176
     1
 90
        2
176
     1
 62
     7
176
     1
 90
        3
176
     1
 90
        0
176
     1
 90
        0
176
     1
290
     0
176
     1
 90
       13
176
     1
 40
0.0
176
     1
 90
        0
176
     1
290
     0
176
     1
290
     1
176
     1
290
     1
176
     1
290
     0
176
     1
290
     0
176
     1
290
     0
176
     1
290
     0
176
     1
290
     0
176
     1
290
     0
176
     1
 90
       50
176
     1
 40
0.0
176
     1
 40
1.0
176
     1
 90
        0
176
     1
 62
    18
420
        0
176
     1
 90
       50
176
     1
 90
        3
176
     1
 62
     5
420
      255
176
     1
290
     0
176
     1
 90
       50
176
     1
 90
       50
176
     1
 90
       50
176
     1
290
     0
176
     1
 90
       50
176
     1
 62
   256
176
     0
 40
1.0
176
     0
 90
        2
176
     1
  1
strokes_ogs.tif
176
     1
290
     0
176
     1
 40
1.0
176
     1
 40
1.0
176
     1
  0
VISUALSTYLE
  5
42
102
{ACAD_REACTORS
330
2A
102
}
330
2A
100
AcDbVisualStyle
  2
Shaded
 70
    27
177
     3
291
     0
 70
    58
 90
        2
176
     1
 90
        2
176
     1
 90
        1
176
     1
 90
        2
176
     1
 40
0.6
176
     1
 40
30.0
176
     1
 62
     7
420
 16777215
176
     1
 90
        0
176
     1
 90
        4
176
     1
 62
     7
176
     1
 62
   257
176
     1
 90
        1
176
     1
 90
        1
176
     1
 40
1.0
176
     1
 90
        8
176
     1
 62
   257
176
     1
 40
1.0
176
     1
 90
        1
176
     1
 90
        6
176
     1
 90
        2
176
     1
 62
     8
420
  7895160
176
     1
 90
        3
176
     1
 90
        0
176
     1
 90
        0
176
     1
290
     0
176
     1
 90
        5
176
     1
 40
0.0
176
     1
 90
        0
176
     1
290
     0
176
     1
290
     1
176
     1
290
     1
176
     1
290
     0
176
     1
290
     0
176
     1
290
     0
176
     1
290
     0
176
     1
290
     0
176
     1
290
     0
176
     1
 90
       50
176
     1
 40
0.0
176
     1
 40
1.0
176
     1
 90
        0
176
     1
 62
    18
420
        0
176
     1
 90
       50
176
     1
 90
        3
176
     1
 62
     5
420
      255
176
     1
290
     0
176
     1
 90
       50
176
     1
 90
       50
176
     1
 90
       50
176
     1
290
     0
176
     1
 90
       50
176
     1
 62
   256
176
     0
 40
1.0
176
     0
 90
        2
176
     1
  1
strokes_ogs.tif
176
     1
290
     0
176
     1
 40
1.0
176
     1
 40
1.0
176
     1
  0
VISUALSTYLE
  5
41
102
{ACAD_REACTORS
330
2A
102
}
330
2A
100
AcDbVisualStyle
  2
Shaded with edges
 70
    26
177
     3
291
     0
 70
    58
 90
        2
176
     1
 90
        2
176
     1
 90
        1
176
     1
 90
        2
176
     1
 40
0.6
176
     1
 40
30.0
176
     1
 62
     7
420
 16777215
176
     1
 90
        1
176
     1
 90
       10
176
     1
 62
     7
176
     1
 62
   257
176
     1
 90
        2
176
     1
 90
        1
176
     1
 40
1.0
176
     1
 90
        8
176
     1
 62
   257
176
     1
 40
1.0
176
     1
 90
        1
176
     1
 90
        6
176
     1
 90
        2
176
     1
 62
     7
176
     1
 90
        3
176
     1
 90
        0
176
     1
 90
        0
176
     1
290
     0
176
     1
 90
        5
176
     1
 40
0.0
176
     1
 90
        0
176
     1
290
     0
176
     1
290
     1
176
     1
290
     1
176
     1
290
     0
176
     1
290
     0
176
     1
290
     0
176
     1
290
     0
176
     1
290
     0
176
     1
290
     0
176
     1
 90
       50
176
     1
 40
0.0
176
     1
 40
1.0
176
     1
 90
        0
176
     1
 62
    18
420
        0
176
     1
 90
       50
176
     1
 90
        3
176
     1
 62
     5
420
      255
176
     1
290
     0
176
     1
 90
       50
176
     1
 90
       50
176
     1
 90
       50
176
     1
290
     0
176
     1
 90
       50
176
     1
 62
   256
176
     0
 40
1.0
176
     0
 90
        2
176
     1
  1
strokes_ogs.tif
176
     1
290
     0
176
     1
 40
1.0
176
     1
 40
1.0
176
     1
  0
VISUALSTYLE
  5
3E
102
{ACAD_REACTORS
330
2A
102
}
330
2A
100
AcDbVisualStyle
  2
Shades of Gray
 70
    23
177
     3
291
     0
 70
    58
 90
        2
176
     1
 90
        2
176
     1
 90
        3
176
     1
 90
        0
176
     1
 40
0.6
176
     1
 40
30.0
176
     1
 62
     7
420
 16777215
176
     1
 90
        2
176
     1
 90
        2
176
     1
 62
     7
176
     1
 62
     7
176
     1
 90
        1
176
     1
 90
        1
176
     1
 40
40.0
176
     1
 90
        8
176
     1
 62
     7
176
     1
 40
1.0
176
     1
 90
        1
176
     1
 90
        6
176
     1
 90
        2
176
     1
 62
     7
176
     1
 90
        3
176
     1
 90
        0
176
     1
 90
        0
176
     1
290
     0
176
     1
 90
        1
176
     1
 40
0.0
176
     1
 90
        0
176
     1
290
     0
176
     1
290
     1
176
     1
290
     1
176
     1
290
     0
176
     1
290
     0
176
     1
290
     0
176
     1
290
     0
176
     1
290
     0
176
     1
290
     0
176
     1
 90
       50
176
     1
 40
0.0
176
     1
 40
1.0
176
     1
 90
        0
176
     1
 62
    18
420
        0
176
     1
 90
       50
176
     1
 90
        3
176
     1
 62
     5
420
      255
176
     1
290
     0
176
     1
 90
       50
176
     1
 90
       50
176
     1
 90
       50
176
     1
290
     0
176
     1
 90
       50
176
     1
 62
   256
176
     0
 40
1.0
176
     0
 90
        2
176
     1
  1
strokes_ogs.tif
176
     1
290
     0
176
     1
 40
1.0
176
     1
 40
1.0
176
     1
  0
VISUALSTYLE
  5
3F
102
{ACAD_REACTORS
330
2A
102
}
330
2A
100
AcDbVisualStyle
  2
Sketchy
 70
    24
177
     3
291
     0
 70
    58
 90
        1
176
     1
 90
        2
176
     1
 90
        2
176
     1
 90
        0
176
     1
 40
0.6
176
     1
 40
30.0
176
     1
 62
     7
420
 16777215
176
     1
 90
        2
176
     1
 90
        2
176
     1
 62
     7
176
     1
 62
     7
176
     1
 90
        1
176
     1
 90
        1
176
     1
 40
40.0
176
     1
 90
       11
176
     1
 62
     7
176
     1
 40
1.0
176
     1
 90
        1
176
     1
 90
        6
176
     1
 90
        2
176
     1
 62
     7
176
     1
 90
        6
176
     1
 90
        0
176
     1
 90
        0
176
     1
290
     0
176
     1
 90
        1
176
     1
 40
0.0
176
     1
 90
        0
176
     1
290
     0
176
     1
290
     1
176
     1
290
     1
176
     1
290
     0
176
     1
290
     0
176
     1
290
     0
176
     1
290
     0
176
     1
290
     0
176
     1
290
     0
176
     1
 90
       50
176
     1
 40
0.0
176
     1
 40
1.0
176
     1
 90
        0
176
     1
 62
    18
420
        0
176
     1
 90
       50
176
     1
 90
        3
176
     1
 62
     5
420
      255
176
     1
290
     0
176
     1
 90
       50
176
     1
 90
       50
176
     1
 90
       50
176
     1
290
     0
176
     1
 90
       50
176
     1
 62
   256
176
     0
 40
1.0
176
     0
 90
        2
176
     1
  1
strokes_ogs.tif
176
     1
290
     0
176
     1
 40
1.0
176
     1
 40
1.0
176
     1
  0
VISUALSTYLE
  5
37
102
{ACAD_REACTORS
330
2A
102
}
330
2A
100
AcDbVisualStyle
  2
Thicken
 70
    13
177
     3
291
     1
 70
    58
 90
        2
176
     1
 90
        2
176
     1
 90
        0
176
     1
 90
        0
176
     1
 40
0.6
176
     1
 40
30.0
176
     1
 62
     7
420
 16777215
176
     1
 90
        1
176
     1
 90
        4
176
     1
 62
     7
176
     1
 62
   257
176
     1
 90
        1
176
     1
 90
        1
176
     1
 40
1.0
176
     1
 90
       12
176
     1
 62
     7
176
     1
 40
1.0
176
     1
 90
        1
176
     1
 90
        6
176
     1
 90
        2
176
     1
 62
     7
176
     1
 90
        5
176
     1
 90
        0
176
     1
 90
        0
176
     1
290
     0
176
     1
 90
        1
176
     1
 40
0.0
176
     1
 90
        0
176
     1
290
     0
176
     1
290
     1
176
     1
290
     1
176
     1
290
     0
176
     1
290
     0
176
     1
290
     0
176
     1
290
     0
176
     1
290
     0
176
     1
290
     0
176
     1
 90
       50
176
     1
 40
0.0
176
     1
 40
1.0
176
     1
 90
        0
176
     1
 62
    18
420
        0
176
     1
 90
       50
176
     1
 90
        3
176
     1
 62
     5
420
      255
176
     1
290
     0
176
     1
 90
       50
176
     1
 90
       50
176
     1
 90
       50
176
     1
290
     0
176
     1
 90
       50
176
     1
 62
   256
176
     0
 40
1.0
176
     0
 90
        2
176
     1
  1
strokes_ogs.tif
176
     1
290
     0
176
     1
 40
1.0
176
     1
 40
1.0
176
     1
  0
VISUALSTYLE
  5
30
102
{ACAD_REACTORS
330
2A
102
}
330
2A
100
AcDbVisualStyle
  2
Wireframe
 70
     5
177
     3
291
     0
 70
    58
 90
        0
176
     1
 90
        2
176
     1
 90
        0
176
     1
 90
        0
176
     1
 40
0.6
176
     1
 40
30.0
176
     1
 62
     7
420
 16777215
176
     1
 90
        1
176
     1
 90
        4
176
     1
 62
     7
176
     1
 62
   257
176
     1
 90
        1
176
     1
 90
        1
176
     1
 40
1.0
176
     1
 90
        0
176
     1
 62
   257
176
     1
 40
1.0
176
     1
 90
        1
176
     1
 90
        6
176
     1
 90
        2
176
     1
 62
     7
176
     1
 90
        3
176
     1
 90
        0
176
     1
 90
        0
176
     1
290
     0
176
     1
 90
        1
176
     1
 40
0.0
176
     1
 90
        0
176
     1
290
     0
176
     1
290
     1
176
     1
290
     1
176
     1
290
     0
176
     1
290
     0
176
     1
290
     0
176
     1
290
     0
176
     1
290
     0
176
     1
290
     0
176
     1
 90
       50
176
     1
 40
0.0
176
     1
 40
1.0
176
     1
 90
        0
176
     1
 62
    18
420
        0
176
     1
 90
       50
176
     1
 90
        3
176
     1
 62
     5
420
      255
176
     1
290
     0
176
     1
 90
       50
176
     1
 90
       50
176
     1
 90
       50
176
     1
290
     0
176
     1
 90
       50
176
     1
 62
   256
176
     0
 40
1.0
176
     0
 90
        2
176
     1
  1
strokes_ogs.tif
176
     1
290
     0
176
     1
 40
1.0
176
     1
 40
1.0
176
     1
  0
VISUALSTYLE
  5
40
102
{ACAD_REACTORS
330
2A
102
}
330
2A
100
AcDbVisualStyle
  2
X-Ray
 70
    25
177
     3
291
     0
 70
    58
 90
        2
176
     1
 90
        2
176
     1
 90
        1
176
     1
 90
        1
176
     1
 40
0.5
176
     1
 40
30.0
176
     1
 62
     7
420
 16777215
176
     1
 90
        1
176
     1
 90
        0
176
     1
 62
     7
176
     1
 62
   257
176
     1
 90
        1
176
     1
 90
        1
176
     1
 40
1.0
176
     1
 90
        8
176
     1
 62
     7
176
     1
 40
1.0
176
     1
 90
        1
176
     1
 90
        6
176
     1
 90
        2
176
     1
 62
     7
176
     1
 90
        3
176
     1
 90
        0
176
     1
 90
        0
176
     1
290
     0
176
     1
 90
       13
176
     1
 40
0.0
176
     1
 90
        0
176
     1
290
     0
176
     1
290
     1
176
     1
290
     1
176
     1
290
     0
176
     1
290
     0
176
     1
290
     0
176
     1
290
     0
176
     1
290
     0
176
     1
290
     0
176
     1
 90
       50
176
     1
 40
0.0
176
     1
 40
1.0
176
     1
 90
        0
176
     1
 62
    18
420
        0
176
     1
 90
       50
176
     1
 90
        3
176
     1
 62
     5
420
      255
176
     1
290
     0
176
     1
 90
       50
176
     1
 90
       50
176
     1
 90
       50
176
     1
290
     0
176
     1
 90
       50
176
     1
 62
   256
176
     0
 40
1.0
176
     0
 90
        2
176
     1
  1
strokes_ogs.tif
176
     1
290
     0
176
     1
 40
1.0
176
     1
 40
1.0
176
     1
  0
DICTIONARYVAR
  5
9B
102
{ACAD_REACTORS
330
9A
102
}
330
9A
100
DictionaryVariables
280
     0
  1
1:1
  0
DICTIONARYVAR
  5
A0
102
{ACAD_REACTORS
330
9A
102
}
330
9A
100
DictionaryVariables
280
     0
  1
Standard
  0
DICTIONARYVAR
  5
9F
102
{ACAD_REACTORS
330
9A
102
}
330
9A
100
DictionaryVariables
280
     0
  1
Standard
  0
DICTIONARY
  5
9C
330
5A
100
AcDbDictionary
280
     1
281
     1
  3
ACAD_ROUNDTRIP_2008_TABLESTYLE_CELLSTYLEMAP
360
9D
  0
CELLSTYLEMAP
  5
9D
102
{ACAD_REACTORS
330
9C
102
}
330
9C
100
AcDbCellStyleMap
 90
        3
300
CELLSTYLE
  1
TABLEFORMAT_BEGIN
 90
        5
170
     1
 91
        0
 92
    32768
 62
   257
 93
        1
300
CONTENTFORMAT
  1
CONTENTFORMAT_BEGIN
 90
        0
 91
        0
 92
        4
 93
        0
300

 40
0.0
140
1.0
 94
        5
 62
     0
340
11
144
0.25
309
CONTENTFORMAT_END
171
     1
301
MARGIN
  1
CELLMARGIN_BEGIN
 40
0.06
 40
0.06
 40
0.06
 40
0.06
 40
0.06
 40
0.06
309
CELLMARGIN_END
 94
        6
 95
        1
302
GRIDFORMAT
  1
GRIDFORMAT_BEGIN
 90
        0
 91
        1
 62
     0
 92
       -2
340
14
 93
        0
 40
0.045
309
GRIDFORMAT_END
 95
        2
302
GRIDFORMAT
  1
GRIDFORMAT_BEGIN
 90
        0
 91
        1
 62
     0
 92
       -2
340
14
 93
        0
 40
0.045
309
GRIDFORMAT_END
 95
        4
302
GRIDFORMAT
  1
GRIDFORMAT_BEGIN
 90
        0
 91
        1
 62
     0
 92
       -2
340
14
 93
        0
 40
0.045
309
GRIDFORMAT_END
 95
        8
302
GRIDFORMAT
  1
GRIDFORMAT_BEGIN
 90
        0
 91
        1
 62
     0
 92
       -2
340
14
 93
        0
 40
0.045
309
GRIDFORMAT_END
 95
       16
302
GRIDFORMAT
  1
GRIDFORMAT_BEGIN
 90
        0
 91
        1
 62
     0
 92
       -2
340
14
 93
        0
 40
0.045
309
GRIDFORMAT_END
 95
       32
302
GRIDFORMAT
  1
GRIDFORMAT_BEGIN
 90
        0
 91
        1
 62
     0
 92
       -2
340
14
 93
        0
 40
0.045
309
GRIDFORMAT_END
309
TABLEFORMAT_END
  1
CELLSTYLE_BEGIN
 90
        1
 91
        1
300
_TITLE
309
CELLSTYLE_END
300
CELLSTYLE
  1
TABLEFORMAT_BEGIN
 90
        5
170
     1
 91
        0
 92
        0
 62
   257
 93
        1
300
CONTENTFORMAT
  1
CONTENTFORMAT_BEGIN
 90
        0
 91
        0
 92
        4
 93
        0
300

 40
0.0
140
1.0
 94
        5
 62
     0
340
11
144
0.18
309
CONTENTFORMAT_END
171
     1
301
MARGIN
  1
CELLMARGIN_BEGIN
 40
0.06
 40
0.06
 40
0.06
 40
0.06
 40
0.06
 40
0.06
309
CELLMARGIN_END
 94
        6
 95
        1
302
GRIDFORMAT
  1
GRIDFORMAT_BEGIN
 90
        0
 91
        1
 62
     0
 92
       -2
340
14
 93
        0
 40
0.045
309
GRIDFORMAT_END
 95
        2
302
GRIDFORMAT
  1
GRIDFORMAT_BEGIN
 90
        0
 91
        1
 62
     0
 92
       -2
340
14
 93
        0
 40
0.045
309
GRIDFORMAT_END
 95
        4
302
GRIDFORMAT
  1
GRIDFORMAT_BEGIN
 90
        0
 91
        1
 62
     0
 92
       -2
340
14
 93
        0
 40
0.045
309
GRIDFORMAT_END
 95
        8
302
GRIDFORMAT
  1
GRIDFORMAT_BEGIN
 90
        0
 91
        1
 62
     0
 92
       -2
340
14
 93
        0
 40
0.045
309
GRIDFORMAT_END
 95
       16
302
GRIDFORMAT
  1
GRIDFORMAT_BEGIN
 90
        0
 91
        1
 62
     0
 92
       -2
340
14
 93
        0
 40
0.045
309
GRIDFORMAT_END
 95
       32
302
GRIDFORMAT
  1
GRIDFORMAT_BEGIN
 90
        0
 91
        1
 62
     0
 92
       -2
340
14
 93
        0
 40
0.045
309
GRIDFORMAT_END
309
TABLEFORMAT_END
  1
CELLSTYLE_BEGIN
 90
        2
 91
        1
300
_HEADER
309
CELLSTYLE_END
300
CELLSTYLE
  1
TABLEFORMAT_BEGIN
 90
        5
170
     1
 91
        0
 92
        0
 62
   257
 93
        1
300
CONTENTFORMAT
  1
CONTENTFORMAT_BEGIN
 90
        0
 91
        0
 92
        4
 93
        0
300

 40
0.0
140
1.0
 94
        2
 62
     0
340
11
144
0.18
309
CONTENTFORMAT_END
171
     1
301
MARGIN
  1
CELLMARGIN_BEGIN
 40
0.06
 40
0.06
 40
0.06
 40
0.06
 40
0.06
 40
0.06
309
CELLMARGIN_END
 94
        6
 95
        1
302
GRIDFORMAT
  1
GRIDFORMAT_BEGIN
 90
        0
 91
        1
 62
     0
 92
       -2
340
14
 93
        0
 40
0.045
309
GRIDFORMAT_END
 95
        2
302
GRIDFORMAT
  1
GRIDFORMAT_BEGIN
 90
        0
 91
        1
 62
     0
 92
       -2
340
14
 93
        0
 40
0.045
309
GRIDFORMAT_END
 95
        4
302
GRIDFORMAT
  1
GRIDFORMAT_BEGIN
 90
        0
 91
        1
 62
     0
 92
       -2
340
14
 93
        0
 40
0.045
309
GRIDFORMAT_END
 95
        8
302
GRIDFORMAT
  1
GRIDFORMAT_BEGIN
 90
        0
 91
        1
 62
     0
 92
       -2
340
14
 93
        0
 40
0.045
309
GRIDFORMAT_END
 95
       16
302
GRIDFORMAT
  1
GRIDFORMAT_BEGIN
 90
        0
 91
        1
 62
     0
 92
       -2
340
14
 93
        0
 40
0.045
309
GRIDFORMAT_END
 95
       32
302
GRIDFORMAT
  1
GRIDFORMAT_BEGIN
 90
        0
 91
        1
 62
     0
 92
       -2
340
14
 93
        0
 40
0.045
309
GRIDFORMAT_END
309
TABLEFORMAT_END
  1
CELLSTYLE_BEGIN
 90
        3
 91
        2
300
_DATA
309
CELLSTYLE_END
  0
ENDSEC
  0
EOF
