  0
SECTION
  2
HEADER
  9
$ACADVER
  1
AC1027
  9
$ACADMAINTVER
 70
   105
  9
$DWGCODEPAGE
  3
ANSI_1252
  9
$LASTSAVEDBY
  1
Office Desk
  9
$REQUIREDVERSIONS
160
                 0
  9
$INSBASE
 10
0.0
 20
0.0
 30
0.0
  9
$EXTMIN
 10
-1119.1869
 20
-232.8513
 30
0.0
  9
$EXTMAX
 10
-175.0226
 20
264.7562
 30
0.0
  9
$LIMMIN
 10
0.0
 20
0.0
  9
$LIMMAX
 10
12.0
 20
9.0
  9
$ORTHOMODE
 70
     0
  9
$REGENMODE
 70
     1
  9
$FILLMODE
 70
     1
  9
$QTEXTMODE
 70
     0
  9
$MIRRTEXT
 70
     1
  9
$LTSCALE
 40
1.0
  9
$ATTMODE
 70
     1
  9
$TEXTSIZE
 40
0.2
  9
$TRACEWID
 40
0.05
  9
$TEXTSTYLE
  7
Standard
  9
$CLAYER
  8
0
  9
$CELTYPE
  6
ByLayer
  9
$CECOLOR
 62
   256
  9
$CELTSCALE
 40
1.0
  9
$DISPSILH
 70
     0
  9
$DIMSCALE
 40
1.0
  9
$DIMASZ
 40
0.18
  9
$DIMEXO
 40
0.0625
  9
$DIMDLI
 40
0.38
  9
$DIMRND
 40
0.0
  9
$DIMDLE
 40
0.0
  9
$DIMEXE
 40
0.18
  9
$DIMTP
 40
0.0
  9
$DIMTM
 40
0.0
  9
$DIMTXT
 40
0.18
  9
$DIMCEN
 40
0.09
  9
$DIMTSZ
 40
0.0
  9
$DIMTOL
 70
     0
  9
$DIMLIM
 70
     0
  9
$DIMTIH
 70
     1
  9
$DIMTOH
 70
     1
  9
$DIMSE1
 70
     0
  9
$DIMSE2
 70
     0
  9
$DIMTAD
 70
     0
  9
$DIMZIN
 70
     0
  9
$DIMBLK
  1

  9
$DIMASO
 70
     1
  9
$DIMSHO
 70
     1
  9
$DIMPOST
  1

  9
$DIMAPOST
  1

  9
$DIMALT
 70
     0
  9
$DIMALTD
 70
     2
  9
$DIMALTF
 40
25.4
  9
$DIMLFAC
 40
1.0
  9
$DIMTOFL
 70
     0
  9
$DIMTVP
 40
0.0
  9
$DIMTIX
 70
     0
  9
$DIMSOXD
 70
     0
  9
$DIMSAH
 70
     0
  9
$DIMBLK1
  1

  9
$DIMBLK2
  1

  9
$DIMSTYLE
  2
Standard
  9
$DIMCLRD
 70
     0
  9
$DIMCLRE
 70
     0
  9
$DIMCLRT
 70
     0
  9
$DIMTFAC
 40
1.0
  9
$DIMGAP
 40
0.09
  9
$DIMJUST
 70
     0
  9
$DIMSD1
 70
     0
  9
$DIMSD2
 70
     0
  9
$DIMTOLJ
 70
     1
  9
$DIMTZIN
 70
     0
  9
$DIMALTZ
 70
     0
  9
$DIMALTTZ
 70
     0
  9
$DIMUPT
 70
     0
  9
$DIMDEC
 70
     4
  9
$DIMTDEC
 70
     4
  9
$DIMALTU
 70
     2
  9
$DIMALTTD
 70
     2
  9
$DIMTXSTY
  7
Standard
  9
$DIMAUNIT
 70
     0
  9
$DIMADEC
 70
     0
  9
$DIMALTRND
 40
0.0
  9
$DIMAZIN
 70
     0
  9
$DIMDSEP
 70
    46
  9
$DIMATFIT
 70
     3
  9
$DIMFRAC
 70
     0
  9
$DIMLDRBLK
  1

  9
$DIMLUNIT
 70
     2
  9
$DIMLWD
 70
    -2
  9
$DIMLWE
 70
    -2
  9
$DIMTMOVE
 70
     0
  9
$DIMFXL
 40
1.0
  9
$DIMFXLON
 70
     0
  9
$DIMJOGANG
 40
0.7853981633974483
  9
$DIMTFILL
 70
     0
  9
$DIMTFILLCLR
 70
     0
  9
$DIMARCSYM
 70
     0
  9
$DIMLTYPE
  6

  9
$DIMLTEX1
  6

  9
$DIMLTEX2
  6

  9
$DIMTXTDIRECTION
 70
     0
  9
$LUNITS
 70
     2
  9
$LUPREC
 70
     4
  9
$SKETCHINC
 40
0.1
  9
$FILLETRAD
 40
0.0
  9
$AUNITS
 70
     0
  9
$AUPREC
 70
     0
  9
$MENU
  1
.
  9
$ELEVATION
 40
0.0
  9
$PELEVATION
 40
0.0
  9
$THICKNESS
 40
0.0
  9
$LIMCHECK
 70
     0
  9
$CHAMFERA
 40
0.0
  9
$CHAMFERB
 40
0.0
  9
$CHAMFERC
 40
0.0
  9
$CHAMFERD
 40
0.0
  9
$SKPOLY
 70
     0
  9
$TDCREATE
 40
2461013.681905289
  9
$TDUCREATE
 40
2461013.452738623
  9
$TDUPDATE
 40
2461013.681905498
  9
$TDUUPDATE
 40
2461013.452738831
  9
$TDINDWG
 40
0.0000000116
  9
$TDUSRTIMER
 40
0.0000000116
  9
$USRTIMER
 70
     1
  9
$ANGBASE
 50
0.0
  9
$ANGDIR
 70
     0
  9
$PDMODE
 70
     0
  9
$PDSIZE
 40
0.0
  9
$PLINEWID
 40
0.0
  9
$SPLFRAME
 70
     0
  9
$SPLINETYPE
 70
     6
  9
$SPLINESEGS
 70
     8
  9
$HANDSEED
  5
BE
  9
$SURFTAB1
 70
     6
  9
$SURFTAB2
 70
     6
  9
$SURFTYPE
 70
     6
  9
$SURFU
 70
     6
  9
$SURFV
 70
     6
  9
$UCSBASE
  2

  9
$UCSNAME
  2

  9
$UCSORG
 10
0.0
 20
0.0
 30
0.0
  9
$UCSXDIR
 10
1.0
 20
0.0
 30
0.0
  9
$UCSYDIR
 10
0.0
 20
1.0
 30
0.0
  9
$UCSORTHOREF
  2

  9
$UCSORTHOVIEW
 70
     0
  9
$UCSORGTOP
 10
0.0
 20
0.0
 30
0.0
  9
$UCSORGBOTTOM
 10
0.0
 20
0.0
 30
0.0
  9
$UCSORGLEFT
 10
0.0
 20
0.0
 30
0.0
  9
$UCSORGRIGHT
 10
0.0
 20
0.0
 30
0.0
  9
$UCSORGFRONT
 10
0.0
 20
0.0
 30
0.0
  9
$UCSORGBACK
 10
0.0
 20
0.0
 30
0.0
  9
$PUCSBASE
  2

  9
$PUCSNAME
  2

  9
$PUCSORG
 10
0.0
 20
0.0
 30
0.0
  9
$PUCSXDIR
 10
1.0
 20
0.0
 30
0.0
  9
$PUCSYDIR
 10
0.0
 20
1.0
 30
0.0
  9
$PUCSORTHOREF
  2

  9
$PUCSORTHOVIEW
 70
     0
  9
$PUCSORGTOP
 10
0.0
 20
0.0
 30
0.0
  9
$PUCSORGBOTTOM
 10
0.0
 20
0.0
 30
0.0
  9
$PUCSORGLEFT
 10
0.0
 20
0.0
 30
0.0
  9
$PUCSORGRIGHT
 10
0.0
 20
0.0
 30
0.0
  9
$PUCSORGFRONT
 10
0.0
 20
0.0
 30
0.0
  9
$PUCSORGBACK
 10
0.0
 20
0.0
 30
0.0
  9
$USERI1
 70
     0
  9
$USERI2
 70
     0
  9
$USERI3
 70
     0
  9
$USERI4
 70
     0
  9
$USERI5
 70
     0
  9
$USERR1
 40
0.0
  9
$USERR2
 40
0.0
  9
$USERR3
 40
0.0
  9
$USERR4
 40
0.0
  9
$USERR5
 40
0.0
  9
$WORLDVIEW
 70
     1
  9
$SHADEDGE
 70
     3
  9
$SHADEDIF
 70
    70
  9
$TILEMODE
 70
     1
  9
$MAXACTVP
 70
    64
  9
$PINSBASE
 10
0.0
 20
0.0
 30
0.0
  9
$PLIMCHECK
 70
     0
  9
$PEXTMIN
 10
1.000000000000000E+20
 20
1.000000000000000E+20
 30
1.000000000000000E+20
  9
$PEXTMAX
 10
-1.000000000000000E+20
 20
-1.000000000000000E+20
 30
-1.000000000000000E+20
  9
$PLIMMIN
 10
0.0
 20
0.0
  9
$PLIMMAX
 10
12.0
 20
9.0
  9
$UNITMODE
 70
     0
  9
$VISRETAIN
 70
     1
  9
$PLINEGEN
 70
     0
  9
$PSLTSCALE
 70
     1
  9
$TREEDEPTH
 70
  3020
  9
$CMLSTYLE
  2
Standard
  9
$CMLJUST
 70
     0
  9
$CMLSCALE
 40
1.0
  9
$PROXYGRAPHICS
 70
     1
  9
$MEASUREMENT
 70
     0
  9
$CELWEIGHT
370
    -1
  9
$ENDCAPS
280
     0
  9
$JOINSTYLE
280
     0
  9
$LWDISPLAY
290
     0
  9
$INSUNITS
 70
     4
  9
$HYPERLINKBASE
  1

  9
$STYLESHEET
  1

  9
$XEDIT
290
     1
  9
$CEPSNTYPE
380
     0
  9
$PSTYLEMODE
290
     1
  9
$FINGERPRINTGUID
  2
{dea5e3fc-9e14-4dd6-bc2d-abb1fa146a03}
  9
$VERSIONGUID
  2
{FAEB1C32-E019-11D5-929B-00C0DF256EC4}
  9
$EXTNAMES
290
     1
  9
$PSVPSCALE
 40
0.0
  9
$OLESTARTUP
290
     0
  9
$SORTENTS
280
   127
  9
$INDEXCTL
280
     0
  9
$HIDETEXT
280
     1
  9
$XCLIPFRAME
280
     2
  9
$HALOGAP
280
     0
  9
$OBSCOLOR
 70
   257
  9
$OBSLTYPE
280
     0
  9
$INTERSECTIONDISPLAY
280
     0
  9
$INTERSECTIONCOLOR
 70
   257
  9
$DIMASSOC
280
     2
  9
$PROJECTNAME
  1

  9
$CAMERADISPLAY
290
     0
  9
$LENSLENGTH
 40
50.0
  9
$CAMERAHEIGHT
 40
0.0
  9
$STEPSPERSEC
 40
2.0
  9
$STEPSIZE
 40
6.0
  9
$3DDWFPREC
 40
2.0
  9
$PSOLWIDTH
 40
0.25
  9
$PSOLHEIGHT
 40
4.0
  9
$LOFTANG1
 40
1.570796326794897
  9
$LOFTANG2
 40
1.570796326794897
  9
$LOFTMAG1
 40
0.0
  9
$LOFTMAG2
 40
0.0
  9
$LOFTPARAM
 70
     7
  9
$LOFTNORMALS
280
     1
  9
$LATITUDE
 40
37.795
  9
$LONGITUDE
 40
-122.394
  9
$NORTHDIRECTION
 40
0.0
  9
$TIMEZONE
 70
 -8000
  9
$LIGHTGLYPHDISPLAY
280
     1
  9
$TILEMODELIGHTSYNCH
280
     1
  9
$CMATERIAL
347
44
  9
$SOLIDHIST
280
     0
  9
$SHOWHIST
280
     1
  9
$DWFFRAME
280
     2
  9
$DGNFRAME
280
     2
  9
$REALWORLDSCALE
290
     1
  9
$INTERFERECOLOR
 62
   256
  9
$CSHADOW
280
     0
  9
$SHADOWPLANELOCATION
 40
0.0
  0
ENDSEC
  0
SECTION
  2
CLASSES
  0
CLASS
  1
ACDBDICTIONARYWDFLT
  2
AcDbDictionaryWithDefault
  3
ObjectDBX Classes
 90
        0
 91
        3
280
     0
281
     0
  0
CLASS
  1
VISUALSTYLE
  2
AcDbVisualStyle
  3
ObjectDBX Classes
 90
     4095
 91
        3
280
     0
281
     0
  0
CLASS
  1
MATERIAL
  2
AcDbMaterial
  3
ObjectDBX Classes
 90
     1153
 91
        3
280
     0
281
     0
  0
CLASS
  1
SCALE
  2
AcDbScale
  3
ObjectDBX Classes
 90
     1153
 91
        3
280
     0
281
     0
  0
CLASS
  1
TABLESTYLE
  2
AcDbTableStyle
  3
ObjectDBX Classes
 90
     4095
 91
        3
280
     0
281
     0
  0
CLASS
  1
MLEADERSTYLE
  2
AcDbMLeaderStyle
  3
ACDB_MLEADERSTYLE_CLASS
 90
     4095
 91
        3
280
     0
281
     0
  0
CLASS
  1
SUN
  2
AcDbSun
  3
SCENEOE
 90
     1153
 91
        3
280
     0
281
     0
  0
CLASS
  1
DICTIONARYVAR
  2
AcDbDictionaryVar
  3
ObjectDBX Classes
 90
        0
 91
        3
280
     0
281
     0
  0
CLASS
  1
CELLSTYLEMAP
  2
AcDbCellStyleMap
  3
ObjectDBX Classes
 90
     1152
 91
        3
280
     0
281
     0
  0
ENDSEC
  0
SECTION
  2
TABLES
  0
TABLE
  2
VPORT
  5
8
330
0
100
AcDbSymbolTable
 70
     1
  0
VPORT
  5
29
330
8
100
AcDbSymbolTableRecord
100
AcDbViewportTableRecord
  2
*Active
 70
     0
 10
0.0
 20
0.0
 11
1.0
 21
1.0
 12
10.42990654205607
 22
4.5
 13
0.0
 23
0.0
 14
0.5
 24
0.5
 15
0.5
 25
0.5
 16
0.0
 26
0.0
 36
1.0
 17
0.0
 27
0.0
 37
0.0
 40
9.0
 41
1.972972972850329
 42
50.0
 43
0.0
 44
0.0
 50
0.0
 51
0.0
 71
     0
 72
   100
 73
     1
 74
     3
 75
     0
 76
     0
 77
     0
 78
     0
281
     0
 65
     1
110
0.0
120
0.0
130
0.0
111
1.0
121
0.0
131
0.0
112
0.0
122
1.0
132
0.0
 79
     0
146
0.0
348
2F
 60
     3
 61
     5
292
     1
282
     1
141
0.0
142
0.0
 63
   250
361
5D
  0
ENDTAB
  0
TABLE
  2
LTYPE
  5
5
330
0
100
AcDbSymbolTable
 70
     1
  0
LTYPE
  5
14
330
5
100
AcDbSymbolTableRecord
100
AcDbLinetypeTableRecord
  2
ByBlock
 70
     0
  3

 72
    65
 73
     0
 40
0.0
  0
LTYPE
  5
15
330
5
100
AcDbSymbolTableRecord
100
AcDbLinetypeTableRecord
  2
ByLayer
 70
     0
  3

 72
    65
 73
     0
 40
0.0
  0
LTYPE
  5
16
330
5
100
AcDbSymbolTableRecord
100
AcDbLinetypeTableRecord
  2
Continuous
 70
     0
  3
Solid line
 72
    65
 73
     0
 40
0.0
  0
ENDTAB
  0
TABLE
  2
LAYER
  5
2
330
0
100
AcDbSymbolTable
 70
     2
  0
LAYER
  5
10
330
2
100
AcDbSymbolTableRecord
100
AcDbLayerTableRecord
  2
0
 70
     0
 62
     7
  6
Continuous
370
    -3
390
F
347
46
348
0
  0
LAYER
  5
5F
330
2
100
AcDbSymbolTableRecord
100
AcDbLayerTableRecord
  2
Layer 1
 70
     0
 62
     7
  6
Continuous
370
    -3
390
F
347
46
348
0
  0
ENDTAB
  0
TABLE
  2
STYLE
  5
3
330
0
100
AcDbSymbolTable
 70
     1
  0
STYLE
  5
11
330
3
100
AcDbSymbolTableRecord
100
AcDbTextStyleTableRecord
  2
Standard
 70
     0
 40
0.0
 41
1.0
 50
0.0
 71
     0
 42
0.2
  3
txt
  4

  0
ENDTAB
  0
TABLE
  2
VIEW
  5
6
330
0
100
AcDbSymbolTable
 70
     0
  0
ENDTAB
  0
TABLE
  2
UCS
  5
7
330
0
100
AcDbSymbolTable
 70
     0
  0
ENDTAB
  0
TABLE
  2
APPID
  5
9
330
0
100
AcDbSymbolTable
 70
     2
  0
APPID
  5
12
330
9
100
AcDbSymbolTableRecord
100
AcDbRegAppTableRecord
  2
ACAD
 70
     0
  0
APPID
  5
5E
330
9
100
AcDbSymbolTableRecord
100
AcDbRegAppTableRecord
  2
ODA
 70
     0
  0
ENDTAB
  0
TABLE
  2
DIMSTYLE
  5
A
330
0
100
AcDbSymbolTable
 70
     1
100
AcDbDimStyleTable
  0
DIMSTYLE
105
27
330
A
100
AcDbSymbolTableRecord
100
AcDbDimStyleTableRecord
  2
Standard
 70
     0
178
     0
340
11
  0
ENDTAB
  0
TABLE
  2
BLOCK_RECORD
  5
1
330
0
100
AcDbSymbolTable
 70
     1
  0
BLOCK_RECORD
  5
1F
330
1
100
AcDbSymbolTableRecord
100
AcDbBlockTableRecord
  2
*Model_Space
340
22
 70
     0
280
     1
281
     0
  0
BLOCK_RECORD
  5
1B
330
1
100
AcDbSymbolTableRecord
100
AcDbBlockTableRecord
  2
*Paper_Space
340
1E
 70
     0
280
     1
281
     0
  0
BLOCK_RECORD
  5
23
330
1
100
AcDbSymbolTableRecord
100
AcDbBlockTableRecord
  2
*Paper_Space0
340
26
 70
     0
280
     1
281
     0
  0
ENDTAB
  0
ENDSEC
  0
SECTION
  2
BLOCKS
  0
BLOCK
  5
20
330
1F
100
AcDbEntity
  8
0
100
AcDbBlockBegin
  2
*Model_Space
 70
     0
 10
0.0
 20
0.0
 30
0.0
  3
*Model_Space
  1

  0
ENDBLK
  5
21
330
1F
100
AcDbEntity
  8
0
100
AcDbBlockEnd
  0
BLOCK
  5
1C
330
1B
100
AcDbEntity
 67
     1
  8
0
100
AcDbBlockBegin
  2
*Paper_Space
 70
     0
 10
0.0
 20
0.0
 30
0.0
  3
*Paper_Space
  1

  0
ENDBLK
  5
1D
330
1B
100
AcDbEntity
 67
     1
  8
0
100
AcDbBlockEnd
  0
BLOCK
  5
24
330
23
100
AcDbEntity
  8
0
100
AcDbBlockBegin
  2
*Paper_Space0
 70
     0
 10
0.0
 20
0.0
 30
0.0
  3
*Paper_Space0
  1

  0
ENDBLK
  5
25
330
23
100
AcDbEntity
  8
0
100
AcDbBlockEnd
  0
ENDSEC
  0
SECTION
  2
ENTITIES
  0
LWPOLYLINE
  5
60
330
1F
100
AcDbEntity
  8
Layer 1
 62
   250
370
    18
100
AcDbPolyline
 90
        5
 70
     1
 43
0.0
 10
-1119.0987
 20
-232.763
 10
-175.1109
 20
-232.763
 10
-175.1109
 20
264.668
 10
-1119.0987
 20
264.668
 10
-1119.0987
 20
-232.763
  0
LWPOLYLINE
  5
61
330
1F
100
AcDbEntity
  8
Layer 1
 62
     7
370
    35
100
AcDbPolyline
 90
     1172
 70
     1
 43
0.0
 10
-1033.2815
 20
146.9639
 10
-1034.0851
 20
146.8584
 10
-1034.2946
 20
146.8242
 10
-1034.3916
 20
146.7627
 10
-1034.4952
 20
146.7141
 10
-1034.6032
 20
146.6767
 10
-1034.7138
 20
146.6488
 10
-1034.7757
 20
146.5968
 10
-1034.7865
 20
146.5819
 10
-1034.8047
 20
146.583
 10
-1034.8887
 20
146.579
 10
-1035.005
 20
146.5336
 10
-1035.2316
 20
146.4607
 10
-1035.5323
 20
146.3704
 10
-1035.871
 20
146.2731
 10
-1036.2113
 20
146.1791
 10
-1036.5169
 20
146.0989
 10
-1036.7517
 20
146.0426
 10
-1036.8793
 20
146.0207
 10
-1036.9495
 20
145.995
 10
-1037.0346
 20
145.9518
 10
-1037.1289
 20
145.8956
 10
-1037.2269
 20
145.8305
 10
-1037.323
 20
145.7608
 10
-1037.4114
 20
145.6907
 10
-1037.4867
 20
145.6245
 10
-1037.5432
 20
145.5664
 10
-1037.6654
 20
145.41
 10
-1037.7845
 20
145.2487
 10
-1037.8471
 20
145.1711
 10
-1037.9139
 20
145.0979
 10
-1037.9866
 20
145.0312
 10
-1038.0669
 20
144.9729
 10
-1038.3424
 20
144.8111
 10
-1038.5183
 20
144.7093
 10
-1038.5951
 20
144.6515
 10
-1038.6782
 20
144.5734
 10
-1038.7783
 20
144.4634
 10
-1038.9057
 20
144.3096
 10
-1039.0015
 20
144.1779
 10
-1039.0767
 20
144.0536
 10
-1039.1404
 20
143.9345
 10
-1039.2016
 20
143.818
 10
-1039.2696
 20
143.7018
 10
-1039.3533
 20
143.5835
 10
-1039.4618
 20
143.4608
 10
-1039.6043
 20
143.3312
 10
-1039.7535
 20
143.2003
 10
-1039.8914
 20
143.0543
 10
-1039.9524
 20
142.9743
 10
-1040.0064
 20
142.8889
 10
-1040.0518
 20
142.7976
 10
-1040.0872
 20
142.7
 10
-1040.3028
 20
141.8644
 10
-1040.3199
 20
141.7273
 10
-1040.3578
 20
141.5481
 10
-1040.4031
 20
141.3698
 10
-1040.4425
 20
141.2352
 10
-1040.4772
 20
140.5724
 10
-1040.5471
 20
140.293
 10
-1040.6169
 20
139.6985
 10
-1040.6868
 20
139.4196
 10
-1040.6868
 20
138.7211
 10
-1040.7115
 20
138.6231
 10
-1040.7264
 20
138.5181
 10
-1040.7335
 20
138.4079
 10
-1040.7347
 20
138.2945
 10
-1040.7279
 20
138.0658
 10
-1040.722
 20
137.8472
 10
-1040.7235
 20
121.1612
 10
-1040.7272
 20
90.3036
 10
-1040.7318
 20
50.3245
 10
-1040.736
 20
6.2739
 10
-1040.7383
 20
-36.7982
 10
-1040.7377
 20
-73.8417
 10
-1040.7327
 20
-99.8066
 10
-1040.722
 20
-109.6428
 10
-1040.6914
 20
-109.9306
 10
-1040.6806
 20
-110.2067
 10
-1040.673
 20
-110.4627
 10
-1040.6521
 20
-110.6906
 10
-1040.6277
 20
-110.771
 10
-1040.6177
 20
-110.825
 10
-1040.6161
 20
-110.8817
 10
-1040.6169
 20
-110.97
 10
-1040.4074
 20
-112.7162
 10
-1040.3028
 20
-113.1007
 10
-1040.3028
 20
-113.275
 10
-1040.2638
 20
-113.4196
 10
-1040.2324
 20
-113.5715
 10
-1040.2013
 20
-113.7236
 10
-1040.1631
 20
-113.869
 10
-1040.1227
 20
-113.9894
 10
-1040.0781
 20
-114.1066
 10
-1040.0292
 20
-114.2208
 10
-1039.9756
 20
-114.3317
 10
-1039.917
 20
-114.4394
 10
-1039.8532
 20
-114.5437
 10
-1039.7839
 20
-114.6448
 10
-1039.7088
 20
-114.7424
 10
-1039.4992
 20
-114.9519
 10
-1039.3191
 20
-115.1932
 10
-1039.0668
 20
-115.5465
 10
-1038.7861
 20
-115.9343
 10
-1038.5212
 20
-116.2791
 10
-1038.4381
 20
-116.3877
 10
-1038.3575
 20
-116.4974
 10
-1038.2715
 20
-116.6026
 10
-1038.1719
 20
-116.6977
 10
-1037.9768
 20
-116.827
 10
-1037.7769
 20
-116.9609
 10
-1037.5731
 20
-117.0961
 10
-1037.3665
 20
-117.2293
 10
-1037.1579
 20
-117.3571
 10
-1036.9483
 20
-117.4763
 10
-1036.7387
 20
-117.5836
 10
-1036.5301
 20
-117.6756
 10
-1036.1109
 20
-118.0605
 10
-1035.9348
 20
-118.1691
 10
-1035.7897
 20
-118.2456
 10
-1035.6653
 20
-118.2979
 10
-1035.5513
 20
-118.3341
 10
-1035.3133
 20
-118.3907
 10
-1034.9932
 20
-118.4796
 10
-1034.8188
 20
-118.4796
 10
-1034.7056
 20
-118.5094
 10
-1034.5915
 20
-118.5316
 10
-1034.4774
 20
-118.5538
 10
-1034.3645
 20
-118.5836
 10
-1034.0504
 20
-118.5836
 10
-1033.9562
 20
-118.6076
 10
-1033.8554
 20
-118.6223
 10
-1033.7497
 20
-118.6293
 10
-1033.641
 20
-118.6309
 10
-1033.4216
 20
-118.6247
 10
-1033.2116
 20
-118.6193
 10
-1033.0584
 20
-118.6475
 10
-1032.8307
 20
-118.6639
 10
-1032.5513
 20
-118.671
 10
-1032.2433
 20
-118.6713
 10
-1031.9298
 20
-118.6672
 10
-1031.6336
 20
-118.6612
 10
-1031.3779
 20
-118.6558
 10
-1031.1857
 20
-118.6535
 10
-1031.0343
 20
-118.6804
 10
-1030.8003
 20
-118.6964
 10
-1030.5092
 20
-118.7036
 10
-1030.1865
 20
-118.7045
 10
-1029.8577
 20
-118.7011
 10
-1029.5484
 20
-118.696
 10
-1029.284
 20
-118.6912
 10
-1029.09
 20
-118.6891
 10
-1014.5649
 20
-118.6907
 10
-987.735
 20
-118.6945
 10
-952.9862
 20
-118.6992
 10
-914.704
 20
-118.7034
 10
-877.2741
 20
-118.7059
 10
-845.0822
 20
-118.7052
 10
-822.5139
 20
-118.7001
 10
-813.955
 20
-118.6891
 10
-813.7979
 20
-118.6616
 10
-813.5526
 20
-118.6454
 10
-813.2463
 20
-118.6381
 10
-812.9063
 20
-118.6374
 10
-812.5598
 20
-118.6409
 10
-812.2341
 20
-118.6464
 10
-811.9565
 20
-118.6513
 10
-811.7543
 20
-118.6535
 10
-811.4442
 20
-118.6194
 10
-811.128
 20
-118.6019
 10
-810.8105
 20
-118.5841
 10
-810.4968
 20
-118.5494
 10
-810.3952
 20
-118.5224
 10
-810.3103
 20
-118.5126
 10
-810.2227
 20
-118.5122
 10
-810.1129
 20
-118.5138
 10
-809.9153
 20
-118.4448
 10
-809.6707
 20
-118.3609
 10
-809.4288
 20
-118.2836
 10
-809.2394
 20
-118.2344
 10
-808.9864
 20
-118.0338
 10
-808.7482
 20
-117.855
 10
-808.5185
 20
-117.6938
 10
-808.2912
 20
-117.5463
 10
-808.0602
 20
-117.4085
 10
-807.8193
 20
-117.2763
 10
-807.5624
 20
-117.1458
 10
-807.2834
 20
-117.0128
 10
-807.1054
 20
-116.9059
 10
-806.9679
 20
-116.788
 10
-806.8603
 20
-116.6604
 10
-806.7725
 20
-116.5246
 10
-806.6939
 20
-116.3822
 10
-806.6142
 20
-116.2346
 10
-806.523
 20
-116.0833
 10
-806.41
 20
-115.9298
 10
-806.2712
 20
-115.7769
 10
-806.1396
 20
-115.6569
 10
-806.0153
 20
-115.559
 10
-805.8982
 20
-115.4724
 10
-805.7884
 20
-115.3862
 10
-805.6857
 20
-115.2896
 10
-805.5902
 20
-115.1717
 10
-805.5018
 20
-115.0218
 10
-805.4305
 20
-114.858
 10
-805.3671
 20
-114.6933
 10
-805.3098
 20
-114.5277
 10
-805.2566
 20
-114.3616
 10
-805.1553
 20
-114.028
 10
-805.048
 20
-113.6941
 10
-805.0348
 20
-113.5359
 10
-805.0053
 20
-113.3894
 10
-804.964
 20
-113.2519
 10
-804.9152
 20
-113.1211
 10
-804.8633
 20
-112.9942
 10
-804.8128
 20
-112.8687
 10
-804.768
 20
-112.742
 10
-804.7334
 20
-112.6117
 10
-804.6836
 20
-112.5276
 10
-804.6269
 20
-112.4535
 10
-804.571
 20
-112.3798
 10
-804.5238
 20
-112.2971
 10
-804.4722
 20
-112.1669
 10
-804.4108
 20
-111.9891
 10
-804.3436
 20
-111.7782
 10
-804.275
 20
-111.5483
 10
-804.2092
 20
-111.3138
 10
-804.1502
 20
-111.089
 10
-804.1024
 20
-110.888
 10
-804.07
 20
-110.7253
 10
-803.8951
 20
-108.874
 10
-803.8655
 20
-108.5762
 10
-803.847
 20
-108.2146
 10
-803.8351
 20
-107.8947
 10
-803.8253
 20
-107.7222
 10
-803.6855
 20
-105.975
 10
-803.6526
 20
-105.6949
 10
-803.6312
 20
-105.3994
 10
-803.6195
 20
-105.1646
 10
-803.6157
 20
-105.0669
 10
-803.5111
 20
-104.0197
 10
-803.4878
 20
-103.9471
 10
-803.4777
 20
-103.903
 10
-803.4756
 20
-103.856
 10
-803.476
 20
-103.7749
 10
-803.4493
 20
-103.6734
 10
-803.4395
 20
-103.5887
 10
-803.4392
 20
-103.501
 10
-803.4408
 20
-103.391
 10
-803.4109
 20
-103.2781
 10
-803.3885
 20
-103.1641
 10
-803.3662
 20
-103.0499
 10
-803.3363
 20
-102.9368
 10
-803.3363
 20
-102.7971
 10
-803.2312
 20
-102.3775
 10
-803.2312
 20
-102.2388
 10
-803.197
 20
-102.038
 10
-803.1583
 20
-101.8361
 10
-803.1167
 20
-101.6337
 10
-803.0736
 20
-101.4313
 10
-803.0306
 20
-101.2294
 10
-802.9891
 20
-101.0284
 10
-802.9508
 20
-100.8291
 10
-802.9171
 20
-100.6317
 10
-802.9171
 20
-100.492
 10
-802.8121
 20
-100.1076
 10
-802.8121
 20
-99.9332
 10
-802.7422
 20
-99.7237
 10
-802.7075
 20
-99.3397
 10
-802.6377
 20
-99.0603
 10
-802.498
 20
-97.3834
 10
-802.4686
 20
-97.1089
 10
-802.4493
 20
-96.7906
 10
-802.4368
 20
-96.5156
 10
-802.4281
 20
-96.3709
 10
-802.0788
 20
-92.8432
 10
-802.0413
 20
-92.7073
 10
-802.0099
 20
-92.5662
 10
-801.978
 20
-92.4237
 10
-801.9391
 20
-92.2839
 10
-801.9117
 20
-92.031
 10
-801.8479
 20
-91.7393
 10
-801.7597
 20
-91.4219
 10
-801.6595
 20
-91.092
 10
-801.5592
 20
-90.7627
 10
-801.4712
 20
-90.4471
 10
-801.4075
 20
-90.1583
 10
-801.3803
 20
-89.9095
 10
-801.2752
 20
-89.4206
 10
-801.2054
 20
-89.1412
 10
-800.6465
 20
-83.7969
 10
-800.542
 20
-83.413
 10
-800.542
 20
-83.2733
 10
-800.4898
 20
-83.1043
 10
-800.4252
 20
-82.8809
 10
-800.3537
 20
-82.6213
 10
-800.2809
 20
-82.3439
 10
-800.2123
 20
-82.067
 10
-800.1536
 20
-81.8088
 10
-800.1102
 20
-81.5877
 10
-800.0877
 20
-81.422
 10
-800.0553
 20
-81.3535
 10
-800.0258
 20
-81.2694
 10
-799.9987
 20
-81.1742
 10
-799.9735
 20
-81.0724
 10
-799.9258
 20
-80.8668
 10
-799.8781
 20
-80.6888
 10
-799.2494
 20
-74.9255
 10
-799.2195
 20
-74.8126
 10
-799.1971
 20
-74.6986
 10
-799.1747
 20
-74.5846
 10
-799.1448
 20
-74.4717
 10
-799.1296
 20
-74.3262
 10
-799.0959
 20
-74.1842
 10
-799.0517
 20
-74.0462
 10
-799.0051
 20
-73.9129
 10
-798.9553
 20
-73.6708
 10
-798.8863
 20
-73.3789
 10
-798.8054
 20
-73.0585
 10
-798.72
 20
-72.7311
 10
-798.6375
 20
-72.4183
 10
-798.5652
 20
-72.1416
 10
-798.5106
 20
-71.9224
 10
-798.4809
 20
-71.7822
 10
-798.0965
 20
-68.1847
 10
-798.0581
 20
-67.8771
 10
-798.0285
 20
-67.5489
 10
-797.998
 20
-67.2156
 10
-797.9568
 20
-66.8927
 10
-797.8171
 20
-65.8098
 10
-797.7478
 20
-65.5706
 10
-797.6795
 20
-65.2962
 10
-797.6105
 20
-64.9997
 10
-797.5389
 20
-64.6943
 10
-797.4627
 20
-64.3929
 10
-797.3801
 20
-64.1086
 10
-797.2893
 20
-63.8546
 10
-797.1883
 20
-63.6439
 10
-797.1733
 20
-63.4988
 10
-797.1398
 20
-63.357
 10
-797.0955
 20
-63.219
 10
-797.0486
 20
-63.0852
 10
-796.4898
 20
-58.7896
 10
-796.4183
 20
-58.5121
 10
-796.3567
 20
-58.2154
 10
-796.3227
 20
-58.0682
 10
-796.2831
 20
-57.9264
 10
-796.235
 20
-57.7932
 10
-796.1757
 20
-57.672
 10
-796.1489
 20
-57.5232
 10
-796.0965
 20
-57.3479
 10
-796.0313
 20
-57.1775
 10
-795.9661
 20
-57.0434
 10
-795.9505
 20
-56.9295
 10
-795.9232
 20
-56.8391
 10
-795.8823
 20
-56.7546
 10
-795.8264
 20
-56.6585
 10
-795.7738
 20
-56.4802
 10
-795.7193
 20
-56.2715
 10
-795.6644
 20
-56.042
 10
-795.6108
 20
-55.8011
 10
-795.5601
 20
-55.5582
 10
-795.514
 20
-55.3229
 10
-795.4741
 20
-55.1046
 10
-795.4419
 20
-54.9127
 10
-795.058
 20
-51.6298
 10
-794.7434
 20
-50.4423
 10
-794.6987
 20
-50.3619
 10
-794.6687
 20
-50.2944
 10
-794.6499
 20
-50.2221
 10
-794.6388
 20
-50.1273
 10
-794.2544
 20
-49.08
 10
-793.6608
 20
-44.6096
 10
-793.6073
 20
-44.4278
 10
-793.5547
 20
-44.2242
 10
-793.5015
 20
-44.0069
 10
-793.4461
 20
-43.7841
 10
-793.3869
 20
-43.5641
 10
-793.3224
 20
-43.3552
 10
-793.251
 20
-43.1654
 10
-793.1713
 20
-43.0031
 10
-793.1323
 20
-42.8477
 10
-793.0495
 20
-42.5987
 10
-792.9578
 20
-42.3509
 10
-792.8919
 20
-42.1995
 10
-792.2285
 20
-37.4498
 10
-792.1591
 20
-37.1919
 10
-792.0997
 20
-36.9321
 10
-792.0661
 20
-36.8037
 10
-792.026
 20
-36.6777
 10
-791.9763
 20
-36.5548
 10
-791.9139
 20
-36.4362
 10
-791.8996
 20
-36.3371
 10
-791.8791
 20
-36.2619
 10
-791.8585
 20
-36.1866
 10
-791.844
 20
-36.0869
 10
-791.7839
 20
-35.9678
 10
-791.7332
 20
-35.8406
 10
-791.6889
 20
-35.7082
 10
-791.6481
 20
-35.5737
 10
-791.6077
 20
-35.44
 10
-791.5649
 20
-35.3103
 10
-791.5167
 20
-35.1874
 10
-791.4601
 20
-35.0744
 10
-791.4249
 20
-34.9
 10
-790.9359
 20
-31.3723
 10
-790.6218
 20
-30.1492
 10
-790.5255
 20
-29.9988
 10
-790.4261
 20
-29.796
 10
-790.3265
 20
-29.5567
 10
-790.2295
 20
-29.2968
 10
-790.1379
 20
-29.0321
 10
-790.0544
 20
-28.7786
 10
-789.9819
 20
-28.552
 10
-789.9232
 20
-28.3683
 10
-789.9161
 20
-28.271
 10
-789.9008
 20
-28.171
 10
-789.8792
 20
-28.0737
 10
-789.8534
 20
-27.9843
 10
-789.5388
 20
-25.6095
 10
-789.4734
 20
-25.3785
 10
-789.3827
 20
-25.0255
 10
-789.3001
 20
-24.6762
 10
-789.2593
 20
-24.4562
 10
-789.1236
 20
-24.2028
 10
-789.0072
 20
-23.95
 10
-788.9061
 20
-23.697
 10
-788.8163
 20
-23.4428
 10
-788.7339
 20
-23.1865
 10
-788.6548
 20
-22.9272
 10
-788.5751
 20
-22.664
 10
-788.4909
 20
-22.3959
 10
-788.484
 20
-22.2985
 10
-788.4686
 20
-22.1984
 10
-788.4469
 20
-22.1011
 10
-788.4211
 20
-22.0119
 10
-788.1763
 20
-20.0556
 10
-788.1037
 20
-19.7913
 10
-788.0379
 20
-19.4906
 10
-787.9773
 20
-19.1844
 10
-787.9205
 20
-18.9034
 10
-787.8537
 20
-18.669
 10
-787.7583
 20
-18.4239
 10
-787.6427
 20
-18.1626
 10
-787.5155
 20
-17.8797
 10
-787.3851
 20
-17.5698
 10
-787.2598
 20
-17.2274
 10
-787.1482
 20
-16.8471
 10
-787.0586
 20
-16.4234
 10
-786.7792
 20
-14.3274
 10
-786.7392
 20
-14.1737
 10
-786.7093
 20
-14.0135
 10
-786.6794
 20
-13.8531
 10
-786.6395
 20
-13.6988
 10
-786.6229
 20
-13.512
 10
-786.5854
 20
-13.3294
 10
-786.5329
 20
-13.1513
 10
-786.4714
 20
-12.978
 10
-786.407
 20
-12.8096
 10
-786.3455
 20
-12.6465
 10
-786.293
 20
-12.4888
 10
-786.2555
 20
-12.337
 10
-786.2091
 20
-12.2627
 10
-786.1527
 20
-12.1547
 10
-786.091
 20
-12.0235
 10
-786.0288
 20
-11.88
 10
-785.9709
 20
-11.7346
 10
-785.9221
 20
-11.5981
 10
-785.8872
 20
-11.4811
 10
-785.871
 20
-11.3943
 10
-785.8302
 20
-11.3133
 10
-785.7975
 20
-11.2287
 10
-785.771
 20
-11.1414
 10
-785.7487
 20
-11.0523
 10
-785.7087
 20
-10.8722
 10
-785.6615
 20
-10.6953
 10
-785.0679
 20
-7.0636
 10
-785.0255
 20
-6.9951
 10
-785.0079
 20
-6.9655
 10
-785.0028
 20
-6.9325
 10
-784.9981
 20
-6.8535
 10
-784.9153
 20
-6.6986
 10
-784.8198
 20
-6.4931
 10
-784.7348
 20
-6.2846
 10
-784.6835
 20
-6.1203
 10
-784.6409
 20
-6.0623
 10
-784.6026
 20
-6.0018
 10
-784.5688
 20
-5.939
 10
-784.5397
 20
-5.8741
 10
-784.5155
 20
-5.8071
 10
-784.4963
 20
-5.7383
 10
-784.4824
 20
-5.6677
 10
-784.4739
 20
-5.5957
 10
-784.4156
 20
-5.4214
 10
-784.3576
 20
-5.2547
 10
-784.3053
 20
-5.0839
 10
-784.2643
 20
-4.8972
 10
-784.0201
 20
-3.1163
 10
-783.9744
 20
-2.8265
 10
-783.9275
 20
-2.5388
 10
-783.8759
 20
-2.2531
 10
-783.8161
 20
-1.969
 10
-783.7447
 20
-1.6865
 10
-783.6582
 20
-1.4053
 10
-783.5531
 20
-1.1252
 10
-783.426
 20
-0.8459
 10
-783.3207
 20
-0.6378
 10
-783.214
 20
-0.4153
 10
-783.1085
 20
-0.1985
 10
-783.0069
 20
-0.0077
 10
-782.4827
 20
2.6817
 10
-782.4593
 20
2.9358
 10
-782.4041
 20
3.1922
 10
-782.3233
 20
3.4483
 10
-782.2229
 20
3.7016
 10
-782.1093
 20
3.9496
 10
-781.9884
 20
4.1899
 10
-781.8664
 20
4.4198
 10
-781.7495
 20
4.637
 10
-781.6763
 20
4.8074
 10
-781.6179
 20
4.968
 10
-781.5706
 20
5.122
 10
-781.5305
 20
5.2722
 10
-781.4565
 20
5.5732
 10
-781.365
 20
5.8948
 10
-781.365
 20
6.0345
 10
-781.2952
 20
6.3139
 10
-781.1554
 20
7.2918
 10
-781.1324
 20
7.3641
 10
-781.1225
 20
7.4081
 10
-781.1203
 20
7.455
 10
-781.1208
 20
7.5361
 10
-781.0572
 20
7.7596
 10
-781.0072
 20
7.9794
 10
-780.9624
 20
8.196
 10
-780.9146
 20
8.4098
 10
-780.8554
 20
8.6213
 10
-780.7766
 20
8.8312
 10
-780.6698
 20
9.0398
 10
-780.5267
 20
9.2476
 10
-780.4939
 20
9.3404
 10
-780.4507
 20
9.4262
 10
-780.4019
 20
9.51
 10
-780.3523
 20
9.5969
 10
-780.2714
 20
9.784
 10
-780.1915
 20
10.0137
 10
-780.1142
 20
10.2736
 10
-780.0414
 20
10.551
 10
-779.9747
 20
10.8336
 10
-779.9158
 20
11.1089
 10
-779.8664
 20
11.3643
 10
-779.8282
 20
11.5874
 10
-779.7935
 20
11.9723
 10
-779.7402
 20
12.2784
 10
-779.6839
 20
12.5739
 10
-779.6213
 20
12.862
 10
-779.549
 20
13.1462
 10
-779.4636
 20
13.4299
 10
-779.3617
 20
13.7166
 10
-779.2399
 20
14.0097
 10
-779.0949
 20
14.3125
 10
-779.0255
 20
14.4359
 10
-778.9446
 20
14.5724
 10
-778.869
 20
14.7097
 10
-778.8155
 20
14.8356
 10
-778.8104
 20
14.9148
 10
-778.8052
 20
14.9478
 10
-778.7877
 20
14.9773
 10
-778.7456
 20
15.0457
 10
-778.6939
 20
15.237
 10
-778.6372
 20
15.4864
 10
-778.578
 20
15.7763
 10
-778.5185
 20
16.0889
 10
-778.4612
 20
16.4064
 10
-778.4084
 20
16.711
 10
-778.3625
 20
16.985
 10
-778.326
 20
17.2105
 10
-778.2913
 20
17.5598
 10
-778.1812
 20
17.943
 10
-778.1022
 20
18.2612
 10
-778.0587
 20
18.4186
 10
-778.0042
 20
18.5869
 10
-777.9324
 20
18.7751
 10
-777.837
 20
18.9924
 10
-777.691
 20
19.2621
 10
-777.5578
 20
19.518
 10
-777.4964
 20
19.6475
 10
-777.4388
 20
19.7817
 10
-777.385
 20
19.9233
 10
-777.3354
 20
20.0749
 10
-776.6846
 20
23.4277
 10
-776.6295
 20
23.5683
 10
-776.5414
 20
23.7544
 10
-776.4312
 20
23.9719
 10
-776.3098
 20
24.2067
 10
-776.1878
 20
24.4445
 10
-776.0763
 20
24.6713
 10
-775.986
 20
24.8727
 10
-775.9277
 20
25.0347
 10
-775.8722
 20
25.2471
 10
-775.8167
 20
25.4855
 10
-775.762
 20
25.7421
 10
-775.709
 20
26.0092
 10
-775.6586
 20
26.2789
 10
-775.6117
 20
26.5433
 10
-775.5691
 20
26.7947
 10
-775.5317
 20
27.0252
 10
-775.497
 20
27.3749
 10
-775.449
 20
27.6391
 10
-775.3913
 20
27.9124
 10
-775.3224
 20
28.1874
 10
-775.2407
 20
28.4573
 10
-775.1911
 20
28.5924
 10
-775.1395
 20
28.7095
 10
-775.086
 20
28.8138
 10
-775.0305
 20
28.9108
 10
-774.9136
 20
29.1037
 10
-774.7889
 20
29.3307
 10
-774.6982
 20
29.5327
 10
-774.6074
 20
29.7701
 10
-774.5192
 20
30.0314
 10
-774.436
 20
30.3048
 10
-774.3604
 20
30.5786
 10
-774.2949
 20
30.8412
 10
-774.242
 20
31.0809
 10
-774.2044
 20
31.286
 10
-774.2044
 20
31.4257
 10
-774.1456
 20
31.646
 10
-774.0957
 20
31.8906
 10
-774.0487
 20
32.1384
 10
-773.9984
 20
32.3689
 10
-773.9241
 20
32.6098
 10
-773.8299
 20
32.8649
 10
-773.7404
 20
33.1078
 10
-773.6803
 20
33.3122
 10
-773.4008
 20
33.6961
 10
-773.3845
 20
33.7649
 10
-773.3774
 20
33.7887
 10
-773.3558
 20
33.81
 10
-773.2963
 20
33.8715
 10
-773.0867
 20
34.3252
 10
-772.8073
 20
35.5825
 10
-772.7895
 20
35.7804
 10
-772.7469
 20
36.0312
 10
-772.685
 20
36.3164
 10
-772.6091
 20
36.6173
 10
-772.5246
 20
36.9155
 10
-772.437
 20
37.1923
 10
-772.3517
 20
37.4293
 10
-772.2741
 20
37.6077
 10
-772.1309
 20
37.8603
 10
-771.9766
 20
38.1045
 10
-771.9014
 20
38.2277
 10
-771.8308
 20
38.3537
 10
-771.767
 20
38.4844
 10
-771.7127
 20
38.6213
 10
-771.6172
 20
38.9261
 10
-771.5381
 20
39.2356
 10
-771.471
 20
39.5489
 10
-771.4116
 20
39.8649
 10
-771.3554
 20
40.1826
 10
-771.298
 20
40.5009
 10
-771.2352
 20
40.8188
 10
-771.1624
 20
41.1353
 10
-771.1009
 20
41.3556
 10
-771.0385
 20
41.5363
 10
-770.9745
 20
41.6889
 10
-770.9082
 20
41.8247
 10
-770.766
 20
42.0915
 10
-770.6065
 20
42.4278
 10
-770.456
 20
42.634
 10
-770.3394
 20
42.8769
 10
-770.2495
 20
43.1463
 10
-770.1789
 20
43.4316
 10
-770.1203
 20
43.7224
 10
-770.0664
 20
44.0083
 10
-770.0098
 20
44.2789
 10
-769.9432
 20
44.5238
 10
-769.9258
 20
44.7408
 10
-769.887
 20
44.9622
 10
-769.8325
 20
45.1853
 10
-769.7679
 20
45.4076
 10
-769.6991
 20
45.6264
 10
-769.6316
 20
45.8389
 10
-769.5714
 20
46.0427
 10
-769.524
 20
46.2349
 10
-769.4737
 20
46.2959
 10
-769.4489
 20
46.3292
 10
-769.4354
 20
46.3678
 10
-769.419
 20
46.4449
 10
-769.1894
 20
46.7554
 10
-769.0277
 20
47.0314
 10
-768.9178
 20
47.2852
 10
-768.8436
 20
47.5289
 10
-768.7889
 20
47.7746
 10
-768.7376
 20
48.0345
 10
-768.6736
 20
48.3205
 10
-768.5807
 20
48.645
 10
-768.5737
 20
48.7387
 10
-768.5586
 20
48.8257
 10
-768.537
 20
48.9097
 10
-768.5108
 20
48.9947
 10
-768.4978
 20
49.1653
 10
-768.4687
 20
49.3455
 10
-768.4278
 20
49.5315
 10
-768.3794
 20
49.7199
 10
-768.2773
 20
50.0896
 10
-768.1967
 20
50.4259
 10
-768.1431
 20
50.5348
 10
-768.0767
 20
50.6487
 10
-768.0018
 20
50.7657
 10
-767.9222
 20
50.8839
 10
-767.765
 20
51.1173
 10
-767.6374
 20
51.3344
 10
-767.532
 20
51.576
 10
-767.4367
 20
51.8516
 10
-767.351
 20
52.1514
 10
-767.2741
 20
52.4657
 10
-767.2056
 20
52.7849
 10
-767.1447
 20
53.0993
 10
-767.091
 20
53.3991
 10
-767.0438
 20
53.6747
 10
-767.0353
 20
53.7884
 10
-767.0166
 20
53.9019
 10
-766.9911
 20
54.0146
 10
-766.9617
 20
54.126
 10
-766.9041
 20
54.3427
 10
-766.869
 20
54.5475
 10
-766.8116
 20
54.6553
 10
-766.7491
 20
54.7878
 10
-766.6941
 20
54.9225
 10
-766.6594
 20
55.0365
 10
-766.5386
 20
55.1971
 10
-766.4166
 20
55.3784
 10
-766.3026
 20
55.5633
 10
-766.2056
 20
55.735
 10
-766.1042
 20
55.9733
 10
-766.0106
 20
56.2575
 10
-765.9249
 20
56.5742
 10
-765.8469
 20
56.9103
 10
-765.7766
 20
57.2521
 10
-765.714
 20
57.5866
 10
-765.659
 20
57.9002
 10
-765.6115
 20
58.1797
 10
-765.5867
 20
58.4435
 10
-765.5282
 20
58.6902
 10
-765.4428
 20
58.9231
 10
-765.337
 20
59.1454
 10
-765.2175
 20
59.3606
 10
-765.091
 20
59.5718
 10
-764.9639
 20
59.7825
 10
-764.8431
 20
59.9958
 10
-764.7228
 20
60.2819
 10
-764.6307
 20
60.5542
 10
-764.5592
 20
60.8168
 10
-764.5009
 20
61.0738
 10
-764.4483
 20
61.3291
 10
-764.3938
 20
61.587
 10
-764.3301
 20
61.8514
 10
-764.2496
 20
62.1265
 10
-764.2313
 20
62.3436
 10
-764.1885
 20
62.5577
 10
-764.1249
 20
62.7681
 10
-764.0441
 20
62.9739
 10
-763.9496
 20
63.1742
 10
-763.8451
 20
63.3681
 10
-763.7342
 20
63.5549
 10
-763.6204
 20
63.7335
 10
-763.4811
 20
63.8732
 10
-763.1665
 20
64.5717
 10
-763.134
 20
64.816
 10
-763.0768
 20
65.0876
 10
-763.0033
 20
65.3774
 10
-762.9217
 20
65.676
 10
-762.84
 20
65.974
 10
-762.7667
 20
66.2623
 10
-762.7097
 20
66.5315
 10
-762.6775
 20
66.7723
 10
-762.6081
 20
66.9115
 10
-762.5544
 20
67.0439
 10
-762.4955
 20
67.1802
 10
-762.4102
 20
67.3311
 10
-762.3104
 20
67.4712
 10
-762.2046
 20
67.6083
 10
-762.1024
 20
67.7464
 10
-762.0137
 20
67.8893
 10
-761.9265
 20
68.088
 10
-761.8576
 20
68.2675
 10
-761.8021
 20
68.4341
 10
-761.7553
 20
68.5937
 10
-761.6687
 20
68.9169
 10
-761.5598
 20
69.2863
 10
-761.536
 20
69.5678
 10
-761.4784
 20
69.8798
 10
-761.3911
 20
70.2092
 10
-761.2782
 20
70.543
 10
-761.1438
 20
70.8682
 10
-760.9918
 20
71.1717
 10
-760.8265
 20
71.4406
 10
-760.6517
 20
71.6617
 10
-760.5837
 20
71.7782
 10
-760.5231
 20
71.9007
 10
-760.4689
 20
72.0283
 10
-760.4204
 20
72.1601
 10
-760.3363
 20
72.4321
 10
-760.2637
 20
72.709
 10
-760.2226
 20
72.891
 10
-760.1839
 20
73.0787
 10
-760.1424
 20
73.2651
 10
-760.0928
 20
73.4432
 10
-760.0767
 20
73.6348
 10
-760.0407
 20
73.823
 10
-759.9902
 20
74.0079
 10
-759.9306
 20
74.1892
 10
-759.8672
 20
74.3666
 10
-759.8054
 20
74.5402
 10
-759.7507
 20
74.7096
 10
-759.7084
 20
74.8748
 10
-759.5978
 20
75.0378
 10
-759.3838
 20
75.3417
 10
-759.2665
 20
75.5168
 10
-759.1575
 20
75.6916
 10
-759.0681
 20
75.8543
 10
-759.0098
 20
75.9929
 10
-759.0048
 20
76.0716
 10
-758.9998
 20
76.1045
 10
-758.9822
 20
76.134
 10
-758.9399
 20
76.2025
 10
-758.9073
 20
76.4486
 10
-758.8502
 20
76.7202
 10
-758.7768
 20
77.0086
 10
-758.6953
 20
77.3054
 10
-758.6138
 20
77.6017
 10
-758.5405
 20
77.8891
 10
-758.4835
 20
78.1589
 10
-758.451
 20
78.4025
 10
-758.3078
 20
78.6695
 10
-758.1822
 20
78.9127
 10
-758.1134
 20
79.0323
 10
-758.0338
 20
79.154
 10
-757.9384
 20
79.2807
 10
-757.8222
 20
79.4151
 10
-757.6993
 20
79.7311
 10
-757.6001
 20
80.0064
 10
-757.5071
 20
80.283
 10
-757.4031
 20
80.603
 10
-757.3925
 20
80.7207
 10
-757.3674
 20
80.874
 10
-757.3317
 20
81.0513
 10
-757.2891
 20
81.2411
 10
-757.1988
 20
81.6121
 10
-757.1272
 20
81.895
 10
-757.0319
 20
82.2362
 10
-756.9422
 20
82.4855
 10
-756.8545
 20
82.6688
 10
-756.7653
 20
82.812
 10
-756.6708
 20
82.941
 10
-756.5675
 20
83.0818
 10
-756.4518
 20
83.2601
 10
-756.3201
 20
83.502
 10
-756.2772
 20
83.5998
 10
-756.2372
 20
83.6961
 10
-756.195
 20
83.7913
 10
-756.1457
 20
83.886
 10
-756.0495
 20
84.246
 10
-755.9676
 20
84.6298
 10
-755.89
 20
85.0277
 10
-755.8066
 20
85.43
 10
-755.7075
 20
85.8271
 10
-755.5826
 20
86.2093
 10
-755.4219
 20
86.5668
 10
-755.2154
 20
86.89
 10
-755.029
 20
87.1574
 10
-754.8929
 20
87.4036
 10
-754.7954
 20
87.6366
 10
-754.7245
 20
87.8642
 10
-754.6683
 20
88.0946
 10
-754.6149
 20
88.3355
 10
-754.5525
 20
88.595
 10
-754.4691
 20
88.881
 10
-754.447
 20
89.1285
 10
-754.3934
 20
89.4041
 10
-754.3124
 20
89.6957
 10
-754.2077
 20
89.9915
 10
-754.0833
 20
90.2793
 10
-753.9431
 20
90.5473
 10
-753.7909
 20
90.7836
 10
-753.6308
 20
90.976
 10
-753.5332
 20
91.1904
 10
-753.443
 20
91.3788
 10
-753.4006
 20
91.4739
 10
-753.3601
 20
91.5754
 10
-753.3215
 20
91.6876
 10
-753.2846
 20
91.8147
 10
-753.075
 20
92.687
 10
-753.0098
 20
92.9506
 10
-752.9537
 20
93.1796
 10
-752.8996
 20
93.3841
 10
-752.8403
 20
93.5745
 10
-752.7687
 20
93.7608
 10
-752.6775
 20
93.9535
 10
-752.5597
 20
94.1627
 10
-752.4081
 20
94.3986
 10
-752.2684
 20
94.5383
 10
-752.1315
 20
94.7608
 10
-752.0294
 20
94.9548
 10
-751.9535
 20
95.1302
 10
-751.8956
 20
95.2969
 10
-751.8471
 20
95.4648
 10
-751.7996
 20
95.6438
 10
-751.7448
 20
95.8439
 10
-751.6743
 20
96.075
 10
-751.6643
 20
96.1926
 10
-751.6419
 20
96.3124
 10
-751.611
 20
96.4333
 10
-751.5754
 20
96.5544
 10
-751.5391
 20
96.6744
 10
-751.5059
 20
96.7925
 10
-751.4799
 20
96.9074
 10
-751.4648
 20
97.0182
 10
-751.3846
 20
97.1733
 10
-751.2993
 20
97.3603
 10
-751.2182
 20
97.5509
 10
-751.1507
 20
97.7167
 10
-751.0339
 20
97.8564
 10
-750.8412
 20
98.0843
 10
-750.7366
 20
98.2227
 10
-750.6373
 20
98.3729
 10
-750.5513
 20
98.5313
 10
-750.4868
 20
98.6946
 10
-750.4509
 20
98.9634
 10
-750.3828
 20
99.2925
 10
-750.2888
 20
99.6602
 10
-750.1751
 20
100.0446
 10
-750.0479
 20
100.424
 10
-749.9136
 20
100.7766
 10
-749.7784
 20
101.0806
 10
-749.6485
 20
101.3143
 10
-749.5772
 20
101.3941
 10
-749.5045
 20
101.4673
 10
-749.4339
 20
101.5426
 10
-749.3691
 20
101.6283
 10
-749.2801
 20
101.8376
 10
-749.2003
 20
102.0262
 10
-749.1286
 20
102.2019
 10
-749.0638
 20
102.3727
 10
-749.0046
 20
102.5465
 10
-748.9498
 20
102.7312
 10
-748.8983
 20
102.9347
 10
-748.8489
 20
103.165
 10
-748.7977
 20
103.4003
 10
-748.7438
 20
103.6058
 10
-748.6865
 20
103.7902
 10
-748.625
 20
103.9623
 10
-748.5585
 20
104.1309
 10
-748.4862
 20
104.3046
 10
-748.4074
 20
104.4923
 10
-748.3212
 20
104.7027
 10
-748.1463
 20
104.9123
 10
-748.0098
 20
105.0668
 10
-747.9006
 20
105.2211
 10
-747.8139
 20
105.3771
 10
-747.7449
 20
105.5362
 10
-747.6887
 20
105.7003
 10
-747.6406
 20
105.871
 10
-747.5957
 20
106.05
 10
-747.5493
 20
106.2389
 10
-747.4664
 20
106.5432
 10
-747.3555
 20
106.9393
 10
-747.3016
 20
107.1401
 10
-747.2551
 20
107.3257
 10
-747.2208
 20
107.4837
 10
-747.2035
 20
107.6012
 10
-747.1238
 20
107.7569
 10
-747.0605
 20
107.9033
 10
-746.99
 20
108.0556
 10
-746.8889
 20
108.2294
 10
-746.79
 20
108.3427
 10
-746.6905
 20
108.4495
 10
-746.5942
 20
108.5599
 10
-746.5049
 20
108.6842
 10
-746.4213
 20
108.8965
 10
-746.3494
 20
109.0885
 10
-746.2866
 20
109.2676
 10
-746.2303
 20
109.4409
 10
-746.178
 20
109.6156
 10
-746.1271
 20
109.799
 10
-746.0751
 20
109.9984
 10
-746.0194
 20
110.2209
 10
-745.8287
 20
110.8955
 10
-745.6536
 20
111.3534
 10
-745.4905
 20
111.6596
 10
-745.3361
 20
111.879
 10
-745.1869
 20
112.0768
 10
-745.0395
 20
112.3178
 10
-744.8905
 20
112.6671
 10
-744.7364
 20
113.1897
 10
-744.6587
 20
113.5293
 10
-744.5658
 20
113.936
 10
-744.514
 20
114.1388
 10
-744.4589
 20
114.3276
 10
-744.4007
 20
114.4921
 10
-744.3394
 20
114.6219
 10
-744.3245
 20
114.7214
 10
-744.297
 20
114.8154
 10
-744.2591
 20
114.9047
 10
-744.213
 20
114.9906
 10
-744.1049
 20
115.1561
 10
-743.9901
 20
115.3204
 10
-743.9182
 20
115.3995
 10
-743.8451
 20
115.4728
 10
-743.7747
 20
115.5483
 10
-743.7106
 20
115.6345
 10
-743.5683
 20
115.9864
 10
-743.4489
 20
116.296
 10
-743.395
 20
116.4511
 10
-743.3435
 20
116.6152
 10
-743.2933
 20
116.7948
 10
-743.2433
 20
116.9963
 10
-743.0784
 20
117.6948
 10
-743.0397
 20
117.8323
 10
-742.9943
 20
117.9756
 10
-742.9424
 20
118.1214
 10
-742.8842
 20
118.2666
 10
-742.8199
 20
118.408
 10
-742.7497
 20
118.5424
 10
-742.6738
 20
118.6667
 10
-742.5924
 20
118.7777
 10
-742.4527
 20
118.9169
 10
-742.329
 20
119.0935
 10
-742.1963
 20
119.3204
 10
-742.1339
 20
119.4395
 10
-742.0782
 20
119.5553
 10
-742.0322
 20
119.6624
 10
-741.9989
 20
119.7556
 10
-741.9658
 20
120.0194
 10
-741.9077
 20
120.313
 10
-741.8301
 20
120.6256
 10
-741.7382
 20
120.9464
 10
-741.6374
 20
121.2645
 10
-741.533
 20
121.5692
 10
-741.4304
 20
121.8498
 10
-741.335
 20
122.0953
 10
-741.2634
 20
122.191
 10
-741.1834
 20
122.2753
 10
-741.1007
 20
122.357
 10
-741.0209
 20
122.4451
 10
-740.7999
 20
122.8378
 10
-740.6378
 20
123.23
 10
-740.5149
 20
123.6219
 10
-740.4114
 20
124.0139
 10
-740.3078
 20
124.4062
 10
-740.1842
 20
124.7992
 10
-740.0209
 20
125.1931
 10
-739.7982
 20
125.5883
 10
-739.7145
 20
125.679
 10
-739.6443
 20
125.7648
 10
-739.5841
 20
125.8472
 10
-739.5303
 20
125.9274
 10
-739.428
 20
126.0864
 10
-739.3092
 20
126.2522
 10
-739.2492
 20
126.4216
 10
-739.169
 20
126.6993
 10
-739.0717
 20
127.0517
 10
-738.9603
 20
127.4455
 10
-738.838
 20
127.8473
 10
-738.7078
 20
128.2236
 10
-738.5729
 20
128.5411
 10
-738.4362
 20
128.7663
 10
-738.1915
 20
129.0115
 10
-737.9753
 20
129.3936
 10
-737.8155
 20
129.7744
 10
-737.6941
 20
130.1532
 10
-737.5933
 20
130.5287
 10
-737.4953
 20
130.9002
 10
-737.382
 20
131.2666
 10
-737.2358
 20
131.627
 10
-737.0386
 20
131.9804
 10
-736.9421
 20
132.0861
 10
-736.8409
 20
132.1844
 10
-736.7426
 20
132.2856
 10
-736.6546
 20
132.3995
 10
-736.5084
 20
132.7603
 10
-736.3836
 20
133.08
 10
-736.3264
 20
133.2401
 10
-736.2712
 20
133.4086
 10
-736.2168
 20
133.5918
 10
-736.1621
 20
133.7959
 10
-736.0598
 20
134.2054
 10
-735.9628
 20
134.5362
 10
-735.9024
 20
134.6928
 10
-735.8266
 20
134.8548
 10
-735.7299
 20
135.0305
 10
-735.6067
 20
135.2281
 10
-735.3972
 20
135.4377
 10
-735.1379
 20
135.9287
 10
-734.9515
 20
136.3893
 10
-734.8099
 20
136.8289
 10
-734.6851
 20
137.2568
 10
-734.5488
 20
137.682
 10
-734.373
 20
138.1139
 10
-734.1296
 20
138.5617
 10
-733.7905
 20
139.0347
 10
-733.7533
 20
139.1554
 10
-733.6966
 20
139.2943
 10
-733.6344
 20
139.4345
 10
-733.5809
 20
139.5588
 10
-733.4759
 20
141.1312
 10
-733.5019
 20
141.2257
 10
-733.5117
 20
141.3
 10
-733.5124
 20
141.3772
 10
-733.511
 20
141.4804
 10
-733.5809
 20
141.7247
 10
-733.5809
 20
141.8644
 10
-733.6854
 20
142.2483
 10
-733.6854
 20
142.388
 10
-733.7396
 20
142.5339
 10
-733.816
 20
142.6649
 10
-733.9096
 20
142.7845
 10
-734.0152
 20
142.8961
 10
-734.2416
 20
143.109
 10
-734.4539
 20
143.3312
 10
-734.5478
 20
143.4625
 10
-734.6267
 20
143.5994
 10
-734.6965
 20
143.7391
 10
-734.7632
 20
143.8787
 10
-734.8327
 20
144.0154
 10
-734.911
 20
144.1463
 10
-735.004
 20
144.2686
 10
-735.1178
 20
144.3795
 10
-735.2602
 20
144.4854
 10
-735.4093
 20
144.5797
 10
-735.5622
 20
144.6673
 10
-735.7154
 20
144.7533
 10
-735.866
 20
144.8428
 10
-736.0108
 20
144.9408
 10
-736.1465
 20
145.0523
 10
-736.2701
 20
145.1825
 10
-736.4093
 20
145.3647
 10
-736.525
 20
145.5171
 10
-736.5879
 20
145.5855
 10
-736.6617
 20
145.6505
 10
-736.7519
 20
145.7135
 10
-736.8642
 20
145.7759
 10
-737.0737
 20
145.881
 10
-737.2844
 20
145.9207
 10
-737.5763
 20
145.9997
 10
-737.8701
 20
146.0892
 10
-738.0864
 20
146.1604
 10
-738.3959
 20
146.2169
 10
-738.7119
 20
146.2833
 10
-738.8682
 20
146.3224
 10
-739.021
 20
146.3668
 10
-739.1685
 20
146.4171
 10
-739.3092
 20
146.4744
 10
-739.4733
 20
146.5531
 10
-739.6691
 20
146.6466
 10
-739.7727
 20
146.6919
 10
-739.877
 20
146.7325
 10
-739.9795
 20
146.7657
 10
-740.0776
 20
146.7885
 10
-740.1713
 20
146.7955
 10
-740.2583
 20
146.8106
 10
-740.3422
 20
146.8322
 10
-740.4269
 20
146.8584
 10
-740.6018
 20
146.8584
 10
-740.846
 20
146.9282
 10
-1032.0592
 20
146.9981
 10
-1032.3722
 20
146.9928
 10
-1032.672
 20
146.981
 10
-1032.971
 20
146.9692
 10
-1033.2815
 20
146.9639
  0
LWPOLYLINE
  5
62
330
1F
100
AcDbEntity
  8
Layer 1
 62
     7
370
    35
100
AcDbPolyline
 90
       22
 70
     0
 43
0.0
 10
-1068.5959
 20
44.2092
 10
-1068.6347
 20
44.3268
 10
-1068.6631
 20
44.4585
 10
-1068.6833
 20
44.5987
 10
-1068.6974
 20
44.7414
 10
-1068.7159
 20
45.0114
 10
-1068.7356
 20
45.2223
 10
-1068.7911
 20
45.774
 10
-1068.8237
 20
46.5221
 10
-1068.8381
 20
47.4075
 10
-1068.8391
 20
48.371
 10
-1068.8315
 20
49.3534
 10
-1068.8202
 20
50.2958
 10
-1068.8099
 20
51.1388
 10
-1068.8054
 20
51.8234
 10
-1068.8054
 20
145.881
 10
-1068.8317
 20
145.9758
 10
-1068.8415
 20
146.0501
 10
-1068.842
 20
146.1272
 10
-1068.8406
 20
146.2302
 10
-1068.9105
 20
146.5443
 10
-1068.9451
 20
146.7187
  0
LWPOLYLINE
  5
63
330
1F
100
AcDbEntity
  8
Layer 1
 62
     7
370
    35
100
AcDbPolyline
 90
       23
 70
     0
 43
0.0
 10
-1058.152
 20
147.0337
 10
-1058.6214
 20
146.9999
 10
-1059.6892
 20
146.9807
 10
-1061.1688
 20
146.973
 10
-1062.8736
 20
146.9737
 10
-1064.6169
 20
146.9797
 10
-1066.2122
 20
146.9878
 10
-1067.4727
 20
146.995
 10
-1068.2119
 20
146.9981
 10
-1068.9451
 20
146.7187
 10
-1069.2084
 20
146.7728
 10
-1069.5272
 20
146.8455
 10
-1069.8432
 20
146.9247
 10
-1070.098
 20
146.9981
 10
-1081.7998
 20
146.9981
 10
-1081.8857
 20
147.0204
 10
-1081.9592
 20
147.0297
 10
-1082.024
 20
147.0312
 10
-1082.0844
 20
147.0301
 10
-1082.144
 20
147.0316
 10
-1082.207
 20
147.0409
 10
-1082.2772
 20
147.0632
 10
-1082.3587
 20
147.1036
  0
LWPOLYLINE
  5
64
330
1F
100
AcDbEntity
  8
Layer 1
 62
     7
370
    35
100
AcDbPolyline
 90
       12
 70
     0
 43
0.0
 10
-1057.558
 20
-118.6535
 10
-1057.9073
 20
-118.6535
 10
-1058.1939
 20
-118.687
 10
-1058.7426
 20
-118.7061
 10
-1059.4718
 20
-118.7138
 10
-1060.3001
 20
-118.7131
 10
-1061.1458
 20
-118.7072
 10
-1061.9274
 20
-118.6992
 10
-1062.5633
 20
-118.6921
 10
-1062.9721
 20
-118.6891
 10
-1068.0722
 20
-118.6891
 10
-1068.8406
 20
-118.4796
  0
LWPOLYLINE
  5
65
330
1F
100
AcDbEntity
  8
Layer 1
 62
     7
370
    35
100
AcDbPolyline
 90
       29
 70
     0
 43
0.0
 10
-1083.4764
 20
-118.6193
 10
-1083.3472
 20
-118.6537
 10
-1083.209
 20
-118.666
 10
-1083.0648
 20
-118.6636
 10
-1082.9176
 20
-118.6538
 10
-1082.7703
 20
-118.6441
 10
-1082.6261
 20
-118.6419
 10
-1082.4879
 20
-118.6544
 10
-1082.3587
 20
-118.6891
 10
-1082.2732
 20
-118.6719
 10
-1082.2365
 20
-118.6715
 10
-1082.1997
 20
-118.671
 10
-1082.1139
 20
-118.6535
 10
-1081.5666
 20
-118.6899
 10
-1080.3074
 20
-118.7104
 10
-1078.5584
 20
-118.7182
 10
-1076.5416
 20
-118.7169
 10
-1074.4792
 20
-118.7099
 10
-1072.593
 20
-118.7006
 10
-1071.1052
 20
-118.6926
 10
-1070.2378
 20
-118.6891
 10
-1069.2598
 20
-118.5494
 10
-1069.1464
 20
-118.5239
 10
-1069.0734
 20
-118.5015
 10
-1068.9887
 20
-118.4856
 10
-1068.8406
 20
-118.4796
 10
-1068.8054
 20
-118.3399
 10
-1068.8054
 20
-13.9782
 10
-1068.6657
 20
-12.8611
  0
LWPOLYLINE
  5
66
330
1F
100
AcDbEntity
  8
Layer 1
 62
     7
370
    18
100
AcDbPolyline
 90
      117
 70
     1
 43
0.0
 10
-1057.5814
 20
0.7219
 10
-1057.5894
 20
0.3299
 10
-1057.6133
 20
-0.0567
 10
-1057.6532
 20
-0.4377
 10
-1057.709
 20
-0.8133
 10
-1057.7808
 20
-1.1833
 10
-1057.8684
 20
-1.5478
 10
-1057.972
 20
-1.9069
 10
-1058.0915
 20
-2.2604
 10
-1058.2242
 20
-2.6026
 10
-1058.3677
 20
-2.9275
 10
-1058.5218
 20
-3.2352
 10
-1058.6867
 20
-3.5257
 10
-1058.8622
 20
-3.799
 10
-1059.0485
 20
-4.055
 10
-1059.2454
 20
-4.2938
 10
-1059.453
 20
-4.5154
 10
-1060.6376
 20
-3.7881
 10
-1060.4597
 20
-3.6037
 10
-1060.2895
 20
-3.4041
 10
-1060.1271
 20
-3.1893
 10
-1059.9725
 20
-2.9592
 10
-1059.8257
 20
-2.7139
 10
-1059.6867
 20
-2.4533
 10
-1059.5554
 20
-2.1775
 10
-1059.432
 20
-1.8863
 10
-1059.32
 20
-1.584
 10
-1059.2228
 20
-1.275
 10
-1059.1407
 20
-0.9592
 10
-1059.0734
 20
-0.6366
 10
-1059.0211
 20
-0.3072
 10
-1058.9838
 20
0.029
 10
-1058.9614
 20
0.372
 10
-1058.9539
 20
0.7219
 10
-1058.9662
 20
1.1608
 10
-1059.0033
 20
1.5735
 10
-1059.065
 20
1.9599
 10
-1059.1515
 20
2.32
 10
-1059.2626
 20
2.6537
 10
-1059.3984
 20
2.9612
 10
-1059.5589
 20
3.2423
 10
-1059.7441
 20
3.4971
 10
-1059.9501
 20
3.7236
 10
-1060.1729
 20
3.9199
 10
-1060.4126
 20
4.086
 10
-1060.6691
 20
4.2219
 10
-1060.9425
 20
4.3276
 10
-1061.2328
 20
4.4031
 10
-1061.54
 20
4.4484
 10
-1061.8641
 20
4.4635
 10
-1062.1882
 20
4.4487
 10
-1062.4953
 20
4.4044
 10
-1062.7856
 20
4.3305
 10
-1063.059
 20
4.227
 10
-1063.3155
 20
4.0941
 10
-1063.5552
 20
3.9316
 10
-1063.778
 20
3.7395
 10
-1063.984
 20
3.518
 10
-1064.1692
 20
3.2644
 10
-1064.3296
 20
2.9768
 10
-1064.4653
 20
2.655
 10
-1064.5763
 20
2.2992
 10
-1064.6625
 20
1.9093
 10
-1064.7241
 20
1.4853
 10
-1064.7611
 20
1.0271
 10
-1064.7734
 20
0.5348
 10
-1064.7734
 20
-0.5037
 10
-1065.8758
 20
-0.5037
 10
-1071.5091
 20
3.9853
 10
-1070.9269
 20
4.1934
 10
-1070.9269
 20
-3.9131
 10
-1072.2566
 20
-3.9131
 10
-1072.2566
 20
5.44
 10
-1071.197
 20
5.44
 10
-1065.5637
 20
0.9509
 10
-1066.0419
 20
0.2236
 10
-1066.0419
 20
0.7848
 10
-1066.0237
 20
1.4188
 10
-1065.9691
 20
2.0116
 10
-1065.8781
 20
2.5631
 10
-1065.7507
 20
3.0734
 10
-1065.5869
 20
3.5425
 10
-1065.3867
 20
3.9704
 10
-1065.1502
 20
4.3571
 10
-1064.8774
 20
4.7026
 10
-1064.5761
 20
5.0069
 10
-1064.2539
 20
5.2707
 10
-1063.911
 20
5.4939
 10
-1063.5474
 20
5.6765
 10
-1063.1629
 20
5.8186
 10
-1062.7577
 20
5.92
 10
-1062.3317
 20
5.9809
 10
-1061.885
 20
6.0012
 10
-1061.5822
 20
5.9921
 10
-1061.2873
 20
5.9649
 10
-1061.0002
 20
5.9194
 10
-1060.7209
 20
5.8558
 10
-1060.4495
 20
5.7739
 10
-1060.1858
 20
5.6738
 10
-1059.93
 20
5.5555
 10
-1059.682
 20
5.419
 10
-1059.4441
 20
5.2644
 10
-1059.2192
 20
5.0912
 10
-1059.0074
 20
4.8995
 10
-1058.8086
 20
4.6893
 10
-1058.6228
 20
4.4605
 10
-1058.4501
 20
4.2132
 10
-1058.2903
 20
3.9475
 10
-1058.1435
 20
3.6632
 10
-1058.0117
 20
3.3604
 10
-1057.8975
 20
3.0391
 10
-1057.8009
 20
2.6992
 10
-1057.7218
 20
2.3408
 10
-1057.6604
 20
1.9638
 10
-1057.6165
 20
1.5683
 10
-1057.5902
 20
1.1544
 10
-1057.5814
 20
0.7219
  0
LWPOLYLINE
  5
67
330
1F
100
AcDbEntity
  8
Layer 1
 62
     7
370
    18
100
AcDbPolyline
 90
      131
 70
     1
 43
0.0
 10
-1057.5814
 20
12.486
 10
-1057.5894
 20
12.0985
 10
-1057.6133
 20
11.7156
 10
-1057.6532
 20
11.3372
 10
-1057.709
 20
10.9634
 10
-1057.7808
 20
10.5942
 10
-1057.8684
 20
10.2295
 10
-1057.972
 20
9.8694
 10
-1058.0915
 20
9.5138
 10
-1058.2242
 20
9.1696
 10
-1058.3677
 20
8.8435
 10
-1058.5218
 20
8.5357
 10
-1058.6867
 20
8.246
 10
-1058.8622
 20
7.9744
 10
-1059.0485
 20
7.721
 10
-1059.2454
 20
7.4858
 10
-1059.453
 20
7.2688
 10
-1060.6376
 20
7.9962
 10
-1060.4597
 20
8.1756
 10
-1060.2895
 20
8.371
 10
-1060.1271
 20
8.5823
 10
-1059.9725
 20
8.8095
 10
-1059.8257
 20
9.0526
 10
-1059.6867
 20
9.3116
 10
-1059.5554
 20
9.5864
 10
-1059.432
 20
9.877
 10
-1059.32
 20
10.1789
 10
-1059.2228
 20
10.487
 10
-1059.1407
 20
10.8013
 10
-1059.0734
 20
11.1217
 10
-1059.0211
 20
11.4482
 10
-1058.9838
 20
11.781
 10
-1058.9614
 20
12.1199
 10
-1058.9539
 20
12.4651
 10
-1058.9668
 20
12.9137
 10
-1059.0053
 20
13.3348
 10
-1059.0695
 20
13.7282
 10
-1059.1594
 20
14.094
 10
-1059.275
 20
14.4323
 10
-1059.4161
 20
14.7429
 10
-1059.5829
 20
15.0259
 10
-1059.7752
 20
15.2813
 10
-1059.9885
 20
15.5078
 10
-1060.2177
 20
15.7041
 10
-1060.4627
 20
15.8702
 10
-1060.7236
 20
16.0061
 10
-1061.0003
 20
16.1118
 10
-1061.293
 20
16.1873
 10
-1061.6016
 20
16.2326
 10
-1061.9261
 20
16.2477
 10
-1062.1561
 20
16.2407
 10
-1062.3779
 20
16.2197
 10
-1062.5915
 20
16.1848
 10
-1062.7969
 20
16.1358
 10
-1062.9942
 20
16.0729
 10
-1063.1833
 20
15.9961
 10
-1063.3642
 20
15.9053
 10
-1063.5369
 20
15.8006
 10
-1063.7011
 20
15.6793
 10
-1063.8559
 20
15.5389
 10
-1064.0013
 20
15.3793
 10
-1064.1372
 20
15.2005
 10
-1064.2638
 20
15.0025
 10
-1064.381
 20
14.7855
 10
-1064.4888
 20
14.5492
 10
-1064.5872
 20
14.2939
 10
-1064.6748
 20
14.0166
 10
-1064.7506
 20
13.7146
 10
-1064.8148
 20
13.3878
 10
-1064.8673
 20
13.0364
 10
-1064.9081
 20
12.6602
 10
-1064.9372
 20
12.2593
 10
-1064.9547
 20
11.8338
 10
-1064.9605
 20
11.3837
 10
-1064.9605
 20
8.2873
 10
-1072.2566
 20
9.0356
 10
-1072.2566
 20
16.9961
 10
-1070.9269
 20
16.9961
 10
-1070.9269
 20
9.6379
 10
-1071.6542
 20
10.4072
 10
-1065.5427
 20
9.7629
 10
-1066.2919
 20
8.9936
 10
-1066.2919
 20
11.7168
 10
-1066.2834
 20
12.254
 10
-1066.258
 20
12.7639
 10
-1066.2156
 20
13.2465
 10
-1066.1563
 20
13.7018
 10
-1066.0802
 20
14.1299
 10
-1065.9872
 20
14.5306
 10
-1065.8774
 20
14.9041
 10
-1065.7508
 20
15.2503
 10
-1065.6089
 20
15.5713
 10
-1065.4538
 20
15.8692
 10
-1065.2854
 20
16.1441
 10
-1065.1038
 20
16.3959
 10
-1064.9088
 20
16.6246
 10
-1064.7006
 20
16.8303
 10
-1064.479
 20
17.0128
 10
-1064.2441
 20
17.1722
 10
-1063.9975
 20
17.3111
 10
-1063.7407
 20
17.4315
 10
-1063.474
 20
17.5333
 10
-1063.1971
 20
17.6166
 10
-1062.9102
 20
17.6813
 10
-1062.6132
 20
17.7275
 10
-1062.3062
 20
17.7553
 10
-1061.9891
 20
17.7645
 10
-1061.6858
 20
17.7554
 10
-1061.3893
 20
17.7282
 10
-1061.0997
 20
17.6827
 10
-1060.8169
 20
17.6192
 10
-1060.541
 20
17.5374
 10
-1060.2719
 20
17.4375
 10
-1060.0096
 20
17.3194
 10
-1059.7542
 20
17.1831
 10
-1059.5089
 20
17.0284
 10
-1059.2769
 20
16.8556
 10
-1059.0583
 20
16.6646
 10
-1058.853
 20
16.4556
 10
-1058.661
 20
16.2283
 10
-1058.4822
 20
15.9829
 10
-1058.3167
 20
15.7192
 10
-1058.1644
 20
15.4374
 10
-1058.0278
 20
15.1366
 10
-1057.9095
 20
14.8164
 10
-1057.8093
 20
14.4767
 10
-1057.7273
 20
14.1174
 10
-1057.6635
 20
13.7388
 10
-1057.6179
 20
13.3406
 10
-1057.5905
 20
12.923
 10
-1057.5814
 20
12.486
  0
LWPOLYLINE
  5
68
330
1F
100
AcDbEntity
  8
Layer 1
 62
     7
370
    18
100
AcDbPolyline
 90
       97
 70
     1
 43
0.0
 10
-1057.5814
 20
25.4557
 10
-1057.5952
 20
25.0406
 10
-1057.6367
 20
24.6371
 10
-1057.7059
 20
24.2454
 10
-1057.8027
 20
23.8653
 10
-1057.927
 20
23.497
 10
-1058.079
 20
23.1403
 10
-1058.2585
 20
22.7955
 10
-1058.4656
 20
22.4624
 10
-1058.6985
 20
22.1437
 10
-1058.9554
 20
21.8426
 10
-1059.2364
 20
21.5591
 10
-1059.5414
 20
21.2932
 10
-1059.8705
 20
21.0448
 10
-1060.2236
 20
20.8139
 10
-1060.6006
 20
20.6005
 10
-1061.0017
 20
20.4046
 10
-1061.4253
 20
20.2294
 10
-1061.87
 20
20.0775
 10
-1062.3358
 20
19.9489
 10
-1062.8227
 20
19.8436
 10
-1063.3307
 20
19.7617
 10
-1063.8598
 20
19.7031
 10
-1064.4101
 20
19.668
 10
-1064.9815
 20
19.6563
 10
-1065.5532
 20
19.668
 10
-1066.1038
 20
19.7031
 10
-1066.6332
 20
19.7617
 10
-1067.1415
 20
19.8436
 10
-1067.6286
 20
19.9489
 10
-1068.0946
 20
20.0775
 10
-1068.5394
 20
20.2294
 10
-1068.963
 20
20.4046
 10
-1069.364
 20
20.6005
 10
-1069.741
 20
20.8139
 10
-1070.0939
 20
21.0448
 10
-1070.4228
 20
21.2932
 10
-1070.7277
 20
21.5591
 10
-1071.0085
 20
21.8426
 10
-1071.2654
 20
22.1437
 10
-1071.4982
 20
22.4624
 10
-1071.7052
 20
22.7955
 10
-1071.8847
 20
23.1403
 10
-1072.0365
 20
23.497
 10
-1072.1607
 20
23.8653
 10
-1072.2574
 20
24.2454
 10
-1072.3264
 20
24.6371
 10
-1072.3678
 20
25.0406
 10
-1072.3816
 20
25.4557
 10
-1072.3678
 20
25.8705
 10
-1072.3264
 20
26.2737
 10
-1072.2574
 20
26.6654
 10
-1072.1607
 20
27.0453
 10
-1072.0365
 20
27.4136
 10
-1071.8847
 20
27.7702
 10
-1071.7052
 20
28.115
 10
-1071.4982
 20
28.4481
 10
-1071.2654
 20
28.7669
 10
-1071.0085
 20
29.0685
 10
-1070.7277
 20
29.3528
 10
-1070.4228
 20
29.6199
 10
-1070.0939
 20
29.8697
 10
-1069.741
 20
30.1023
 10
-1069.364
 20
30.3177
 10
-1068.963
 20
30.516
 10
-1068.5394
 20
30.6939
 10
-1068.0946
 20
30.8481
 10
-1067.6286
 20
30.9785
 10
-1067.1415
 20
31.0853
 10
-1066.6332
 20
31.1684
 10
-1066.1038
 20
31.2277
 10
-1065.5532
 20
31.2633
 10
-1064.9815
 20
31.2752
 10
-1064.4101
 20
31.2633
 10
-1063.8598
 20
31.2277
 10
-1063.3307
 20
31.1684
 10
-1062.8227
 20
31.0853
 10
-1062.3358
 20
30.9785
 10
-1061.87
 20
30.8481
 10
-1061.4253
 20
30.6939
 10
-1061.0017
 20
30.516
 10
-1060.6006
 20
30.3177
 10
-1060.2236
 20
30.1023
 10
-1059.8705
 20
29.8697
 10
-1059.5414
 20
29.6199
 10
-1059.2364
 20
29.3528
 10
-1058.9554
 20
29.0685
 10
-1058.6985
 20
28.7669
 10
-1058.4656
 20
28.4481
 10
-1058.2585
 20
28.115
 10
-1058.079
 20
27.7702
 10
-1057.927
 20
27.4136
 10
-1057.8027
 20
27.0453
 10
-1057.7059
 20
26.6654
 10
-1057.6367
 20
26.2737
 10
-1057.5952
 20
25.8705
 10
-1057.5814
 20
25.4557
  0
LWPOLYLINE
  5
69
330
1F
100
AcDbEntity
  8
Layer 1
 62
     7
370
    18
100
AcDbPolyline
 90
       97
 70
     1
 43
0.0
 10
-1058.9539
 20
25.4557
 10
-1058.9648
 20
25.7726
 10
-1058.9974
 20
26.0791
 10
-1059.0519
 20
26.3751
 10
-1059.1281
 20
26.6608
 10
-1059.226
 20
26.9361
 10
-1059.3457
 20
27.201
 10
-1059.4871
 20
27.4555
 10
-1059.6502
 20
27.6998
 10
-1059.8345
 20
27.9324
 10
-1060.0389
 20
28.152
 10
-1060.2633
 20
28.3586
 10
-1060.5079
 20
28.5522
 10
-1060.7725
 20
28.7328
 10
-1061.0572
 20
28.9004
 10
-1061.3621
 20
29.0549
 10
-1061.6871
 20
29.1964
 10
-1062.032
 20
29.3229
 10
-1062.396
 20
29.4327
 10
-1062.7791
 20
29.5255
 10
-1063.1814
 20
29.6015
 10
-1063.6027
 20
29.6606
 10
-1064.0432
 20
29.7029
 10
-1064.5028
 20
29.7282
 10
-1064.9815
 20
29.7367
 10
-1065.4608
 20
29.7282
 10
-1065.9207
 20
29.7029
 10
-1066.3615
 20
29.6606
 10
-1066.783
 20
29.6015
 10
-1067.1852
 20
29.5255
 10
-1067.5683
 20
29.4327
 10
-1067.9321
 20
29.3229
 10
-1068.2767
 20
29.1964
 10
-1068.6017
 20
29.0549
 10
-1068.9067
 20
28.9004
 10
-1069.1915
 20
28.7328
 10
-1069.4563
 20
28.5522
 10
-1069.7008
 20
28.3586
 10
-1069.9253
 20
28.152
 10
-1070.1295
 20
27.9324
 10
-1070.3136
 20
27.6998
 10
-1070.4767
 20
27.4555
 10
-1070.6181
 20
27.201
 10
-1070.7378
 20
26.9361
 10
-1070.8357
 20
26.6608
 10
-1070.9119
 20
26.3751
 10
-1070.9663
 20
26.0791
 10
-1070.999
 20
25.7726
 10
-1071.0099
 20
25.4557
 10
-1070.999
 20
25.1481
 10
-1070.9663
 20
24.849
 10
-1070.9119
 20
24.5583
 10
-1070.8357
 20
24.2761
 10
-1070.7378
 20
24.0023
 10
-1070.6181
 20
23.7369
 10
-1070.4767
 20
23.4801
 10
-1070.3136
 20
23.2317
 10
-1070.1295
 20
22.9941
 10
-1069.9253
 20
22.7702
 10
-1069.7008
 20
22.56
 10
-1069.4563
 20
22.3634
 10
-1069.1915
 20
22.1806
 10
-1068.9067
 20
22.0114
 10
-1068.6017
 20
21.8559
 10
-1068.2767
 20
21.7141
 10
-1067.9321
 20
21.5876
 10
-1067.5683
 20
21.4779
 10
-1067.1852
 20
21.385
 10
-1066.783
 20
21.309
 10
-1066.3615
 20
21.2499
 10
-1065.9207
 20
21.2077
 10
-1065.4608
 20
21.1824
 10
-1064.9815
 20
21.1739
 10
-1064.5028
 20
21.1824
 10
-1064.0432
 20
21.2077
 10
-1063.6027
 20
21.2499
 10
-1063.1814
 20
21.309
 10
-1062.7791
 20
21.385
 10
-1062.396
 20
21.4779
 10
-1062.032
 20
21.5876
 10
-1061.6871
 20
21.7141
 10
-1061.3621
 20
21.8559
 10
-1061.0572
 20
22.0114
 10
-1060.7725
 20
22.1806
 10
-1060.5079
 20
22.3634
 10
-1060.2633
 20
22.56
 10
-1060.0389
 20
22.7702
 10
-1059.8345
 20
22.9941
 10
-1059.6502
 20
23.2317
 10
-1059.4871
 20
23.4801
 10
-1059.3457
 20
23.7369
 10
-1059.226
 20
24.0023
 10
-1059.1281
 20
24.2761
 10
-1059.0519
 20
24.5583
 10
-1058.9974
 20
24.849
 10
-1058.9648
 20
25.1481
 10
-1058.9539
 20
25.4557
  0
LWPOLYLINE
  5
6A
330
1F
100
AcDbEntity
  8
Layer 1
 62
     7
370
    35
100
AcDbPolyline
 90
       19
 70
     0
 43
0.0
 10
-518.1999
 20
162.2408
 10
-518.1999
 20
162.553
 10
-518.2428
 20
162.9222
 10
-518.2669
 20
163.6434
 10
-518.276
 20
164.607
 10
-518.2744
 20
165.7036
 10
-518.2661
 20
166.8235
 10
-518.2552
 20
167.8571
 10
-518.2456
 20
168.695
 10
-518.2415
 20
169.2274
 10
-518.2197
 20
169.402
 10
-518.2034
 20
169.6162
 10
-518.1916
 20
169.8523
 10
-518.183
 20
170.0928
 10
-518.1766
 20
170.3203
 10
-518.1712
 20
170.5172
 10
-518.1657
 20
170.6659
 10
-518.1589
 20
170.749
 10
-518.0346
 20
171.0612
  0
LWPOLYLINE
  5
6B
330
1F
100
AcDbEntity
  8
Layer 1
 62
     7
370
    35
100
AcDbPolyline
 90
       38
 70
     0
 43
0.0
 10
-486.7029
 20
170.827
 10
-487.2405
 20
170.827
 10
-487.3954
 20
170.8595
 10
-487.56
 20
170.8706
 10
-487.731
 20
170.8677
 10
-487.9049
 20
170.8583
 10
-488.0784
 20
170.8499
 10
-488.2482
 20
170.8499
 10
-488.4109
 20
170.8658
 10
-488.5631
 20
170.9051
 10
-488.652
 20
170.8764
 10
-488.6871
 20
170.8668
 10
-488.7222
 20
170.8764
 10
-488.8111
 20
170.9051
 10
-517.4143
 20
170.9051
 10
-518.0346
 20
171.0612
 10
-518.0615
 20
171.1534
 10
-518.0831
 20
171.2541
 10
-518.1005
 20
171.3599
 10
-518.1146
 20
171.4672
 10
-518.1371
 20
171.6724
 10
-518.1589
 20
171.8416
 10
-518.1886
 20
171.9398
 10
-518.2001
 20
172.0114
 10
-518.2013
 20
172.0859
 10
-518.1999
 20
172.1926
 10
-518.2478
 20
172.6314
 10
-518.2742
 20
173.5066
 10
-518.2836
 20
174.6822
 10
-518.2809
 20
176.0223
 10
-518.2707
 20
177.3911
 10
-518.2576
 20
178.6526
 10
-518.2463
 20
179.671
 10
-518.2415
 20
180.3105
 10
-518.2097
 20
180.4238
 10
-518.1982
 20
180.5185
 10
-518.198
 20
180.6165
 10
-518.1999
 20
180.7395
  0
LWPOLYLINE
  5
6C
330
1F
100
AcDbEntity
  8
Layer 1
 62
     7
370
    35
100
AcDbPolyline
 90
       17
 70
     0
 43
0.0
 10
-376.1747
 20
162.0847
 10
-376.1782
 20
162.2228
 10
-376.1874
 20
162.3304
 10
-376.2004
 20
162.4121
 10
-376.2154
 20
162.4724
 10
-376.2437
 20
162.5476
 10
-376.2574
 20
162.5928
 10
-376.2155
 20
162.9468
 10
-376.192
 20
163.6346
 10
-376.183
 20
164.5523
 10
-376.1844
 20
165.596
 10
-376.1924
 20
166.6618
 10
-376.2031
 20
167.6459
 10
-376.2123
 20
168.4444
 10
-376.2163
 20
168.9533
 10
-376.3817
 20
170.7097
 10
-376.588
 20
171.0612
  0
LWPOLYLINE
  5
6D
330
1F
100
AcDbEntity
  8
Layer 1
 62
     7
370
    35
100
AcDbPolyline
 90
       22
 70
     0
 43
0.0
 10
-404.8612
 20
170.827
 10
-404.7285
 20
170.86
 10
-404.5609
 20
170.879
 10
-404.369
 20
170.8872
 10
-404.1634
 20
170.8873
 10
-403.753
 20
170.8751
 10
-403.4142
 20
170.8658
 10
-377.4563
 20
170.9051
 10
-377.1256
 20
170.9831
 10
-376.9603
 20
170.9831
 10
-376.588
 20
171.0612
 10
-376.5301
 20
171.2349
 10
-376.4804
 20
171.4118
 10
-376.4365
 20
171.5907
 10
-376.3959
 20
171.7701
 10
-376.3145
 20
172.1249
 10
-376.2163
 20
172.4654
 10
-376.2163
 20
180.5447
 10
-376.1862
 20
180.6425
 10
-376.1745
 20
180.714
 10
-376.1733
 20
180.7886
 10
-376.1747
 20
180.8956
  0
LWPOLYLINE
  5
6E
330
1F
100
AcDbEntity
  8
Layer 1
 62
     7
370
    35
100
AcDbPolyline
 90
       14
 70
     0
 43
0.0
 10
-674.7337
 20
34.9804
 10
-674.7773
 20
35.6069
 10
-674.8016
 20
37.0506
 10
-674.8107
 20
39.0567
 10
-674.8088
 20
41.3703
 10
-674.8001
 20
43.7362
 10
-674.7888
 20
45.8998
 10
-674.7789
 20
47.606
 10
-674.7747
 20
48.5998
 10
-674.7747
 20
144.0559
 10
-674.8035
 20
144.1456
 10
-674.8154
 20
144.2059
 10
-674.8173
 20
144.2692
 10
-674.8164
 20
144.3681
  0
LWPOLYLINE
  5
6F
330
1F
100
AcDbEntity
  8
Layer 1
 62
     7
370
    35
100
AcDbPolyline
 90
       41
 70
     0
 43
0.0
 10
-687.7953
 20
144.4843
 10
-687.5884
 20
144.5242
 10
-687.2577
 20
144.5242
 10
-687.1461
 20
144.5484
 10
-687.0277
 20
144.5587
 10
-686.905
 20
144.56
 10
-686.7803
 20
144.5571
 10
-686.6558
 20
144.555
 10
-686.5339
 20
144.5585
 10
-686.417
 20
144.5726
 10
-686.3073
 20
144.6022
 10
-685.9917
 20
144.5729
 10
-685.4254
 20
144.5591
 10
-684.6858
 20
144.5573
 10
-683.8503
 20
144.5639
 10
-682.9964
 20
144.5753
 10
-682.2016
 20
144.5878
 10
-681.5433
 20
144.598
 10
-681.0989
 20
144.6022
 10
-680.6268
 20
144.6044
 10
-679.9444
 20
144.6093
 10
-679.1269
 20
144.6146
 10
-678.2494
 20
144.6179
 10
-677.3871
 20
144.6167
 10
-676.6152
 20
144.6087
 10
-676.0087
 20
144.5914
 10
-675.643
 20
144.5624
 10
-674.8164
 20
144.3681
 10
-674.6124
 20
144.4382
 10
-674.422
 20
144.4932
 10
-674.2323
 20
144.5442
 10
-674.0307
 20
144.6022
 10
-665.4336
 20
144.6022
 10
-665.3445
 20
144.5802
 10
-665.2631
 20
144.5692
 10
-665.1871
 20
144.5655
 10
-665.1145
 20
144.5653
 10
-665.043
 20
144.5649
 10
-664.9704
 20
144.5604
 10
-664.8946
 20
144.5481
 10
-664.8133
 20
144.5242
  0
LWPOLYLINE
  5
70
330
1F
100
AcDbEntity
  8
Layer 1
 62
     7
370
    35
100
AcDbPolyline
 90
        2
 70
     0
 43
0.0
 10
-525.8467
 20
144.5624
 10
-525.8467
 20
140.9728
  0
LWPOLYLINE
  5
71
330
1F
100
AcDbEntity
  8
Layer 1
 62
     7
370
    35
100
AcDbPolyline
 90
      454
 70
     0
 43
0.0
 10
-383.8215
 20
144.5242
 10
-384.2878
 20
144.592
 10
-385.1545
 20
144.6311
 10
-386.2981
 20
144.6476
 10
-387.5949
 20
144.6474
 10
-388.9212
 20
144.6367
 10
-390.1533
 20
144.6216
 10
-391.1677
 20
144.6081
 10
-391.8406
 20
144.6022
 10
-509.2305
 20
144.6022
 10
-509.4387
 20
144.6348
 10
-509.7737
 20
144.6536
 10
-510.1961
 20
144.6617
 10
-510.6668
 20
144.6617
 10
-511.1466
 20
144.6567
 10
-511.5962
 20
144.6496
 10
-511.9764
 20
144.6432
 10
-512.248
 20
144.6404
 10
-512.4911
 20
144.6073
 10
-512.913
 20
144.5882
 10
-513.4582
 20
144.5802
 10
-514.0713
 20
144.5802
 10
-514.6966
 20
144.5854
 10
-515.2788
 20
144.5928
 10
-515.7624
 20
144.5994
 10
-516.0917
 20
144.6022
 10
-516.2934
 20
144.6342
 10
-516.6151
 20
144.6527
 10
-517.0196
 20
144.6607
 10
-517.4699
 20
144.6609
 10
-517.9287
 20
144.6562
 10
-518.3591
 20
144.6493
 10
-518.7237
 20
144.6431
 10
-518.9855
 20
144.6404
 10
-519.2386
 20
144.6088
 10
-519.6984
 20
144.5904
 10
-520.3005
 20
144.5824
 10
-520.9808
 20
144.5822
 10
-521.6753
 20
144.5868
 10
-522.3196
 20
144.5935
 10
-522.8497
 20
144.5996
 10
-523.2014
 20
144.6022
 10
-523.3515
 20
144.6314
 10
-523.5547
 20
144.6487
 10
-523.7946
 20
144.6565
 10
-524.0552
 20
144.6573
 10
-524.3201
 20
144.6536
 10
-524.5732
 20
144.6479
 10
-524.7983
 20
144.6427
 10
-524.979
 20
144.6404
 10
-525.0887
 20
144.6151
 10
-525.1974
 20
144.6033
 10
-525.3053
 20
144.6004
 10
-525.4129
 20
144.602
 10
-525.5204
 20
144.6035
 10
-525.6283
 20
144.6004
 10
-525.737
 20
144.5882
 10
-525.8467
 20
144.5624
 10
-525.9335
 20
144.5637
 10
-525.977
 20
144.5667
 10
-526.0173
 20
144.5775
 10
-526.0947
 20
144.6022
 10
-616.1214
 20
144.6022
 10
-616.291
 20
144.5817
 10
-616.4949
 20
144.5644
 10
-616.7198
 20
144.5496
 10
-616.9522
 20
144.5363
 10
-617.179
 20
144.5239
 10
-617.3867
 20
144.5117
 10
-617.5622
 20
144.4987
 10
-617.692
 20
144.4843
 10
-617.9055
 20
144.4238
 10
-618.19
 20
144.3498
 10
-618.4736
 20
144.2845
 10
-618.684
 20
144.2502
 10
-618.7817
 20
144.1963
 10
-618.8351
 20
144.1741
 10
-618.8956
 20
144.1704
 10
-619.0147
 20
144.1721
 10
-619.1123
 20
144.118
 10
-619.1657
 20
144.0958
 10
-619.2262
 20
144.0923
 10
-619.3453
 20
144.0941
 10
-619.4349
 20
144.0426
 10
-619.4777
 20
144.0214
 10
-619.5266
 20
144.017
 10
-619.6349
 20
144.016
 10
-619.9725
 20
143.956
 10
-620.3286
 20
143.8777
 10
-620.5059
 20
143.8317
 10
-620.6787
 20
143.781
 10
-620.844
 20
143.7257
 10
-620.9986
 20
143.6657
 10
-621.1442
 20
143.6003
 10
-621.2637
 20
143.5388
 10
-621.364
 20
143.4787
 10
-621.4523
 20
143.4177
 10
-621.6208
 20
143.2839
 10
-621.8253
 20
143.1188
 10
-622.4866
 20
142.5337
 10
-622.6356
 20
142.4281
 10
-622.8005
 20
142.3256
 10
-622.9742
 20
142.2237
 10
-623.1496
 20
142.12
 10
-623.3196
 20
142.0118
 10
-623.4772
 20
141.8968
 10
-623.6152
 20
141.7723
 10
-623.7265
 20
141.6359
 10
-623.8177
 20
141.4419
 10
-623.9236
 20
141.2474
 10
-624.0392
 20
141.0525
 10
-624.1598
 20
140.8573
 10
-624.2805
 20
140.6619
 10
-624.3964
 20
140.4663
 10
-624.5028
 20
140.2706
 10
-624.5948
 20
140.075
 10
-624.6786
 20
139.9808
 10
-624.7535
 20
139.8817
 10
-624.8222
 20
139.7788
 10
-624.8877
 20
139.6735
 10
-624.9528
 20
139.5672
 10
-625.0202
 20
139.4611
 10
-625.0928
 20
139.3567
 10
-625.1735
 20
139.2552
 10
-625.1928
 20
139.1787
 10
-625.2015
 20
139.1525
 10
-625.2273
 20
139.129
 10
-625.2978
 20
139.0604
 10
-625.3522
 20
138.9598
 10
-625.4009
 20
138.8441
 10
-625.4442
 20
138.7179
 10
-625.4822
 20
138.5855
 10
-625.5436
 20
138.3206
 10
-625.5868
 20
138.0851
 10
-625.6284
 20
137.5769
 10
-625.7111
 20
137.2647
 10
-625.7938
 20
136.1339
 10
-625.8241
 20
136.0141
 10
-625.8421
 20
135.8758
 10
-625.8504
 20
135.7244
 10
-625.8515
 20
135.5653
 10
-625.8424
 20
135.2463
 10
-625.8348
 20
134.9626
 10
-625.8856
 20
134.4825
 10
-625.9133
 20
133.516
 10
-625.923
 20
132.2146
 10
-625.9196
 20
130.7297
 10
-625.9082
 20
129.2131
 10
-625.8939
 20
127.8161
 10
-625.8816
 20
126.6903
 10
-625.8764
 20
125.9873
 10
-625.8764
 20
-8.924
 10
-625.8764
 20
-152.8493
 10
-625.8452
 20
-152.9832
 10
-625.8267
 20
-153.1545
 10
-625.8183
 20
-153.3519
 10
-625.8172
 20
-153.5639
 10
-625.8269
 20
-153.9866
 10
-625.8348
 20
-154.3316
 10
-625.8012
 20
-154.6321
 10
-625.7792
 20
-154.9829
 10
-625.7644
 20
-155.2911
 10
-625.7521
 20
-155.4636
 10
-625.7143
 20
-155.7087
 10
-625.6759
 20
-155.9784
 10
-625.6346
 20
-156.2631
 10
-625.5878
 20
-156.553
 10
-625.5332
 20
-156.8385
 10
-625.4683
 20
-157.1098
 10
-625.3906
 20
-157.3571
 10
-625.2978
 20
-157.5709
 10
-625.0498
 20
-158.0004
 10
-624.9269
 20
-158.1447
 10
-624.8268
 20
-158.2881
 10
-624.7244
 20
-158.434
 10
-624.5948
 20
-158.5855
 10
-624.54
 20
-158.7618
 10
-624.4565
 20
-158.9469
 10
-624.3508
 20
-159.1371
 10
-624.2298
 20
-159.3285
 10
-623.9686
 20
-159.6995
 10
-623.7265
 20
-160.029
 10
-623.5478
 20
-160.2302
 10
-623.3546
 20
-160.4351
 10
-623.151
 20
-160.6321
 10
-622.9415
 20
-160.8095
 10
-622.7448
 20
-160.9419
 10
-622.5495
 20
-161.0834
 10
-622.3542
 20
-161.2293
 10
-622.1575
 20
-161.375
 10
-621.958
 20
-161.5159
 10
-621.7544
 20
-161.6473
 10
-621.5453
 20
-161.7647
 10
-621.3293
 20
-161.8634
 10
-621.0598
 20
-162.0512
 10
-620.7975
 20
-162.2517
 10
-620.6625
 20
-162.3464
 10
-620.5213
 20
-162.4319
 10
-620.3713
 20
-162.5042
 10
-620.21
 20
-162.5591
 10
-620.066
 20
-162.579
 10
-619.8726
 20
-162.6139
 10
-619.6463
 20
-162.6598
 10
-619.4037
 20
-162.7127
 10
-619.1613
 20
-162.7689
 10
-618.9357
 20
-162.8243
 10
-618.7435
 20
-162.8751
 10
-618.6013
 20
-162.9173
 10
-617.8163
 20
-162.9959
 10
-617.4581
 20
-163.0344
 10
-617.0815
 20
-163.0585
 10
-616.7208
 20
-163.0804
 10
-616.4104
 20
-163.1122
 10
-615.6349
 20
-163.1739
 10
-614.4175
 20
-163.2101
 10
-612.8935
 20
-163.2262
 10
-611.1984
 20
-163.2274
 10
-609.4676
 20
-163.2191
 10
-607.8366
 20
-163.2066
 10
-606.4407
 20
-163.1952
 10
-605.4154
 20
-163.1902
 10
-447.1463
 20
-163.1902
 10
-278.3359
 20
-163.1902
 10
-278.055
 20
-163.163
 10
-277.7606
 20
-163.1516
 10
-277.4645
 20
-163.14
 10
-277.1786
 20
-163.1122
 10
-275.7733
 20
-162.9561
 10
-275.4426
 20
-162.878
 10
-274.8229
 20
-162.8398
 10
-274.7024
 20
-162.8007
 10
-274.5814
 20
-162.7657
 10
-274.457
 20
-162.7383
 10
-274.3263
 20
-162.7219
 10
-274.2459
 20
-162.6747
 10
-274.2111
 20
-162.6551
 10
-274.1719
 20
-162.6495
 10
-274.0784
 20
-162.6439
 10
-273.9979
 20
-162.5966
 10
-273.9631
 20
-162.5771
 10
-273.9239
 20
-162.5714
 10
-273.8304
 20
-162.5658
 10
-273.6993
 20
-162.5218
 10
-273.5581
 20
-162.4642
 10
-273.4113
 20
-162.3954
 10
-273.2636
 20
-162.3184
 10
-273.1196
 20
-162.2357
 10
-272.9839
 20
-162.1501
 10
-272.861
 20
-162.0642
 10
-272.7557
 20
-161.9808
 10
-272.618
 20
-161.8598
 10
-272.4648
 20
-161.7287
 10
-272.3843
 20
-161.6653
 10
-272.3022
 20
-161.6066
 10
-272.2192
 20
-161.5548
 10
-272.136
 20
-161.5125
 10
-271.8464
 20
-161.4344
 10
-271.2267
 20
-161.0835
 10
-271.0706
 20
-160.9473
 10
-270.9471
 20
-160.8124
 10
-270.8481
 20
-160.6795
 10
-270.7657
 20
-160.5492
 10
-270.6918
 20
-160.4224
 10
-270.6184
 20
-160.2996
 10
-270.5375
 20
-160.1815
 10
-270.4411
 20
-160.0689
 10
-270.344
 20
-159.9799
 10
-270.24
 20
-159.9015
 10
-270.1317
 20
-159.83
 10
-270.0215
 20
-159.7616
 10
-269.9122
 20
-159.6926
 10
-269.8062
 20
-159.6192
 10
-269.7061
 20
-159.5378
 10
-269.6145
 20
-159.4445
 10
-269.5323
 20
-159.3163
 10
-269.45
 20
-159.1702
 10
-269.3706
 20
-159.011
 10
-269.2969
 20
-158.8439
 10
-269.2319
 20
-158.6737
 10
-269.1786
 20
-158.5055
 10
-269.1398
 20
-158.3444
 10
-269.1185
 20
-158.1952
 10
-269.0523
 20
-158.0881
 10
-269.0039
 20
-157.994
 10
-268.9715
 20
-157.8932
 10
-268.9531
 20
-157.7662
 10
-268.8294
 20
-157.4148
 10
-268.774
 20
-157.3352
 10
-268.7292
 20
-157.255
 10
-268.6918
 20
-157.174
 10
-268.6583
 20
-157.0921
 10
-268.59
 20
-156.9247
 10
-268.4982
 20
-156.7516
 10
-268.4982
 20
-156.5955
 10
-268.4567
 20
-156.5226
 10
-268.4276
 20
-156.4616
 10
-268.4078
 20
-156.4087
 10
-268.3939
 20
-156.3599
 10
-268.3712
 20
-156.2587
 10
-268.3334
 20
-156.1267
 10
-268.2918
 20
-155.6584
 10
-268.2092
 20
-155.3855
 10
-268.2092
 20
-154.9173
 10
-268.1581
 20
-154.4314
 10
-268.1302
 20
-153.4523
 10
-268.1205
 20
-152.1337
 10
-268.1239
 20
-150.6291
 10
-268.1354
 20
-149.0922
 10
-268.1498
 20
-147.6767
 10
-268.1622
 20
-146.5362
 10
-268.1675
 20
-145.8245
 10
-268.1675
 20
-9.3136
 10
-268.1675
 20
136.29
 10
-268.2127
 20
136.62
 10
-268.2465
 20
136.9521
 10
-268.2823
 20
137.2849
 10
-268.3334
 20
137.6168
 10
-268.3689
 20
137.7104
 10
-268.3938
 20
137.7836
 10
-268.4092
 20
137.8611
 10
-268.4161
 20
137.9677
 10
-268.4705
 20
138.0521
 10
-268.493
 20
138.0924
 10
-268.4976
 20
138.1386
 10
-268.4982
 20
138.2406
 10
-268.557
 20
138.324
 10
-268.5869
 20
138.3849
 10
-268.6035
 20
138.4517
 10
-268.6225
 20
138.5528
 10
-268.6969
 20
138.6627
 10
-268.7597
 20
138.7817
 10
-268.8144
 20
138.907
 10
-268.864
 20
139.0357
 10
-268.9119
 20
139.165
 10
-268.9613
 20
139.2922
 10
-269.0153
 20
139.4143
 10
-269.0774
 20
139.5286
 10
-269.0959
 20
139.653
 10
-269.1225
 20
139.7588
 10
-269.1472
 20
139.8665
 10
-269.1601
 20
139.9969
 10
-269.3031
 20
140.2456
 10
-269.4233
 20
140.4684
 10
-269.5566
 20
140.6995
 10
-269.7388
 20
140.9728
 10
-269.8564
 20
141.0771
 10
-269.9982
 20
141.189
 10
-270.1445
 20
141.3099
 10
-270.2758
 20
141.4411
 10
-270.4984
 20
141.7083
 10
-270.714
 20
141.9652
 10
-270.8272
 20
142.0904
 10
-270.9483
 20
142.2138
 10
-271.0804
 20
142.3354
 10
-271.2267
 20
142.4557
 10
-271.4235
 20
142.5878
 10
-271.6362
 20
142.7071
 10
-271.8509
 20
142.8274
 10
-272.0534
 20
142.9627
 10
-272.3066
 20
143.1761
 10
-272.4826
 20
143.3407
 10
-272.573
 20
143.4158
 10
-272.6816
 20
143.4921
 10
-272.821
 20
143.5739
 10
-273.0037
 20
143.6657
 10
-273.2517
 20
143.7819
 10
-273.4453
 20
143.8096
 10
-273.7346
 20
143.8671
 10
-274.0884
 20
143.9461
 10
-274.4755
 20
144.0381
 10
-274.8646
 20
144.1348
 10
-275.2245
 20
144.2276
 10
-275.5241
 20
144.3082
 10
-275.7322
 20
144.3681
 10
-277.0133
 20
144.5242
 10
-277.8411
 20
144.5901
 10
-279.131
 20
144.6283
 10
-280.741
 20
144.6446
 10
-282.5294
 20
144.6449
 10
-284.3542
 20
144.6349
 10
-286.0736
 20
144.6206
 10
-287.5456
 20
144.6078
 10
-288.6285
 20
144.6022
 10
-295.4259
 20
144.6004
 10
-305.9409
 20
144.5961
 10
-318.7526
 20
144.5908
 10
-332.4404
 20
144.586
 10
-345.5834
 20
144.5832
 10
-356.7608
 20
144.584
 10
-364.5519
 20
144.5898
 10
-367.5359
 20
144.6022
 10
-367.6979
 20
144.6316
 10
-367.9314
 20
144.6489
 10
-368.2145
 20
144.6567
 10
-368.5251
 20
144.6575
 10
-368.8412
 20
144.6538
 10
-369.1408
 20
144.648
 10
-369.402
 20
144.6427
 10
-369.6026
 20
144.6404
 10
-369.8758
 20
144.6075
 10
-370.3797
 20
144.5885
 10
-371.0425
 20
144.5805
 10
-371.7925
 20
144.5805
 10
-372.5581
 20
144.5856
 10
-373.2677
 20
144.5929
 10
-373.8495
 20
144.5994
 10
-374.2318
 20
144.6022
 10
-374.4335
 20
144.6342
 10
-374.7552
 20
144.6527
 10
-375.1597
 20
144.6607
 10
-375.61
 20
144.6609
 10
-376.0688
 20
144.6562
 10
-376.4992
 20
144.6493
 10
-376.8638
 20
144.6431
 10
-377.1256
 20
144.6404
 10
-377.3687
 20
144.6073
 10
-377.7906
 20
144.5882
 10
-378.3358
 20
144.5802
 10
-378.9489
 20
144.5802
 10
-379.5742
 20
144.5854
 10
-380.1564
 20
144.5928
 10
-380.64
 20
144.5994
 10
-380.9693
 20
144.6022
 10
-381.1762
 20
144.6264
 10
-381.4207
 20
144.6445
 10
-381.6915
 20
144.656
 10
-381.977
 20
144.6606
 10
-382.2658
 20
144.6578
 10
-382.5462
 20
144.6475
 10
-382.807
 20
144.629
 10
-383.0365
 20
144.6022
 10
-383.8215
 20
144.5242
 10
-383.9202
 20
144.25
 10
-383.9811
 20
144.0693
 10
-384.0127
 20
143.9593
 10
-384.0235
 20
143.897
 10
-384.022
 20
143.8595
 10
-384.0167
 20
143.8237
 10
-384.016
 20
143.7668
 10
-384.0284
 20
143.6657
 10
-384.0589
 20
143.5484
 10
-384.077
 20
143.418
 10
-384.0853
 20
143.2782
 10
-384.0865
 20
143.133
 10
-384.0771
 20
142.841
 10
-384.0695
 20
142.5725
 10
-384.0909
 20
142.4051
 10
-384.1056
 20
142.2163
 10
-384.116
 20
142.0164
 10
-384.1247
 20
141.8156
 10
-384.1343
 20
141.624
 10
-384.1473
 20
141.4518
 10
-384.1663
 20
141.3094
 10
-384.1938
 20
141.2069
  0
LWPOLYLINE
  5
72
330
1F
100
AcDbEntity
  8
Layer 1
 62
     7
370
    35
100
AcDbPolyline
 90
       10
 70
     0
 43
0.0
 10
-510.5942
 20
138.5921
 10
-510.5887
 20
138.6884
 10
-510.5845
 20
138.7206
 10
-510.5542
 20
138.747
 10
-510.4705
 20
138.8262
 10
-510.4688
 20
138.9029
 10
-510.4624
 20
138.9308
 10
-510.4496
 20
138.9455
 10
-510.4288
 20
138.9823
 10
-509.6848
 20
139.0604
  0
LWPOLYLINE
  5
73
330
1F
100
AcDbEntity
  8
Layer 1
 62
     7
370
    35
100
AcDbPolyline
 90
        9
 70
     0
 43
0.0
 10
-367.6186
 20
138.0457
 10
-367.6186
 20
138.2799
 10
-367.6386
 20
138.3479
 10
-367.6518
 20
138.4141
 10
-367.6595
 20
138.4794
 10
-367.663
 20
138.5448
 10
-367.6621
 20
138.6797
 10
-367.6596
 20
138.8262
 10
-367.7013
 20
138.9823
  0
LWPOLYLINE
  5
74
330
1F
100
AcDbEntity
  8
Layer 1
 62
     7
370
    35
100
AcDbPolyline
 90
        7
 70
     0
 43
0.0
 10
-384.1521
 20
135.0019
 10
-384.1247
 20
135.0874
 10
-384.1081
 20
135.1804
 10
-384.0999
 20
135.2788
 10
-384.0982
 20
135.3807
 10
-384.105
 20
135.5866
 10
-384.1111
 20
135.7818
  0
LWPOLYLINE
  5
75
330
1F
100
AcDbEntity
  8
Layer 1
 62
     7
370
    35
100
AcDbPolyline
 90
        2
 70
     0
 43
0.0
 10
-525.8467
 20
134.6504
 10
-525.8467
 20
135.7437
  0
LWPOLYLINE
  5
76
330
1F
100
AcDbEntity
  8
Layer 1
 62
     7
370
    35
100
AcDbPolyline
 90
       16
 70
     0
 43
0.0
 10
-510.7595
 20
131.5286
 10
-510.7522
 20
131.5913
 10
-510.7409
 20
131.6451
 10
-510.7258
 20
131.6925
 10
-510.7069
 20
131.7359
 10
-510.6579
 20
131.8206
 10
-510.5942
 20
131.9188
 10
-510.5817
 20
132.0211
 10
-510.5613
 20
132.0863
 10
-510.5264
 20
132.1457
 10
-510.4705
 20
132.231
 10
-510.4572
 20
132.3369
 10
-510.4349
 20
132.4176
 10
-510.3993
 20
132.4927
 10
-510.3462
 20
132.5819
 10
-509.6438
 20
132.6987
  0
LWPOLYLINE
  5
77
330
1F
100
AcDbEntity
  8
Layer 1
 62
     7
370
    35
100
AcDbPolyline
 90
        6
 70
     0
 43
0.0
 10
-367.6596
 20
131.9188
 10
-367.6596
 20
132.1917
 10
-367.6854
 20
132.2941
 10
-367.6887
 20
132.3592
 10
-367.6878
 20
132.4282
 10
-367.7013
 20
132.5426
  0
LWPOLYLINE
  5
78
330
1F
100
AcDbEntity
  8
Layer 1
 62
     7
370
    35
100
AcDbPolyline
 90
        2
 70
     0
 43
0.0
 10
-525.8467
 20
128.5235
 10
-525.8467
 20
129.3045
  0
LWPOLYLINE
  5
79
330
1F
100
AcDbEntity
  8
Layer 1
 62
     7
370
    35
100
AcDbPolyline
 90
        6
 70
     0
 43
0.0
 10
-384.1111
 20
128.8744
 10
-384.1111
 20
129.0698
 10
-384.0763
 20
129.1599
 10
-384.0683
 20
129.1845
 10
-384.0817
 20
129.2004
 10
-384.1111
 20
129.2647
  0
LWPOLYLINE
  5
7A
330
1F
100
AcDbEntity
  8
Layer 1
 62
     7
370
    35
100
AcDbPolyline
 90
       19
 70
     0
 43
0.0
 10
-509.3132
 20
125.1287
 10
-509.3947
 20
125.1412
 10
-509.4587
 20
125.161
 10
-509.5103
 20
125.1868
 10
-509.5549
 20
125.2174
 10
-509.6438
 20
125.288
 10
-509.7675
 20
125.3629
 10
-509.862
 20
125.3898
 10
-509.9233
 20
125.4177
 10
-509.979
 20
125.4573
 10
-510.0571
 20
125.519
 10
-510.1613
 20
125.5301
 10
-510.2122
 20
125.5451
 10
-510.2578
 20
125.5762
 10
-510.3462
 20
125.6352
 10
-510.3488
 20
125.8452
 10
-510.3601
 20
125.9087
 10
-510.3851
 20
125.9526
 10
-510.4288
 20
126.1035
  0
LWPOLYLINE
  5
7B
330
1F
100
AcDbEntity
  8
Layer 1
 62
     7
370
    35
100
AcDbPolyline
 90
        2
 70
     0
 43
0.0
 10
-367.7013
 20
125.6751
 10
-367.7013
 20
126.0254
  0
LWPOLYLINE
  5
7C
330
1F
100
AcDbEntity
  8
Layer 1
 62
     7
370
    35
100
AcDbPolyline
 90
        2
 70
     0
 43
0.0
 10
-525.8467
 20
122.396
 10
-525.8467
 20
123.3325
  0
LWPOLYLINE
  5
7D
330
1F
100
AcDbEntity
  8
Layer 1
 62
     7
370
    35
100
AcDbPolyline
 90
        9
 70
     0
 43
0.0
 10
-384.1111
 20
122.3578
 10
-384.1098
 20
122.4394
 10
-384.1068
 20
122.4803
 10
-384.0956
 20
122.5185
 10
-384.0695
 20
122.5919
 10
-384.0971
 20
122.6725
 10
-384.109
 20
122.7218
 10
-384.1116
 20
122.7742
 10
-384.1111
 20
122.8643
  0
LWPOLYLINE
  5
7E
330
1F
100
AcDbEntity
  8
Layer 1
 62
     7
370
    35
100
AcDbPolyline
 90
       11
 70
     0
 43
0.0
 10
-367.7013
 20
119.118
 10
-367.7018
 20
119.1981
 10
-367.6992
 20
119.2303
 10
-367.6872
 20
119.2554
 10
-367.6596
 20
119.314
 10
-367.6767
 20
119.4345
 10
-367.6754
 20
119.5806
 10
-367.668
 20
119.6562
 10
-367.656
 20
119.7298
 10
-367.6395
 20
119.7986
 10
-367.6186
 20
119.8598
  0
LWPOLYLINE
  5
7F
330
1F
100
AcDbEntity
  8
Layer 1
 62
     7
370
    35
100
AcDbPolyline
 90
        4
 70
     0
 43
0.0
 10
-509.7265
 20
119.0018
 10
-509.9328
 20
119.04
 10
-510.1808
 20
119.04
 10
-510.3878
 20
119.0798
  0
LWPOLYLINE
  5
80
330
1F
100
AcDbEntity
  8
Layer 1
 62
     7
370
    35
100
AcDbPolyline
 90
        2
 70
     0
 43
0.0
 10
-525.8467
 20
115.8788
 10
-525.8467
 20
117.0501
  0
LWPOLYLINE
  5
81
330
1F
100
AcDbEntity
  8
Layer 1
 62
     7
370
    35
100
AcDbPolyline
 90
        6
 70
     0
 43
0.0
 10
-384.1111
 20
115.8788
 10
-384.1111
 20
116.465
 10
-384.1368
 20
116.5377
 10
-384.1479
 20
116.5757
 10
-384.1508
 20
116.6167
 10
-384.1521
 20
116.6986
  0
LWPOLYLINE
  5
82
330
1F
100
AcDbEntity
  8
Layer 1
 62
     7
370
    35
100
AcDbPolyline
 90
       13
 70
     0
 43
0.0
 10
-519.5642
 20
115.5666
 10
-519.6671
 20
115.5887
 10
-519.6933
 20
115.5986
 10
-519.717
 20
115.5925
 10
-519.8122
 20
115.5666
 10
-519.8841
 20
115.5956
 10
-519.8999
 20
115.6068
 10
-519.9234
 20
115.598
 10
-520.0185
 20
115.5666
 10
-520.1197
 20
115.5984
 10
-520.1971
 20
115.6093
 10
-520.2783
 20
115.6088
 10
-520.3908
 20
115.6065
  0
LWPOLYLINE
  5
83
330
1F
100
AcDbEntity
  8
Layer 1
 62
     7
370
    35
100
AcDbPolyline
 90
       11
 70
     0
 43
0.0
 10
-512.7024
 20
115.6065
 10
-512.7642
 20
115.5804
 10
-512.7907
 20
115.5689
 10
-512.8248
 20
115.5662
 10
-512.9094
 20
115.5666
 10
-513.0163
 20
115.5925
 10
-513.1305
 20
115.6084
 10
-513.2501
 20
115.6162
 10
-513.3732
 20
115.6181
 10
-513.6215
 20
115.6121
 10
-513.8597
 20
115.6065
  0
LWPOLYLINE
  5
84
330
1F
100
AcDbEntity
  8
Layer 1
 62
     7
370
    35
100
AcDbPolyline
 90
       11
 70
     0
 43
0.0
 10
-377.1667
 20
115.6065
 10
-377.2948
 20
115.609
 10
-377.4026
 20
115.6099
 10
-377.5062
 20
115.5991
 10
-377.6216
 20
115.5666
 10
-377.6839
 20
115.5865
 10
-377.7436
 20
115.5996
 10
-377.802
 20
115.6071
 10
-377.8603
 20
115.6104
 10
-377.9816
 20
115.6092
 10
-378.1176
 20
115.6065
  0
LWPOLYLINE
  5
85
330
1F
100
AcDbEntity
  8
Layer 1
 62
     7
370
    35
100
AcDbPolyline
 90
        2
 70
     0
 43
0.0
 10
-370.5119
 20
115.6065
 10
-371.0079
 20
115.6065
  0
LWPOLYLINE
  5
86
330
1F
100
AcDbEntity
  8
Layer 1
 62
     7
370
    35
100
AcDbPolyline
 90
      480
 70
     0
 43
0.0
 10
-429.9924
 20
90.1229
 10
-430.0839
 20
90.303
 10
-430.1622
 20
90.523
 10
-430.2306
 20
90.7714
 10
-430.292
 20
91.0367
 10
-430.3495
 20
91.3072
 10
-430.4062
 20
91.5714
 10
-430.4652
 20
91.8178
 10
-430.5295
 20
92.0347
 10
-430.7775
 20
93.7124
 10
-430.8601
 20
93.9864
 10
-430.8809
 20
94.2272
 10
-430.9273
 20
94.4612
 10
-430.9926
 20
94.6888
 10
-431.0696
 20
94.9103
 10
-431.1514
 20
95.1261
 10
-431.231
 20
95.3366
 10
-431.3016
 20
95.542
 10
-431.3561
 20
95.7428
 10
-431.4389
 20
95.8853
 10
-431.557
 20
96.0612
 10
-431.6988
 20
96.262
 10
-431.8523
 20
96.4792
 10
-432.0058
 20
96.7042
 10
-432.1475
 20
96.9287
 10
-432.2655
 20
97.1441
 10
-432.3481
 20
97.3419
 10
-432.3727
 20
97.4904
 10
-432.4107
 20
97.6204
 10
-432.4484
 20
97.7479
 10
-432.4724
 20
97.8888
 10
-432.625
 20
98.1703
 10
-432.7611
 20
98.4594
 10
-432.8314
 20
98.6068
 10
-432.9077
 20
98.7559
 10
-432.9935
 20
98.9069
 10
-433.0921
 20
99.0595
 10
-433.2118
 20
99.1873
 10
-433.348
 20
99.316
 10
-433.4967
 20
99.4472
 10
-433.6541
 20
99.5822
 10
-433.8161
 20
99.7227
 10
-433.9789
 20
99.8699
 10
-434.1385
 20
100.0255
 10
-434.291
 20
100.1909
 10
-434.4295
 20
100.3694
 10
-434.5623
 20
100.5559
 10
-434.6311
 20
100.6475
 10
-434.7041
 20
100.7356
 10
-434.783
 20
100.8183
 10
-434.8697
 20
100.8939
 10
-435.2172
 20
101.1513
 10
-435.4771
 20
101.3382
 10
-435.5971
 20
101.434
 10
-435.7226
 20
101.5467
 10
-435.8629
 20
101.688
 10
-436.027
 20
101.8692
 10
-436.1546
 20
102.0284
 10
-436.2795
 20
102.1942
 10
-436.3443
 20
102.2755
 10
-436.4126
 20
102.3535
 10
-436.4856
 20
102.4268
 10
-436.5646
 20
102.4935
 10
-436.8535
 20
102.6632
 10
-437.1894
 20
102.8557
 10
-437.3563
 20
102.9547
 10
-437.5125
 20
103.0524
 10
-437.6506
 20
103.1465
 10
-437.7629
 20
103.2347
 10
-438.3416
 20
103.5469
 10
-438.4388
 20
103.6307
 10
-438.5359
 20
103.7046
 10
-438.6332
 20
103.7721
 10
-438.7308
 20
103.8366
 10
-438.8289
 20
103.9015
 10
-438.9275
 20
103.9703
 10
-439.0269
 20
104.0463
 10
-439.1272
 20
104.1331
 10
-439.331
 20
104.2101
 10
-439.5852
 20
104.3053
 10
-439.8732
 20
104.4103
 10
-440.1782
 20
104.517
 10
-440.4836
 20
104.6171
 10
-440.7727
 20
104.7023
 10
-441.0289
 20
104.7646
 10
-441.2354
 20
104.7956
 10
-441.3299
 20
104.8456
 10
-441.4095
 20
104.8794
 10
-441.4949
 20
104.9008
 10
-441.6071
 20
104.9135
 10
-441.6879
 20
104.9608
 10
-441.7227
 20
104.9803
 10
-441.7617
 20
104.986
 10
-441.8551
 20
104.9916
 10
-441.9206
 20
105.0288
 10
-441.9539
 20
105.046
 10
-441.9895
 20
105.0554
 10
-442.0621
 20
105.0696
 10
-442.1351
 20
105.1278
 10
-442.1477
 20
105.1445
 10
-442.1691
 20
105.1432
 10
-442.2685
 20
105.1477
 10
-442.4772
 20
105.2605
 10
-442.6657
 20
105.3158
 10
-442.9093
 20
105.3831
 10
-443.191
 20
105.4578
 10
-443.494
 20
105.535
 10
-443.8016
 20
105.6098
 10
-444.0968
 20
105.6775
 10
-444.3629
 20
105.7331
 10
-444.5831
 20
105.772
 10
-444.8934
 20
105.7955
 10
-445.3057
 20
105.8068
 10
-445.6666
 20
105.8103
 10
-445.823
 20
105.8108
 10
-446.0015
 20
105.8332
 10
-446.2294
 20
105.8553
 10
-446.4898
 20
105.8755
 10
-446.7656
 20
105.8921
 10
-447.0399
 20
105.9035
 10
-447.2956
 20
105.9078
 10
-447.5157
 20
105.9035
 10
-447.6833
 20
105.8888
 10
-447.8732
 20
105.8656
 10
-448.0567
 20
105.8518
 10
-448.2336
 20
105.8445
 10
-448.4035
 20
105.8412
 10
-448.7208
 20
105.8349
 10
-449.0059
 20
105.8108
 10
-449.1282
 20
105.7787
 10
-449.2517
 20
105.753
 10
-449.3762
 20
105.727
 10
-449.5019
 20
105.694
 10
-449.6672
 20
105.694
 10
-449.9979
 20
105.616
 10
-450.2432
 20
105.5953
 10
-450.5146
 20
105.5464
 10
-450.8023
 20
105.4754
 10
-451.0967
 20
105.3885
 10
-451.388
 20
105.2916
 10
-451.6667
 20
105.1909
 10
-451.923
 20
105.0925
 10
-452.1472
 20
105.0023
 10
-452.3587
 20
104.922
 10
-452.6208
 20
104.8325
 10
-452.9173
 20
104.7385
 10
-453.2315
 20
104.6447
 10
-453.5472
 20
104.556
 10
-453.8478
 20
104.477
 10
-454.1169
 20
104.4125
 10
-454.3381
 20
104.3672
 10
-454.4558
 20
104.2953
 10
-454.5794
 20
104.2348
 10
-454.7064
 20
104.1819
 10
-454.8341
 20
104.1331
 10
-454.981
 20
104.0366
 10
-455.1246
 20
103.9289
 10
-455.2699
 20
103.8125
 10
-455.4219
 20
103.6902
 10
-455.5857
 20
103.5647
 10
-455.7664
 20
103.4387
 10
-455.9689
 20
103.3149
 10
-456.1984
 20
103.1959
 10
-456.4377
 20
103.0955
 10
-456.668
 20
103.0074
 10
-456.7802
 20
102.96
 10
-456.8908
 20
102.9063
 10
-456.9999
 20
102.843
 10
-457.1077
 20
102.767
 10
-457.248
 20
102.6369
 10
-457.3674
 20
102.4902
 10
-457.4763
 20
102.3314
 10
-457.585
 20
102.1651
 10
-457.7038
 20
101.9961
 10
-457.8429
 20
101.8288
 10
-458.0127
 20
101.668
 10
-458.2234
 20
101.5182
 10
-458.4363
 20
101.4026
 10
-458.6088
 20
101.3167
 10
-458.6905
 20
101.2674
 10
-458.7747
 20
101.2046
 10
-458.8658
 20
101.1213
 10
-458.9679
 20
101.0106
 10
-459.0977
 20
100.8192
 10
-459.2394
 20
100.5821
 10
-459.3298
 20
100.4514
 10
-459.4415
 20
100.3154
 10
-459.5805
 20
100.1758
 10
-459.7529
 20
100.0348
 10
-459.956
 20
99.9032
 10
-460.1632
 20
99.7833
 10
-460.2643
 20
99.7207
 10
-460.3616
 20
99.6525
 10
-460.4536
 20
99.5761
 10
-460.5386
 20
99.4885
 10
-460.6129
 20
99.396
 10
-460.6701
 20
99.312
 10
-460.7141
 20
99.2329
 10
-460.7487
 20
99.1551
 10
-460.8049
 20
98.9893
 10
-460.8692
 20
98.786
 10
-460.993
 20
98.5798
 10
-461.1024
 20
98.381
 10
-461.2055
 20
98.1874
 10
-461.3101
 20
97.997
 10
-461.4241
 20
97.8077
 10
-461.5556
 20
97.6175
 10
-461.7123
 20
97.4242
 10
-461.9022
 20
97.2257
 10
-462.0702
 20
96.8832
 10
-462.2197
 20
96.5981
 10
-462.2879
 20
96.4535
 10
-462.3518
 20
96.2951
 10
-462.4115
 20
96.1133
 10
-462.4672
 20
95.8989
 10
-462.5511
 20
95.5838
 10
-462.6608
 20
95.2059
 10
-462.7139
 20
95.0175
 10
-462.7597
 20
94.8424
 10
-462.7938
 20
94.6904
 10
-462.8115
 20
94.571
 10
-462.8616
 20
94.4947
 10
-462.8825
 20
94.4619
 10
-462.8885
 20
94.425
 10
-462.8942
 20
94.3368
 10
-462.9654
 20
94.208
 10
-463.0234
 20
94.0792
 10
-463.0711
 20
93.95
 10
-463.1118
 20
93.8199
 10
-463.1845
 20
93.5558
 10
-463.2665
 20
93.284
 10
-463.3492
 20
92.6198
 10
-463.4318
 20
92.3082
 10
-463.4729
 20
91.5664
 10
-463.495
 20
91.4867
 10
-463.5092
 20
91.4026
 10
-463.5171
 20
91.315
 10
-463.5202
 20
91.2251
 10
-463.5179
 20
91.0427
 10
-463.5145
 20
90.864
 10
-463.5448
 20
90.7504
 10
-463.5628
 20
90.6284
 10
-463.5711
 20
90.5003
 10
-463.5722
 20
90.3684
 10
-463.5631
 20
90.1024
 10
-463.5555
 20
89.8488
 10
-463.536
 20
89.7015
 10
-463.5244
 20
89.5507
 10
-463.518
 20
89.3978
 10
-463.5142
 20
89.2437
 10
-463.5104
 20
89.0897
 10
-463.504
 20
88.9369
 10
-463.4924
 20
88.7864
 10
-463.4729
 20
88.6394
 10
-463.4369
 20
88.3587
 10
-463.413
 20
88.075
 10
-463.3882
 20
87.7906
 10
-463.3492
 20
87.508
 10
-463.2843
 20
87.2803
 10
-463.2287
 20
87.0497
 10
-463.1977
 20
86.9357
 10
-463.1609
 20
86.8239
 10
-463.1158
 20
86.7153
 10
-463.0595
 20
86.6108
 10
-463.0438
 20
86.5133
 10
-463.0153
 20
86.4146
 10
-462.9782
 20
86.3145
 10
-462.9366
 20
86.213
 10
-462.8949
 20
86.1099
 10
-462.8574
 20
86.0052
 10
-462.8281
 20
85.8987
 10
-462.8115
 20
85.7904
 10
-462.7571
 20
85.7061
 10
-462.7345
 20
85.6658
 10
-462.7297
 20
85.6198
 10
-462.7289
 20
85.5181
 10
-462.6052
 20
85.166
 10
-462.6052
 20
84.9718
 10
-462.5317
 20
84.7573
 10
-462.4633
 20
84.5584
 10
-462.3978
 20
84.37
 10
-462.3326
 20
84.1872
 10
-462.2653
 20
84.0048
 10
-462.1935
 20
83.8178
 10
-462.1147
 20
83.6211
 10
-462.0265
 20
83.4097
 10
-461.9544
 20
83.3379
 10
-461.9202
 20
83.3006
 10
-461.8979
 20
83.2594
 10
-461.8612
 20
83.1756
 10
-461.6862
 20
82.9843
 10
-461.5207
 20
82.7787
 10
-461.3704
 20
82.5669
 10
-461.2409
 20
82.3569
 10
-461.1236
 20
82.1231
 10
-461.0194
 20
81.9004
 10
-460.9193
 20
81.6874
 10
-460.8144
 20
81.4826
 10
-460.6957
 20
81.2847
 10
-460.554
 20
81.0921
 10
-460.3806
 20
80.9035
 10
-460.1663
 20
80.7174
 10
-459.9206
 20
80.5252
 10
-459.769
 20
80.4032
 10
-459.6834
 20
80.3271
 10
-459.6356
 20
80.2725
 10
-459.5972
 20
80.2149
 10
-459.5401
 20
80.13
 10
-459.4361
 20
79.9934
 10
-459.257
 20
79.7808
 10
-459.1185
 20
79.6327
 10
-458.982
 20
79.5051
 10
-458.8463
 20
79.3929
 10
-458.7103
 20
79.2909
 10
-458.433
 20
79.0971
 10
-458.1413
 20
78.883
 10
-458.0444
 20
78.7933
 10
-457.9409
 20
78.6767
 10
-457.8311
 20
78.5405
 10
-457.7151
 20
78.3924
 10
-457.5929
 20
78.2397
 10
-457.4646
 20
78.09
 10
-457.3304
 20
77.9509
 10
-457.1903
 20
77.8297
 10
-456.4047
 20
77.3614
 10
-456.1719
 20
77.1584
 10
-455.9516
 20
76.9449
 10
-455.8389
 20
76.8416
 10
-455.7204
 20
76.7445
 10
-455.5932
 20
76.6566
 10
-455.4544
 20
76.5809
 10
-455.1907
 20
76.4753
 10
-454.9242
 20
76.3847
 10
-454.6556
 20
76.3037
 10
-454.3855
 20
76.2268
 10
-454.1148
 20
76.1484
 10
-453.844
 20
76.0631
 10
-453.5738
 20
75.9655
 10
-453.3051
 20
75.8499
 10
-453.0169
 20
75.7063
 10
-452.7575
 20
75.5665
 10
-452.5153
 20
75.4329
 10
-452.2786
 20
75.3078
 10
-452.0358
 20
75.1938
 10
-451.7754
 20
75.0931
 10
-451.4857
 20
75.0081
 10
-451.1552
 20
74.9414
 10
-450.2875
 20
74.7853
 10
-450.1098
 20
74.7694
 10
-449.9365
 20
74.7662
 10
-449.763
 20
74.763
 10
-449.5846
 20
74.7471
 10
-449.2539
 20
74.6691
 10
-448.3036
 20
74.591
 10
-448.1993
 20
74.5623
 10
-448.1235
 20
74.5511
 10
-448.0446
 20
74.5498
 10
-447.9313
 20
74.5511
 10
-447.8424
 20
74.5295
 10
-447.7482
 20
74.5158
 10
-447.65
 20
74.5085
 10
-447.5493
 20
74.506
 10
-447.3451
 20
74.5092
 10
-447.1463
 20
74.513
 10
-447.0687
 20
74.4883
 10
-447.0283
 20
74.4775
 10
-446.9849
 20
74.4744
 10
-446.8983
 20
74.4731
 10
-444.9137
 20
74.6292
 10
-444.5831
 20
74.7072
 10
-443.2604
 20
74.8633
 10
-442.9047
 20
74.9621
 10
-442.5693
 20
75.0419
 10
-442.2491
 20
75.1162
 10
-441.939
 20
75.1984
 10
-441.6339
 20
75.3022
 10
-441.3287
 20
75.441
 10
-441.0184
 20
75.6284
 10
-440.6978
 20
75.8779
 10
-439.2509
 20
76.3333
 10
-438.9271
 20
76.4399
 10
-438.6386
 20
76.5474
 10
-438.3567
 20
76.6683
 10
-438.0526
 20
76.8151
 10
-437.8966
 20
76.9719
 10
-437.7281
 20
77.1667
 10
-437.6422
 20
77.2664
 10
-437.5566
 20
77.3613
 10
-437.4725
 20
77.4466
 10
-437.3912
 20
77.5175
 10
-437.2367
 20
77.6249
 10
-437.0755
 20
77.7173
 10
-436.9108
 20
77.8008
 10
-436.7461
 20
77.8816
 10
-436.5844
 20
77.9656
 10
-436.4292
 20
78.059
 10
-436.2838
 20
78.1677
 10
-436.1513
 20
78.2979
 10
-435.9443
 20
78.5326
 10
-435.8149
 20
78.7406
 10
-435.6821
 20
78.9564
 10
-435.6047
 20
79.0625
 10
-435.515
 20
79.165
 10
-435.409
 20
79.2621
 10
-435.283
 20
79.3519
 10
-435.093
 20
79.4545
 10
-434.8844
 20
79.5612
 10
-434.7766
 20
79.6248
 10
-434.6685
 20
79.6998
 10
-434.5612
 20
79.7898
 10
-434.4563
 20
79.8982
 10
-434.3548
 20
80.0272
 10
-434.2638
 20
80.1626
 10
-434.1786
 20
80.3015
 10
-434.0943
 20
80.4413
 10
-434.0061
 20
80.579
 10
-433.9094
 20
80.7118
 10
-433.7991
 20
80.8369
 10
-433.6707
 20
80.9515
 10
-433.4905
 20
81.0815
 10
-433.3055
 20
81.2081
 10
-433.2149
 20
81.2737
 10
-433.1275
 20
81.3429
 10
-433.0449
 20
81.4172
 10
-432.9684
 20
81.4979
 10
-432.8356
 20
81.7195
 10
-432.7066
 20
81.9863
 10
-432.5815
 20
82.2852
 10
-432.4604
 20
82.603
 10
-432.3433
 20
82.9266
 10
-432.2304
 20
83.2427
 10
-432.1217
 20
83.5382
 10
-432.0174
 20
83.8
 10
-431.8521
 20
83.9566
 10
-431.8086
 20
84.0508
 10
-431.7759
 20
84.1034
 10
-431.7297
 20
84.151
 10
-431.6457
 20
84.23
 10
-431.5888
 20
84.3395
 10
-431.5239
 20
84.4341
 10
-431.4474
 20
84.5241
 10
-431.3561
 20
84.6197
 10
-431.2975
 20
84.7518
 10
-431.2214
 20
84.979
 10
-431.1344
 20
85.2726
 10
-431.0436
 20
85.6036
 10
-430.9556
 20
85.9434
 10
-430.8774
 20
86.2631
 10
-430.8158
 20
86.5339
 10
-430.7775
 20
86.727
 10
-430.7364
 20
87.2351
 10
-430.6538
 20
87.508
 10
-430.5711
 20
88.2104
 10
-430.525
 20
88.4479
 10
-430.4676
 20
88.6882
 10
-430.4007
 20
88.9299
 10
-430.3263
 20
89.1721
 10
-430.2464
 20
89.4136
 10
-430.1628
 20
89.6534
 10
-430.0775
 20
89.8901
 10
-429.9924
 20
90.1229
 10
-429.7855
 20
90.1622
 10
-429.2485
 20
90.2009
 10
-428.6521
 20
90.2542
 10
-427.4344
 20
90.2829
 10
-425.7891
 20
90.2923
 10
-423.9097
 20
90.2879
 10
-421.9898
 20
90.2751
 10
-420.2229
 20
90.2593
 10
-418.8027
 20
90.2459
 10
-417.9228
 20
90.2402
 10
-383.8631
 20
90.2402
 10
-383.7742
 20
90.2619
 10
-383.6929
 20
90.2726
 10
-383.6171
 20
90.2761
 10
-383.5445
 20
90.2762
 10
-383.4729
 20
90.2766
 10
-383.4003
 20
90.2812
 10
-383.3243
 20
90.2936
 10
-383.2428
 20
90.3177
  0
LWPOLYLINE
  5
87
330
1F
100
AcDbEntity
  8
Layer 1
 62
     7
370
    35
100
AcDbPolyline
 90
       14
 70
     0
 43
0.0
 10
-625.8348
 20
192.0568
 10
-625.8348
 20
200.4471
 10
-625.7938
 20
200.5901
 10
-625.7635
 20
200.7361
 10
-625.7368
 20
200.8839
 10
-625.7069
 20
201.0322
 10
-625.6794
 20
201.1258
 10
-625.6444
 20
201.2076
 10
-625.6046
 20
201.2814
 10
-625.5624
 20
201.3507
 10
-625.5205
 20
201.4192
 10
-625.4813
 20
201.4906
 10
-625.4475
 20
201.5685
 10
-625.4215
 20
201.6566
  0
LWPOLYLINE
  5
88
330
1F
100
AcDbEntity
  8
Layer 1
 62
     7
370
    35
100
AcDbPolyline
 90
       37
 70
     0
 43
0.0
 10
-490.2991
 20
201.8127
 10
-490.5471
 20
201.7346
 10
-607.4
 20
201.7346
 10
-608.613
 20
201.7391
 10
-610.7045
 20
201.7496
 10
-613.3601
 20
201.7619
 10
-616.2655
 20
201.7715
 10
-619.1064
 20
201.774
 10
-621.5684
 20
201.7652
 10
-623.3373
 20
201.7406
 10
-624.0988
 20
201.6959
 10
-624.2342
 20
201.7128
 10
-624.4018
 20
201.712
 10
-624.4888
 20
201.7049
 10
-624.573
 20
201.6934
 10
-624.651
 20
201.6773
 10
-624.7191
 20
201.6566
 10
-624.791
 20
201.6685
 10
-624.8717
 20
201.6741
 10
-624.9589
 20
201.6748
 10
-625.0507
 20
201.6722
 10
-625.2395
 20
201.6624
 10
-625.4215
 20
201.6566
 10
-625.5252
 20
201.7976
 10
-625.636
 20
201.9532
 10
-625.6873
 20
202.0373
 10
-625.7325
 20
202.1262
 10
-625.7689
 20
202.2202
 10
-625.7938
 20
202.3197
 10
-625.8266
 20
202.9325
 10
-625.8459
 20
204.1808
 10
-625.8543
 20
205.8664
 10
-625.8549
 20
207.7909
 10
-625.8504
 20
209.7559
 10
-625.8436
 20
211.5632
 10
-625.8375
 20
213.0143
 10
-625.8348
 20
213.911
  0
LWPOLYLINE
  5
89
330
1F
100
AcDbEntity
  8
Layer 1
 62
     7
370
    35
100
AcDbPolyline
 90
      357
 70
     0
 43
0.0
 10
-476.9068
 20
-8.0655
 10
-476.7753
 20
-8.3933
 10
-476.6979
 20
-8.626
 10
-476.662
 20
-8.7881
 10
-476.6548
 20
-8.904
 10
-476.6636
 20
-8.9979
 10
-476.6756
 20
-9.0942
 10
-476.6783
 20
-9.2174
 10
-476.6588
 20
-9.3917
 10
-476.6336
 20
-9.5785
 10
-476.618
 20
-9.7656
 10
-476.6095
 20
-9.95
 10
-476.6052
 20
-10.1284
 10
-476.5985
 20
-10.4545
 10
-476.5761
 20
-10.7185
 10
-476.4108
 20
-11.7337
 10
-476.3281
 20
-11.9678
 10
-476.3207
 20
-12.0683
 10
-476.3076
 20
-12.1428
 10
-476.2945
 20
-12.2176
 10
-476.2871
 20
-12.3187
 10
-475.7495
 20
-15.1671
 10
-475.6846
 20
-15.5197
 10
-475.6087
 20
-15.8946
 10
-475.5662
 20
-16.0826
 10
-475.5205
 20
-16.2669
 10
-475.4714
 20
-16.4443
 10
-475.4188
 20
-16.6118
 10
-475.3168
 20
-16.786
 10
-475.2264
 20
-16.963
 10
-475.1423
 20
-17.1416
 10
-475.0592
 20
-17.3205
 10
-474.972
 20
-17.4986
 10
-474.8755
 20
-17.6747
 10
-474.7643
 20
-17.8476
 10
-474.6332
 20
-18.0161
 10
-474.5983
 20
-18.1329
 10
-474.5503
 20
-18.2396
 10
-474.4921
 20
-18.3421
 10
-474.4268
 20
-18.4462
 10
-474.3991
 20
-18.6324
 10
-474.3503
 20
-18.8289
 10
-474.2874
 20
-19.031
 10
-474.2177
 20
-19.2342
 10
-474.1483
 20
-19.434
 10
-474.0864
 20
-19.626
 10
-474.039
 20
-19.8054
 10
-474.0135
 20
-19.9679
 10
-473.9276
 20
-20.1357
 10
-473.8606
 20
-20.3051
 10
-473.7943
 20
-20.4717
 10
-473.7108
 20
-20.631
 10
-473.609
 20
-20.7764
 10
-473.4934
 20
-20.9209
 10
-473.3694
 20
-21.065
 10
-473.2424
 20
-21.2094
 10
-473.1179
 20
-21.3546
 10
-473.0015
 20
-21.5014
 10
-472.8986
 20
-21.6502
 10
-472.8146
 20
-21.8017
 10
-472.7394
 20
-21.9723
 10
-472.6648
 20
-22.1568
 10
-472.5857
 20
-22.3532
 10
-472.4972
 20
-22.5594
 10
-472.394
 20
-22.7733
 10
-472.2713
 20
-22.9929
 10
-472.1239
 20
-23.2163
 10
-471.9469
 20
-23.4412
 10
-471.7857
 20
-23.6119
 10
-471.6171
 20
-23.7715
 10
-471.4481
 20
-23.9317
 10
-471.2856
 20
-24.1043
 10
-471.1509
 20
-24.309
 10
-471.0312
 20
-24.5093
 10
-470.9212
 20
-24.7067
 10
-470.8157
 20
-24.9027
 10
-470.7095
 20
-25.0989
 10
-470.5974
 20
-25.2968
 10
-470.4741
 20
-25.498
 10
-470.3346
 20
-25.704
 10
-470.2507
 20
-25.7816
 10
-470.1423
 20
-25.8596
 10
-470.0157
 20
-25.9414
 10
-469.8777
 20
-26.0303
 10
-469.7348
 20
-26.1297
 10
-469.5936
 20
-26.2429
 10
-469.4607
 20
-26.3734
 10
-469.3427
 20
-26.5243
 10
-469.2737
 20
-26.6662
 10
-469.1927
 20
-26.8032
 10
-469.1041
 20
-26.9374
 10
-469.012
 20
-27.0707
 10
-468.8596
 20
-27.2336
 10
-468.7182
 20
-27.3596
 10
-468.584
 20
-27.4585
 10
-468.4534
 20
-27.5401
 10
-468.323
 20
-27.6142
 10
-468.1889
 20
-27.6907
 10
-468.0477
 20
-27.7793
 10
-467.8957
 20
-27.8899
 10
-467.8041
 20
-27.9815
 10
-467.7025
 20
-28.1125
 10
-467.5913
 20
-28.271
 10
-467.4709
 20
-28.4452
 10
-467.3415
 20
-28.6231
 10
-467.2037
 20
-28.793
 10
-467.0576
 20
-28.9429
 10
-466.9037
 20
-29.0611
 10
-466.7917
 20
-29.1076
 10
-466.6836
 20
-29.1601
 10
-466.5786
 20
-29.2182
 10
-466.4762
 20
-29.2811
 10
-466.2758
 20
-29.4187
 10
-466.0771
 20
-29.5676
 10
-465.9128
 20
-29.7632
 10
-465.7636
 20
-29.9686
 10
-465.6873
 20
-30.0703
 10
-465.6058
 20
-30.1688
 10
-465.5163
 20
-30.2622
 10
-465.4158
 20
-30.3486
 10
-465.2546
 20
-30.4555
 10
-465.0592
 20
-30.5614
 10
-464.8373
 20
-30.6697
 10
-464.5966
 20
-30.7837
 10
-464.3446
 20
-30.9067
 10
-464.0889
 20
-31.0421
 10
-463.8373
 20
-31.1932
 10
-463.5972
 20
-31.3632
 10
-463.2249
 20
-31.7142
 10
-462.9553
 20
-31.8878
 10
-462.6614
 20
-32.0474
 10
-462.3578
 20
-32.1927
 10
-462.059
 20
-32.3232
 10
-461.7792
 20
-32.4386
 10
-461.5332
 20
-32.5384
 10
-461.3352
 20
-32.6224
 10
-461.1999
 20
-32.69
 10
-461.1022
 20
-32.7564
 10
-460.991
 20
-32.8443
 10
-460.8707
 20
-32.946
 10
-460.7459
 20
-33.0538
 10
-460.621
 20
-33.16
 10
-460.5005
 20
-33.2569
 10
-460.3889
 20
-33.3367
 10
-460.2906
 20
-33.3919
 10
-460.1996
 20
-33.4103
 10
-460.1539
 20
-33.4254
 10
-460.1146
 20
-33.4533
 10
-460.0426
 20
-33.5098
 10
-459.8598
 20
-33.5723
 10
-459.5711
 20
-33.6527
 10
-459.2076
 20
-33.7485
 10
-458.8004
 20
-33.8572
 10
-458.3805
 20
-33.976
 10
-457.9791
 20
-34.1025
 10
-457.6271
 20
-34.2342
 10
-457.3557
 20
-34.3683
 10
-457.0686
 20
-34.5788
 10
-456.7511
 20
-34.7466
 10
-456.4106
 20
-34.8804
 10
-456.0548
 20
-34.9888
 10
-455.6911
 20
-35.0807
 10
-455.327
 20
-35.1646
 10
-454.97
 20
-35.2493
 10
-454.6277
 20
-35.3436
 10
-453.9248
 20
-35.4217
 10
-453.5941
 20
-35.4997
 10
-453.0571
 20
-35.539
 10
-452.7675
 20
-35.6171
 10
-452.5611
 20
-35.6171
 10
-452.1062
 20
-35.7338
 10
-451.9408
 20
-35.7338
 10
-451.6497
 20
-35.7922
 10
-451.3469
 20
-35.8697
 10
-451.0414
 20
-35.9474
 10
-450.7419
 20
-36.0067
 10
-449.5846
 20
-36.1246
 10
-449.5046
 20
-36.1445
 10
-449.4204
 20
-36.1574
 10
-449.333
 20
-36.1646
 10
-449.2435
 20
-36.1675
 10
-449.0615
 20
-36.1658
 10
-448.8822
 20
-36.1628
 10
-448.7573
 20
-36.1926
 10
-448.623
 20
-36.2103
 10
-448.4819
 20
-36.2184
 10
-448.3366
 20
-36.2194
 10
-448.0439
 20
-36.2102
 10
-447.766
 20
-36.2027
 10
-447.6275
 20
-36.2324
 10
-447.4585
 20
-36.2499
 10
-447.2683
 20
-36.2577
 10
-447.0659
 20
-36.2584
 10
-446.6616
 20
-36.2487
 10
-446.319
 20
-36.2409
 10
-446.1092
 20
-36.2171
 10
-445.8706
 20
-36.2014
 10
-445.6172
 20
-36.1916
 10
-445.3633
 20
-36.1858
 10
-445.1229
 20
-36.1821
 10
-444.9103
 20
-36.1783
 10
-444.7395
 20
-36.1726
 10
-444.6247
 20
-36.1628
 10
-439.8712
 20
-35.4217
 10
-439.6411
 20
-35.3839
 10
-439.3588
 20
-35.3353
 10
-439.0441
 20
-35.2784
 10
-438.7169
 20
-35.2155
 10
-438.397
 20
-35.1492
 10
-438.1044
 20
-35.0818
 10
-437.8589
 20
-35.0157
 10
-437.6803
 20
-34.9534
 10
-436.3166
 20
-34.2122
 10
-433.9603
 20
-33.5491
 10
-433.8529
 20
-33.4772
 10
-433.7608
 20
-33.4316
 10
-433.6651
 20
-33.3959
 10
-433.547
 20
-33.3537
 10
-433.4267
 20
-33.248
 10
-433.308
 20
-33.1566
 10
-433.1847
 20
-33.0758
 10
-433.051
 20
-33.0016
 10
-432.9559
 20
-32.8964
 10
-432.8496
 20
-32.8061
 10
-432.7351
 20
-32.7272
 10
-432.6153
 20
-32.6561
 10
-432.3715
 20
-32.5228
 10
-432.1417
 20
-32.3778
 10
-431.9934
 20
-32.3376
 10
-431.8609
 20
-32.2901
 10
-431.7942
 20
-32.2673
 10
-431.7241
 20
-32.2474
 10
-431.6479
 20
-32.2316
 10
-431.5631
 20
-32.2217
 10
-431.4768
 20
-32.1891
 10
-431.377
 20
-32.1411
 10
-431.2688
 20
-32.0818
 10
-431.1571
 20
-32.015
 10
-430.9438
 20
-31.8751
 10
-430.7775
 20
-31.7535
 10
-430.6465
 20
-31.6313
 10
-430.5313
 20
-31.4995
 10
-430.4152
 20
-31.3678
 10
-430.2815
 20
-31.2459
 10
-430.0456
 20
-31.1107
 10
-429.7882
 20
-30.9729
 10
-429.5399
 20
-30.8351
 10
-429.3311
 20
-30.6996
 10
-429.0112
 20
-30.5555
 10
-428.6584
 20
-30.3892
 10
-428.485
 20
-30.2951
 10
-428.3216
 20
-30.1926
 10
-428.1744
 20
-30.0805
 10
-428.0495
 20
-29.9578
 10
-427.8381
 20
-29.7086
 10
-427.6652
 20
-29.506
 10
-427.5766
 20
-29.4111
 10
-427.4778
 20
-29.3147
 10
-427.3621
 20
-29.2122
 10
-427.2229
 20
-29.0993
 10
-427.0134
 20
-28.9673
 10
-426.8033
 20
-28.8346
 10
-426.5963
 20
-28.6976
 10
-426.3962
 20
-28.553
 10
-426.2851
 20
-28.4275
 10
-426.1972
 20
-28.309
 10
-426.1213
 20
-28.1937
 10
-426.0462
 20
-28.078
 10
-425.9605
 20
-27.9583
 10
-425.853
 20
-27.831
 10
-425.7126
 20
-27.6924
 10
-425.5279
 20
-27.5389
 10
-425.2714
 20
-27.3578
 10
-425.0033
 20
-27.1781
 10
-424.8762
 20
-27.0867
 10
-424.7599
 20
-26.9933
 10
-424.6588
 20
-26.8969
 10
-424.5776
 20
-26.7967
 10
-424.517
 20
-26.6734
 10
-424.4484
 20
-26.5528
 10
-424.3733
 20
-26.4345
 10
-424.2933
 20
-26.3181
 10
-424.1253
 20
-26.0885
 10
-423.9573
 20
-25.8601
 10
-423.7325
 20
-25.6272
 10
-423.4597
 20
-25.3647
 10
-423.3237
 20
-25.2327
 10
-423.1981
 20
-25.106
 10
-423.09
 20
-24.9886
 10
-423.007
 20
-24.8848
 10
-422.9633
 20
-24.7907
 10
-422.9305
 20
-24.7385
 10
-422.8841
 20
-24.6911
 10
-422.8
 20
-24.6119
 10
-422.7122
 20
-24.4607
 10
-422.6219
 20
-24.2702
 10
-422.5244
 20
-24.0516
 10
-422.415
 20
-23.8164
 10
-422.2892
 20
-23.5756
 10
-422.1423
 20
-23.3407
 10
-421.9695
 20
-23.123
 10
-421.7664
 20
-22.9336
 10
-421.6339
 20
-22.8385
 10
-421.5117
 20
-22.7339
 10
-421.3929
 20
-22.6219
 10
-421.2704
 20
-22.5047
 10
-421.1881
 20
-22.3753
 10
-421.1228
 20
-22.2528
 10
-421.0696
 20
-22.1355
 10
-421.0236
 20
-22.0218
 10
-420.9801
 20
-21.9098
 10
-420.9342
 20
-21.7979
 10
-420.8812
 20
-21.6844
 10
-420.8161
 20
-21.5675
 10
-420.7623
 20
-21.2905
 10
-420.6548
 20
-21.0074
 10
-420.5072
 20
-20.7218
 10
-420.3332
 20
-20.4372
 10
-420.1464
 20
-20.1574
 10
-419.9607
 20
-19.886
 10
-419.7896
 20
-19.6266
 10
-419.6469
 20
-19.3828
 10
-419.5729
 20
-19.2168
 10
-419.4744
 20
-18.9596
 10
-419.3619
 20
-18.6415
 10
-419.2458
 20
-18.2928
 10
-419.1366
 20
-17.9437
 10
-419.0449
 20
-17.6245
 10
-418.9812
 20
-17.3655
 10
-418.9558
 20
-17.1969
 10
-418.9032
 20
-17.1016
 10
-418.8676
 20
-17.0121
 10
-418.8452
 20
-16.9175
 10
-418.8321
 20
-16.8067
 10
-418.782
 20
-16.7305
 10
-418.7611
 20
-16.6976
 10
-418.7551
 20
-16.6608
 10
-418.7494
 20
-16.5725
 10
-418.6634
 20
-16.4398
 10
-418.5997
 20
-16.3065
 10
-418.5385
 20
-16.1695
 10
-418.4598
 20
-16.0257
 10
-417.7985
 20
-13.6848
 10
-417.7915
 20
-13.5782
 10
-417.7761
 20
-13.5004
 10
-417.7512
 20
-13.427
 10
-417.7158
 20
-13.3333
 10
-417.4268
 20
-10.8364
 10
-417.3898
 20
-10.5105
 10
-417.3663
 20
-10.1371
 10
-417.3524
 20
-9.8205
 10
-417.3441
 20
-9.6651
 10
-417.2615
 20
-8.7679
 10
-417.2115
 20
-8.6031
 10
-417.1612
 20
-8.4018
 10
-417.1197
 20
-8.1979
 10
-417.0961
 20
-8.0256
  0
LWPOLYLINE
  5
8A
330
1F
100
AcDbEntity
  8
Layer 1
 62
     7
370
    35
100
AcDbPolyline
 90
      413
 70
     0
 43
0.0
 10
-417.0961
 20
-8.0256
 10
-417.1372
 20
-7.7134
 10
-417.2615
 20
-7.285
 10
-417.9228
 20
-2.1334
 10
-417.9801
 20
-2.0409
 10
-418.0036
 20
-1.9905
 10
-418.0074
 20
-1.9335
 10
-418.0055
 20
-1.8212
 10
-418.0688
 20
-1.7041
 10
-418.1055
 20
-1.6083
 10
-418.1336
 20
-1.5115
 10
-418.1708
 20
-1.3916
 10
-418.1934
 20
-1.2148
 10
-418.249
 20
-0.988
 10
-418.3298
 20
-0.7287
 10
-418.4278
 20
-0.4544
 10
-418.535
 20
-0.1826
 10
-418.6435
 20
0.0692
 10
-418.7451
 20
0.2835
 10
-418.8321
 20
0.4428
 10
-418.8435
 20
0.5216
 10
-418.8626
 20
0.5931
 10
-418.8869
 20
0.6601
 10
-418.9139
 20
0.7256
 10
-418.9409
 20
0.7922
 10
-418.9656
 20
0.8629
 10
-418.9852
 20
0.9405
 10
-418.9974
 20
1.0278
 10
-419.0472
 20
1.1686
 10
-419.0886
 20
1.2791
 10
-419.1257
 20
1.4005
 10
-419.1628
 20
1.5741
 10
-419.1911
 20
1.8194
 10
-419.2586
 20
2.068
 10
-419.3556
 20
2.3173
 10
-419.4725
 20
2.5648
 10
-419.5998
 20
2.808
 10
-419.7279
 20
3.0443
 10
-419.8471
 20
3.2711
 10
-419.9478
 20
3.486
 10
-420.0959
 20
3.6562
 10
-420.2367
 20
3.8471
 10
-420.3674
 20
4.043
 10
-420.4854
 20
4.2283
 10
-420.4929
 20
4.291
 10
-420.5042
 20
4.3449
 10
-420.5193
 20
4.3922
 10
-420.5382
 20
4.4356
 10
-420.5871
 20
4.5201
 10
-420.6507
 20
4.618
 10
-420.6852
 20
4.828
 10
-420.7496
 20
5.0334
 10
-420.8365
 20
5.2342
 10
-420.9386
 20
5.4309
 10
-421.0486
 20
5.6234
 10
-421.1592
 20
5.8121
 10
-421.2632
 20
5.9972
 10
-421.3531
 20
6.1789
 10
-421.4394
 20
6.287
 10
-421.5455
 20
6.3994
 10
-421.6645
 20
6.5145
 10
-421.7899
 20
6.6308
 10
-421.915
 20
6.7468
 10
-422.033
 20
6.8609
 10
-422.1374
 20
6.9716
 10
-422.2214
 20
7.0773
 10
-422.3151
 20
7.2352
 10
-422.4024
 20
7.42
 10
-422.4908
 20
7.6243
 10
-422.5878
 20
7.8407
 10
-422.701
 20
8.0616
 10
-422.838
 20
8.2796
 10
-423.0062
 20
8.4872
 10
-423.2133
 20
8.677
 10
-423.5103
 20
8.931
 10
-423.7364
 20
9.1671
 10
-423.9081
 20
9.3858
 10
-424.0421
 20
9.5877
 10
-424.1553
 20
9.7732
 10
-424.2642
 20
9.943
 10
-424.3855
 20
10.0975
 10
-424.536
 20
10.2373
 10
-424.8256
 20
10.4715
 10
-424.9697
 20
10.5596
 10
-425.1084
 20
10.6451
 10
-425.1751
 20
10.691
 10
-425.2399
 20
10.7413
 10
-425.3025
 20
10.7977
 10
-425.3626
 20
10.8617
 10
-425.4331
 20
10.9609
 10
-425.4973
 20
11.0518
 10
-425.5561
 20
11.1454
 10
-425.6106
 20
11.2525
 10
-425.7443
 20
11.4041
 10
-425.9418
 20
11.5949
 10
-426.1494
 20
11.7804
 10
-426.3136
 20
11.9162
 10
-426.4936
 20
12.0391
 10
-426.679
 20
12.1526
 10
-426.7698
 20
12.2115
 10
-426.8573
 20
12.2747
 10
-426.9399
 20
12.3445
 10
-427.0159
 20
12.4232
 10
-427.2156
 20
12.6781
 10
-427.4075
 20
12.9285
 10
-427.5193
 20
13.0538
 10
-427.6517
 20
13.18
 10
-427.812
 20
13.308
 10
-428.0079
 20
13.4384
 10
-428.2348
 20
13.5553
 10
-428.4659
 20
13.6598
 10
-428.578
 20
13.7162
 10
-428.6851
 20
13.7802
 10
-428.7851
 20
13.8552
 10
-428.8762
 20
13.9448
 10
-428.9751
 20
14.0666
 10
-429.0706
 20
14.1891
 10
-429.1721
 20
14.3065
 10
-429.2895
 20
14.4131
 10
-429.5307
 20
14.56
 10
-429.7604
 20
14.6872
 10
-429.9824
 20
14.8011
 10
-430.2004
 20
14.9078
 10
-430.4182
 20
15.0137
 10
-430.6396
 20
15.125
 10
-430.8683
 20
15.248
 10
-431.1081
 20
15.389
 10
-431.6868
 20
15.9353
 10
-431.9035
 20
16.0598
 10
-432.1141
 20
16.1648
 10
-432.3195
 20
16.2555
 10
-432.5205
 20
16.3371
 10
-432.7181
 20
16.4148
 10
-432.9131
 20
16.4939
 10
-433.1065
 20
16.5796
 10
-433.299
 20
16.677
 10
-433.3925
 20
16.6827
 10
-433.4315
 20
16.6885
 10
-433.4663
 20
16.7083
 10
-433.547
 20
16.7556
 10
-433.7262
 20
16.7853
 10
-433.8986
 20
16.8434
 10
-434.0656
 20
16.9227
 10
-434.2286
 20
17.0158
 10
-434.3891
 20
17.1154
 10
-434.5485
 20
17.2141
 10
-434.7082
 20
17.3048
 10
-434.8697
 20
17.38
 10
-434.9941
 20
17.4794
 10
-435.1103
 20
17.5561
 10
-435.2302
 20
17.6228
 10
-435.3656
 20
17.6922
 10
-435.6057
 20
17.7891
 10
-435.8323
 20
17.8659
 10
-436.0496
 20
17.928
 10
-436.2618
 20
17.9804
 10
-436.4731
 20
18.0286
 10
-436.6876
 20
18.0776
 10
-436.9096
 20
18.1327
 10
-437.1432
 20
18.1992
 10
-437.5173
 20
18.3121
 10
-437.8046
 20
18.3553
 10
-437.9157
 20
18.4103
 10
-438.0233
 20
18.4527
 10
-438.1351
 20
18.4854
 10
-438.2589
 20
18.5114
 10
-438.3322
 20
18.5696
 10
-438.345
 20
18.5862
 10
-438.3665
 20
18.585
 10
-438.4659
 20
18.5894
 10
-438.5392
 20
18.6476
 10
-438.5519
 20
18.6645
 10
-438.5731
 20
18.6633
 10
-438.6722
 20
18.6675
 10
-438.881
 20
18.7803
 10
-438.9867
 20
18.7945
 10
-439.1507
 20
18.8275
 10
-439.3529
 20
18.8742
 10
-439.5735
 20
18.9294
 10
-439.7927
 20
18.9883
 10
-439.9906
 20
19.0457
 10
-440.1473
 20
19.0965
 10
-440.2429
 20
19.1358
 10
-440.3421
 20
19.1417
 10
-440.4125
 20
19.1524
 10
-440.4809
 20
19.1644
 10
-440.5741
 20
19.1745
 10
-440.6944
 20
19.2276
 10
-440.8157
 20
19.2635
 10
-440.9402
 20
19.2939
 10
-441.0701
 20
19.3306
 10
-442.0205
 20
19.448
 10
-442.1542
 20
19.4815
 10
-442.2893
 20
19.5064
 10
-442.4244
 20
19.5312
 10
-442.5581
 20
19.5647
 10
-444.9554
 20
19.7601
 10
-445.2255
 20
19.7923
 10
-445.5868
 20
19.8235
 10
-446.0069
 20
19.8516
 10
-446.4531
 20
19.8748
 10
-446.8929
 20
19.8909
 10
-447.2938
 20
19.8979
 10
-447.6232
 20
19.8939
 10
-447.8486
 20
19.8769
 10
-448.1117
 20
19.8486
 10
-448.379
 20
19.8328
 10
-448.6291
 20
19.8196
 10
-448.8406
 20
19.7989
 10
-449.1874
 20
19.7622
 10
-449.5413
 20
19.7424
 10
-449.8961
 20
19.7216
 10
-450.2459
 20
19.6821
 10
-451.8582
 20
19.4867
 10
-451.9622
 20
19.4586
 10
-452.0381
 20
19.4478
 10
-452.1171
 20
19.4467
 10
-452.2305
 20
19.448
 10
-452.6848
 20
19.3306
 10
-452.8501
 20
19.3306
 10
-452.9493
 20
19.2971
 10
-453.0271
 20
19.2735
 10
-453.1095
 20
19.2589
 10
-453.2224
 20
19.2526
 10
-453.3189
 20
19.2041
 10
-453.3855
 20
19.1803
 10
-453.4533
 20
19.1633
 10
-453.5531
 20
19.1358
 10
-453.7184
 20
19.1358
 10
-453.7926
 20
19.1018
 10
-453.8881
 20
19.0679
 10
-453.9984
 20
19.0355
 10
-454.1171
 20
19.0059
 10
-454.3534
 20
18.9599
 10
-454.5451
 20
18.9404
 10
-454.7538
 20
18.8275
 10
-455.0411
 20
18.7843
 10
-455.1141
 20
18.7258
 10
-455.1266
 20
18.709
 10
-455.148
 20
18.7104
 10
-455.2474
 20
18.7062
 10
-455.3607
 20
18.649
 10
-455.4892
 20
18.5926
 10
-455.6208
 20
18.5443
 10
-455.7434
 20
18.5114
 10
-455.9284
 20
18.4224
 10
-456.1856
 20
18.3435
 10
-456.4938
 20
18.2705
 10
-456.8319
 20
18.1992
 10
-457.1785
 20
18.1255
 10
-457.5127
 20
18.0452
 10
-457.8131
 20
17.9542
 10
-458.0586
 20
17.8483
 10
-458.3256
 20
17.7762
 10
-458.5151
 20
17.7236
 10
-458.6046
 20
17.6905
 10
-458.7036
 20
17.6454
 10
-458.8215
 20
17.5825
 10
-458.9679
 20
17.4962
 10
-459.1148
 20
17.3859
 10
-459.3097
 20
17.2603
 10
-459.5094
 20
17.1456
 10
-459.6703
 20
17.0678
 10
-459.867
 20
16.9414
 10
-460.1415
 20
16.8176
 10
-460.471
 20
16.6951
 10
-460.8329
 20
16.5725
 10
-461.2044
 20
16.4483
 10
-461.5629
 20
16.3212
 10
-461.8857
 20
16.1897
 10
-462.1502
 20
16.0526
 10
-462.2453
 20
15.9648
 10
-462.3419
 20
15.8579
 10
-462.4435
 20
15.738
 10
-462.5532
 20
15.6111
 10
-462.6746
 20
15.4832
 10
-462.811
 20
15.3605
 10
-462.9657
 20
15.249
 10
-463.1422
 20
15.1548
 10
-463.2729
 20
15.1217
 10
-463.4036
 20
15.0764
 10
-463.5341
 20
15.0221
 10
-463.6641
 20
14.9618
 10
-463.9221
 20
14.8365
 10
-464.1758
 20
14.7259
 10
-464.3124
 20
14.6371
 10
-464.4415
 20
14.5405
 10
-464.565
 20
14.438
 10
-464.685
 20
14.3316
 10
-464.9219
 20
14.1151
 10
-465.1678
 20
13.9066
 10
-465.4024
 20
13.7534
 10
-465.6776
 20
13.5664
 10
-465.9459
 20
13.3738
 10
-466.1598
 20
13.2042
 10
-466.4233
 20
13.0392
 10
-466.6691
 20
12.8686
 10
-466.7857
 20
12.7775
 10
-466.898
 20
12.6803
 10
-467.0064
 20
12.5756
 10
-467.1107
 20
12.4619
 10
-467.2743
 20
12.2267
 10
-467.4618
 20
12.0275
 10
-467.6502
 20
11.8536
 10
-467.8381
 20
11.698
 10
-468.0242
 20
11.5533
 10
-468.207
 20
11.4124
 10
-468.3852
 20
11.2679
 10
-468.5575
 20
11.1128
 10
-468.7224
 20
10.9397
 10
-469.1773
 20
10.3552
 10
-470.3346
 20
9.262
 10
-470.4516
 20
9.1153
 10
-470.5606
 20
8.9588
 10
-470.663
 20
8.7947
 10
-470.76
 20
8.6252
 10
-470.9431
 20
8.2782
 10
-471.1202
 20
7.9352
 10
-471.1827
 20
7.8214
 10
-471.2455
 20
7.7179
 10
-471.3104
 20
7.6226
 10
-471.3797
 20
7.5333
 10
-471.4552
 20
7.4479
 10
-471.539
 20
7.3643
 10
-471.6333
 20
7.2804
 10
-471.7399
 20
7.1941
 10
-471.8338
 20
7.13
 10
-471.9104
 20
7.0692
 10
-471.9844
 20
7.0026
 10
-472.0706
 20
6.9212
 10
-472.2099
 20
6.7244
 10
-472.3349
 20
6.4883
 10
-472.4506
 20
6.228
 10
-472.5619
 20
5.9584
 10
-472.6738
 20
5.6945
 10
-472.7913
 20
5.4512
 10
-472.9192
 20
5.2434
 10
-473.0626
 20
5.0862
 10
-473.2641
 20
4.9513
 10
-473.4703
 20
4.8365
 10
-473.568
 20
4.7736
 10
-473.6586
 20
4.7002
 10
-473.739
 20
4.6111
 10
-473.8066
 20
4.5012
 10
-473.821
 20
4.4315
 10
-473.8314
 20
4.3981
 10
-473.8501
 20
4.3675
 10
-473.8892
 20
4.3063
 10
-473.8952
 20
4.218
 10
-473.9013
 20
4.181
 10
-473.9221
 20
4.1482
 10
-473.9719
 20
4.0722
 10
-473.9719
 20
3.9161
 10
-474.0266
 20
3.8313
 10
-474.0494
 20
3.7909
 10
-474.054
 20
3.7446
 10
-474.0545
 20
3.6421
 10
-474.0834
 20
3.5526
 10
-474.0952
 20
3.4923
 10
-474.0971
 20
3.4289
 10
-474.0962
 20
3.3299
 10
-474.1788
 20
3.0576
 10
-474.1788
 20
2.9015
 10
-474.3002
 20
2.5638
 10
-474.4172
 20
2.2364
 10
-474.539
 20
1.9097
 10
-474.6748
 20
1.5741
 10
-474.8903
 20
1.2517
 10
-475.1003
 20
0.9146
 10
-475.1976
 20
0.7384
 10
-475.2869
 20
0.5559
 10
-475.366
 20
0.3663
 10
-475.4325
 20
0.1687
 10
-476.0391
 20
-3.0306
 10
-476.1218
 20
-3.3041
 10
-476.1218
 20
-3.4989
 10
-476.2038
 20
-3.733
 10
-476.2811
 20
-4.0486
 10
-476.2987
 20
-4.1807
 10
-476.3322
 20
-4.3428
 10
-476.3725
 20
-4.5032
 10
-476.4108
 20
-4.6303
 10
-476.5761
 20
-6.153
 10
-476.6061
 20
-6.4014
 10
-476.6228
 20
-6.6537
 10
-476.6368
 20
-6.8896
 10
-476.6588
 20
-7.089
 10
-476.7269
 20
-7.3111
 10
-476.7955
 20
-7.5718
 10
-476.8578
 20
-7.8352
 10
-476.9068
 20
-8.0655
 10
-477.4854
 20
-8.1036
 10
-478.0837
 20
-8.1572
 10
-479.3057
 20
-8.1861
 10
-480.9571
 20
-8.1957
 10
-482.8435
 20
-8.1914
 10
-484.7706
 20
-8.1785
 10
-486.544
 20
-8.1627
 10
-487.9695
 20
-8.1492
 10
-488.8527
 20
-8.1435
 10
-522.9945
 20
-8.1435
 10
-523.0721
 20
-8.1677
 10
-523.1125
 20
-8.178
 10
-523.1558
 20
-8.1805
 10
-523.2425
 20
-8.1817
 10
-523.355
 20
-8.2109
 10
-523.4432
 20
-8.2221
 10
-523.5345
 20
-8.223
 10
-523.6564
 20
-8.2216
 10
-523.7565
 20
-8.2508
 10
-523.8557
 20
-8.2749
 10
-523.9585
 20
-8.2918
 10
-524.0697
 20
-8.2996
  0
LWPOLYLINE
  5
8B
330
1F
100
AcDbEntity
  8
Layer 1
 62
     7
370
    35
100
AcDbPolyline
 90
      489
 70
     0
 43
0.0
 10
-429.9924
 20
-8.0655
 10
-430.0335
 20
-8.2216
 10
-430.121
 20
-8.3555
 10
-430.1872
 20
-8.4912
 10
-430.2489
 20
-8.6286
 10
-430.3231
 20
-8.7679
 10
-430.5295
 20
-10.1722
 10
-430.6121
 20
-10.4063
 10
-430.9018
 20
-12.2407
 10
-430.9621
 20
-12.5764
 10
-431.0343
 20
-12.9188
 10
-431.0785
 20
-13.0881
 10
-431.1302
 20
-13.2539
 10
-431.1909
 20
-13.4143
 10
-431.2621
 20
-13.5675
 10
-431.3477
 20
-13.7238
 10
-431.4398
 20
-13.8832
 10
-431.5286
 20
-14.0408
 10
-431.6041
 20
-14.1918
 10
-431.722
 20
-14.3278
 10
-431.8312
 20
-14.4753
 10
-431.9405
 20
-14.6273
 10
-432.0591
 20
-14.7769
 10
-432.0819
 20
-14.8625
 10
-432.1067
 20
-14.9211
 10
-432.1385
 20
-14.976
 10
-432.1828
 20
-15.0509
 10
-432.2546
 20
-15.2008
 10
-432.3166
 20
-15.3507
 10
-432.3422
 20
-15.4276
 10
-432.3634
 20
-15.5068
 10
-432.3795
 20
-15.5891
 10
-432.3897
 20
-15.6753
 10
-432.4398
 20
-15.7513
 10
-432.4605
 20
-15.7841
 10
-432.4665
 20
-15.8211
 10
-432.4724
 20
-15.9094
 10
-432.6216
 20
-16.1801
 10
-432.7631
 20
-16.4688
 10
-432.8363
 20
-16.6183
 10
-432.9141
 20
-16.7704
 10
-432.9987
 20
-16.9244
 10
-433.0921
 20
-17.0796
 10
-433.2097
 20
-17.2098
 10
-433.3643
 20
-17.3644
 10
-433.5435
 20
-17.5349
 10
-433.7349
 20
-17.7128
 10
-434.1044
 20
-18.0568
 10
-434.3737
 20
-18.3283
 10
-434.5771
 20
-18.5635
 10
-434.7846
 20
-18.7967
 10
-434.8923
 20
-18.9101
 10
-435.0037
 20
-19.0202
 10
-435.12
 20
-19.1261
 10
-435.2419
 20
-19.2267
 10
-435.5069
 20
-19.4445
 10
-435.7445
 20
-19.6597
 10
-435.9592
 20
-19.8694
 10
-436.1557
 20
-20.0713
 10
-436.3388
 20
-20.2627
 10
-436.513
 20
-20.4411
 10
-436.683
 20
-20.6038
 10
-436.8536
 20
-20.7483
 10
-437.1674
 20
-20.9381
 10
-437.5176
 20
-21.1409
 10
-437.8562
 20
-21.3425
 10
-438.1352
 20
-21.5288
 10
-438.3416
 20
-21.6068
 10
-438.502
 20
-21.6931
 10
-438.6794
 20
-21.8046
 10
-438.8662
 20
-21.9316
 10
-439.0544
 20
-22.0646
 10
-439.2361
 20
-22.1941
 10
-439.4036
 20
-22.3103
 10
-439.5489
 20
-22.4037
 10
-439.6642
 20
-22.4648
 10
-439.8031
 20
-22.4967
 10
-440.0189
 20
-22.5545
 10
-440.285
 20
-22.6304
 10
-440.5749
 20
-22.7168
 10
-440.862
 20
-22.8058
 10
-441.1199
 20
-22.8898
 10
-441.322
 20
-22.961
 10
-441.4418
 20
-23.0117
 10
-441.6071
 20
-23.0117
 10
-441.7717
 20
-23.0641
 10
-441.9791
 20
-23.1256
 10
-442.1865
 20
-23.179
 10
-442.3511
 20
-23.2071
 10
-442.4244
 20
-23.2652
 10
-442.4372
 20
-23.2819
 10
-442.4587
 20
-23.2806
 10
-442.5581
 20
-23.2851
 10
-442.6388
 20
-23.3324
 10
-442.6736
 20
-23.3519
 10
-442.7126
 20
-23.3576
 10
-442.8061
 20
-23.3632
 10
-442.9742
 20
-23.441
 10
-443.1617
 20
-23.506
 10
-443.363
 20
-23.5611
 10
-443.5722
 20
-23.6093
 10
-443.7839
 20
-23.6535
 10
-443.9923
 20
-23.6967
 10
-444.1918
 20
-23.7419
 10
-444.3767
 20
-23.7921
 10
-444.581
 20
-23.8094
 10
-444.7892
 20
-23.8116
 10
-444.9978
 20
-23.8138
 10
-445.2034
 20
-23.8314
 10
-445.3192
 20
-23.8589
 10
-445.4434
 20
-23.8754
 10
-445.5737
 20
-23.8832
 10
-445.7078
 20
-23.8845
 10
-445.9783
 20
-23.8768
 10
-446.2364
 20
-23.8702
 10
-446.3756
 20
-23.8991
 10
-446.5526
 20
-23.9164
 10
-446.756
 20
-23.9243
 10
-446.9742
 20
-23.9254
 10
-447.1958
 20
-23.9221
 10
-447.4093
 20
-23.9167
 10
-447.6032
 20
-23.9117
 10
-447.766
 20
-23.9095
 10
-448.1072
 20
-23.8764
 10
-448.4741
 20
-23.8606
 10
-448.8073
 20
-23.8497
 10
-449.0476
 20
-23.8314
 10
-449.9152
 20
-23.7141
 10
-450.0375
 20
-23.6823
 10
-450.161
 20
-23.6566
 10
-450.2855
 20
-23.6304
 10
-450.4112
 20
-23.5973
 10
-450.5418
 20
-23.5845
 10
-450.7024
 20
-23.5534
 10
-450.8822
 20
-23.5081
 10
-451.0705
 20
-23.4525
 10
-451.2565
 20
-23.3906
 10
-451.4294
 20
-23.3264
 10
-451.5784
 20
-23.2639
 10
-451.6928
 20
-23.2071
 10
-451.7929
 20
-23.2037
 10
-451.815
 20
-23.2039
 10
-451.8276
 20
-23.1861
 10
-451.8992
 20
-23.129
 10
-452.2739
 20
-23.015
 10
-452.5611
 20
-22.9729
 10
-452.7125
 20
-22.906
 10
-452.899
 20
-22.8459
 10
-453.1117
 20
-22.7898
 10
-453.3416
 20
-22.7346
 10
-453.5798
 20
-22.6775
 10
-453.8175
 20
-22.6155
 10
-454.0456
 20
-22.5456
 10
-454.2554
 20
-22.4648
 10
-454.5861
 20
-22.3098
 10
-454.7408
 20
-22.1777
 10
-454.9047
 20
-22.0558
 10
-455.0748
 20
-21.9418
 10
-455.2479
 20
-21.8335
 10
-455.5909
 20
-21.6247
 10
-455.9087
 20
-21.4114
 10
-456.019
 20
-21.3826
 10
-456.1327
 20
-21.3417
 10
-456.2493
 20
-21.2926
 10
-456.3684
 20
-21.2391
 10
-456.4894
 20
-21.1853
 10
-456.612
 20
-21.135
 10
-456.7356
 20
-21.0921
 10
-456.8597
 20
-21.0605
 10
-457.273
 20
-20.6703
 10
-457.3559
 20
-20.5598
 10
-457.4175
 20
-20.4607
 10
-457.4693
 20
-20.3678
 10
-457.5225
 20
-20.2757
 10
-457.5884
 20
-20.1794
 10
-457.6783
 20
-20.0734
 10
-457.8035
 20
-19.9526
 10
-457.9754
 20
-19.8118
 10
-458.2429
 20
-19.6351
 10
-458.5064
 20
-19.4823
 10
-458.6325
 20
-19.4009
 10
-458.7526
 20
-19.3089
 10
-458.8649
 20
-19.2006
 10
-458.9679
 20
-19.0706
 10
-459.1075
 20
-18.8413
 10
-459.206
 20
-18.6678
 10
-459.2672
 20
-18.5834
 10
-459.3509
 20
-18.4907
 10
-459.4679
 20
-18.3821
 10
-459.6292
 20
-18.2503
 10
-459.8463
 20
-18.1039
 10
-460.0562
 20
-17.9831
 10
-460.1585
 20
-17.9204
 10
-460.2592
 20
-17.8497
 10
-460.3583
 20
-17.7665
 10
-460.4559
 20
-17.6658
 10
-460.6212
 20
-17.4698
 10
-460.753
 20
-17.1607
 10
-460.8863
 20
-16.8581
 10
-461.0258
 20
-16.5618
 10
-461.1764
 20
-16.2715
 10
-461.3428
 20
-15.9872
 10
-461.5298
 20
-15.7085
 10
-461.7422
 20
-15.4352
 10
-461.9849
 20
-15.1671
 10
-462.0824
 20
-14.9425
 10
-462.1814
 20
-14.7171
 10
-462.2784
 20
-14.4899
 10
-462.3698
 20
-14.2599
 10
-462.4517
 20
-14.0263
 10
-462.5207
 20
-13.7882
 10
-462.5731
 20
-13.5446
 10
-462.6052
 20
-13.2946
 10
-462.6775
 20
-13.1514
 10
-462.7429
 20
-12.9758
 10
-462.7698
 20
-12.8839
 10
-462.7911
 20
-12.7937
 10
-462.8054
 20
-12.7082
 10
-462.8115
 20
-12.6309
 10
-462.8616
 20
-12.5548
 10
-462.8825
 20
-12.5218
 10
-462.8885
 20
-12.4848
 10
-462.8942
 20
-12.3968
 10
-463.0595
 20
-12.0851
 10
-463.2665
 20
-11.1486
 10
-463.3492
 20
-10.9139
 10
-463.3492
 20
-10.6404
 10
-463.4318
 20
-10.4063
 10
-463.5145
 20
-8.9627
 10
-463.5448
 20
-8.8491
 10
-463.5628
 20
-8.727
 10
-463.5711
 20
-8.5989
 10
-463.5722
 20
-8.4669
 10
-463.5631
 20
-8.2009
 10
-463.5555
 20
-7.9475
 10
-463.5331
 20
-7.7793
 10
-463.5205
 20
-7.6138
 10
-463.5145
 20
-7.4507
 10
-463.512
 20
-7.2897
 10
-463.5097
 20
-7.1305
 10
-463.5045
 20
-6.9727
 10
-463.4933
 20
-6.816
 10
-463.4729
 20
-6.6601
 10
-463.4369
 20
-6.3794
 10
-463.413
 20
-6.0956
 10
-463.3882
 20
-5.8113
 10
-463.3492
 20
-5.5287
 10
-463.3085
 20
-5.4085
 10
-463.2692
 20
-5.2799
 10
-463.2388
 20
-5.1486
 10
-463.2249
 20
-5.0205
 10
-463.1705
 20
-4.9364
 10
-463.1479
 20
-4.8961
 10
-463.1431
 20
-4.85
 10
-463.1422
 20
-4.7482
 10
-463.071
 20
-4.6196
 10
-463.0099
 20
-4.4868
 10
-462.9565
 20
-4.3506
 10
-462.9088
 20
-4.2121
 10
-462.8211
 20
-3.9323
 10
-462.7289
 20
-3.655
 10
-462.7155
 20
-3.5197
 10
-462.6855
 20
-3.3763
 10
-462.6463
 20
-3.2357
 10
-462.6052
 20
-3.1087
 10
-462.5808
 20
-2.8908
 10
-462.5242
 20
-2.6713
 10
-462.4446
 20
-2.4522
 10
-462.3513
 20
-2.2355
 10
-462.2536
 20
-2.023
 10
-462.1607
 20
-1.8168
 10
-462.0819
 20
-1.6188
 10
-462.0265
 20
-1.4309
 10
-461.8619
 20
-1.2178
 10
-461.5821
 20
-0.8831
 10
-461.4335
 20
-0.6962
 10
-461.2972
 20
-0.51
 10
-461.1872
 20
-0.335
 10
-461.1172
 20
-0.1816
 10
-461.0891
 20
-0.0345
 10
-461.0326
 20
0.1142
 10
-460.9542
 20
0.263
 10
-460.8602
 20
0.4102
 10
-460.6509
 20
0.6931
 10
-460.4559
 20
0.9498
 10
-460.1663
 20
1.2232
 10
-459.9645
 20
1.394
 10
-459.7736
 20
1.5762
 10
-459.5896
 20
1.7662
 10
-459.4087
 20
1.9604
 10
-459.2269
 20
2.155
 10
-459.0404
 20
2.3465
 10
-458.8451
 20
2.5312
 10
-458.6373
 20
2.7055
 10
-458.3476
 20
2.9015
 10
-458.2855
 20
2.9873
 10
-458.243
 20
3.0364
 10
-458.1908
 20
3.0767
 10
-458.0997
 20
3.1356
 10
-457.8927
 20
3.408
 10
-456.3221
 20
4.696
 10
-456.2189
 20
4.7933
 10
-456.1268
 20
4.8949
 10
-456.0796
 20
4.9454
 10
-456.0289
 20
4.9946
 10
-455.9726
 20
5.0418
 10
-455.9087
 20
5.0862
 10
-455.7593
 20
5.1575
 10
-455.6181
 20
5.2386
 10
-455.4776
 20
5.3183
 10
-455.3301
 20
5.3855
 10
-455.1819
 20
5.4318
 10
-455.0247
 20
5.4685
 10
-454.8653
 20
5.5024
 10
-454.7104
 20
5.5405
 10
-454.4125
 20
5.6442
 10
-454.0802
 20
5.7796
 10
-453.9167
 20
5.8466
 10
-453.7632
 20
5.9064
 10
-453.6261
 20
5.9541
 10
-453.5115
 20
5.9846
 10
-453.3739
 20
6.0818
 10
-453.2333
 20
6.1685
 10
-453.0908
 20
6.2477
 10
-452.9478
 20
6.3229
 10
-452.8054
 20
6.3972
 10
-452.665
 20
6.4738
 10
-452.5279
 20
6.5561
 10
-452.3952
 20
6.6472
 10
-452.2541
 20
6.6965
 10
-452.0414
 20
6.7552
 10
-451.7791
 20
6.8191
 10
-451.4891
 20
6.8843
 10
-451.1936
 20
6.9468
 10
-450.9146
 20
7.0024
 10
-450.674
 20
7.0473
 10
-450.4939
 20
7.0773
 10
-450.0395
 20
7.116
 10
-449.7089
 20
7.1941
 10
-449.3782
 20
7.1941
 10
-449.0476
 20
7.2721
 10
-448.1793
 20
7.3502
 10
-448.1019
 20
7.3745
 10
-448.0615
 20
7.3849
 10
-448.018
 20
7.3876
 10
-447.9313
 20
7.3889
 10
-447.6518
 20
7.4279
 10
-447.3091
 20
7.4627
 10
-447.1342
 20
7.4744
 10
-446.9675
 20
7.4801
 10
-446.8172
 20
7.4781
 10
-446.6913
 20
7.4669
 10
-444.8727
 20
7.2721
 10
-444.542
 20
7.1941
 10
-443.0124
 20
6.9992
 10
-442.6863
 20
6.911
 10
-442.387
 20
6.8466
 10
-442.1071
 20
6.7914
 10
-441.8391
 20
6.7308
 10
-441.5758
 20
6.6501
 10
-441.3096
 20
6.5346
 10
-441.0333
 20
6.3697
 10
-440.7395
 20
6.1407
 10
-440.6202
 20
6.071
 10
-440.5069
 20
6.0111
 10
-440.3968
 20
5.9589
 10
-440.2867
 20
5.9128
 10
-440.0552
 20
5.8309
 10
-439.7885
 20
5.7505
 10
-439.7078
 20
5.7029
 10
-439.673
 20
5.6832
 10
-439.634
 20
5.6775
 10
-439.5405
 20
5.6719
 10
-439.341
 20
5.5853
 10
-439.055
 20
5.4857
 10
-438.905
 20
5.4397
 10
-438.7638
 20
5.4011
 10
-438.6416
 20
5.3733
 10
-438.5485
 20
5.3597
 10
-438.4651
 20
5.3322
 10
-438.374
 20
5.294
 10
-438.2783
 20
5.2473
 10
-438.1815
 20
5.1945
 10
-437.9967
 20
5.08
 10
-437.8456
 20
4.9695
 10
-437.7445
 20
4.8773
 10
-437.6495
 20
4.7736
 10
-437.558
 20
4.6628
 10
-437.4674
 20
4.5491
 10
-437.3749
 20
4.4367
 10
-437.2781
 20
4.33
 10
-437.1742
 20
4.233
 10
-437.0606
 20
4.1502
 10
-436.8607
 20
4.0401
 10
-436.6588
 20
3.9436
 10
-436.5592
 20
3.8949
 10
-436.4614
 20
3.8429
 10
-436.3664
 20
3.7854
 10
-436.275
 20
3.7201
 10
-436.0973
 20
3.5644
 10
-435.9625
 20
3.4138
 10
-435.8569
 20
3.2672
 10
-435.7667
 20
3.1232
 10
-435.678
 20
2.9807
 10
-435.5771
 20
2.8384
 10
-435.45
 20
2.695
 10
-435.283
 20
2.5494
 10
-435.1289
 20
2.4503
 10
-434.9619
 20
2.3632
 10
-434.7902
 20
2.2717
 10
-434.6217
 20
2.1592
 10
-434.4631
 20
2.0264
 10
-434.3517
 20
1.9137
 10
-434.2754
 20
1.8149
 10
-434.222
 20
1.7235
 10
-434.1793
 20
1.6331
 10
-434.1353
 20
1.5375
 10
-434.0779
 20
1.4301
 10
-433.9948
 20
1.3046
 10
-433.5881
 20
0.8717
 10
-433.4183
 20
0.7485
 10
-433.2447
 20
0.6328
 10
-433.1597
 20
0.5731
 10
-433.0775
 20
0.5097
 10
-432.9994
 20
0.4409
 10
-432.9267
 20
0.3647
 10
-432.7128
 20
0.0037
 10
-432.5526
 20
-0.3609
 10
-432.4217
 20
-0.73
 10
-432.2959
 20
-1.1046
 10
-432.1508
 20
-1.4859
 10
-431.962
 20
-1.8748
 10
-431.7052
 20
-2.2724
 10
-431.3561
 20
-2.6797
 10
-431.2979
 20
-2.8089
 10
-431.2217
 20
-3.0359
 10
-431.1344
 20
-3.3311
 10
-431.0431
 20
-3.6646
 10
-430.9548
 20
-4.0067
 10
-430.8764
 20
-4.3275
 10
-430.815
 20
-4.5973
 10
-430.7775
 20
-4.7864
 10
-430.7364
 20
-5.2165
 10
-430.6538
 20
-5.5287
 10
-430.6538
 20
-5.7628
 10
-430.5711
 20
-6.0357
 10
-430.5295
 20
-6.504
 10
-430.4868
 20
-6.6954
 10
-430.4257
 20
-6.89
 10
-430.3521
 20
-7.0867
 10
-430.2714
 20
-7.2845
 10
-430.1895
 20
-7.4823
 10
-430.1119
 20
-7.6791
 10
-430.0443
 20
-7.8739
 10
-429.9924
 20
-8.0655
 10
-429.2485
 20
-8.1036
 10
-428.7019
 20
-8.154
 10
-427.5943
 20
-8.1814
 10
-426.1006
 20
-8.1908
 10
-424.3954
 20
-8.1872
 10
-422.6536
 20
-8.1756
 10
-421.0498
 20
-8.1611
 10
-419.759
 20
-8.1487
 10
-418.9558
 20
-8.1435
 10
-418.8372
 20
-8.11
 10
-418.7492
 20
-8.0989
 10
-418.6611
 20
-8.11
 10
-418.5425
 20
-8.1435
 10
-418.4562
 20
-8.1186
 10
-418.3626
 20
-8.1032
 10
-418.2638
 20
-8.0954
 10
-418.1616
 20
-8.0933
 10
-417.9547
 20
-8.0985
 10
-417.7575
 20
-8.1036
 10
-417.0961
 20
-8.0256
 10
-415.9799
 20
-8.1036
 10
-415.3837
 20
-8.1572
 10
-414.1661
 20
-8.1861
 10
-412.5208
 20
-8.1957
 10
-410.6413
 20
-8.1914
 10
-408.7213
 20
-8.1785
 10
-406.9544
 20
-8.1627
 10
-405.5342
 20
-8.1492
 10
-404.6542
 20
-8.1435
 10
-370.5945
 20
-8.1435
 10
-370.4906
 20
-8.1713
 10
-370.4147
 20
-8.182
 10
-370.3359
 20
-8.183
 10
-370.2228
 20
-8.1817
  0
LWPOLYLINE
  5
8C
330
1F
100
AcDbEntity
  8
Layer 1
 62
     7
370
    35
100
AcDbPolyline
 90
      538
 70
     0
 43
0.0
 10
-614.5918
 20
-152.6534
 10
-614.5036
 20
-152.5969
 10
-614.4173
 20
-152.5316
 10
-614.3327
 20
-152.4596
 10
-614.2498
 20
-152.3828
 10
-614.0879
 20
-152.2231
 10
-613.9305
 20
-152.0688
 10
-613.8256
 20
-152.029
 10
-613.701
 20
-151.9994
 10
-613.5616
 20
-151.9735
 10
-613.4123
 20
-151.945
 10
-613.2581
 20
-151.9076
 10
-613.1039
 20
-151.8549
 10
-612.9544
 20
-151.7804
 10
-612.8148
 20
-151.678
 10
-612.4015
 20
-151.2098
 10
-612.3598
 20
-151.0537
 10
-612.3184
 20
-150.9807
 10
-612.2633
 20
-150.9005
 10
-612.1977
 20
-150.8168
 10
-612.1247
 20
-150.733
 10
-612.0474
 20
-150.6527
 10
-611.9692
 20
-150.5795
 10
-611.893
 20
-150.5169
 10
-611.8222
 20
-150.4686
 10
-611.5696
 20
-150.3328
 10
-611.3509
 20
-150.219
 10
-611.243
 20
-150.1507
 10
-611.1302
 20
-150.064
 10
-611.008
 20
-149.9513
 10
-610.8719
 20
-149.8044
 10
-610.7377
 20
-149.6213
 10
-610.6182
 20
-149.425
 10
-610.557
 20
-149.3275
 10
-610.4912
 20
-149.2333
 10
-610.4179
 20
-149.1446
 10
-610.3343
 20
-149.0638
 10
-610.2009
 20
-148.9626
 10
-610.0653
 20
-148.8793
 10
-609.927
 20
-148.8046
 10
-609.7855
 20
-148.7296
 10
-609.6403
 20
-148.645
 10
-609.4908
 20
-148.5419
 10
-609.3365
 20
-148.411
 10
-609.177
 20
-148.2434
 10
-608.7226
 20
-147.5803
 10
-608.6156
 20
-147.4853
 10
-608.4705
 20
-147.3905
 10
-608.2971
 20
-147.2906
 10
-608.1056
 20
-147.1802
 10
-607.9059
 20
-147.0539
 10
-607.7081
 20
-146.9066
 10
-607.5223
 20
-146.7327
 10
-607.3583
 20
-146.527
 10
-607.3175
 20
-146.4385
 10
-607.2748
 20
-146.3597
 10
-607.2296
 20
-146.2881
 10
-607.1813
 20
-146.2208
 10
-607.073
 20
-146.0884
 10
-606.945
 20
-145.9408
 10
-606.0357
 20
-145.3557
 10
-605.9359
 20
-145.2636
 10
-605.8428
 20
-145.1579
 10
-605.7548
 20
-145.0425
 10
-605.6702
 20
-144.9214
 10
-605.5045
 20
-144.6778
 10
-605.3327
 20
-144.4585
 10
-605.2311
 20
-144.3657
 10
-605.1086
 20
-144.2808
 10
-604.9689
 20
-144.197
 10
-604.8154
 20
-144.1077
 10
-604.6517
 20
-144.0061
 10
-604.4813
 20
-143.8855
 10
-604.3077
 20
-143.7393
 10
-604.1344
 20
-143.5606
 10
-603.9825
 20
-143.3611
 10
-603.8444
 20
-143.1545
 10
-603.773
 20
-143.0532
 10
-603.6962
 20
-142.9559
 10
-603.6109
 20
-142.8644
 10
-603.5141
 20
-142.7807
 10
-603.2623
 20
-142.6104
 10
-602.999
 20
-142.4521
 10
-602.8696
 20
-142.3701
 10
-602.7452
 20
-142.2824
 10
-602.6285
 20
-142.1861
 10
-602.5221
 20
-142.0783
 10
-602.3547
 20
-141.8602
 10
-602.196
 20
-141.6305
 10
-602.1132
 20
-141.5179
 10
-602.0247
 20
-141.4102
 10
-601.9278
 20
-141.3099
 10
-601.8198
 20
-141.2198
 10
-601.2411
 20
-140.8677
 10
-601.0694
 20
-140.7279
 10
-600.9293
 20
-140.5975
 10
-600.8125
 20
-140.473
 10
-600.7108
 20
-140.3508
 10
-600.5197
 20
-140.0992
 10
-600.2902
 20
-139.8144
 10
-600.2293
 20
-139.7558
 10
-600.1486
 20
-139.6937
 10
-600.0528
 20
-139.6286
 10
-599.9462
 20
-139.5608
 10
-599.7194
 20
-139.4179
 10
-599.5046
 20
-139.2675
 10
-599.2882
 20
-139.0826
 10
-599.1077
 20
-138.8992
 10
-598.9526
 20
-138.7194
 10
-598.812
 20
-138.545
 10
-598.6754
 20
-138.378
 10
-598.5319
 20
-138.2203
 10
-598.371
 20
-138.0739
 10
-598.1819
 20
-137.9407
 10
-598.0822
 20
-137.8996
 10
-598.0267
 20
-137.8688
 10
-597.9765
 20
-137.8254
 10
-597.8929
 20
-137.7464
 10
-597.6263
 20
-137.5336
 10
-597.4466
 20
-137.3745
 10
-597.3308
 20
-137.254
 10
-597.2558
 20
-137.1567
 10
-597.1983
 20
-137.0672
 10
-597.1354
 20
-136.9702
 10
-597.044
 20
-136.8505
 10
-596.9009
 20
-136.6925
 10
-596.7781
 20
-136.5816
 10
-596.6298
 20
-136.4691
 10
-596.4625
 20
-136.3527
 10
-596.2831
 20
-136.2304
 10
-596.0982
 20
-136.1
 10
-595.9147
 20
-135.9593
 10
-595.7391
 20
-135.8062
 10
-595.5783
 20
-135.6386
 10
-595.44
 20
-135.4663
 10
-595.307
 20
-135.2928
 10
-595.2381
 20
-135.2081
 10
-595.1651
 20
-135.1263
 10
-595.0862
 20
-135.0484
 10
-594.9996
 20
-134.9755
 10
-594.3794
 20
-134.5465
 10
-594.2844
 20
-134.4674
 10
-594.1953
 20
-134.3843
 10
-594.1109
 20
-134.298
 10
-594.03
 20
-134.2091
 10
-593.8741
 20
-134.0269
 10
-593.718
 20
-133.8435
 10
-593.6285
 20
-133.747
 10
-593.5356
 20
-133.657
 10
-593.4398
 20
-133.5722
 10
-593.3415
 20
-133.4913
 10
-593.1392
 20
-133.3358
 10
-592.9324
 20
-133.1799
 10
-592.6958
 20
-132.986
 10
-592.4834
 20
-132.7904
 10
-592.2828
 20
-132.5902
 10
-592.0819
 20
-132.3827
 10
-591.8685
 20
-132.1651
 10
-591.6304
 20
-131.9346
 10
-591.3553
 20
-131.6883
 10
-591.0311
 20
-131.4235
 10
-590.845
 20
-131.2687
 10
-590.6686
 20
-131.105
 10
-590.4985
 20
-130.9354
 10
-590.3314
 20
-130.7627
 10
-590.1639
 20
-130.5896
 10
-589.9927
 20
-130.419
 10
-589.8144
 20
-130.2538
 10
-589.6258
 20
-130.0967
 10
-589.3767
 20
-129.8964
 10
-589.1829
 20
-129.7291
 10
-589.031
 20
-129.5874
 10
-588.9074
 20
-129.4639
 10
-588.7987
 20
-129.3513
 10
-588.6914
 20
-129.2421
 10
-588.5722
 20
-129.129
 10
-588.4275
 20
-129.0047
 10
-587.8899
 20
-128.4965
 10
-587.7185
 20
-128.3725
 10
-587.5167
 20
-128.2035
 10
-587.2947
 20
-128.0025
 10
-587.0626
 20
-127.7825
 10
-586.8305
 20
-127.5568
 10
-586.6088
 20
-127.3383
 10
-586.4074
 20
-127.1401
 10
-586.2366
 20
-126.9754
 10
-585.9602
 20
-126.7531
 10
-585.6777
 20
-126.51
 10
-585.5393
 20
-126.3837
 10
-585.4059
 20
-126.2558
 10
-585.2793
 20
-126.1273
 10
-585.1619
 20
-125.9996
 10
-583.674
 20
-124.6335
 10
-583.5325
 20
-124.5161
 10
-583.3882
 20
-124.3863
 10
-583.2464
 20
-124.2519
 10
-583.1125
 20
-124.1203
 10
-582.8903
 20
-123.8963
 10
-582.7647
 20
-123.7755
 10
-581.2761
 20
-122.4482
 10
-581.1063
 20
-122.2689
 10
-580.9032
 20
-122.0776
 10
-580.6783
 20
-121.8788
 10
-580.4428
 20
-121.6768
 10
-580.2081
 20
-121.4762
 10
-579.9857
 20
-121.2813
 10
-579.7868
 20
-121.0966
 10
-579.6228
 20
-120.9265
 10
-578.6725
 20
-120.0282
 10
-578.4986
 20
-119.9021
 10
-578.3411
 20
-119.79
 10
-578.2635
 20
-119.7293
 10
-578.1839
 20
-119.6604
 10
-578.1005
 20
-119.5792
 10
-578.0111
 20
-119.4818
 10
-577.7734
 20
-119.2153
 10
-577.524
 20
-118.9536
 10
-577.3939
 20
-118.8263
 10
-577.2597
 20
-118.7025
 10
-577.121
 20
-118.5827
 10
-576.9775
 20
-118.4678
 10
-576.7284
 20
-118.3128
 10
-576.5731
 20
-118.1806
 10
-576.4215
 20
-118.0318
 10
-576.2689
 20
-117.8692
 10
-576.1106
 20
-117.6955
 10
-575.9417
 20
-117.5134
 10
-575.7576
 20
-117.3258
 10
-575.5533
 20
-117.1354
 10
-575.3242
 20
-116.945
 10
-575.1648
 20
-116.8323
 10
-575.0018
 20
-116.7254
 10
-574.922
 20
-116.6701
 10
-574.845
 20
-116.6113
 10
-574.7719
 20
-116.5474
 10
-574.704
 20
-116.4768
 10
-574.4981
 20
-116.2309
 10
-574.3002
 20
-115.9924
 10
-574.1971
 20
-115.8761
 10
-574.0874
 20
-115.7621
 10
-573.9681
 20
-115.6502
 10
-573.8363
 20
-115.5408
 10
-573.5171
 20
-115.2982
 10
-573.3276
 20
-115.1642
 10
-573.228
 20
-115.1003
 10
-573.1782
 20
-115.0681
 10
-573.1384
 20
-115.0292
 10
-573.0685
 20
-114.9449
 10
-572.9287
 20
-114.777
 10
-572.679
 20
-114.4868
 10
-572.498
 20
-114.2981
 10
-572.3068
 20
-114.128
 10
-572.1119
 20
-113.9738
 10
-571.9201
 20
-113.8331
 10
-571.7379
 20
-113.7035
 10
-571.5719
 20
-113.5823
 10
-571.4286
 20
-113.4672
 10
-571.3147
 20
-113.3555
 10
-571.1359
 20
-113.1335
 10
-570.9637
 20
-112.9076
 10
-570.8747
 20
-112.7973
 10
-570.781
 20
-112.6909
 10
-570.6803
 20
-112.59
 10
-570.5707
 20
-112.4964
 10
-570.3425
 20
-112.3442
 10
-570.1156
 20
-112.1842
 10
-569.889
 20
-112.0242
 10
-569.6614
 20
-111.872
 10
-569.5135
 20
-111.683
 10
-569.3449
 20
-111.4402
 10
-569.2441
 20
-111.3066
 10
-569.1278
 20
-111.1694
 10
-568.9926
 20
-111.0316
 10
-568.8348
 20
-110.8967
 10
-568.6022
 20
-110.736
 10
-568.3614
 20
-110.586
 10
-568.2434
 20
-110.5084
 10
-568.1299
 20
-110.4255
 10
-568.0232
 20
-110.3348
 10
-567.9254
 20
-110.2336
 10
-567.737
 20
-109.9982
 10
-567.5612
 20
-109.7678
 10
-567.4696
 20
-109.6554
 10
-567.3711
 20
-109.5456
 10
-567.2623
 20
-109.4387
 10
-567.1398
 20
-109.3352
 10
-566.8918
 20
-109.1409
 10
-566.6519
 20
-109.0069
 10
-566.4598
 20
-108.8987
 10
-566.3696
 20
-108.8322
 10
-566.277
 20
-108.7456
 10
-566.1771
 20
-108.6301
 10
-566.0652
 20
-108.4767
 10
-565.9214
 20
-108.2682
 10
-565.7845
 20
-108.0897
 10
-565.7087
 20
-108.0049
 10
-565.6226
 20
-107.9194
 10
-565.5224
 20
-107.8305
 10
-565.4039
 20
-107.7355
 10
-564.7426
 20
-107.3453
 10
-564.6759
 20
-107.2856
 10
-564.6105
 20
-107.2099
 10
-564.5464
 20
-107.1228
 10
-564.4837
 20
-107.0291
 10
-564.3623
 20
-106.8407
 10
-564.2466
 20
-106.6822
 10
-564.0951
 20
-106.5199
 10
-563.9488
 20
-106.3885
 10
-563.8055
 20
-106.2796
 10
-563.6627
 20
-106.185
 10
-563.5179
 20
-106.0964
 10
-563.3688
 20
-106.0055
 10
-563.2128
 20
-105.9041
 10
-563.0476
 20
-105.7838
 10
-562.9313
 20
-105.6773
 10
-562.823
 20
-105.5504
 10
-562.72
 20
-105.4098
 10
-562.6191
 20
-105.262
 10
-562.5176
 20
-105.1136
 10
-562.4125
 20
-104.9711
 10
-562.3009
 20
-104.8412
 10
-562.1799
 20
-104.7305
 10
-562.0638
 20
-104.648
 10
-561.9414
 20
-104.5729
 10
-561.8156
 20
-104.5021
 10
-561.6891
 20
-104.4326
 10
-561.5644
 20
-104.3613
 10
-561.4444
 20
-104.2851
 10
-561.3317
 20
-104.2011
 10
-561.229
 20
-104.1061
 10
-561.1363
 20
-103.9987
 10
-561.0525
 20
-103.8843
 10
-560.9738
 20
-103.7658
 10
-560.8966
 20
-103.6459
 10
-560.8169
 20
-103.5274
 10
-560.7313
 20
-103.4132
 10
-560.6358
 20
-103.3061
 10
-560.5267
 20
-103.2088
 10
-560.2448
 20
-103.0194
 10
-559.9339
 20
-102.8316
 10
-559.7821
 20
-102.7328
 10
-559.6404
 20
-102.6277
 10
-559.5146
 20
-102.514
 10
-559.4104
 20
-102.3896
 10
-559.2804
 20
-102.1855
 10
-559.1657
 20
-102.0
 10
-559.099
 20
-101.9083
 10
-559.0183
 20
-101.8142
 10
-558.9175
 20
-101.7153
 10
-558.7907
 20
-101.6092
 10
-558.5237
 20
-101.4278
 10
-558.25
 20
-101.2645
 10
-558.1165
 20
-101.1799
 10
-557.9883
 20
-101.088
 10
-557.8677
 20
-100.985
 10
-557.7571
 20
-100.8669
 10
-557.623
 20
-100.6749
 10
-557.4997
 20
-100.475
 10
-557.424
 20
-100.3687
 10
-557.3294
 20
-100.2565
 10
-557.2085
 20
-100.137
 10
-557.0541
 20
-100.0089
 10
-556.8088
 20
-99.8534
 10
-556.5307
 20
-99.6956
 10
-556.3874
 20
-99.6014
 10
-556.2456
 20
-99.4893
 10
-556.1086
 20
-99.3537
 10
-555.9795
 20
-99.1886
 10
-555.8669
 20
-99.0073
 10
-555.7685
 20
-98.8411
 10
-555.7145
 20
-98.7615
 10
-555.6517
 20
-98.683
 10
-555.576
 20
-98.6048
 10
-555.4835
 20
-98.526
 10
-555.3428
 20
-98.4276
 10
-555.1917
 20
-98.3375
 10
-555.0342
 20
-98.2496
 10
-554.8741
 20
-98.1577
 10
-554.7152
 20
-98.0557
 10
-554.5616
 20
-97.9374
 10
-554.4169
 20
-97.7968
 10
-554.2852
 20
-97.6276
 10
-554.1281
 20
-97.3821
 10
-553.9774
 20
-97.1595
 10
-553.8924
 20
-97.0558
 10
-553.7946
 20
-96.9565
 10
-553.6791
 20
-96.8613
 10
-553.5412
 20
-96.7697
 10
-553.287
 20
-96.6329
 10
-553.0555
 20
-96.5093
 10
-552.9459
 20
-96.4371
 10
-552.8394
 20
-96.3499
 10
-552.7348
 20
-96.2416
 10
-552.6313
 20
-96.106
 10
-552.4953
 20
-95.8973
 10
-552.3582
 20
-95.6916
 10
-552.2839
 20
-95.5927
 10
-552.2028
 20
-95.498
 10
-552.1128
 20
-95.4086
 10
-552.0116
 20
-95.3256
 10
-551.7507
 20
-95.159
 10
-551.5092
 20
-95.0259
 10
-551.3906
 20
-94.9533
 10
-551.2709
 20
-94.8668
 10
-551.1479
 20
-94.759
 10
-551.0196
 20
-94.6226
 10
-550.8321
 20
-94.37
 10
-550.6779
 20
-94.131
 10
-550.5949
 20
-94.016
 10
-550.4982
 20
-93.9037
 10
-550.3803
 20
-93.794
 10
-550.234
 20
-93.6866
 10
-550.0504
 20
-93.5933
 10
-549.7975
 20
-93.4638
 10
-549.6543
 20
-93.3705
 10
-549.5046
 20
-93.2505
 10
-549.3523
 20
-93.0977
 10
-549.201
 20
-92.9061
 10
-549.1124
 20
-92.7524
 10
-548.9965
 20
-92.555
 10
-548.9172
 20
-92.4475
 10
-548.8176
 20
-92.3381
 10
-548.6933
 20
-92.2298
 10
-548.5397
 20
-92.1256
 10
-548.2986
 20
-91.9954
 10
-548.0882
 20
-91.8872
 10
-547.9875
 20
-91.826
 10
-547.8864
 20
-91.7519
 10
-547.7819
 20
-91.6588
 10
-547.6714
 20
-91.5406
 10
-547.4763
 20
-91.277
 10
-547.3067
 20
-91.0178
 10
-547.2158
 20
-90.8939
 10
-547.1127
 20
-90.7759
 10
-546.9911
 20
-90.6654
 10
-546.8447
 20
-90.5641
 10
-546.5933
 20
-90.4283
 10
-546.3396
 20
-90.288
 10
-546.214
 20
-90.2028
 10
-546.0905
 20
-90.1006
 10
-545.9698
 20
-89.9759
 10
-545.8528
 20
-89.8235
 10
-545.7305
 20
-89.6223
 10
-545.6395
 20
-89.4594
 10
-545.5872
 20
-89.3824
 10
-545.5207
 20
-89.3029
 10
-545.4324
 20
-89.217
 10
-545.3151
 20
-89.1206
 10
-545.2052
 20
-89.0436
 10
-545.089
 20
-88.9735
 10
-544.9692
 20
-88.9075
 10
-544.8482
 20
-88.8426
 10
-544.7288
 20
-88.7758
 10
-544.6136
 20
-88.7044
 10
-544.505
 20
-88.6252
 10
-544.4058
 20
-88.5355
 10
-544.2806
 20
-88.3702
 10
-544.1776
 20
-88.2389
 10
-544.1308
 20
-88.1729
 10
-544.0853
 20
-88.0998
 10
-544.0397
 20
-88.0142
 10
-543.9925
 20
-87.9111
 10
-543.5382
 20
-87.481
 10
-543.3316
 20
-87.3712
 10
-543.122
 20
-87.2729
 10
-543.0078
 20
-87.2051
 10
-542.8828
 20
-87.1128
 10
-542.7437
 20
-86.9868
 10
-542.5872
 20
-86.8179
 10
-542.4448
 20
-86.6206
 10
-542.3189
 20
-86.4123
 10
-542.2537
 20
-86.3099
 10
-542.1825
 20
-86.2117
 10
-542.1019
 20
-86.1201
 10
-542.0086
 20
-86.0374
 10
-541.8501
 20
-85.9271
 10
-541.6886
 20
-85.8306
 10
-541.5262
 20
-85.74
 10
-541.3647
 20
-85.6475
 10
-541.2062
 20
-85.5452
 10
-541.0527
 20
-85.4252
 10
-540.9062
 20
-85.2797
 10
-540.7686
 20
-85.1009
 10
-540.6675
 20
-84.9339
 10
-540.5717
 20
-84.7691
 10
-540.5193
 20
-84.6898
 10
-540.4606
 20
-84.6139
 10
-540.3928
 20
-84.5423
 10
-540.3136
 20
-84.4759
 10
-539.9947
 20
-84.2701
 10
-539.6734
 20
-84.0802
 10
-539.519
 20
-83.9779
 10
-539.3726
 20
-83.8638
 10
-539.2371
 20
-83.7325
 10
-539.1153
 20
-83.5787
 10
-539.006
 20
-83.4049
 10
-538.8976
 20
-83.228
 10
-538.8388
 20
-83.1423
 10
-538.7741
 20
-83.0607
 10
-538.7016
 20
-82.9845
 10
-538.6193
 20
-82.9156
 10
-538.3768
 20
-82.7643
 10
-538.1184
 20
-82.625
 10
-537.9889
 20
-82.5496
 10
-537.8624
 20
-82.465
 10
-537.7411
 20
-82.3672
 10
-537.6273
 20
-82.2519
 10
-537.5325
 20
-82.1378
 10
-537.4592
 20
-82.0387
 10
-537.4012
 20
-81.9508
 10
-537.3526
 20
-81.8704
 10
-537.3073
 20
-81.7937
 10
-537.2593
 20
-81.7172
 10
-537.2027
 20
-81.637
 10
-537.1313
 20
-81.5495
 10
-537.0172
 20
-81.4374
 10
-536.8907
 20
-81.3413
 10
-536.7559
 20
-81.2569
 10
-536.6168
 20
-81.1794
 10
-536.4773
 20
-81.1043
 10
-536.3417
 20
-81.027
 10
-536.2138
 20
-80.943
 10
-536.0977
 20
-80.8476
 10
-536.0213
 20
-80.7489
 10
-535.9453
 20
-80.6659
 10
-535.8629
 20
-80.5857
 10
-535.7671
 20
-80.4956
 10
-535.7093
 20
-80.3673
 10
-535.5872
 20
-80.0992
 10
-535.5147
 20
-79.9512
 10
-535.4414
 20
-79.8147
 10
-535.3724
 20
-79.7048
 10
-535.3127
 20
-79.6371
 10
-535.1454
 20
-79.5643
 10
-534.9858
 20
-79.4827
 10
-534.8241
 20
-79.4002
 10
-534.6508
 20
-79.3249
 10
-534.4028
 20
-79.0907
  0
LWPOLYLINE
  5
8D
330
1F
100
AcDbEntity
  8
Layer 1
 62
     7
370
    35
100
AcDbPolyline
 90
       91
 70
     0
 43
0.0
 10
-359.7238
 20
-79.0127
 10
-359.9384
 20
-79.1195
 10
-360.1482
 20
-79.2057
 10
-360.3552
 20
-79.276
 10
-360.5614
 20
-79.3354
 10
-360.7688
 20
-79.3885
 10
-360.9793
 20
-79.4403
 10
-361.1951
 20
-79.4955
 10
-361.4181
 20
-79.559
 10
-361.9141
 20
-79.559
 10
-362.0537
 20
-79.5947
 10
-362.1608
 20
-79.6164
 10
-362.2685
 20
-79.6484
 10
-362.4101
 20
-79.7151
 10
-362.5755
 20
-79.7151
 10
-362.7308
 20
-79.789
 10
-362.8834
 20
-79.8491
 10
-363.0371
 20
-79.9108
 10
-363.1957
 20
-79.9891
 10
-364.1877
 20
-80.1834
 10
-365.2624
 20
-80.2232
 10
-365.8029
 20
-80.2729
 10
-366.8971
 20
-80.2998
 10
-368.3726
 20
-80.3089
 10
-370.0569
 20
-80.3051
 10
-371.7773
 20
-80.2935
 10
-373.3615
 20
-80.279
 10
-374.6368
 20
-80.2666
 10
-375.4307
 20
-80.2614
 10
-528.5746
 20
-80.2614
 10
-528.8701
 20
-80.2301
 10
-529.1222
 20
-80.2197
 10
-529.3589
 20
-80.2107
 10
-529.6082
 20
-80.1834
 10
-530.5592
 20
-80.0031
 10
-531.3032
 20
-79.755
 10
-532.0055
 20
-79.7151
 10
-532.2891
 20
-79.6295
 10
-532.5811
 20
-79.5522
 10
-532.8796
 20
-79.4802
 10
-533.1827
 20
-79.4103
 10
-533.4885
 20
-79.3395
 10
-533.7951
 20
-79.2646
 10
-534.1005
 20
-79.1827
 10
-534.4028
 20
-79.0907
 10
-534.4624
 20
-78.911
 10
-534.5128
 20
-78.7281
 10
-534.5566
 20
-78.5433
 10
-534.5968
 20
-78.3583
 10
-534.636
 20
-78.1746
 10
-534.6769
 20
-77.9938
 10
-534.7224
 20
-77.8172
 10
-534.7751
 20
-77.6466
 10
-534.8578
 20
-76.6718
 10
-534.914
 20
-76.507
 10
-535.0081
 20
-76.3003
 10
-535.0599
 20
-76.1792
 10
-535.1097
 20
-76.0451
 10
-535.1538
 20
-75.8972
 10
-535.1884
 20
-75.7347
 10
-535.2711
 20
-74.9155
 10
-535.3014
 20
-74.7956
 10
-535.3195
 20
-74.6571
 10
-535.3279
 20
-74.5056
 10
-535.3291
 20
-74.3466
 10
-535.3202
 20
-74.0278
 10
-535.3127
 20
-73.7448
 10
-535.3554
 20
-73.3774
 10
-535.3793
 20
-72.6603
 10
-535.3884
 20
-71.7023
 10
-535.3867
 20
-70.6124
 10
-535.3784
 20
-69.4992
 10
-535.3674
 20
-68.4718
 10
-535.3578
 20
-67.639
 10
-535.3537
 20
-67.1097
 10
-535.3537
 20
32.95
 10
-535.3231
 20
33.0814
 10
-535.3049
 20
33.2485
 10
-535.2966
 20
33.4405
 10
-535.2955
 20
33.6466
 10
-535.305
 20
34.0574
 10
-535.3127
 20
34.3942
 10
-535.284
 20
34.6035
 10
-535.2676
 20
34.7999
 10
-535.2601
 20
34.9843
 10
-535.2578
 20
35.1578
 10
-535.2572
 20
35.3212
 10
-535.2547
 20
35.4755
 10
-535.2469
 20
35.6217
 10
-535.23
 20
35.7608
 10
-535.0231
 20
37.7114
  0
LWPOLYLINE
  5
8E
330
1F
100
AcDbEntity
  8
Layer 1
 62
     7
370
    35
100
AcDbPolyline
 90
      581
 70
     0
 43
0.0
 10
-279.0388
 20
-152.5371
 10
-279.5348
 20
-152.0688
 10
-279.667
 20
-152.0081
 10
-279.7953
 20
-151.9733
 10
-279.9234
 20
-151.9496
 10
-280.055
 20
-151.9223
 10
-280.194
 20
-151.8767
 10
-280.344
 20
-151.798
 10
-280.5088
 20
-151.6716
 10
-280.6921
 20
-151.4827
 10
-280.8073
 20
-151.3319
 10
-280.8937
 20
-151.1896
 10
-280.964
 20
-151.0544
 10
-281.031
 20
-150.9246
 10
-281.1072
 20
-150.7988
 10
-281.2055
 20
-150.6753
 10
-281.3384
 20
-150.5527
 10
-281.5188
 20
-150.4293
 10
-281.7671
 20
-150.2958
 10
-281.9819
 20
-150.1851
 10
-282.0859
 20
-150.1204
 10
-282.1925
 20
-150.0402
 10
-282.3053
 20
-149.9372
 10
-282.4281
 20
-149.8044
 10
-282.5958
 20
-149.5806
 10
-282.7363
 20
-149.3652
 10
-282.8116
 20
-149.2596
 10
-282.8984
 20
-149.1548
 10
-283.0028
 20
-149.0504
 10
-283.131
 20
-148.9459
 10
-283.3668
 20
-148.7953
 10
-283.6013
 20
-148.664
 10
-283.7161
 20
-148.5948
 10
-283.8281
 20
-148.5176
 10
-283.9364
 20
-148.4279
 10
-284.0404
 20
-148.3215
 10
-284.2287
 20
-148.0802
 10
-284.4056
 20
-147.832
 10
-284.4976
 20
-147.7109
 10
-284.5962
 20
-147.5946
 10
-284.7044
 20
-147.4854
 10
-284.8254
 20
-147.3855
 10
-285.0615
 20
-147.2343
 10
-285.2961
 20
-147.103
 10
-285.4108
 20
-147.0339
 10
-285.5227
 20
-146.9568
 10
-285.6309
 20
-146.8673
 10
-285.7347
 20
-146.7611
 10
-285.913
 20
-146.5313
 10
-286.0805
 20
-146.2926
 10
-286.1676
 20
-146.1757
 10
-286.2612
 20
-146.0636
 10
-286.3641
 20
-145.9587
 10
-286.4793
 20
-145.8633
 10
-286.7285
 20
-145.7031
 10
-286.966
 20
-145.5704
 10
-287.0823
 20
-145.4997
 10
-287.1978
 20
-145.4182
 10
-287.3134
 20
-145.3201
 10
-287.4296
 20
-145.1996
 10
-287.6776
 20
-144.9267
 10
-287.7808
 20
-144.7712
 10
-287.8801
 20
-144.6181
 10
-287.9334
 20
-144.5442
 10
-287.9919
 20
-144.4729
 10
-288.0576
 20
-144.405
 10
-288.1326
 20
-144.3411
 10
-288.4115
 20
-144.1515
 10
-288.6864
 20
-143.9848
 10
-288.821
 20
-143.8975
 10
-288.953
 20
-143.8011
 10
-289.0819
 20
-143.6904
 10
-289.2072
 20
-143.5606
 10
-289.3926
 20
-143.3218
 10
-289.5631
 20
-143.0823
 10
-289.6532
 20
-142.9672
 10
-289.752
 20
-142.8577
 10
-289.8636
 20
-142.7558
 10
-289.9922
 20
-142.6634
 10
-290.1277
 20
-142.5862
 10
-290.2604
 20
-142.5182
 10
-290.3934
 20
-142.4446
 10
-290.5298
 20
-142.3506
 10
-290.6814
 20
-142.2241
 10
-290.8385
 20
-142.0765
 10
-290.986
 20
-141.9198
 10
-291.1085
 20
-141.7661
 10
-291.163
 20
-141.659
 10
-291.2218
 20
-141.5655
 10
-291.286
 20
-141.4748
 10
-291.3565
 20
-141.3759
 10
-291.4524
 20
-141.2873
 10
-291.5871
 20
-141.1897
 10
-291.7512
 20
-141.0822
 10
-291.935
 20
-140.9637
 10
-292.1293
 20
-140.8333
 10
-292.3243
 20
-140.6899
 10
-292.5108
 20
-140.5328
 10
-292.6791
 20
-140.3607
 10
-292.8093
 20
-140.1909
 10
-292.9296
 20
-140.0157
 10
-292.992
 20
-139.9298
 10
-293.0591
 20
-139.8472
 10
-293.1332
 20
-139.7693
 10
-293.2167
 20
-139.6976
 10
-293.5062
 20
-139.4923
 10
-293.7984
 20
-139.2951
 10
-293.941
 20
-139.1928
 10
-294.0787
 20
-139.0845
 10
-294.2098
 20
-138.9675
 10
-294.3324
 20
-138.8391
 10
-294.4902
 20
-138.6468
 10
-294.6437
 20
-138.4526
 10
-294.7232
 20
-138.3578
 10
-294.8068
 20
-138.2661
 10
-294.8964
 20
-138.1787
 10
-294.9937
 20
-138.0968
 10
-295.2613
 20
-137.9097
 10
-295.5056
 20
-137.7511
 10
-295.6303
 20
-137.6606
 10
-295.7626
 20
-137.5508
 10
-295.9072
 20
-137.413
 10
-296.0684
 20
-137.2383
 10
-296.4407
 20
-136.7706
 10
-296.6473
 20
-136.6018
 10
-296.9992
 20
-136.3465
 10
-297.2034
 20
-136.1913
 10
-297.4127
 20
-136.0203
 10
-297.6165
 20
-135.8354
 10
-297.8043
 20
-135.6386
 10
-297.9849
 20
-135.4322
 10
-298.153
 20
-135.2487
 10
-298.2399
 20
-135.1614
 10
-298.3329
 20
-135.0749
 10
-298.4349
 20
-134.9875
 10
-298.5489
 20
-134.8975
 10
-298.7975
 20
-134.7419
 10
-298.9532
 20
-134.6109
 10
-299.1263
 20
-134.4478
 10
-299.3168
 20
-134.2588
 10
-299.5249
 20
-134.05
 10
-299.7505
 20
-133.8276
 10
-299.9937
 20
-133.5979
 10
-300.2545
 20
-133.367
 10
-300.5329
 20
-133.1411
 10
-300.7486
 20
-132.9644
 10
-300.9558
 20
-132.7772
 10
-301.1574
 20
-132.5828
 10
-301.3564
 20
-132.3845
 10
-301.5558
 20
-132.1857
 10
-301.7586
 20
-131.9898
 10
-301.9677
 20
-131.7999
 10
-302.1862
 20
-131.6195
 10
-302.3575
 20
-131.495
 10
-302.5593
 20
-131.3255
 10
-302.7814
 20
-131.1242
 10
-303.0135
 20
-130.904
 10
-303.2455
 20
-130.6781
 10
-303.4673
 20
-130.4596
 10
-303.6687
 20
-130.2614
 10
-303.8395
 20
-130.0967
 10
-303.9641
 20
-130.0097
 10
-304.0911
 20
-129.908
 10
-304.219
 20
-129.7952
 10
-304.3468
 20
-129.6753
 10
-304.5969
 20
-129.429
 10
-304.8314
 20
-129.1995
 10
-304.9627
 20
-129.1066
 10
-305.1031
 20
-128.9922
 10
-305.2493
 20
-128.8622
 10
-305.3978
 20
-128.7225
 10
-305.6884
 20
-128.4375
 10
-305.9477
 20
-128.1843
 10
-306.1117
 20
-128.0658
 10
-306.3037
 20
-127.9052
 10
-306.5142
 20
-127.7148
 10
-306.7339
 20
-127.5067
 10
-306.9535
 20
-127.2931
 10
-307.1637
 20
-127.0861
 10
-307.3551
 20
-126.8979
 10
-307.5183
 20
-126.7407
 10
-307.7813
 20
-126.5289
 10
-308.1189
 20
-126.2446
 10
-308.2889
 20
-126.0962
 10
-308.4455
 20
-125.9547
 10
-308.5779
 20
-125.8286
 10
-308.6756
 20
-125.7261
 10
-309.6676
 20
-124.7896
 10
-309.8293
 20
-124.6691
 10
-309.9905
 20
-124.5506
 10
-310.069
 20
-124.4892
 10
-310.1452
 20
-124.4248
 10
-310.2184
 20
-124.3563
 10
-310.2879
 20
-124.2825
 10
-310.5588
 20
-123.9873
 10
-310.8541
 20
-123.6941
 10
-311.0084
 20
-123.5511
 10
-311.1659
 20
-123.412
 10
-311.3255
 20
-123.2782
 10
-311.4862
 20
-123.1506
 10
-311.6881
 20
-123.004
 10
-311.8011
 20
-122.9256
 10
-311.9117
 20
-122.8232
 10
-312.1065
 20
-122.6043
 10
-312.3266
 20
-122.3573
 10
-312.5073
 20
-122.1709
 10
-312.662
 20
-122.0284
 10
-312.804
 20
-121.9132
 10
-313.1033
 20
-121.6988
 10
-313.5118
 20
-121.3948
 10
-313.674
 20
-121.2228
 10
-313.9211
 20
-120.9315
 10
-314.0667
 20
-120.7653
 10
-314.2218
 20
-120.5986
 10
-314.3824
 20
-120.441
 10
-314.5448
 20
-120.3022
 10
-314.7563
 20
-120.1523
 10
-314.9751
 20
-120.0079
 10
-315.0823
 20
-119.9332
 10
-315.1855
 20
-119.8545
 10
-315.2825
 20
-119.77
 10
-315.3715
 20
-119.6778
 10
-315.6124
 20
-119.3842
 10
-315.783
 20
-119.1647
 10
-315.8706
 20
-119.0635
 10
-315.9752
 20
-118.9577
 10
-316.1083
 20
-118.8396
 10
-316.2814
 20
-118.7014
 10
-316.9017
 20
-118.3123
 10
-316.9734
 20
-118.2418
 10
-317.0648
 20
-118.1329
 10
-317.1743
 20
-117.9947
 10
-317.3002
 20
-117.8361
 10
-317.4408
 20
-117.6661
 10
-317.5945
 20
-117.494
 10
-317.7597
 20
-117.3287
 10
-317.9347
 20
-117.1792
 10
-318.1568
 20
-117.0279
 10
-318.3862
 20
-116.888
 10
-318.4985
 20
-116.8155
 10
-318.6067
 20
-116.7376
 10
-318.7086
 20
-116.6516
 10
-318.8024
 20
-116.5548
 10
-318.9816
 20
-116.3273
 10
-319.1331
 20
-116.1185
 10
-319.2136
 20
-116.0163
 10
-319.3053
 20
-115.9133
 10
-319.4142
 20
-115.8074
 10
-319.5464
 20
-115.6969
 10
-319.802
 20
-115.5187
 10
-320.0651
 20
-115.3515
 10
-320.1935
 20
-115.2646
 10
-320.3167
 20
-115.1715
 10
-320.4325
 20
-115.0693
 10
-320.5383
 20
-114.9551
 10
-320.7053
 20
-114.7344
 10
-320.8432
 20
-114.5388
 10
-320.9176
 20
-114.4436
 10
-321.0044
 20
-114.3465
 10
-321.1101
 20
-114.2449
 10
-321.2413
 20
-114.1359
 10
-321.9436
 20
-113.7064
 10
-322.0457
 20
-113.614
 10
-322.15
 20
-113.4929
 10
-322.2585
 20
-113.3504
 10
-322.3732
 20
-113.1939
 10
-322.4963
 20
-113.0307
 10
-322.6298
 20
-112.8681
 10
-322.7758
 20
-112.7136
 10
-322.9362
 20
-112.5744
 10
-323.1597
 20
-112.4283
 10
-323.3885
 20
-112.3015
 10
-323.5004
 20
-112.2362
 10
-323.6082
 20
-112.1649
 10
-323.7099
 20
-112.0838
 10
-323.8039
 20
-111.9894
 10
-323.9941
 20
-111.7473
 10
-324.1673
 20
-111.5045
 10
-324.2574
 20
-111.3856
 10
-324.3552
 20
-111.27
 10
-324.4646
 20
-111.1587
 10
-324.5895
 20
-111.0528
 10
-324.7223
 20
-110.9594
 10
-324.8511
 20
-110.8814
 10
-324.9768
 20
-110.812
 10
-325.1
 20
-110.7441
 10
-325.2213
 20
-110.6708
 10
-325.3416
 20
-110.5853
 10
-325.4614
 20
-110.4806
 10
-325.5815
 20
-110.3498
 10
-325.7406
 20
-110.1335
 10
-325.8749
 20
-109.9293
 10
-325.9463
 20
-109.8297
 10
-326.0278
 20
-109.7307
 10
-326.1248
 20
-109.6315
 10
-326.2428
 20
-109.5312
 10
-326.3635
 20
-109.4419
 10
-326.4725
 20
-109.37
 10
-326.5709
 20
-109.3119
 10
-326.66
 20
-109.2639
 10
-326.8145
 20
-109.1839
 10
-326.9452
 20
-109.1011
 10
-327.0897
 20
-108.9748
 10
-327.2168
 20
-108.836
 10
-327.3321
 20
-108.6889
 10
-327.4417
 20
-108.5375
 10
-327.5512
 20
-108.3858
 10
-327.6665
 20
-108.2379
 10
-327.7934
 20
-108.0979
 10
-327.9377
 20
-107.9697
 10
-328.0743
 20
-107.872
 10
-328.202
 20
-107.7942
 10
-328.3234
 20
-107.7278
 10
-328.4413
 20
-107.6642
 10
-328.5582
 20
-107.5949
 10
-328.6769
 20
-107.5113
 10
-328.7998
 20
-107.405
 10
-328.9297
 20
-107.2673
 10
-329.0218
 20
-107.1504
 10
-329.0925
 20
-107.0439
 10
-329.1527
 20
-106.9434
 10
-329.2132
 20
-106.8441
 10
-329.2847
 20
-106.7417
 10
-329.3781
 20
-106.6315
 10
-329.5041
 20
-106.5092
 10
-329.6737
 20
-106.37
 10
-329.9521
 20
-106.1884
 10
-330.2434
 20
-106.0219
 10
-330.3847
 20
-105.933
 10
-330.5184
 20
-105.8343
 10
-330.6408
 20
-105.7213
 10
-330.7483
 20
-105.5895
 10
-330.8704
 20
-105.3874
 10
-330.9667
 20
-105.2152
 10
-331.0276
 20
-105.1285
 10
-331.1088
 20
-105.035
 10
-331.2193
 20
-104.9299
 10
-331.368
 20
-104.8085
 10
-331.4911
 20
-104.7224
 10
-331.6071
 20
-104.6543
 10
-331.7183
 20
-104.5964
 10
-331.8267
 20
-104.5407
 10
-331.9346
 20
-104.4795
 10
-332.0443
 20
-104.4049
 10
-332.1578
 20
-104.3091
 10
-332.2773
 20
-104.1841
 10
-332.4427
 20
-104.028
 10
-332.498
 20
-103.908
 10
-332.5529
 20
-103.8079
 10
-332.6146
 20
-103.7106
 10
-332.6907
 20
-103.5991
 10
-332.8437
 20
-103.4371
 10
-332.9853
 20
-103.3152
 10
-333.1193
 20
-103.2226
 10
-333.2495
 20
-103.1484
 10
-333.3796
 20
-103.0818
 10
-333.5133
 20
-103.0119
 10
-333.6545
 20
-102.9277
 10
-333.8069
 20
-102.8186
 10
-333.9377
 20
-102.6988
 10
-334.0486
 20
-102.5678
 10
-334.1471
 20
-102.4287
 10
-334.2408
 20
-102.2848
 10
-334.3371
 20
-102.1393
 10
-334.4434
 20
-101.9954
 10
-334.5673
 20
-101.8564
 10
-334.7162
 20
-101.7254
 10
-334.8521
 20
-101.63
 10
-334.9802
 20
-101.5533
 10
-335.1034
 20
-101.4864
 10
-335.2248
 20
-101.4203
 10
-335.3472
 20
-101.346
 10
-335.4735
 20
-101.2545
 10
-335.6067
 20
-101.1369
 10
-335.7498
 20
-100.9842
 10
-335.897
 20
-100.7788
 10
-336.0804
 20
-100.5107
 10
-336.1873
 20
-100.3736
 10
-336.3052
 20
-100.2453
 10
-336.4347
 20
-100.1339
 10
-336.5765
 20
-100.0477
 10
-336.7023
 20
-99.9855
 10
-336.8219
 20
-99.9218
 10
-336.9359
 20
-99.855
 10
-337.0449
 20
-99.7836
 10
-337.1496
 20
-99.7062
 10
-337.2506
 20
-99.6213
 10
-337.3486
 20
-99.5273
 10
-337.4442
 20
-99.4227
 10
-337.5793
 20
-99.2391
 10
-337.6883
 20
-99.0607
 10
-337.745
 20
-98.9736
 10
-337.8096
 20
-98.8877
 10
-337.8869
 20
-98.8033
 10
-337.9818
 20
-98.7203
 10
-338.1335
 20
-98.6112
 10
-338.276
 20
-98.5224
 10
-338.413
 20
-98.4439
 10
-338.548
 20
-98.366
 10
-338.6845
 20
-98.2787
 10
-338.8261
 20
-98.1722
 10
-338.9765
 20
-98.0365
 10
-339.1391
 20
-97.8618
 10
-339.2712
 20
-97.6832
 10
-339.3898
 20
-97.4967
 10
-339.451
 20
-97.4051
 10
-339.5173
 20
-97.3171
 10
-339.5914
 20
-97.2346
 10
-339.6761
 20
-97.1594
 10
-339.8316
 20
-97.0467
 10
-339.979
 20
-96.9521
 10
-340.1209
 20
-96.8673
 10
-340.2597
 20
-96.7841
 10
-340.398
 20
-96.6941
 10
-340.5381
 20
-96.5892
 10
-340.6826
 20
-96.461
 10
-340.834
 20
-96.3014
 10
-340.9938
 20
-96.0986
 10
-341.1413
 20
-95.8956
 10
-341.2179
 20
-95.7965
 10
-341.3004
 20
-95.7004
 10
-341.3919
 20
-95.6082
 10
-341.4953
 20
-95.521
 10
-341.6218
 20
-95.4406
 10
-341.7353
 20
-95.37
 10
-341.8528
 20
-95.3065
 10
-341.9913
 20
-95.2469
 10
-342.57
 20
-94.7006
 10
-342.7196
 20
-94.5092
 10
-342.8591
 20
-94.3146
 10
-342.9315
 20
-94.2196
 10
-343.009
 20
-94.1278
 10
-343.0942
 20
-94.0406
 10
-343.1897
 20
-93.9595
 10
-343.5083
 20
-93.7403
 10
-343.763
 20
-93.586
 10
-343.884
 20
-93.5042
 10
-344.0101
 20
-93.4038
 10
-344.1484
 20
-93.2732
 10
-344.3059
 20
-93.1009
 10
-344.4362
 20
-92.9297
 10
-344.5553
 20
-92.7555
 10
-344.6171
 20
-92.6704
 10
-344.684
 20
-92.5882
 10
-344.7584
 20
-92.5103
 10
-344.843
 20
-92.4378
 10
-345.1067
 20
-92.2586
 10
-345.3803
 20
-92.0915
 10
-345.5145
 20
-92.0049
 10
-345.6437
 20
-91.9122
 10
-345.7652
 20
-91.8105
 10
-345.8766
 20
-91.6967
 10
-346.3726
 20
-91.0324
 10
-346.4728
 20
-90.9395
 10
-346.6017
 20
-90.847
 10
-346.7552
 20
-90.7486
 10
-346.9287
 20
-90.6377
 10
-347.118
 20
-90.5079
 10
-347.3187
 20
-90.3526
 10
-347.5264
 20
-90.1654
 10
-347.7368
 20
-89.9398
 10
-347.8978
 20
-89.7389
 10
-348.0561
 20
-89.5406
 10
-348.14
 20
-89.446
 10
-348.2303
 20
-89.3566
 10
-348.3293
 20
-89.2736
 10
-348.4392
 20
-89.1986
 10
-348.5927
 20
-89.1029
 10
-348.731
 20
-89.0118
 10
-348.8574
 20
-88.9219
 10
-348.9753
 20
-88.8301
 10
-349.0883
 20
-88.7331
 10
-349.1996
 20
-88.6278
 10
-349.3128
 20
-88.511
 10
-349.4312
 20
-88.3794
 10
-349.6162
 20
-88.1561
 10
-349.7796
 20
-87.9597
 10
-349.8669
 20
-87.8678
 10
-349.9652
 20
-87.778
 10
-350.08
 20
-87.6889
 10
-350.2168
 20
-87.5989
 10
-350.4278
 20
-87.4637
 10
-350.5976
 20
-87.3408
 10
-350.7373
 20
-87.2237
 10
-350.8581
 20
-87.1062
 10
-351.0873
 20
-86.8447
 10
-351.3741
 20
-86.5057
 10
-351.4971
 20
-86.3834
 10
-351.6413
 20
-86.2673
 10
-351.8057
 20
-86.148
 10
-351.9897
 20
-86.0162
 10
-352.1923
 20
-85.8627
 10
-352.4127
 20
-85.6782
 10
-352.6501
 20
-85.4534
 10
-352.9037
 20
-85.1789
 10
-353.0948
 20
-84.976
 10
-353.2988
 20
-84.7882
 10
-353.5115
 20
-84.6103
 10
-353.7286
 20
-84.4374
 10
-353.9459
 20
-84.2645
 10
-354.1592
 20
-84.0866
 10
-354.3643
 20
-83.8986
 10
-354.557
 20
-83.6955
 10
-355.4247
 20
-82.8763
 10
-355.646
 20
-82.6938
 10
-355.8825
 20
-82.4822
 10
-356.1299
 20
-82.2507
 10
-356.3834
 20
-82.0087
 10
-356.6385
 20
-81.7654
 10
-356.8906
 20
-81.5301
 10
-357.1352
 20
-81.312
 10
-357.3676
 20
-81.1205
 10
-357.5064
 20
-81.007
 10
-357.6274
 20
-80.8987
 10
-357.7329
 20
-80.7967
 10
-357.8254
 20
-80.7021
 10
-357.9805
 20
-80.5389
 10
-358.1116
 20
-80.4175
 10
-358.2536
 20
-80.3152
 10
-358.3875
 20
-80.1996
 10
-358.5179
 20
-80.0759
 10
-358.6492
 20
-79.9492
 10
-359.7238
 20
-79.0127
 10
-359.623
 20
-78.7959
 10
-359.5383
 20
-78.5897
 10
-359.4657
 20
-78.3904
 10
-359.4012
 20
-78.1945
 10
-359.3409
 20
-77.9985
 10
-359.2808
 20
-77.7988
 10
-359.2169
 20
-77.592
 10
-359.1452
 20
-77.3743
 10
-359.1035
 20
-76.6718
 10
-359.0625
 20
-76.4759
 10
-359.0078
 20
-76.3916
 10
-358.985
 20
-76.3515
 10
-358.9804
 20
-76.3055
 10
-358.9798
 20
-76.2036
 10
-358.9251
 20
-76.1189
 10
-358.9024
 20
-76.0783
 10
-358.8977
 20
-76.0319
 10
-358.8972
 20
-75.9296
 10
-358.8369
 20
-75.833
 10
-358.7856
 20
-75.7194
 10
-358.7414
 20
-75.5938
 10
-358.7026
 20
-75.4609
 10
-358.6343
 20
-75.1929
 10
-358.5665
 20
-74.9543
 10
-358.4838
 20
-73.7055
 10
-358.4409
 20
-73.3383
 10
-358.4168
 20
-72.6213
 10
-358.4077
 20
-71.6634
 10
-358.4093
 20
-70.5736
 10
-358.4176
 20
-69.4606
 10
-358.4285
 20
-68.4333
 10
-358.4381
 20
-67.6006
 10
-358.4422
 20
-67.0715
 10
-358.4422
 20
32.8338
 10
-358.4779
 20
33.1524
 10
-358.4956
 20
33.4903
 10
-358.5073
 20
33.7924
 10
-358.5249
 20
34.0039
 10
-358.7729
 20
35.1365
 10
-358.8276
 20
35.2205
 10
-358.8504
 20
35.2608
 10
-358.855
 20
35.307
 10
-358.8555
 20
35.4088
 10
-358.9176
 20
35.53
 10
-358.9545
 20
35.6394
 10
-358.9832
 20
35.7505
 10
-359.0209
 20
35.8771
 10
-359.0625
 20
36.6188
 10
-359.1177
 20
36.8075
 10
-359.1648
 20
37.0057
 10
-359.2124
 20
37.2054
 10
-359.2689
 20
37.3992
 10
-359.3438
 20
37.5936
 10
-359.4262
 20
37.7848
 10
-359.4659
 20
37.881
 10
-359.5024
 20
37.9783
 10
-359.5338
 20
38.0777
 10
-359.5585
 20
38.1797
  0
LWPOLYLINE
  5
8F
330
1F
100
AcDbEntity
  8
Layer 1
 62
     7
370
    35
100
AcDbPolyline
 90
      394
 70
     0
 43
0.0
 10
-613.4345
 20
50.9412
 10
-612.5668
 20
50.122
 10
-612.4669
 20
50.0095
 10
-612.396
 20
49.9363
 10
-612.3429
 20
49.8939
 10
-612.2961
 20
49.8738
 10
-612.1765
 20
49.8669
 10
-611.9465
 20
49.848
 10
-611.6569
 20
49.7699
 10
-608.7636
 20
49.419
 10
-608.6434
 20
49.3895
 10
-608.5429
 20
49.3788
 10
-608.4392
 20
49.3785
 10
-608.3093
 20
49.3803
 10
-608.0196
 20
49.3022
 10
-606.3664
 20
49.0288
 10
-606.2538
 20
49.0224
 10
-606.1716
 20
49.0079
 10
-606.0937
 20
48.9842
 10
-605.9941
 20
48.9507
 10
-605.5397
 20
48.912
 10
-605.3573
 20
48.8671
 10
-605.1675
 20
48.8337
 10
-604.9778
 20
48.8004
 10
-604.7957
 20
48.7559
 10
-604.6304
 20
48.7559
 10
-604.2997
 20
48.6778
 10
-603.1835
 20
48.5217
 10
-602.9355
 20
48.4437
 10
-602.7701
 20
48.4437
 10
-602.6127
 20
48.3988
 10
-602.4589
 20
48.3636
 10
-602.3058
 20
48.3294
 10
-602.1504
 20
48.2876
 10
-601.9025
 20
48.2876
 10
-601.6128
 20
48.2096
 10
-598.7606
 20
47.8581
 10
-598.6404
 20
47.8286
 10
-598.5401
 20
47.8179
 10
-598.4364
 20
47.8175
 10
-598.3062
 20
47.8193
 10
-597.9756
 20
47.7413
 10
-595.2887
 20
47.3123
 10
-595.1551
 20
47.2784
 10
-595.0202
 20
47.2534
 10
-594.8853
 20
47.2285
 10
-594.7517
 20
47.1949
 10
-594.0487
 20
47.1169
 10
-593.8773
 20
47.0735
 10
-593.6973
 20
47.0386
 10
-593.5172
 20
47.0039
 10
-593.3458
 20
46.9608
 10
-591.8578
 20
46.7261
 10
-591.5688
 20
46.6481
 10
-591.0728
 20
46.6099
 10
-590.9952
 20
46.5849
 10
-590.9548
 20
46.5742
 10
-590.9114
 20
46.5713
 10
-590.8248
 20
46.57
 10
-590.7389
 20
46.5444
 10
-590.6866
 20
46.5334
 10
-590.6311
 20
46.5312
 10
-590.5352
 20
46.5318
 10
-588.9235
 20
46.3359
 10
-588.5922
 20
46.2578
 10
-588.0136
 20
46.2196
 10
-587.6829
 20
46.1416
 10
-587.3939
 20
46.1416
 10
-587.1043
 20
46.0635
 10
-586.1539
 20
45.9075
 10
-586.028
 20
45.8744
 10
-585.9035
 20
45.8481
 10
-585.7802
 20
45.822
 10
-585.6579
 20
45.7895
 10
-583.7566
 20
45.5172
 10
-583.6343
 20
45.4848
 10
-583.5109
 20
45.4589
 10
-583.3864
 20
45.4326
 10
-583.2607
 20
45.3993
 10
-583.0953
 20
45.3993
 10
-582.7669
 20
45.3384
 10
-582.4308
 20
45.2623
 10
-582.0962
 20
45.1864
 10
-581.7721
 20
45.1264
 10
-579.7881
 20
44.8923
 10
-579.7025
 20
44.8662
 10
-579.6503
 20
44.855
 10
-579.5948
 20
44.8525
 10
-579.4991
 20
44.853
 10
-578.8788
 20
44.7749
 10
-578.5482
 20
44.6969
 10
-577.9695
 20
44.6581
 10
-577.8921
 20
44.6337
 10
-577.8518
 20
44.6231
 10
-577.8083
 20
44.6201
 10
-577.7215
 20
44.6188
 10
-572.5547
 20
43.721
 10
-572.3793
 20
43.7027
 10
-572.1584
 20
43.6617
 10
-571.9394
 20
43.6114
 10
-571.7697
 20
43.5649
 10
-571.5217
 20
43.5649
 10
-571.232
 20
43.4869
 10
-570.7361
 20
43.4487
 10
-570.4054
 20
43.3707
 10
-567.1398
 20
42.9804
 10
-566.8508
 20
42.9024
 10
-566.3132
 20
42.8243
 10
-566.0242
 20
42.7463
 10
-565.8588
 20
42.7463
 10
-565.7328
 20
42.7132
 10
-565.6081
 20
42.6869
 10
-565.4848
 20
42.6609
 10
-565.3628
 20
42.6284
 10
-561.477
 20
42.004
 10
-561.188
 20
41.926
 10
-560.6504
 20
41.8872
 10
-560.3197
 20
41.8092
 10
-559.1214
 20
41.6918
 10
-559.0438
 20
41.6675
 10
-559.0034
 20
41.6571
 10
-558.96
 20
41.6543
 10
-558.8734
 20
41.6531
 10
-557.6328
 20
41.497
 10
-557.3438
 20
41.4189
 10
-557.0541
 20
41.4189
 10
-556.7651
 20
41.3409
 10
-555.7731
 20
41.1848
 10
-555.3182
 20
41.068
 10
-553.4169
 20
40.7946
 10
-553.2946
 20
40.7627
 10
-553.1713
 20
40.737
 10
-553.0468
 20
40.7109
 10
-552.9209
 20
40.6778
 10
-551.2676
 20
40.4043
 10
-550.9369
 20
40.3263
 10
-547.5477
 20
39.936
 10
-547.2581
 20
39.858
 10
-546.8031
 20
39.8193
 10
-546.6142
 20
39.7862
 10
-546.419
 20
39.7474
 10
-546.2195
 20
39.7051
 10
-546.018
 20
39.6611
 10
-545.8165
 20
39.6173
 10
-545.617
 20
39.5758
 10
-545.4216
 20
39.5384
 10
-545.2325
 20
39.5071
 10
-542.5872
 20
39.077
 10
-542.4746
 20
39.0708
 10
-542.3924
 20
39.0566
 10
-542.3147
 20
39.0334
 10
-542.2155
 20
39.0
 10
-541.1819
 20
38.8428
 10
-540.8929
 20
38.7648
 10
-540.3553
 20
38.726
 10
-540.0246
 20
38.648
 10
-536.5937
 20
38.2578
 10
-536.3614
 20
38.2186
 10
-536.1552
 20
38.1741
 10
-535.9672
 20
38.1227
 10
-535.7895
 20
38.0631
 10
-535.6141
 20
37.9937
 10
-535.4332
 20
37.9129
 10
-535.2388
 20
37.8193
 10
-535.0231
 20
37.7114
 10
-534.7454
 20
37.8239
 10
-534.4138
 20
37.9688
 10
-534.087
 20
38.1216
 10
-533.8241
 20
38.2578
 10
-533.6223
 20
38.2805
 10
-533.4146
 20
38.3185
 10
-533.2039
 20
38.3692
 10
-532.9933
 20
38.4302
 10
-532.7859
 20
38.4988
 10
-532.5846
 20
38.5727
 10
-532.3924
 20
38.6492
 10
-532.2125
 20
38.726
 10
-531.9958
 20
38.8109
 10
-531.7588
 20
38.8861
 10
-531.5212
 20
38.9593
 10
-531.3032
 20
39.0382
 10
-531.2299
 20
39.0966
 10
-531.2171
 20
39.1134
 10
-531.1956
 20
39.1121
 10
-531.0962
 20
39.1168
 10
-531.0069
 20
39.1684
 10
-530.9642
 20
39.1898
 10
-530.9152
 20
39.1941
 10
-530.8072
 20
39.1949
 10
-530.6832
 20
39.2546
 10
-530.5817
 20
39.2892
 10
-530.4793
 20
39.3156
 10
-530.3522
 20
39.351
 10
-529.5256
 20
39.429
 10
-529.3975
 20
39.4586
 10
-529.2545
 20
39.4761
 10
-529.1011
 20
39.4841
 10
-528.9415
 20
39.4851
 10
-528.6207
 20
39.4758
 10
-528.3266
 20
39.4683
 10
-527.7862
 20
39.5182
 10
-526.692
 20
39.5452
 10
-525.2166
 20
39.5544
 10
-523.5324
 20
39.5507
 10
-521.8121
 20
39.5391
 10
-520.228
 20
39.5246
 10
-518.9528
 20
39.5123
 10
-518.1589
 20
39.5071
 10
-365.593
 20
39.5071
 10
-365.2237
 20
39.4721
 10
-364.792
 20
39.4529
 10
-364.4096
 20
39.4412
 10
-364.1877
 20
39.429
 10
-363.6507
 20
39.351
 10
-363.4088
 20
39.31
 10
-363.1243
 20
39.2554
 10
-362.9809
 20
39.2239
 10
-362.8446
 20
39.1901
 10
-362.7213
 20
39.1542
 10
-362.6171
 20
39.1168
 10
-362.5405
 20
39.0681
 10
-362.4613
 20
39.0258
 10
-362.38
 20
38.9886
 10
-362.2969
 20
38.9556
 10
-362.1273
 20
38.8976
 10
-361.9558
 20
38.8428
 10
-361.4181
 20
38.8041
 10
-361.3189
 20
38.7709
 10
-361.2412
 20
38.7474
 10
-361.1591
 20
38.7327
 10
-361.0465
 20
38.726
 10
-360.9834
 20
38.6896
 10
-360.9024
 20
38.6518
 10
-360.809
 20
38.6143
 10
-360.7086
 20
38.5789
 10
-360.5079
 20
38.521
 10
-360.3435
 20
38.4919
 10
-360.1624
 20
38.404
 10
-359.9592
 20
38.3207
 10
-359.752
 20
38.2449
 10
-359.5585
 20
38.1797
 10
-359.4712
 20
38.2611
 10
-359.3919
 20
38.3299
 10
-359.3143
 20
38.3878
 10
-359.2322
 20
38.4363
 10
-359.1391
 20
38.4771
 10
-359.0289
 20
38.5119
 10
-358.8953
 20
38.5423
 10
-358.7318
 20
38.5699
 10
-350.9191
 20
39.858
 10
-350.5885
 20
39.936
 10
-346.9928
 20
40.3656
 10
-346.6622
 20
40.4436
 10
-345.7939
 20
40.5997
 10
-345.683
 20
40.6074
 10
-345.5801
 20
40.6242
 10
-345.4808
 20
40.6483
 10
-345.3806
 20
40.6778
 10
-345.1736
 20
40.6778
 10
-344.7193
 20
40.7946
 10
-342.818
 20
41.068
 10
-342.6957
 20
41.0999
 10
-342.5722
 20
41.1258
 10
-342.4477
 20
41.1519
 10
-342.322
 20
41.1848
 10
-342.1567
 20
41.1848
 10
-341.9087
 20
41.2628
 10
-341.7433
 20
41.2628
 10
-341.4953
 20
41.3409
 10
-341.3798
 20
41.3488
 10
-341.2614
 20
41.366
 10
-341.1462
 20
41.3901
 10
-341.0404
 20
41.4189
 10
-340.7514
 20
41.4189
 10
-340.4617
 20
41.497
 10
-339.842
 20
41.5363
 10
-339.5114
 20
41.6138
 10
-337.2378
 20
41.8872
 10
-337.1253
 20
41.9163
 10
-337.0372
 20
41.927
 10
-336.946
 20
41.9276
 10
-336.8245
 20
41.926
 10
-336.5349
 20
42.004
 10
-335.9152
 20
42.082
 10
-335.6672
 20
42.1601
 10
-332.6496
 20
42.6284
 10
-332.5274
 20
42.6609
 10
-332.4041
 20
42.6869
 10
-332.2795
 20
42.7132
 10
-332.1536
 20
42.7463
 10
-329.2187
 20
43.1747
 10
-329.1331
 20
43.2008
 10
-329.0809
 20
43.2124
 10
-329.0254
 20
43.215
 10
-328.9297
 20
43.2146
 10
-326.6561
 20
43.4869
 10
-326.3665
 20
43.5649
 10
-320.2493
 20
44.5801
 10
-319.9186
 20
44.6581
 10
-316.9427
 20
45.0091
 10
-316.8224
 20
45.0392
 10
-316.7219
 20
45.0503
 10
-316.6181
 20
45.0507
 10
-316.4878
 20
45.0489
 10
-316.1987
 20
45.1264
 10
-312.1065
 20
45.7895
 10
-311.9805
 20
45.8226
 10
-311.8558
 20
45.8489
 10
-311.7325
 20
45.875
 10
-311.6105
 20
45.9075
 10
-310.7839
 20
46.0635
 10
-310.6684
 20
46.0712
 10
-310.55
 20
46.0883
 10
-310.4347
 20
46.1125
 10
-310.3289
 20
46.1416
 10
-310.0393
 20
46.1416
 10
-309.7503
 20
46.2196
 10
-308.9236
 20
46.2977
 10
-308.8462
 20
46.3219
 10
-308.8059
 20
46.3321
 10
-308.7624
 20
46.3347
 10
-308.6756
 20
46.3359
 10
-306.1957
 20
46.6481
 10
-306.1181
 20
46.6728
 10
-306.0777
 20
46.6836
 10
-306.0344
 20
46.6866
 10
-305.9477
 20
46.6879
 10
-305.8523
 20
46.7147
 10
-305.7884
 20
46.7255
 10
-305.7214
 20
46.7271
 10
-305.617
 20
46.7261
 10
-304.9557
 20
46.8822
 10
-304.8428
 20
46.8889
 10
-304.7604
 20
46.9036
 10
-304.6826
 20
46.9273
 10
-304.5834
 20
46.9608
 10
-304.3354
 20
46.9608
 10
-303.8805
 20
47.0782
 10
-301.9792
 20
47.351
 10
-301.8572
 20
47.3831
 10
-301.7339
 20
47.4088
 10
-301.6092
 20
47.4348
 10
-301.4832
 20
47.4678
 10
-301.3179
 20
47.4678
 10
-301.0699
 20
47.5459
 10
-300.9046
 20
47.5459
 10
-300.6566
 20
47.6239
 10
-300.4912
 20
47.6239
 10
-300.2022
 20
47.702
 10
-299.9126
 20
47.702
 10
-299.5819
 20
47.78
 10
-298.7553
 20
47.8581
 10
-298.6779
 20
47.8825
 10
-298.6375
 20
47.8931
 10
-298.594
 20
47.8961
 10
-298.5073
 20
47.8974
 10
-298.4216
 20
47.9233
 10
-298.3694
 20
47.9344
 10
-298.3139
 20
47.9367
 10
-298.2183
 20
47.9361
 10
-296.854
 20
48.0922
 10
-296.5233
 20
48.1702
 10
-295.9857
 20
48.2096
 10
-295.6967
 20
48.2876
 10
-293.9607
 20
48.5605
 10
-293.7127
 20
48.6385
 10
-289.4962
 20
49.3022
 10
-289.1656
 20
49.3803
 10
-288.2979
 20
49.4577
 10
-288.2203
 20
49.4826
 10
-288.1799
 20
49.4932
 10
-288.1365
 20
49.4959
 10
-288.0499
 20
49.497
 10
-287.4712
 20
49.5751
 10
-287.3758
 20
49.6025
 10
-287.3119
 20
49.6134
 10
-287.245
 20
49.6149
 10
-287.1406
 20
49.6138
 10
-286.4376
 20
49.6919
 10
-286.107
 20
49.7699
 10
-285.8179
 20
49.7699
 10
-285.5283
 20
49.848
 10
-285.2958
 20
49.8691
 10
-285.1391
 20
49.8922
 10
-285.0649
 20
49.9275
 10
-284.9805
 20
49.9909
 10
-284.8764
 20
50.0916
 10
-284.7427
 20
50.2388
 10
-284.4631
 20
50.5571
 10
-284.0934
 20
50.9872
 10
-283.9139
 20
51.2051
 10
-283.759
 20
51.4041
 10
-283.6442
 20
51.5686
 10
-283.5854
 20
51.6829
  0
LWPOLYLINE
  5
90
330
1F
100
AcDbEntity
  8
Layer 1
 62
     7
370
    35
100
AcDbPolyline
 90
      292
 70
     1
 43
0.0
 10
-608.3503
 20
53.5555
 10
-608.4697
 20
53.5259
 10
-608.6171
 20
53.5095
 10
-608.7852
 20
53.5025
 10
-608.9664
 20
53.5013
 10
-609.1532
 20
53.5019
 10
-609.3382
 20
53.5006
 10
-609.514
 20
53.4937
 10
-609.6729
 20
53.4774
 10
-610.4996
 20
53.3213
 10
-610.701
 20
53.2966
 10
-610.8359
 20
53.2804
 10
-610.9048
 20
53.2641
 10
-610.9887
 20
53.2362
 10
-611.0981
 20
53.192
 10
-611.2436
 20
53.1271
 10
-612.4841
 20
52.5409
 10
-612.6378
 20
52.3639
 10
-612.7737
 20
52.1709
 10
-612.8957
 20
51.9666
 10
-613.0077
 20
51.7558
 10
-613.1137
 20
51.5431
 10
-613.2175
 20
51.3333
 10
-613.3231
 20
51.1311
 10
-613.4345
 20
50.9412
 10
-613.646
 20
50.8616
 10
-613.9216
 20
50.7615
 10
-614.2398
 20
50.6493
 10
-614.5787
 20
50.5334
 10
-614.9166
 20
50.4221
 10
-615.232
 20
50.3238
 10
-615.5031
 20
50.247
 10
-615.7081
 20
50.2
 10
-615.9144
 20
50.0821
 10
-616.0173
 20
50.0332
 10
-616.1144
 20
49.9906
 10
-616.2148
 20
49.9546
 10
-616.3278
 20
49.926
 10
-616.4751
 20
49.8224
 10
-616.6319
 20
49.7246
 10
-616.7916
 20
49.6299
 10
-616.948
 20
49.5358
 10
-617.0333
 20
49.4483
 10
-617.1117
 20
49.34
 10
-617.1827
 20
49.2165
 10
-617.2454
 20
49.0831
 10
-617.2994
 20
48.9454
 10
-617.344
 20
48.8087
 10
-617.3785
 20
48.6786
 10
-617.4024
 20
48.5605
 10
-617.8984
 20
45.6334
 10
-617.9605
 20
45.0747
 10
-617.9974
 20
44.3452
 10
-618.0142
 20
43.4958
 10
-618.0162
 20
42.5774
 10
-618.0087
 20
41.6411
 10
-617.9968
 20
40.7379
 10
-617.9858
 20
39.9186
 10
-617.981
 20
39.2342
 10
-617.981
 20
-51.0315
 10
-617.981
 20
-147.3074
 10
-617.8163
 20
-148.6337
 10
-617.7862
 20
-148.7322
 10
-617.7745
 20
-148.804
 10
-617.7733
 20
-148.8787
 10
-617.7747
 20
-148.9857
 10
-617.6504
 20
-149.532
 10
-617.6144
 20
-149.7192
 10
-617.5612
 20
-149.9717
 10
-617.495
 20
-150.2658
 10
-617.42
 20
-150.5774
 10
-617.3402
 20
-150.8828
 10
-617.2597
 20
-151.158
 10
-617.1828
 20
-151.3792
 10
-617.1134
 20
-151.5225
 10
-617.0477
 20
-151.617
 10
-616.9902
 20
-151.6902
 10
-616.9368
 20
-151.7469
 10
-616.8829
 20
-151.7919
 10
-616.7564
 20
-151.866
 10
-616.5757
 20
-151.9509
 10
-616.3694
 20
-152.0688
 10
-616.2649
 20
-152.0817
 10
-616.1991
 20
-152.1001
 10
-616.1359
 20
-152.1223
 10
-616.0387
 20
-152.1469
 10
-615.9286
 20
-152.2082
 10
-615.7629
 20
-152.2827
 10
-615.5595
 20
-152.3641
 10
-615.3358
 20
-152.4461
 10
-615.1095
 20
-152.5222
 10
-614.8983
 20
-152.5864
 10
-614.7199
 20
-152.6322
 10
-614.5918
 20
-152.6534
 10
-614.552
 20
-152.7962
 10
-614.4733
 20
-153.034
 10
-614.3669
 20
-153.3339
 10
-614.2439
 20
-153.6627
 10
-614.1153
 20
-153.9873
 10
-613.9922
 20
-154.2746
 10
-613.8856
 20
-154.4916
 10
-613.8068
 20
-154.6051
 10
-613.5923
 20
-154.7122
 10
-613.3635
 20
-154.8045
 10
-613.1257
 20
-154.8866
 10
-612.8843
 20
-154.9632
 10
-612.6446
 20
-155.039
 10
-612.4118
 20
-155.1185
 10
-612.1912
 20
-155.2065
 10
-611.9882
 20
-155.3075
 10
-611.8894
 20
-155.3192
 10
-611.7979
 20
-155.3378
 10
-611.7115
 20
-155.3609
 10
-611.6282
 20
-155.3862
 10
-611.546
 20
-155.4114
 10
-611.4628
 20
-155.4342
 10
-611.3765
 20
-155.4524
 10
-611.2852
 20
-155.4636
 10
-611.1886
 20
-155.5121
 10
-611.1219
 20
-155.5361
 10
-611.0541
 20
-155.5531
 10
-610.9545
 20
-155.5804
 10
-609.8383
 20
-155.6584
 10
-609.0325
 20
-155.7274
 10
-607.8411
 20
-155.767
 10
-606.3816
 20
-155.7836
 10
-604.7715
 20
-155.7832
 10
-603.1282
 20
-155.7721
 10
-601.5691
 20
-155.7564
 10
-600.2119
 20
-155.7425
 10
-599.1739
 20
-155.7365
 10
-447.1873
 20
-155.7365
 10
-285.0323
 20
-155.7365
 10
-284.8488
 20
-155.7141
 10
-284.6773
 20
-155.7015
 10
-284.5153
 20
-155.6954
 10
-284.3599
 20
-155.693
 10
-284.2084
 20
-155.6912
 10
-284.0582
 20
-155.6868
 10
-283.9065
 20
-155.6769
 10
-283.7507
 20
-155.6584
 10
-282.7587
 20
-155.5023
 10
-282.6605
 20
-155.4568
 10
-282.548
 20
-155.4167
 10
-282.4254
 20
-155.381
 10
-282.297
 20
-155.3486
 10
-282.0392
 20
-155.2892
 10
-281.8084
 20
-155.2295
 10
-281.6431
 20
-155.2295
 10
-281.5535
 20
-155.1779
 10
-281.5107
 20
-155.1566
 10
-281.4617
 20
-155.1522
 10
-281.3534
 20
-155.1514
 10
-281.2727
 20
-155.1044
 10
-281.2379
 20
-155.0848
 10
-281.1989
 20
-155.079
 10
-281.1055
 20
-155.0734
 10
-280.9314
 20
-154.9894
 10
-280.7577
 20
-154.9224
 10
-280.5846
 20
-154.8646
 10
-280.4126
 20
-154.8086
 10
-280.242
 20
-154.7466
 10
-280.0729
 20
-154.6711
 10
-279.9059
 20
-154.5744
 10
-279.7412
 20
-154.449
 10
-279.6511
 20
-154.1966
 10
-279.5473
 20
-153.8852
 10
-279.499
 20
-153.7255
 10
-279.4578
 20
-153.5728
 10
-279.4272
 20
-153.4344
 10
-279.4105
 20
-153.3176
 10
-279.3227
 20
-153.154
 10
-279.2175
 20
-152.9356
 10
-279.1159
 20
-152.713
 10
-279.0388
 20
-152.5371
 10
-277.8399
 20
-152.107
 10
-277.0549
 20
-151.3659
 10
-276.9615
 20
-151.2397
 10
-276.8453
 20
-151.0558
 10
-276.7164
 20
-150.832
 10
-276.5847
 20
-150.5857
 10
-276.46
 20
-150.3344
 10
-276.3524
 20
-150.0957
 10
-276.2718
 20
-149.8872
 10
-276.2282
 20
-149.7263
 10
-276.2282
 20
-149.454
 10
-276.1456
 20
-149.1418
 10
-276.1456
 20
-148.5174
 10
-276.1161
 20
-148.4081
 10
-276.0984
 20
-148.2907
 10
-276.09
 20
-148.1676
 10
-276.0886
 20
-148.0409
 10
-276.0969
 20
-147.7854
 10
-276.1039
 20
-147.5416
 10
-276.0632
 20
-147.2044
 10
-276.0403
 20
-146.5539
 10
-276.0313
 20
-145.6877
 10
-276.0326
 20
-144.7031
 10
-276.0401
 20
-143.6978
 10
-276.0502
 20
-142.7691
 10
-276.0591
 20
-142.0147
 10
-276.0629
 20
-141.532
 10
-276.0629
 20
-51.1096
 10
-276.0629
 20
45.3213
 10
-276.0938
 20
45.5583
 10
-276.1113
 20
45.8003
 10
-276.1199
 20
46.0458
 10
-276.1241
 20
46.2934
 10
-276.1284
 20
46.5414
 10
-276.1372
 20
46.7883
 10
-276.1551
 20
47.0327
 10
-276.1866
 20
47.273
 10
-276.2154
 20
47.3628
 10
-276.2272
 20
47.4232
 10
-276.2291
 20
47.4865
 10
-276.2282
 20
47.5852
 10
-276.3651
 20
47.932
 10
-276.5423
 20
48.3413
 10
-276.6296
 20
48.5445
 10
-276.7072
 20
48.7335
 10
-276.7685
 20
48.8982
 10
-276.8069
 20
49.0288
 10
-277.1375
 20
49.3803
 10
-277.3089
 20
49.6071
 10
-277.5205
 20
49.9138
 10
-277.627
 20
50.068
 10
-277.7266
 20
50.2073
 10
-277.8133
 20
50.3199
 10
-277.8815
 20
50.3943
 10
-278.0085
 20
50.4684
 10
-278.2171
 20
50.547
 10
-278.4823
 20
50.6278
 10
-278.7791
 20
50.7084
 10
-279.0825
 20
50.7864
 10
-279.3676
 20
50.8594
 10
-279.6094
 20
50.9249
 10
-279.7828
 20
50.9805
 10
-279.9923
 20
51.0562
 10
-280.2221
 20
51.1321
 10
-280.4661
 20
51.2064
 10
-280.7181
 20
51.2772
 10
-280.972
 20
51.3425
 10
-281.2217
 20
51.4006
 10
-281.4611
 20
51.4496
 10
-281.6841
 20
51.4875
 10
-281.8044
 20
51.4851
 10
-281.8988
 20
51.4844
 10
-281.9892
 20
51.4951
 10
-282.0974
 20
51.5268
 10
-282.9241
 20
51.5656
 10
-283.0547
 20
51.5908
 10
-283.2093
 20
51.6253
 10
-283.3866
 20
51.6593
 10
-283.5854
 20
51.6829
 10
-283.6167
 20
51.8242
 10
-283.6839
 20
51.9935
 10
-283.778
 20
52.181
 10
-283.8896
 20
52.3769
 10
-284.1292
 20
52.7549
 10
-284.3294
 20
53.049
 10
-284.4226
 20
53.0942
 10
-284.4833
 20
53.1173
 10
-284.5497
 20
53.1259
 10
-284.66
 20
53.1271
 10
-284.7496
 20
53.1786
 10
-284.7924
 20
53.2
 10
-284.8414
 20
53.2043
 10
-284.9497
 20
53.2051
 10
-285.5283
 20
53.2831
 10
-285.8179
 20
53.3612
 10
-286.9752
 20
53.4392
 10
-287.0498
 20
53.4584
 10
-287.1245
 20
53.471
 10
-287.1996
 20
53.4782
 10
-287.2755
 20
53.4813
 10
-287.4313
 20
53.48
 10
-287.5949
 20
53.4774
 10
-287.7064
 20
53.5043
 10
-287.8257
 20
53.5206
 10
-287.9507
 20
53.5285
 10
-288.0793
 20
53.5302
 10
-288.3387
 20
53.5234
 10
-288.5869
 20
53.5173
 10
-289.1174
 20
53.5665
 10
-290.1896
 20
53.5931
 10
-291.6348
 20
53.6022
 10
-293.2843
 20
53.5985
 10
-294.9691
 20
53.5871
 10
-296.5207
 20
53.5728
 10
-297.7702
 20
53.5607
 10
-298.5489
 20
53.5555
 10
-608.3503
 20
53.5555
  0
LWPOLYLINE
  5
91
330
1F
100
AcDbEntity
  8
Layer 1
 62
     7
370
    35
100
AcDbPolyline
 90
       19
 70
     0
 43
0.0
 10
-674.8164
 20
-162.9959
 10
-675.0479
 20
-163.0669
 10
-675.3988
 20
-163.1489
 10
-675.7581
 20
-163.2226
 10
-676.0147
 20
-163.2683
 10
-676.5023
 20
-163.2781
 10
-677.6682
 20
-163.2847
 10
-679.2902
 20
-163.2874
 10
-681.1465
 20
-163.286
 10
-683.0149
 20
-163.28
 10
-684.6734
 20
-163.269
 10
-685.9
 20
-163.2525
 10
-686.4727
 20
-163.2301
 10
-686.8072
 20
-163.1895
 10
-687.2639
 20
-163.1393
 10
-687.4926
 20
-163.1124
 10
-687.697
 20
-163.0854
 10
-687.8591
 20
-163.0591
 10
-687.9606
 20
-163.0341
  0
LWPOLYLINE
  5
92
330
1F
100
AcDbEntity
  8
Layer 1
 62
     7
370
    35
100
AcDbPolyline
 90
       42
 70
     0
 43
0.0
 10
-664.8544
 20
-163.152
 10
-664.9337
 20
-163.1751
 10
-665.0195
 20
-163.1912
 10
-665.1091
 20
-163.2019
 10
-665.1996
 20
-163.2088
 10
-665.3725
 20
-163.2174
 10
-665.5163
 20
-163.2301
 10
-665.9709
 20
-163.2746
 10
-666.8757
 20
-163.2991
 10
-668.0903
 20
-163.3078
 10
-669.4748
 20
-163.3052
 10
-670.8889
 20
-163.2956
 10
-672.1924
 20
-163.2833
 10
-673.2451
 20
-163.2728
 10
-673.907
 20
-163.2683
 10
-674.1354
 20
-163.2082
 10
-674.3724
 20
-163.1523
 10
-674.4898
 20
-163.1215
 10
-674.604
 20
-163.0863
 10
-674.7135
 20
-163.0451
 10
-674.8164
 20
-162.9959
 10
-674.7716
 20
-162.3388
 10
-674.7466
 20
-160.8207
 10
-674.7373
 20
-158.7103
 10
-674.7393
 20
-156.276
 10
-674.7484
 20
-153.7866
 10
-674.7601
 20
-151.5107
 10
-674.7703
 20
-149.7168
 10
-674.7747
 20
-148.6735
 10
-674.7747
 20
-48.3005
 10
-674.7564
 20
-48.1834
 10
-674.7509
 20
-48.1074
 10
-674.7546
 20
-48.0609
 10
-674.7636
 20
-48.0326
 10
-674.7739
 20
-48.0109
 10
-674.7817
 20
-47.9843
 10
-674.7833
 20
-47.9413
 10
-674.7747
 20
-47.8704
 10
-674.7427
 20
-47.7499
 10
-674.7315
 20
-47.6432
 10
-674.7316
 20
-47.533
 10
-674.7337
 20
-47.4021
  0
LWPOLYLINE
  5
93
330
1F
100
AcDbEntity
  8
Layer 1
 62
     7
370
    35
100
AcDbPolyline
 90
       25
 70
     0
 43
0.0
 10
-267.9612
 20
190.6127
 10
-268.0438
 20
191.2758
 10
-268.069
 20
191.3708
 10
-268.0809
 20
191.462
 10
-268.0839
 20
191.5504
 10
-268.0827
 20
191.6368
 10
-268.0818
 20
191.722
 10
-268.0857
 20
191.8068
 10
-268.0991
 20
191.8921
 10
-268.1265
 20
191.9788
 10
-268.0997
 20
192.2358
 10
-268.0871
 20
192.6977
 10
-268.0855
 20
193.3013
 10
-268.0915
 20
193.9834
 10
-268.1019
 20
194.6807
 10
-268.1134
 20
195.3302
 10
-268.1227
 20
195.8686
 10
-268.1265
 20
196.2326
 10
-268.1265
 20
200.4859
 10
-268.2089
 20
200.766
 10
-268.2796
 20
201.0525
 10
-268.3161
 20
201.1961
 10
-268.3564
 20
201.3387
 10
-268.4027
 20
201.4796
 10
-268.4571
 20
201.6178
  0
LWPOLYLINE
  5
94
330
1F
100
AcDbEntity
  8
Layer 1
 62
     7
370
    35
100
AcDbPolyline
 90
       37
 70
     0
 43
0.0
 10
-404.6952
 20
201.9306
 10
-404.5868
 20
201.9024
 10
-404.4401
 20
201.88
 10
-404.269
 20
201.8624
 10
-404.0876
 20
201.8487
 10
-403.7495
 20
201.8288
 10
-403.5379
 20
201.8127
 10
-402.8312
 20
201.7482
 10
-401.8393
 20
201.7107
 10
-400.6484
 20
201.6945
 10
-399.3451
 20
201.6939
 10
-398.0155
 20
201.7032
 10
-396.7462
 20
201.7169
 10
-395.6235
 20
201.7292
 10
-394.7338
 20
201.7346
 10
-269.3254
 20
201.7346
 10
-268.4571
 20
201.6178
 10
-268.3017
 20
201.9009
 10
-268.2098
 20
202.1498
 10
-268.1667
 20
202.3726
 10
-268.1575
 20
202.5773
 10
-268.1678
 20
202.7718
 10
-268.1826
 20
202.9641
 10
-268.1875
 20
203.1623
 10
-268.1675
 20
203.3742
 10
-268.1181
 20
203.8355
 10
-268.0911
 20
204.7604
 10
-268.0816
 20
206.0045
 10
-268.0848
 20
207.4235
 10
-268.0957
 20
208.8729
 10
-268.1096
 20
210.2083
 10
-268.1215
 20
211.2852
 10
-268.1265
 20
211.9593
 10
-268.095
 20
212.0729
 10
-268.0837
 20
212.168
 10
-268.0835
 20
212.2661
 10
-268.0855
 20
212.3888
  0
LWPOLYLINE
  5
95
330
1F
100
AcDbEntity
  8
Layer 1
 62
     7
370
    18
100
AcDbPolyline
 90
        9
 70
     1
 43
0.0
 10
-470.7186
 20
204.6096
 10
-470.7186
 20
205.8132
 10
-461.6232
 20
216.5525
 10
-459.6626
 20
216.5525
 10
-468.6845
 20
205.8132
 10
-469.6405
 20
206.0906
 10
-455.8386
 20
206.0906
 10
-455.8386
 20
204.6096
 10
-470.7186
 20
204.6096
  0
LWPOLYLINE
  5
96
330
1F
100
AcDbEntity
  8
Layer 1
 62
     7
370
    18
100
AcDbPolyline
 90
        7
 70
     1
 43
0.0
 10
-461.0355
 20
200.3502
 10
-461.0355
 20
204.6096
 10
-460.9859
 20
206.0906
 10
-460.9859
 20
209.8401
 10
-459.2704
 20
209.8401
 10
-459.2704
 20
200.3502
 10
-461.0355
 20
200.3502
  0
LWPOLYLINE
  5
97
330
1F
100
AcDbEntity
  8
Layer 1
 62
     7
370
    18
100
AcDbPolyline
 90
      127
 70
     1
 43
0.0
 10
-454.5877
 20
200.3502
 10
-454.5877
 20
201.5304
 10
-447.453
 20
208.1275
 10
-447.2157
 20
208.3497
 10
-446.9936
 20
208.5651
 10
-446.7869
 20
208.7736
 10
-446.5954
 20
208.9753
 10
-446.4193
 20
209.17
 10
-446.2584
 20
209.3578
 10
-446.113
 20
209.5387
 10
-445.9828
 20
209.7126
 10
-445.865
 20
209.8822
 10
-445.7572
 20
210.0492
 10
-445.6594
 20
210.2136
 10
-445.5717
 20
210.3756
 10
-445.4939
 20
210.5349
 10
-445.4262
 20
210.6917
 10
-445.3684
 20
210.846
 10
-445.3206
 20
210.9977
 10
-445.2456
 20
211.2942
 10
-445.192
 20
211.5821
 10
-445.1731
 20
211.7227
 10
-445.1597
 20
211.8613
 10
-445.1516
 20
211.9976
 10
-445.1489
 20
212.1319
 10
-445.1648
 20
212.4754
 10
-445.2125
 20
212.8002
 10
-445.2921
 20
213.1061
 10
-445.4034
 20
213.3932
 10
-445.5465
 20
213.6615
 10
-445.7214
 20
213.911
 10
-445.928
 20
214.1416
 10
-446.1664
 20
214.3535
 10
-446.4358
 20
214.5433
 10
-446.7355
 20
214.708
 10
-447.0654
 20
214.8473
 10
-447.4256
 20
214.9614
 10
-447.8161
 20
215.0501
 10
-448.2369
 20
215.1135
 10
-448.688
 20
215.1516
 10
-449.1694
 20
215.1643
 10
-449.5436
 20
215.1574
 10
-449.9069
 20
215.1367
 10
-450.2591
 20
215.1023
 10
-450.6002
 20
215.054
 10
-450.9303
 20
214.992
 10
-451.2493
 20
214.9163
 10
-451.5571
 20
214.8269
 10
-451.8538
 20
214.7237
 10
-452.1397
 20
214.6064
 10
-452.4154
 20
214.4738
 10
-452.6806
 20
214.326
 10
-452.9356
 20
214.1628
 10
-453.1802
 20
213.9845
 10
-453.4145
 20
213.7909
 10
-453.6385
 20
213.582
 10
-453.8521
 20
213.358
 10
-455.103
 20
214.3769
 10
-454.8429
 20
214.6466
 10
-454.5651
 20
214.9005
 10
-454.2696
 20
215.1384
 10
-453.9565
 20
215.3604
 10
-453.6258
 20
215.5666
 10
-453.2774
 20
215.7568
 10
-452.9114
 20
215.9311
 10
-452.5278
 20
216.0895
 10
-452.1297
 20
216.2305
 10
-451.7202
 20
216.3528
 10
-451.2992
 20
216.4562
 10
-450.8668
 20
216.5409
 10
-450.4229
 20
216.6067
 10
-449.9675
 20
216.6537
 10
-449.5007
 20
216.6819
 10
-449.0225
 20
216.6913
 10
-448.5946
 20
216.6832
 10
-448.1812
 20
216.6588
 10
-447.7823
 20
216.6181
 10
-447.398
 20
216.5612
 10
-447.0283
 20
216.4881
 10
-446.6731
 20
216.3986
 10
-446.3326
 20
216.293
 10
-446.0066
 20
216.171
 10
-445.697
 20
216.0332
 10
-445.4053
 20
215.8807
 10
-445.1318
 20
215.7133
 10
-444.8762
 20
215.5312
 10
-444.6387
 20
215.3342
 10
-444.4192
 20
215.1224
 10
-444.2177
 20
214.8958
 10
-444.0341
 20
214.6544
 10
-443.8701
 20
214.4001
 10
-443.7281
 20
214.135
 10
-443.6079
 20
213.8591
 10
-443.5097
 20
213.5723
 10
-443.4333
 20
213.2747
 10
-443.3788
 20
212.9662
 10
-443.3461
 20
212.6469
 10
-443.3352
 20
212.3166
 10
-443.3388
 20
212.1204
 10
-443.3497
 20
211.9249
 10
-443.3679
 20
211.73
 10
-443.3933
 20
211.5358
 10
-443.4259
 20
211.3423
 10
-443.4659
 20
211.1495
 10
-443.513
 20
210.9575
 10
-443.5675
 20
210.7662
 10
-443.6317
 20
210.5741
 10
-443.7073
 20
210.3794
 10
-443.7943
 20
210.1821
 10
-443.8928
 20
209.9823
 10
-444.0028
 20
209.78
 10
-444.1242
 20
209.5751
 10
-444.2571
 20
209.3677
 10
-444.4014
 20
209.1577
 10
-444.5601
 20
208.943
 10
-444.736
 20
208.7215
 10
-444.9293
 20
208.4931
 10
-445.1398
 20
208.2578
 10
-445.3676
 20
208.0157
 10
-445.6127
 20
207.7668
 10
-445.875
 20
207.511
 10
-446.1545
 20
207.2483
 10
-452.6996
 20
201.1836
 10
-453.19
 20
201.8313
 10
-442.5499
 20
201.8313
 10
-442.5499
 20
200.3502
 10
-454.5877
 20
200.3502
  0
LWPOLYLINE
  5
98
330
1F
100
AcDbEntity
  8
Layer 1
 62
     7
370
    18
100
AcDbPolyline
 90
       97
 70
     1
 43
0.0
 10
-433.5538
 20
200.2115
 10
-434.0432
 20
200.2269
 10
-434.5187
 20
200.273
 10
-434.9805
 20
200.3499
 10
-435.4286
 20
200.4575
 10
-435.8628
 20
200.5957
 10
-436.2833
 20
200.7647
 10
-436.6901
 20
200.9644
 10
-437.083
 20
201.1948
 10
-437.459
 20
201.4542
 10
-437.8142
 20
201.7404
 10
-438.1486
 20
202.0533
 10
-438.4622
 20
202.3929
 10
-438.7552
 20
202.7593
 10
-439.0275
 20
203.1524
 10
-439.2791
 20
203.5724
 10
-439.5102
 20
204.0191
 10
-439.7171
 20
204.491
 10
-439.8964
 20
204.9863
 10
-440.0481
 20
205.5051
 10
-440.1722
 20
206.0474
 10
-440.2687
 20
206.6133
 10
-440.3376
 20
207.2026
 10
-440.3789
 20
207.8155
 10
-440.3927
 20
208.4519
 10
-440.3789
 20
209.088
 10
-440.3376
 20
209.7007
 10
-440.2687
 20
210.29
 10
-440.1722
 20
210.8558
 10
-440.0481
 20
211.3981
 10
-439.8964
 20
211.9169
 10
-439.7171
 20
212.4121
 10
-439.5102
 20
212.8837
 10
-439.2791
 20
213.3304
 10
-439.0275
 20
213.7504
 10
-438.7552
 20
214.1435
 10
-438.4622
 20
214.5099
 10
-438.1486
 20
214.8495
 10
-437.8142
 20
215.1624
 10
-437.459
 20
215.4486
 10
-437.083
 20
215.708
 10
-436.6901
 20
215.9384
 10
-436.2833
 20
216.1381
 10
-435.8628
 20
216.3071
 10
-435.4286
 20
216.4454
 10
-434.9805
 20
216.5529
 10
-434.5187
 20
216.6298
 10
-434.0432
 20
216.6759
 10
-433.5538
 20
216.6913
 10
-433.0638
 20
216.6759
 10
-432.5877
 20
216.6298
 10
-432.1256
 20
216.5529
 10
-431.6773
 20
216.4454
 10
-431.2429
 20
216.3071
 10
-430.8224
 20
216.1381
 10
-430.4156
 20
215.9384
 10
-430.0227
 20
215.708
 10
-429.6468
 20
215.4486
 10
-429.2912
 20
215.1624
 10
-428.9558
 20
214.8495
 10
-428.6408
 20
214.5099
 10
-428.3461
 20
214.1435
 10
-428.0716
 20
213.7504
 10
-427.8175
 20
213.3304
 10
-427.5836
 20
212.8837
 10
-427.3738
 20
212.4121
 10
-427.1921
 20
211.9169
 10
-427.0384
 20
211.3981
 10
-426.9126
 20
210.8558
 10
-426.8148
 20
210.29
 10
-426.745
 20
209.7007
 10
-426.7031
 20
209.088
 10
-426.6891
 20
208.4519
 10
-426.7031
 20
207.8155
 10
-426.745
 20
207.2026
 10
-426.8148
 20
206.6133
 10
-426.9126
 20
206.0474
 10
-427.0384
 20
205.5051
 10
-427.1921
 20
204.9863
 10
-427.3738
 20
204.491
 10
-427.5836
 20
204.0191
 10
-427.8175
 20
203.5724
 10
-428.0716
 20
203.1524
 10
-428.3461
 20
202.7593
 10
-428.6408
 20
202.3929
 10
-428.9558
 20
202.0533
 10
-429.2912
 20
201.7404
 10
-429.6468
 20
201.4542
 10
-430.0227
 20
201.1948
 10
-430.4156
 20
200.9644
 10
-430.8224
 20
200.7647
 10
-431.2429
 20
200.5957
 10
-431.6773
 20
200.4575
 10
-432.1256
 20
200.3499
 10
-432.5877
 20
200.273
 10
-433.0638
 20
200.2269
 10
-433.5538
 20
200.2115
  0
LWPOLYLINE
  5
99
330
1F
100
AcDbEntity
  8
Layer 1
 62
     7
370
    18
100
AcDbPolyline
 90
       97
 70
     1
 43
0.0
 10
-433.5538
 20
201.7394
 10
-433.1795
 20
201.7515
 10
-432.8176
 20
201.7878
 10
-432.4681
 20
201.8483
 10
-432.1309
 20
201.933
 10
-431.806
 20
202.0419
 10
-431.4934
 20
202.1752
 10
-431.1932
 20
202.3327
 10
-430.9052
 20
202.5146
 10
-430.631
 20
202.7195
 10
-430.3721
 20
202.9469
 10
-430.1285
 20
203.1968
 10
-429.9002
 20
203.4692
 10
-429.6872
 20
203.764
 10
-429.4896
 20
204.0812
 10
-429.3072
 20
204.4209
 10
-429.1402
 20
204.783
 10
-428.9908
 20
205.1669
 10
-428.8614
 20
205.5722
 10
-428.7518
 20
205.9987
 10
-428.6622
 20
206.4466
 10
-428.5924
 20
206.9158
 10
-428.5426
 20
207.4064
 10
-428.5128
 20
207.9185
 10
-428.5028
 20
208.4519
 10
-428.5128
 20
208.985
 10
-428.5426
 20
209.4969
 10
-428.5924
 20
209.9874
 10
-428.6622
 20
210.4567
 10
-428.7518
 20
210.9045
 10
-428.8614
 20
211.331
 10
-428.9908
 20
211.7361
 10
-429.1402
 20
212.1198
 10
-429.3072
 20
212.4819
 10
-429.4896
 20
212.8215
 10
-429.6872
 20
213.1388
 10
-429.9002
 20
213.4336
 10
-430.1285
 20
213.7059
 10
-430.3721
 20
213.9558
 10
-430.631
 20
214.1833
 10
-430.9052
 20
214.3882
 10
-431.1932
 20
214.5701
 10
-431.4934
 20
214.7277
 10
-431.806
 20
214.8611
 10
-432.1309
 20
214.9703
 10
-432.4681
 20
215.0552
 10
-432.8176
 20
215.1158
 10
-433.1795
 20
215.1522
 10
-433.5538
 20
215.1643
 10
-433.9163
 20
215.1522
 10
-434.269
 20
215.1158
 10
-434.6117
 20
215.0552
 10
-434.9445
 20
214.9703
 10
-435.2674
 20
214.8611
 10
-435.5804
 20
214.7277
 10
-435.8835
 20
214.5701
 10
-436.1766
 20
214.3882
 10
-436.4564
 20
214.1833
 10
-436.7201
 20
213.9558
 10
-436.9678
 20
213.7059
 10
-437.1995
 20
213.4336
 10
-437.4151
 20
213.1388
 10
-437.6146
 20
212.8215
 10
-437.7981
 20
212.4819
 10
-437.9655
 20
212.1198
 10
-438.1149
 20
211.7361
 10
-438.2443
 20
211.331
 10
-438.3539
 20
210.9045
 10
-438.4435
 20
210.4567
 10
-438.5132
 20
209.9874
 10
-438.563
 20
209.4969
 10
-438.5928
 20
208.985
 10
-438.6028
 20
208.4519
 10
-438.5928
 20
207.9185
 10
-438.563
 20
207.4064
 10
-438.5132
 20
206.9158
 10
-438.4435
 20
206.4466
 10
-438.3539
 20
205.9987
 10
-438.2443
 20
205.5722
 10
-438.1149
 20
205.1669
 10
-437.9655
 20
204.783
 10
-437.7981
 20
204.4209
 10
-437.6146
 20
204.0812
 10
-437.4151
 20
203.764
 10
-437.1995
 20
203.4692
 10
-436.9678
 20
203.1968
 10
-436.7201
 20
202.9469
 10
-436.4564
 20
202.7195
 10
-436.1766
 20
202.5146
 10
-435.8835
 20
202.3327
 10
-435.5804
 20
202.1752
 10
-435.2674
 20
202.0419
 10
-434.9445
 20
201.933
 10
-434.6117
 20
201.8483
 10
-434.269
 20
201.7878
 10
-433.9163
 20
201.7515
 10
-433.5538
 20
201.7394
  0
LWPOLYLINE
  5
9A
330
1F
100
AcDbEntity
  8
Layer 1
 62
     7
370
    18
100
AcDbPolyline
 90
       12
 70
     1
 43
0.0
 10
-498.1764
 20
0.5965
 10
-490.7716
 20
16.0583
 10
-490.2326
 20
15.3178
 10
-500.8478
 20
15.3178
 10
-499.9415
 20
16.1277
 10
-499.9415
 20
12.2854
 10
-501.6817
 20
12.2854
 10
-501.6817
 20
16.7988
 10
-489.081
 20
16.7988
 10
-489.081
 20
15.6187
 10
-496.2644
 20
0.5965
 10
-498.1764
 20
0.5965
  0
LWPOLYLINE
  5
9B
330
1F
100
AcDbEntity
  8
Layer 1
 62
     7
370
    18
100
AcDbPolyline
 90
      131
 70
     1
 43
0.0
 10
-481.7994
 20
0.4578
 10
-482.2561
 20
0.4667
 10
-482.7075
 20
0.4933
 10
-483.1537
 20
0.5376
 10
-483.5945
 20
0.5997
 10
-484.03
 20
0.6794
 10
-484.4602
 20
0.7769
 10
-484.8851
 20
0.8921
 10
-485.3047
 20
1.0249
 10
-485.7109
 20
1.1725
 10
-486.0956
 20
1.3321
 10
-486.4588
 20
1.5036
 10
-486.8006
 20
1.6871
 10
-487.1209
 20
1.8826
 10
-487.4198
 20
2.09
 10
-487.6973
 20
2.3093
 10
-487.9533
 20
2.5406
 10
-487.0946
 20
3.8604
 10
-486.883
 20
3.6622
 10
-486.6526
 20
3.4727
 10
-486.4033
 20
3.2918
 10
-486.1352
 20
3.1197
 10
-485.8484
 20
2.9562
 10
-485.5429
 20
2.8014
 10
-485.2187
 20
2.6554
 10
-484.8758
 20
2.5181
 10
-484.5196
 20
2.3932
 10
-484.1562
 20
2.285
 10
-483.7856
 20
2.1935
 10
-483.4077
 20
2.1187
 10
-483.0226
 20
2.0605
 10
-482.6303
 20
2.0189
 10
-482.2309
 20
1.994
 10
-481.8242
 20
1.9857
 10
-481.2948
 20
2.0
 10
-480.798
 20
2.0428
 10
-480.3339
 20
2.1142
 10
-479.9024
 20
2.2142
 10
-479.5035
 20
2.3427
 10
-479.1373
 20
2.4998
 10
-478.8036
 20
2.6854
 10
-478.5025
 20
2.8996
 10
-478.2352
 20
3.137
 10
-478.0035
 20
3.3921
 10
-477.8074
 20
3.6649
 10
-477.6471
 20
3.9555
 10
-477.5223
 20
4.2639
 10
-477.4332
 20
4.59
 10
-477.3797
 20
4.9339
 10
-477.3619
 20
5.2955
 10
-477.3701
 20
5.5512
 10
-477.3948
 20
5.7978
 10
-477.436
 20
6.0355
 10
-477.4937
 20
6.2642
 10
-477.5678
 20
6.4838
 10
-477.6584
 20
6.6945
 10
-477.7655
 20
6.8961
 10
-477.889
 20
7.0887
 10
-478.0321
 20
7.2715
 10
-478.1978
 20
7.4439
 10
-478.3861
 20
7.6058
 10
-478.5971
 20
7.7572
 10
-478.8306
 20
7.898
 10
-479.0868
 20
8.0284
 10
-479.3656
 20
8.1483
 10
-479.667
 20
8.2576
 10
-479.9939
 20
8.3555
 10
-480.3499
 20
8.4402
 10
-480.7351
 20
8.5119
 10
-481.1495
 20
8.5706
 10
-481.5931
 20
8.6161
 10
-482.0658
 20
8.6487
 10
-482.5677
 20
8.6682
 10
-483.0989
 20
8.6747
 10
-486.7521
 20
8.6747
 10
-485.8686
 20
16.7988
 10
-476.4794
 20
16.7988
 10
-476.4794
 20
15.3178
 10
-485.1578
 20
15.3178
 10
-484.2504
 20
16.1277
 10
-485.0108
 20
9.3224
 10
-485.9172
 20
10.1557
 10
-482.7057
 20
10.1557
 10
-482.0722
 20
10.1463
 10
-481.4709
 20
10.1181
 10
-480.9018
 20
10.0711
 10
-480.3649
 20
10.0053
 10
-479.8602
 20
9.9206
 10
-479.3877
 20
9.8172
 10
-478.9474
 20
9.6949
 10
-478.5393
 20
9.5539
 10
-478.1605
 20
9.3961
 10
-477.809
 20
9.2234
 10
-477.4848
 20
9.0358
 10
-477.1878
 20
8.8335
 10
-476.918
 20
8.6163
 10
-476.6755
 20
8.3844
 10
-476.4601
 20
8.1376
 10
-476.2719
 20
7.8761
 10
-476.1076
 20
7.6013
 10
-475.9653
 20
7.3153
 10
-475.845
 20
7.0181
 10
-475.7466
 20
6.7098
 10
-475.6702
 20
6.3903
 10
-475.6156
 20
6.0597
 10
-475.5829
 20
5.7179
 10
-475.572
 20
5.3649
 10
-475.5827
 20
5.0271
 10
-475.6148
 20
4.697
 10
-475.6684
 20
4.3745
 10
-475.7435
 20
4.0597
 10
-475.8401
 20
3.7525
 10
-475.9581
 20
3.4529
 10
-476.0978
 20
3.1608
 10
-476.259
 20
2.8762
 10
-476.4413
 20
2.6031
 10
-476.6452
 20
2.3447
 10
-476.8705
 20
2.1012
 10
-477.1172
 20
1.8724
 10
-477.3853
 20
1.6584
 10
-477.6748
 20
1.4593
 10
-477.9857
 20
1.275
 10
-478.3179
 20
1.1055
 10
-478.6726
 20
0.9536
 10
-479.0504
 20
0.822
 10
-479.4511
 20
0.7107
 10
-479.8748
 20
0.6196
 10
-480.3214
 20
0.5488
 10
-480.7911
 20
0.4982
 10
-481.2838
 20
0.4679
 10
-481.7994
 20
0.4578
  0
LWPOLYLINE
  5
9C
330
1F
100
AcDbEntity
  8
Layer 1
 62
     7
370
    35
100
AcDbPolyline
 90
       33
 70
     1
 43
0.0
 10
-516.1882
 20
16.5463
 10
-514.2415
 20
16.361
 10
-512.4283
 20
15.8296
 10
-510.7875
 20
14.9887
 10
-509.3578
 20
13.8751
 10
-508.1783
 20
12.5253
 10
-507.2876
 20
10.9762
 10
-506.7248
 20
9.2643
 10
-506.5285
 20
7.4263
 10
-506.7248
 20
5.5883
 10
-507.2876
 20
3.8764
 10
-508.1783
 20
2.3272
 10
-509.3578
 20
0.9775
 10
-510.7875
 20
-0.1362
 10
-512.4283
 20
-0.9771
 10
-514.2415
 20
-1.5085
 10
-516.1882
 20
-1.6938
 10
-518.1349
 20
-1.5085
 10
-519.9481
 20
-0.9771
 10
-521.5889
 20
-0.1362
 10
-523.0186
 20
0.9775
 10
-524.1981
 20
2.3272
 10
-525.0888
 20
3.8764
 10
-525.6516
 20
5.5883
 10
-525.8479
 20
7.4263
 10
-525.6516
 20
9.2643
 10
-525.0888
 20
10.9762
 10
-524.1981
 20
12.5253
 10
-523.0186
 20
13.8751
 10
-521.5889
 20
14.9887
 10
-519.9481
 20
15.8296
 10
-518.1349
 20
16.361
 10
-516.1882
 20
16.5463
  0
LWPOLYLINE
  5
9D
330
1F
100
AcDbEntity
  8
Layer 1
 62
     7
370
    35
100
AcDbPolyline
 90
        2
 70
     0
 43
0.0
 10
-513.0379
 20
22.1717
 10
-519.3879
 20
-8.4855
  0
LWPOLYLINE
  5
9E
330
1F
100
AcDbEntity
  8
Layer 1
 62
     7
370
    18
100
AcDbPolyline
 90
        9
 70
     1
 43
0.0
 10
-393.125
 20
-34.084
 10
-393.125
 20
-32.8804
 10
-384.0297
 20
-22.1411
 10
-382.069
 20
-22.1411
 10
-391.0909
 20
-32.8804
 10
-392.0469
 20
-32.603
 10
-378.245
 20
-32.603
 10
-378.245
 20
-34.084
 10
-393.125
 20
-34.084
  0
LWPOLYLINE
  5
9F
330
1F
100
AcDbEntity
  8
Layer 1
 62
     7
370
    18
100
AcDbPolyline
 90
        7
 70
     1
 43
0.0
 10
-383.442
 20
-38.3434
 10
-383.442
 20
-34.084
 10
-383.3923
 20
-32.603
 10
-383.3923
 20
-28.8535
 10
-381.6769
 20
-28.8535
 10
-381.6769
 20
-38.3434
 10
-383.442
 20
-38.3434
  0
LWPOLYLINE
  5
A0
330
1F
100
AcDbEntity
  8
Layer 1
 62
     7
370
    18
100
AcDbPolyline
 90
      131
 70
     1
 43
0.0
 10
-371.2572
 20
-38.4821
 10
-371.714
 20
-38.4732
 10
-372.1654
 20
-38.4466
 10
-372.6115
 20
-38.4023
 10
-373.0523
 20
-38.3402
 10
-373.4878
 20
-38.2605
 10
-373.918
 20
-38.163
 10
-374.3429
 20
-38.0478
 10
-374.7625
 20
-37.915
 10
-375.1684
 20
-37.7674
 10
-375.553
 20
-37.6078
 10
-375.9162
 20
-37.4362
 10
-376.2581
 20
-37.2527
 10
-376.5785
 20
-37.0573
 10
-376.8775
 20
-36.8499
 10
-377.155
 20
-36.6306
 10
-377.4111
 20
-36.3993
 10
-376.5514
 20
-35.0795
 10
-376.3399
 20
-35.2777
 10
-376.1096
 20
-35.4672
 10
-375.8605
 20
-35.6481
 10
-375.5926
 20
-35.8203
 10
-375.306
 20
-35.9837
 10
-375.0006
 20
-36.1385
 10
-374.6765
 20
-36.2845
 10
-374.3337
 20
-36.4218
 10
-373.9775
 20
-36.5467
 10
-373.6141
 20
-36.6548
 10
-373.2435
 20
-36.7463
 10
-372.8656
 20
-36.8212
 10
-372.4805
 20
-36.8794
 10
-372.0882
 20
-36.921
 10
-371.6887
 20
-36.9459
 10
-371.282
 20
-36.9542
 10
-370.7526
 20
-36.9399
 10
-370.2558
 20
-36.8971
 10
-369.7917
 20
-36.8257
 10
-369.3602
 20
-36.7257
 10
-368.9614
 20
-36.5972
 10
-368.5951
 20
-36.4401
 10
-368.2615
 20
-36.2545
 10
-367.9604
 20
-36.0403
 10
-367.6931
 20
-35.8029
 10
-367.4614
 20
-35.5478
 10
-367.2653
 20
-35.275
 10
-367.1049
 20
-34.9844
 10
-366.9801
 20
-34.676
 10
-366.891
 20
-34.3499
 10
-366.8375
 20
-34.006
 10
-366.8197
 20
-33.6444
 10
-366.8279
 20
-33.3888
 10
-366.8527
 20
-33.1421
 10
-366.8939
 20
-32.9044
 10
-366.9515
 20
-32.6757
 10
-367.0257
 20
-32.4561
 10
-367.1163
 20
-32.2454
 10
-367.2234
 20
-32.0438
 10
-367.3469
 20
-31.8512
 10
-367.49
 20
-31.6684
 10
-367.6557
 20
-31.496
 10
-367.844
 20
-31.3341
 10
-368.055
 20
-31.1828
 10
-368.2885
 20
-31.0419
 10
-368.5447
 20
-30.9115
 10
-368.8235
 20
-30.7916
 10
-369.1249
 20
-30.6823
 10
-369.4518
 20
-30.5844
 10
-369.8078
 20
-30.4997
 10
-370.193
 20
-30.428
 10
-370.6074
 20
-30.3694
 10
-371.0509
 20
-30.3238
 10
-371.5236
 20
-30.2912
 10
-372.0256
 20
-30.2717
 10
-372.5567
 20
-30.2652
 10
-376.209
 20
-30.2652
 10
-375.3264
 20
-22.1411
 10
-365.9362
 20
-22.1411
 10
-365.9362
 20
-23.6221
 10
-374.6156
 20
-23.6221
 10
-373.7083
 20
-22.8122
 10
-374.4687
 20
-29.6175
 10
-375.3751
 20
-28.7842
 10
-372.1636
 20
-28.7842
 10
-371.5301
 20
-28.7936
 10
-370.9288
 20
-28.8218
 10
-370.3597
 20
-28.8688
 10
-369.8228
 20
-28.9346
 10
-369.3181
 20
-29.0193
 10
-368.8455
 20
-29.1227
 10
-368.4052
 20
-29.2449
 10
-367.9971
 20
-29.3859
 10
-367.6183
 20
-29.5438
 10
-367.2667
 20
-29.7165
 10
-366.9423
 20
-29.904
 10
-366.6451
 20
-30.1064
 10
-366.3752
 20
-30.3236
 10
-366.1324
 20
-30.5555
 10
-365.9169
 20
-30.8023
 10
-365.7287
 20
-31.0638
 10
-365.5647
 20
-31.3386
 10
-365.4227
 20
-31.6246
 10
-365.3025
 20
-31.9218
 10
-365.2043
 20
-32.2301
 10
-365.128
 20
-32.5496
 10
-365.0735
 20
-32.8802
 10
-365.0408
 20
-33.222
 10
-365.0299
 20
-33.575
 10
-365.0406
 20
-33.9128
 10
-365.0727
 20
-34.2429
 10
-365.1263
 20
-34.5654
 10
-365.2013
 20
-34.8802
 10
-365.2977
 20
-35.1874
 10
-365.4156
 20
-35.487
 10
-365.5549
 20
-35.7791
 10
-365.7158
 20
-36.0637
 10
-365.8982
 20
-36.3368
 10
-366.1022
 20
-36.5952
 10
-366.3276
 20
-36.8387
 10
-366.5745
 20
-37.0675
 10
-366.8428
 20
-37.2815
 10
-367.1325
 20
-37.4806
 10
-367.4435
 20
-37.6649
 10
-367.7757
 20
-37.8344
 10
-368.1304
 20
-37.9863
 10
-368.5082
 20
-38.1179
 10
-368.9089
 20
-38.2292
 10
-369.3326
 20
-38.3203
 10
-369.7792
 20
-38.3911
 10
-370.2489
 20
-38.4417
 10
-370.7416
 20
-38.472
 10
-371.2572
 20
-38.4821
  0
LWPOLYLINE
  5
A1
330
1F
100
AcDbEntity
  8
Layer 1
 62
     7
370
    35
100
AcDbPolyline
 90
       33
 70
     1
 43
0.0
 10
-408.4197
 20
-20.6982
 10
-406.2661
 20
-20.9032
 10
-404.2601
 20
-21.4911
 10
-402.4449
 20
-22.4214
 10
-400.8633
 20
-23.6534
 10
-399.5583
 20
-25.1466
 10
-398.573
 20
-26.8605
 10
-397.9503
 20
-28.7544
 10
-397.7332
 20
-30.7877
 10
-397.9503
 20
-32.821
 10
-398.573
 20
-34.7149
 10
-399.5583
 20
-36.4288
 10
-400.8633
 20
-37.922
 10
-402.4449
 20
-39.154
 10
-404.2601
 20
-40.0843
 10
-406.2661
 20
-40.6722
 10
-408.4197
 20
-40.8772
 10
-410.5733
 20
-40.6722
 10
-412.5793
 20
-40.0843
 10
-414.3945
 20
-39.154
 10
-415.9761
 20
-37.922
 10
-417.2811
 20
-36.4288
 10
-418.2664
 20
-34.7149
 10
-418.8891
 20
-32.821
 10
-419.1062
 20
-30.7877
 10
-418.8891
 20
-28.7544
 10
-418.2664
 20
-26.8605
 10
-417.2811
 20
-25.1466
 10
-415.9761
 20
-23.6534
 10
-414.3945
 20
-22.4214
 10
-412.5793
 20
-21.4911
 10
-410.5733
 20
-20.9032
 10
-408.4197
 20
-20.6982
  0
LWPOLYLINE
  5
A2
330
1F
100
AcDbEntity
  8
Layer 1
 62
     7
370
    35
100
AcDbPolyline
 90
        2
 70
     0
 43
0.0
 10
-404.9345
 20
-14.4748
 10
-411.9595
 20
-48.3909
  0
LWPOLYLINE
  5
A3
330
1F
100
AcDbEntity
  8
Layer 1
 62
     7
370
    18
100
AcDbPolyline
 90
      117
 70
     1
 43
0.0
 10
-664.8821
 20
-22.0445
 10
-664.8915
 20
-22.4826
 10
-664.9199
 20
-22.9145
 10
-664.9671
 20
-23.3403
 10
-665.0331
 20
-23.7599
 10
-665.118
 20
-24.1734
 10
-665.2218
 20
-24.5807
 10
-665.3443
 20
-24.9818
 10
-665.4857
 20
-25.3768
 10
-665.6428
 20
-25.7591
 10
-665.8125
 20
-26.1222
 10
-665.9949
 20
-26.466
 10
-666.19
 20
-26.7906
 10
-666.3977
 20
-27.096
 10
-666.6181
 20
-27.3821
 10
-666.8512
 20
-27.6489
 10
-667.0969
 20
-27.8965
 10
-668.4986
 20
-27.0838
 10
-668.288
 20
-26.8778
 10
-668.0867
 20
-26.6548
 10
-667.8945
 20
-26.4147
 10
-667.7116
 20
-26.1577
 10
-667.5379
 20
-25.8836
 10
-667.3734
 20
-25.5924
 10
-667.2181
 20
-25.2842
 10
-667.072
 20
-24.9588
 10
-666.9394
 20
-24.6211
 10
-666.8245
 20
-24.2758
 10
-666.7272
 20
-23.9229
 10
-666.6477
 20
-23.5625
 10
-666.5858
 20
-23.1944
 10
-666.5416
 20
-22.8187
 10
-666.515
 20
-22.4354
 10
-666.5062
 20
-22.0445
 10
-666.5208
 20
-21.5541
 10
-666.5646
 20
-21.093
 10
-666.6377
 20
-20.6613
 10
-666.74
 20
-20.2589
 10
-666.8715
 20
-19.886
 10
-667.0322
 20
-19.5425
 10
-667.2221
 20
-19.2284
 10
-667.4413
 20
-18.9437
 10
-667.6851
 20
-18.6906
 10
-667.9488
 20
-18.4713
 10
-668.2324
 20
-18.2857
 10
-668.5359
 20
-18.1338
 10
-668.8594
 20
-18.0157
 10
-669.2029
 20
-17.9314
 10
-669.5664
 20
-17.8808
 10
-669.9499
 20
-17.8639
 10
-670.3334
 20
-17.8804
 10
-670.6969
 20
-17.93
 10
-671.0404
 20
-18.0125
 10
-671.364
 20
-18.1281
 10
-671.6675
 20
-18.2767
 10
-671.9511
 20
-18.4582
 10
-672.2148
 20
-18.6728
 10
-672.4586
 20
-18.9203
 10
-672.6777
 20
-19.2037
 10
-672.8676
 20
-19.5251
 10
-673.0281
 20
-19.8846
 10
-673.1594
 20
-20.2822
 10
-673.2615
 20
-20.7179
 10
-673.3344
 20
-21.1917
 10
-673.3781
 20
-21.7036
 10
-673.3927
 20
-22.2536
 10
-673.3927
 20
-23.414
 10
-674.6972
 20
-23.414
 10
-681.3633
 20
-18.3982
 10
-680.6744
 20
-18.1657
 10
-680.6744
 20
-27.2235
 10
-682.2479
 20
-27.2235
 10
-682.2479
 20
-16.7728
 10
-680.994
 20
-16.7728
 10
-674.3279
 20
-21.7886
 10
-674.8937
 20
-22.6013
 10
-674.8937
 20
-21.9742
 10
-674.8722
 20
-21.2658
 10
-674.8075
 20
-20.6035
 10
-674.6999
 20
-19.9872
 10
-674.5491
 20
-19.4171
 10
-674.3553
 20
-18.893
 10
-674.1185
 20
-18.4149
 10
-673.8387
 20
-17.9828
 10
-673.5158
 20
-17.5967
 10
-673.1592
 20
-17.2566
 10
-672.778
 20
-16.9619
 10
-672.3722
 20
-16.7125
 10
-671.9419
 20
-16.5085
 10
-671.487
 20
-16.3498
 10
-671.0075
 20
-16.2364
 10
-670.5034
 20
-16.1684
 10
-669.9748
 20
-16.1457
 10
-669.6165
 20
-16.1559
 10
-669.2675
 20
-16.1863
 10
-668.9277
 20
-16.2371
 10
-668.5973
 20
-16.3082
 10
-668.276
 20
-16.3997
 10
-667.9641
 20
-16.5115
 10
-667.6614
 20
-16.6436
 10
-667.3679
 20
-16.7962
 10
-667.0864
 20
-16.969
 10
-666.8203
 20
-17.1625
 10
-666.5696
 20
-17.3767
 10
-666.3343
 20
-17.6116
 10
-666.1145
 20
-17.8672
 10
-665.91
 20
-18.1435
 10
-665.7209
 20
-18.4405
 10
-665.5472
 20
-18.7581
 10
-665.3912
 20
-19.0964
 10
-665.2561
 20
-19.4555
 10
-665.1418
 20
-19.8353
 10
-665.0483
 20
-20.2358
 10
-664.9756
 20
-20.6569
 10
-664.9236
 20
-21.0988
 10
-664.8925
 20
-21.5613
 10
-664.8821
 20
-22.0445
  0
LWPOLYLINE
  5
A4
330
1F
100
AcDbEntity
  8
Layer 1
 62
     7
370
    18
100
AcDbPolyline
 90
       97
 70
     1
 43
0.0
 10
-664.8821
 20
-7.6232
 10
-664.8914
 20
-8.1022
 10
-664.9191
 20
-8.5642
 10
-664.9654
 20
-9.0092
 10
-665.0301
 20
-9.4371
 10
-665.1133
 20
-9.8481
 10
-665.215
 20
-10.242
 10
-665.3351
 20
-10.619
 10
-665.4737
 20
-10.979
 10
-665.6294
 20
-11.32
 10
-665.8017
 20
-11.6407
 10
-665.9906
 20
-11.9411
 10
-666.196
 20
-12.2212
 10
-666.4179
 20
-12.481
 10
-666.6565
 20
-12.7205
 10
-666.9115
 20
-12.9397
 10
-667.1832
 20
-13.1386
 10
-667.4692
 20
-13.3153
 10
-667.7679
 20
-13.4685
 10
-668.0793
 20
-13.5982
 10
-668.4034
 20
-13.7043
 10
-668.7403
 20
-13.7869
 10
-669.0898
 20
-13.846
 10
-669.452
 20
-13.8814
 10
-669.8269
 20
-13.8932
 10
-670.1891
 20
-13.8818
 10
-670.5379
 20
-13.8475
 10
-670.8733
 20
-13.7903
 10
-671.1952
 20
-13.7103
 10
-671.5037
 20
-13.6074
 10
-671.7987
 20
-13.4815
 10
-672.0803
 20
-13.3328
 10
-672.3484
 20
-13.1611
 10
-672.6022
 20
-12.9678
 10
-672.8409
 20
-12.7534
 10
-673.0646
 20
-12.5179
 10
-673.2734
 20
-12.2614
 10
-673.4671
 20
-11.9838
 10
-673.6458
 20
-11.6852
 10
-673.8097
 20
-11.3655
 10
-673.9586
 20
-11.0249
 10
-674.0912
 20
-10.6645
 10
-674.2061
 20
-10.2855
 10
-674.3034
 20
-9.8881
 10
-674.383
 20
-9.4721
 10
-674.4448
 20
-9.0376
 10
-674.489
 20
-8.5846
 10
-674.5156
 20
-8.1131
 10
-674.5244
 20
-7.6232
 10
-674.5156
 20
-7.1384
 10
-674.489
 20
-6.671
 10
-674.4448
 20
-6.221
 10
-674.383
 20
-5.7883
 10
-674.3034
 20
-5.3731
 10
-674.2061
 20
-4.9753
 10
-674.0912
 20
-4.5948
 10
-673.9586
 20
-4.2318
 10
-673.8097
 20
-3.8882
 10
-673.6458
 20
-3.5652
 10
-673.4671
 20
-3.2628
 10
-673.2734
 20
-2.9812
 10
-673.0646
 20
-2.7201
 10
-672.8409
 20
-2.4797
 10
-672.6022
 20
-2.26
 10
-672.3484
 20
-2.0609
 10
-672.0803
 20
-1.8839
 10
-671.7987
 20
-1.7306
 10
-671.5037
 20
-1.6009
 10
-671.1952
 20
-1.4948
 10
-670.8733
 20
-1.4123
 10
-670.5379
 20
-1.3534
 10
-670.1891
 20
-1.3181
 10
-669.8269
 20
-1.3063
 10
-669.452
 20
-1.3183
 10
-669.0898
 20
-1.3541
 10
-668.7403
 20
-1.4139
 10
-668.4034
 20
-1.4977
 10
-668.0793
 20
-1.6053
 10
-667.7679
 20
-1.737
 10
-667.4692
 20
-1.8926
 10
-667.1832
 20
-2.0722
 10
-666.9115
 20
-2.2739
 10
-666.6565
 20
-2.4961
 10
-666.4179
 20
-2.7385
 10
-666.196
 20
-3.0013
 10
-665.9906
 20
-3.2844
 10
-665.8017
 20
-3.5878
 10
-665.6294
 20
-3.9114
 10
-665.4737
 20
-4.2553
 10
-665.3351
 20
-4.6179
 10
-665.215
 20
-4.9972
 10
-665.1133
 20
-5.3931
 10
-665.0301
 20
-5.8057
 10
-664.9654
 20
-6.235
 10
-664.9191
 20
-6.681
 10
-664.8914
 20
-7.1437
 10
-664.8821
 20
-7.6232
  0
LWPOLYLINE
  5
A5
330
1F
100
AcDbEntity
  8
Layer 1
 62
     7
370
    18
100
AcDbPolyline
 90
       65
 70
     1
 43
0.0
 10
-666.3841
 20
-7.6232
 10
-666.3987
 20
-7.098
 10
-666.4424
 20
-6.6021
 10
-666.5153
 20
-6.1356
 10
-666.6174
 20
-5.6984
 10
-666.7487
 20
-5.2907
 10
-666.9093
 20
-4.9124
 10
-667.0991
 20
-4.5635
 10
-667.3182
 20
-4.244
 10
-667.5623
 20
-3.9583
 10
-667.8272
 20
-3.7106
 10
-668.1127
 20
-3.501
 10
-668.4189
 20
-3.3295
 10
-668.7459
 20
-3.1961
 10
-669.0937
 20
-3.1008
 10
-669.4623
 20
-3.0436
 10
-669.8517
 20
-3.0245
 10
-670.2406
 20
-3.0436
 10
-670.6085
 20
-3.1008
 10
-670.9553
 20
-3.1961
 10
-671.281
 20
-3.3295
 10
-671.5855
 20
-3.501
 10
-671.8689
 20
-3.7106
 10
-672.1312
 20
-3.9583
 10
-672.3722
 20
-4.244
 10
-672.5885
 20
-4.5635
 10
-672.776
 20
-4.9124
 10
-672.9345
 20
-5.2907
 10
-673.0641
 20
-5.6984
 10
-673.1649
 20
-6.1356
 10
-673.2369
 20
-6.6021
 10
-673.28
 20
-7.098
 10
-673.2944
 20
-7.6232
 10
-673.28
 20
-8.1482
 10
-673.2369
 20
-8.6435
 10
-673.1649
 20
-9.109
 10
-673.0641
 20
-9.5447
 10
-672.9345
 20
-9.9506
 10
-672.776
 20
-10.3269
 10
-672.5885
 20
-10.6734
 10
-672.3722
 20
-10.9902
 10
-672.1312
 20
-11.2733
 10
-671.8689
 20
-11.5185
 10
-671.5855
 20
-11.726
 10
-671.281
 20
-11.8958
 10
-670.9553
 20
-12.0278
 10
-670.6085
 20
-12.1221
 10
-670.2406
 20
-12.1786
 10
-669.8517
 20
-12.1975
 10
-669.4623
 20
-12.1786
 10
-669.0937
 20
-12.1221
 10
-668.7459
 20
-12.0278
 10
-668.4189
 20
-11.8958
 10
-668.1127
 20
-11.726
 10
-667.8272
 20
-11.5185
 10
-667.5623
 20
-11.2733
 10
-667.3182
 20
-10.9902
 10
-667.0991
 20
-10.6734
 10
-666.9093
 20
-10.3269
 10
-666.7487
 20
-9.9506
 10
-666.6174
 20
-9.5447
 10
-666.5153
 20
-9.109
 10
-666.4424
 20
-8.6435
 10
-666.3987
 20
-8.1482
 10
-666.3841
 20
-7.6232
  0
LWPOLYLINE
  5
A6
330
1F
100
AcDbEntity
  8
Layer 1
 62
     7
370
    18
100
AcDbPolyline
 90
       97
 70
     1
 43
0.0
 10
-673.5158
 20
-7.6232
 10
-673.5239
 20
-8.0674
 10
-673.5482
 20
-8.4946
 10
-673.5886
 20
-8.9047
 10
-673.6453
 20
-9.2978
 10
-673.718
 20
-9.6738
 10
-673.8069
 20
-10.0328
 10
-673.9119
 20
-10.3747
 10
-674.033
 20
-10.6996
 10
-674.169
 20
-11.0068
 10
-674.3193
 20
-11.2954
 10
-674.4839
 20
-11.5656
 10
-674.6629
 20
-11.8173
 10
-674.8562
 20
-12.0505
 10
-675.0639
 20
-12.2652
 10
-675.2858
 20
-12.4614
 10
-675.5221
 20
-12.639
 10
-675.7708
 20
-12.7968
 10
-676.0314
 20
-12.9336
 10
-676.3039
 20
-13.0493
 10
-676.5884
 20
-13.1439
 10
-676.8849
 20
-13.2175
 10
-677.1933
 20
-13.2701
 10
-677.5137
 20
-13.3016
 10
-677.8461
 20
-13.3121
 10
-678.1964
 20
-13.3011
 10
-678.5339
 20
-13.268
 10
-678.8587
 20
-13.2127
 10
-679.1709
 20
-13.1354
 10
-679.4704
 20
-13.0359
 10
-679.7573
 20
-12.9143
 10
-680.0315
 20
-12.7704
 10
-680.2932
 20
-12.6044
 10
-680.5408
 20
-12.4183
 10
-680.7734
 20
-12.2145
 10
-680.9911
 20
-11.993
 10
-681.1938
 20
-11.7537
 10
-681.3816
 20
-11.4966
 10
-681.5543
 20
-11.2218
 10
-681.712
 20
-10.9293
 10
-681.8547
 20
-10.619
 10
-681.9814
 20
-10.2926
 10
-682.0913
 20
-9.9526
 10
-682.1843
 20
-9.5987
 10
-682.2604
 20
-9.2312
 10
-682.3196
 20
-8.8498
 10
-682.3619
 20
-8.4547
 10
-682.3873
 20
-8.0459
 10
-682.3958
 20
-7.6232
 10
-682.3873
 20
-7.2001
 10
-682.3619
 20
-6.7904
 10
-682.3196
 20
-6.3943
 10
-682.2604
 20
-6.0117
 10
-682.1843
 20
-5.6424
 10
-682.0913
 20
-5.2866
 10
-681.9814
 20
-4.9442
 10
-681.8547
 20
-4.6152
 10
-681.712
 20
-4.3021
 10
-681.5543
 20
-4.0066
 10
-681.3816
 20
-3.7289
 10
-681.1938
 20
-3.4688
 10
-680.9911
 20
-3.2265
 10
-680.7734
 20
-3.002
 10
-680.5408
 20
-2.7953
 10
-680.2932
 20
-2.6064
 10
-680.0315
 20
-2.4377
 10
-679.7573
 20
-2.2915
 10
-679.4704
 20
-2.1678
 10
-679.1709
 20
-2.0665
 10
-678.8587
 20
-1.9878
 10
-678.5339
 20
-1.9316
 10
-678.1964
 20
-1.8978
 10
-677.8461
 20
-1.8866
 10
-677.5137
 20
-1.8971
 10
-677.1933
 20
-1.9288
 10
-676.8849
 20
-1.9814
 10
-676.5884
 20
-2.0552
 10
-676.3039
 20
-2.15
 10
-676.0314
 20
-2.2658
 10
-675.7708
 20
-2.4026
 10
-675.5221
 20
-2.5605
 10
-675.2858
 20
-2.7385
 10
-675.0639
 20
-2.9356
 10
-674.8562
 20
-3.1519
 10
-674.6629
 20
-3.3875
 10
-674.4839
 20
-3.6423
 10
-674.3193
 20
-3.9164
 10
-674.169
 20
-4.2097
 10
-674.033
 20
-4.5224
 10
-673.9119
 20
-4.8529
 10
-673.8069
 20
-5.1996
 10
-673.718
 20
-5.5627
 10
-673.6453
 20
-5.9421
 10
-673.5886
 20
-6.3378
 10
-673.5482
 20
-6.7499
 10
-673.5239
 20
-7.1783
 10
-673.5158
 20
-7.6232
  0
LWPOLYLINE
  5
A7
330
1F
100
AcDbEntity
  8
Layer 1
 62
     7
370
    18
100
AcDbPolyline
 90
       65
 70
     1
 43
0.0
 10
-674.6972
 20
-7.6232
 10
-674.7102
 20
-7.16
 10
-674.7494
 20
-6.723
 10
-674.8146
 20
-6.3121
 10
-674.906
 20
-5.9274
 10
-675.0236
 20
-5.5688
 10
-675.1675
 20
-5.2364
 10
-675.3376
 20
-4.9301
 10
-675.534
 20
-4.6499
 10
-675.7518
 20
-4.3997
 10
-675.9873
 20
-4.1829
 10
-676.2405
 20
-3.9994
 10
-676.5114
 20
-3.8492
 10
-676.8
 20
-3.7324
 10
-677.1062
 20
-3.649
 10
-677.4301
 20
-3.5989
 10
-677.7716
 20
-3.5822
 10
-678.1304
 20
-3.5994
 10
-678.4688
 20
-3.6511
 10
-678.787
 20
-3.7373
 10
-679.0848
 20
-3.8579
 10
-679.3621
 20
-4.0131
 10
-679.6191
 20
-4.2027
 10
-679.8557
 20
-4.4268
 10
-680.0718
 20
-4.6855
 10
-680.2648
 20
-4.9726
 10
-680.4322
 20
-5.2825
 10
-680.5738
 20
-5.6154
 10
-680.6897
 20
-5.9712
 10
-680.7798
 20
-6.3499
 10
-680.8443
 20
-6.7515
 10
-680.8829
 20
-7.1759
 10
-680.8958
 20
-7.6232
 10
-680.8829
 20
-8.07
 10
-680.8443
 20
-8.4937
 10
-680.7798
 20
-8.8942
 10
-680.6897
 20
-9.2715
 10
-680.5738
 20
-9.6257
 10
-680.4322
 20
-9.9566
 10
-680.2648
 20
-10.2643
 10
-680.0718
 20
-10.5487
 10
-679.8561
 20
-10.8045
 10
-679.6208
 20
-11.0262
 10
-679.3658
 20
-11.2139
 10
-679.0912
 20
-11.3675
 10
-678.797
 20
-11.487
 10
-678.4831
 20
-11.5724
 10
-678.1496
 20
-11.6236
 10
-677.7965
 20
-11.6407
 10
-677.4491
 20
-11.6242
 10
-677.1201
 20
-11.5746
 10
-676.8095
 20
-11.492
 10
-676.5175
 20
-11.3764
 10
-676.2439
 20
-11.2277
 10
-675.9888
 20
-11.046
 10
-675.7521
 20
-10.8312
 10
-675.534
 20
-10.5834
 10
-675.3376
 20
-10.3061
 10
-675.1675
 20
-10.0024
 10
-675.0236
 20
-9.6721
 10
-674.906
 20
-9.3153
 10
-674.8146
 20
-8.932
 10
-674.7494
 20
-8.5222
 10
-674.7102
 20
-8.0859
 10
-674.6972
 20
-7.6232
  0
LWPOLYLINE
  5
A8
330
1F
100
AcDbEntity
  8
Layer 1
 62
     7
370
    18
100
AcDbPolyline
 90
       97
 70
     1
 43
0.0
 10
-664.8821
 20
7.4955
 10
-664.8984
 20
7.0317
 10
-664.9474
 20
6.5809
 10
-665.0291
 20
6.1431
 10
-665.1435
 20
5.7185
 10
-665.2906
 20
5.3069
 10
-665.4705
 20
4.9085
 10
-665.6831
 20
4.5231
 10
-665.9284
 20
4.151
 10
-666.204
 20
3.7949
 10
-666.508
 20
3.4585
 10
-666.8405
 20
3.1417
 10
-667.2015
 20
2.8446
 10
-667.5908
 20
2.567
 10
-668.0086
 20
2.309
 10
-668.4548
 20
2.0705
 10
-668.9294
 20
1.8516
 10
-669.4307
 20
1.6558
 10
-669.9569
 20
1.4861
 10
-670.5081
 20
1.3424
 10
-671.0843
 20
1.2248
 10
-671.6854
 20
1.1333
 10
-672.3116
 20
1.0679
 10
-672.9627
 20
1.0286
 10
-673.6389
 20
1.0155
 10
-674.3155
 20
1.0286
 10
-674.967
 20
1.0679
 10
-675.5935
 20
1.1333
 10
-676.195
 20
1.2248
 10
-676.7714
 20
1.3424
 10
-677.3228
 20
1.4861
 10
-677.8491
 20
1.6558
 10
-678.3504
 20
1.8516
 10
-678.825
 20
2.0705
 10
-679.2711
 20
2.309
 10
-679.6887
 20
2.567
 10
-680.0779
 20
2.8446
 10
-680.4386
 20
3.1417
 10
-680.771
 20
3.4585
 10
-681.0749
 20
3.7949
 10
-681.3504
 20
4.151
 10
-681.5954
 20
4.5231
 10
-681.8077
 20
4.9085
 10
-681.9874
 20
5.3069
 10
-682.1344
 20
5.7185
 10
-682.2488
 20
6.1431
 10
-682.3305
 20
6.5809
 10
-682.3795
 20
7.0317
 10
-682.3958
 20
7.4955
 10
-682.3795
 20
7.959
 10
-682.3305
 20
8.4096
 10
-682.2488
 20
8.8471
 10
-682.1344
 20
9.2717
 10
-681.9874
 20
9.6832
 10
-681.8077
 20
10.0816
 10
-681.5954
 20
10.4669
 10
-681.3504
 20
10.8391
 10
-681.0749
 20
11.1954
 10
-680.771
 20
11.5323
 10
-680.4386
 20
11.85
 10
-680.0779
 20
12.1483
 10
-679.6887
 20
12.4275
 10
-679.2711
 20
12.6874
 10
-678.825
 20
12.9281
 10
-678.3504
 20
13.1497
 10
-677.8491
 20
13.3484
 10
-677.3228
 20
13.5207
 10
-676.7714
 20
13.6665
 10
-676.195
 20
13.7858
 10
-675.5935
 20
13.8786
 10
-674.967
 20
13.9449
 10
-674.3155
 20
13.9847
 10
-673.6389
 20
13.998
 10
-672.9627
 20
13.9847
 10
-672.3116
 20
13.9449
 10
-671.6854
 20
13.8786
 10
-671.0843
 20
13.7858
 10
-670.5081
 20
13.6665
 10
-669.9569
 20
13.5207
 10
-669.4307
 20
13.3484
 10
-668.9294
 20
13.1497
 10
-668.4548
 20
12.9281
 10
-668.0086
 20
12.6874
 10
-667.5908
 20
12.4275
 10
-667.2015
 20
12.1483
 10
-666.8405
 20
11.85
 10
-666.508
 20
11.5323
 10
-666.204
 20
11.1954
 10
-665.9284
 20
10.8391
 10
-665.6831
 20
10.4669
 10
-665.4705
 20
10.0816
 10
-665.2906
 20
9.6832
 10
-665.1435
 20
9.2717
 10
-665.0291
 20
8.8471
 10
-664.9474
 20
8.4096
 10
-664.8984
 20
7.959
 10
-664.8821
 20
7.4955
  0
LWPOLYLINE
  5
A9
330
1F
100
AcDbEntity
  8
Layer 1
 62
     7
370
    18
100
AcDbPolyline
 90
       97
 70
     1
 43
0.0
 10
-666.5062
 20
7.4955
 10
-666.5191
 20
7.8496
 10
-666.5577
 20
8.1921
 10
-666.6222
 20
8.5228
 10
-666.7123
 20
8.842
 10
-666.8282
 20
9.1496
 10
-666.9698
 20
9.4456
 10
-667.1371
 20
9.73
 10
-667.3301
 20
10.0029
 10
-667.5482
 20
10.2628
 10
-667.7901
 20
10.5082
 10
-668.0557
 20
10.7391
 10
-668.3451
 20
10.9554
 10
-668.6582
 20
11.1572
 10
-668.9952
 20
11.3444
 10
-669.3559
 20
11.5171
 10
-669.7405
 20
11.6752
 10
-670.1486
 20
11.8166
 10
-670.5794
 20
11.9392
 10
-671.0328
 20
12.0429
 10
-671.5088
 20
12.1278
 10
-672.0074
 20
12.1939
 10
-672.5286
 20
12.2411
 10
-673.0724
 20
12.2695
 10
-673.6389
 20
12.2789
 10
-674.206
 20
12.2695
 10
-674.7503
 20
12.2411
 10
-675.2719
 20
12.1939
 10
-675.7707
 20
12.1278
 10
-676.2467
 20
12.0429
 10
-676.7
 20
11.9392
 10
-677.1306
 20
11.8166
 10
-677.5384
 20
11.6752
 10
-677.923
 20
11.5171
 10
-678.2838
 20
11.3444
 10
-678.6209
 20
11.1572
 10
-678.9341
 20
10.9554
 10
-679.2236
 20
10.7391
 10
-679.4892
 20
10.5082
 10
-679.7309
 20
10.2628
 10
-679.9487
 20
10.0029
 10
-680.1417
 20
9.73
 10
-680.3091
 20
9.4456
 10
-680.4507
 20
9.1496
 10
-680.5666
 20
8.842
 10
-680.6567
 20
8.5228
 10
-680.7212
 20
8.1921
 10
-680.7598
 20
7.8496
 10
-680.7727
 20
7.4955
 10
-680.7598
 20
7.1519
 10
-680.7212
 20
6.8176
 10
-680.6567
 20
6.4928
 10
-680.5666
 20
6.1775
 10
-680.4507
 20
5.8715
 10
-680.3091
 20
5.5751
 10
-680.1417
 20
5.2881
 10
-679.9487
 20
5.0106
 10
-679.7309
 20
4.7451
 10
-679.4892
 20
4.4949
 10
-679.2236
 20
4.26
 10
-678.9341
 20
4.0404
 10
-678.6209
 20
3.8361
 10
-678.2838
 20
3.6471
 10
-677.923
 20
3.4733
 10
-677.5384
 20
3.3149
 10
-677.1306
 20
3.1735
 10
-676.7
 20
3.0509
 10
-676.2467
 20
2.9471
 10
-675.7707
 20
2.8622
 10
-675.2719
 20
2.7962
 10
-674.7503
 20
2.749
 10
-674.206
 20
2.7206
 10
-673.6389
 20
2.7112
 10
-673.0724
 20
2.7206
 10
-672.5286
 20
2.749
 10
-672.0074
 20
2.7962
 10
-671.5088
 20
2.8622
 10
-671.0328
 20
2.9471
 10
-670.5794
 20
3.0509
 10
-670.1486
 20
3.1735
 10
-669.7405
 20
3.3149
 10
-669.3559
 20
3.4733
 10
-668.9952
 20
3.6471
 10
-668.6582
 20
3.8361
 10
-668.3451
 20
4.0404
 10
-668.0557
 20
4.26
 10
-667.7901
 20
4.4949
 10
-667.5482
 20
4.7451
 10
-667.3301
 20
5.0106
 10
-667.1371
 20
5.2881
 10
-666.9698
 20
5.5751
 10
-666.8282
 20
5.8715
 10
-666.7123
 20
6.1775
 10
-666.6222
 20
6.4928
 10
-666.5577
 20
6.8176
 10
-666.5191
 20
7.1519
 10
-666.5062
 20
7.4955
  0
LWPOLYLINE
  5
AA
330
1F
100
AcDbEntity
  8
Layer 1
 62
     7
370
    18
100
AcDbPolyline
 90
        8
 70
     1
 43
0.0
 10
-467.4336
 20
162.1827
 10
-467.4336
 20
177.6904
 10
-466.6494
 20
176.904
 10
-471.479
 20
176.904
 10
-471.479
 20
178.385
 10
-465.6695
 20
178.385
 10
-465.6695
 20
162.1827
 10
-467.4336
 20
162.1827
  0
LWPOLYLINE
  5
AB
330
1F
100
AcDbEntity
  8
Layer 1
 62
     7
370
    18
100
AcDbPolyline
 90
       97
 70
     1
 43
0.0
 10
-455.0543
 20
162.044
 10
-455.5599
 20
162.0527
 10
-456.0475
 20
162.0786
 10
-456.5173
 20
162.122
 10
-456.9691
 20
162.1826
 10
-457.4029
 20
162.2606
 10
-457.8187
 20
162.356
 10
-458.2166
 20
162.4688
 10
-458.5964
 20
162.5989
 10
-458.9564
 20
162.7458
 10
-459.295
 20
162.9083
 10
-459.612
 20
163.0862
 10
-459.9077
 20
163.2796
 10
-460.1818
 20
163.4885
 10
-460.4345
 20
163.7129
 10
-460.6658
 20
163.9529
 10
-460.8757
 20
164.2084
 10
-461.0624
 20
164.4776
 10
-461.2243
 20
164.7587
 10
-461.3613
 20
165.0517
 10
-461.4734
 20
165.3567
 10
-461.5606
 20
165.6735
 10
-461.6229
 20
166.0024
 10
-461.6603
 20
166.3432
 10
-461.6728
 20
166.6961
 10
-461.6607
 20
167.0371
 10
-461.6244
 20
167.3654
 10
-461.564
 20
167.681
 10
-461.4795
 20
167.9839
 10
-461.3708
 20
168.2742
 10
-461.2381
 20
168.5517
 10
-461.0813
 20
168.8165
 10
-460.9005
 20
169.0686
 10
-460.6962
 20
169.3076
 10
-460.4698
 20
169.5324
 10
-460.2212
 20
169.7431
 10
-459.9504
 20
169.9397
 10
-459.6573
 20
170.1222
 10
-459.3421
 20
170.2906
 10
-459.0047
 20
170.445
 10
-458.645
 20
170.5852
 10
-458.2645
 20
170.7098
 10
-457.8644
 20
170.8178
 10
-457.4448
 20
170.9091
 10
-457.0057
 20
170.9839
 10
-456.547
 20
171.042
 10
-456.0689
 20
171.0835
 10
-455.5713
 20
171.1084
 10
-455.0543
 20
171.1167
 10
-454.5423
 20
171.1084
 10
-454.0488
 20
171.0835
 10
-453.5736
 20
171.042
 10
-453.1169
 20
170.9839
 10
-452.6785
 20
170.9091
 10
-452.2585
 20
170.8178
 10
-451.8568
 20
170.7098
 10
-451.4735
 20
170.5852
 10
-451.1107
 20
170.445
 10
-450.7697
 20
170.2906
 10
-450.4506
 20
170.1222
 10
-450.1533
 20
169.9397
 10
-449.8779
 20
169.7431
 10
-449.6242
 20
169.5324
 10
-449.3924
 20
169.3076
 10
-449.1823
 20
169.0686
 10
-448.9956
 20
168.8165
 10
-448.8337
 20
168.5517
 10
-448.6967
 20
168.2742
 10
-448.5846
 20
167.9839
 10
-448.4974
 20
167.681
 10
-448.4351
 20
167.3654
 10
-448.3977
 20
167.0371
 10
-448.3852
 20
166.6961
 10
-448.3979
 20
166.3432
 10
-448.4358
 20
166.0024
 10
-448.4991
 20
165.6735
 10
-448.5876
 20
165.3567
 10
-448.7014
 20
165.0517
 10
-448.8404
 20
164.7587
 10
-449.0047
 20
164.4776
 10
-449.1942
 20
164.2084
 10
-449.4071
 20
163.9529
 10
-449.6415
 20
163.7129
 10
-449.8974
 20
163.4885
 10
-450.1747
 20
163.2796
 10
-450.4735
 20
163.0862
 10
-450.7937
 20
162.9083
 10
-451.1353
 20
162.7458
 10
-451.4984
 20
162.5989
 10
-451.881
 20
162.4688
 10
-452.2814
 20
162.356
 10
-452.6995
 20
162.2606
 10
-453.1353
 20
162.1826
 10
-453.5887
 20
162.122
 10
-454.0597
 20
162.0786
 10
-454.5482
 20
162.0527
 10
-455.0543
 20
162.044
  0
LWPOLYLINE
  5
AC
330
1F
100
AcDbEntity
  8
Layer 1
 62
     7
370
    18
100
AcDbPolyline
 90
       65
 70
     1
 43
0.0
 10
-455.0543
 20
163.4557
 10
-454.4998
 20
163.4695
 10
-453.9762
 20
163.5107
 10
-453.4837
 20
163.5794
 10
-453.0221
 20
163.6756
 10
-452.5915
 20
163.7993
 10
-452.1921
 20
163.9504
 10
-451.8237
 20
164.1289
 10
-451.4865
 20
164.3349
 10
-451.1849
 20
164.5647
 10
-450.9234
 20
164.814
 10
-450.7021
 20
165.0828
 10
-450.521
 20
165.3712
 10
-450.3801
 20
165.679
 10
-450.2795
 20
166.0064
 10
-450.219
 20
166.3532
 10
-450.1989
 20
166.7196
 10
-450.219
 20
167.0858
 10
-450.2795
 20
167.4321
 10
-450.3801
 20
167.7585
 10
-450.521
 20
168.065
 10
-450.7021
 20
168.3517
 10
-450.9234
 20
168.6184
 10
-451.1849
 20
168.8652
 10
-451.4865
 20
169.092
 10
-451.8237
 20
169.2954
 10
-452.1921
 20
169.4716
 10
-452.5915
 20
169.6208
 10
-453.0221
 20
169.7429
 10
-453.4837
 20
169.8379
 10
-453.9762
 20
169.9057
 10
-454.4998
 20
169.9464
 10
-455.0543
 20
169.96
 10
-455.6085
 20
169.9464
 10
-456.1313
 20
169.9057
 10
-456.6227
 20
169.8379
 10
-457.0826
 20
169.7429
 10
-457.5111
 20
169.6208
 10
-457.9082
 20
169.4716
 10
-458.2739
 20
169.2954
 10
-458.6083
 20
169.092
 10
-458.9071
 20
168.8652
 10
-459.166
 20
168.6184
 10
-459.385
 20
168.3517
 10
-459.5643
 20
168.065
 10
-459.7037
 20
167.7585
 10
-459.8032
 20
167.4321
 10
-459.863
 20
167.0858
 10
-459.8829
 20
166.7196
 10
-459.863
 20
166.3532
 10
-459.8032
 20
166.0064
 10
-459.7037
 20
165.679
 10
-459.5643
 20
165.3712
 10
-459.385
 20
165.0828
 10
-459.166
 20
164.814
 10
-458.9071
 20
164.5647
 10
-458.6083
 20
164.3349
 10
-458.2739
 20
164.1289
 10
-457.9082
 20
163.9504
 10
-457.5111
 20
163.7993
 10
-457.0826
 20
163.6756
 10
-456.6227
 20
163.5794
 10
-456.1313
 20
163.5107
 10
-455.6085
 20
163.4695
 10
-455.0543
 20
163.4557
  0
LWPOLYLINE
  5
AD
330
1F
100
AcDbEntity
  8
Layer 1
 62
     7
370
    18
100
AcDbPolyline
 90
       97
 70
     1
 43
0.0
 10
-455.0543
 20
170.1681
 10
-455.5233
 20
170.1757
 10
-455.9742
 20
170.1985
 10
-456.4071
 20
170.2365
 10
-456.822
 20
170.2897
 10
-457.2188
 20
170.3582
 10
-457.5977
 20
170.4418
 10
-457.9586
 20
170.5406
 10
-458.3015
 20
170.6546
 10
-458.626
 20
170.7826
 10
-458.9309
 20
170.924
 10
-459.2161
 20
171.0789
 10
-459.4818
 20
171.2473
 10
-459.7278
 20
171.429
 10
-459.9543
 20
171.6242
 10
-460.1612
 20
171.8329
 10
-460.3485
 20
172.055
 10
-460.5153
 20
172.2891
 10
-460.6598
 20
172.5345
 10
-460.782
 20
172.791
 10
-460.8819
 20
173.0588
 10
-460.9595
 20
173.3378
 10
-461.015
 20
173.628
 10
-461.0482
 20
173.9294
 10
-461.0593
 20
174.2419
 10
-461.0476
 20
174.5716
 10
-461.0126
 20
174.8894
 10
-460.9542
 20
175.1952
 10
-460.8724
 20
175.4891
 10
-460.7673
 20
175.771
 10
-460.6388
 20
176.0409
 10
-460.487
 20
176.2989
 10
-460.3118
 20
176.545
 10
-460.1155
 20
176.778
 10
-459.9004
 20
176.997
 10
-459.6666
 20
177.2019
 10
-459.414
 20
177.3927
 10
-459.1427
 20
177.5694
 10
-458.8526
 20
177.732
 10
-458.5437
 20
177.8805
 10
-458.2162
 20
178.0148
 10
-457.872
 20
178.1341
 10
-457.5131
 20
178.2375
 10
-457.1397
 20
178.325
 10
-456.7518
 20
178.3965
 10
-456.3492
 20
178.4522
 10
-455.9321
 20
178.492
 10
-455.5005
 20
178.5158
 10
-455.0543
 20
178.5238
 10
-454.6076
 20
178.5158
 10
-454.1752
 20
178.492
 10
-453.7569
 20
178.4522
 10
-453.3529
 20
178.3965
 10
-452.9631
 20
178.325
 10
-452.5874
 20
178.2375
 10
-452.2259
 20
178.1341
 10
-451.8786
 20
178.0148
 10
-451.5477
 20
177.8805
 10
-451.2357
 20
177.732
 10
-450.9424
 20
177.5694
 10
-450.6679
 20
177.3927
 10
-450.4123
 20
177.2019
 10
-450.1754
 20
176.997
 10
-449.9574
 20
176.778
 10
-449.7581
 20
176.545
 10
-449.5801
 20
176.2989
 10
-449.4257
 20
176.0409
 10
-449.295
 20
175.771
 10
-449.188
 20
175.4891
 10
-449.1048
 20
175.1952
 10
-449.0453
 20
174.8894
 10
-449.0096
 20
174.5716
 10
-448.9977
 20
174.2419
 10
-449.0088
 20
173.9294
 10
-449.0422
 20
173.628
 10
-449.0978
 20
173.3378
 10
-449.1756
 20
173.0588
 10
-449.2757
 20
172.791
 10
-449.3981
 20
172.5345
 10
-449.5427
 20
172.2891
 10
-449.7095
 20
172.055
 10
-449.8972
 20
171.8329
 10
-450.1052
 20
171.6242
 10
-450.3335
 20
171.429
 10
-450.5822
 20
171.2473
 10
-450.8512
 20
171.0789
 10
-451.1405
 20
170.924
 10
-451.4502
 20
170.7826
 10
-451.7803
 20
170.6546
 10
-452.1292
 20
170.5406
 10
-452.4954
 20
170.4418
 10
-452.8789
 20
170.3582
 10
-453.2796
 20
170.2897
 10
-453.6975
 20
170.2365
 10
-454.1326
 20
170.1985
 10
-454.5849
 20
170.1757
 10
-455.0543
 20
170.1681
  0
LWPOLYLINE
  5
AE
330
1F
100
AcDbEntity
  8
Layer 1
 62
     7
370
    18
100
AcDbPolyline
 90
       65
 70
     1
 43
0.0
 10
-455.0543
 20
171.2789
 10
-454.5655
 20
171.2912
 10
-454.1041
 20
171.3281
 10
-453.6703
 20
171.3896
 10
-453.264
 20
171.4758
 10
-452.8854
 20
171.5865
 10
-452.5343
 20
171.7218
 10
-452.211
 20
171.8818
 10
-451.9153
 20
172.0663
 10
-451.6511
 20
172.2714
 10
-451.4221
 20
172.4932
 10
-451.2282
 20
172.7316
 10
-451.0696
 20
172.9865
 10
-450.9463
 20
173.2581
 10
-450.8581
 20
173.5463
 10
-450.8052
 20
173.8511
 10
-450.7876
 20
174.1725
 10
-450.8058
 20
174.5102
 10
-450.8604
 20
174.8286
 10
-450.9513
 20
175.1279
 10
-451.0787
 20
175.408
 10
-451.2424
 20
175.6689
 10
-451.4426
 20
175.9107
 10
-451.6791
 20
176.1333
 10
-451.952
 20
176.3369
 10
-452.2552
 20
176.5185
 10
-452.5827
 20
176.6759
 10
-452.9342
 20
176.8092
 10
-453.31
 20
176.9182
 10
-453.7099
 20
177.003
 10
-454.1339
 20
177.0636
 10
-454.582
 20
177.1
 10
-455.0543
 20
177.1121
 10
-455.526
 20
177.1
 10
-455.9733
 20
177.0636
 10
-456.396
 20
177.003
 10
-456.7943
 20
176.9182
 10
-457.1681
 20
176.8092
 10
-457.5175
 20
176.6759
 10
-457.8423
 20
176.5185
 10
-458.1427
 20
176.3369
 10
-458.4128
 20
176.1337
 10
-458.6469
 20
175.9121
 10
-458.845
 20
175.6721
 10
-459.0071
 20
175.4137
 10
-459.1331
 20
175.1369
 10
-459.2232
 20
174.8417
 10
-459.2772
 20
174.5281
 10
-459.2952
 20
174.196
 10
-459.2778
 20
173.869
 10
-459.2254
 20
173.5594
 10
-459.1382
 20
173.2672
 10
-459.0162
 20
172.9923
 10
-458.8592
 20
172.7348
 10
-458.6675
 20
172.4946
 10
-458.4408
 20
172.2718
 10
-458.1794
 20
172.0663
 10
-457.8866
 20
171.8818
 10
-457.5659
 20
171.7218
 10
-457.2172
 20
171.5865
 10
-456.8406
 20
171.4758
 10
-456.436
 20
171.3896
 10
-456.0034
 20
171.3281
 10
-455.5429
 20
171.2912
 10
-455.0543
 20
171.2789
  0
LWPOLYLINE
  5
AF
330
1F
100
AcDbEntity
  8
Layer 1
 62
     7
370
    18
100
AcDbPolyline
 90
       97
 70
     1
 43
0.0
 10
-439.0942
 20
162.044
 10
-439.5836
 20
162.0594
 10
-440.0591
 20
162.1055
 10
-440.5209
 20
162.1824
 10
-440.969
 20
162.29
 10
-441.4032
 20
162.4282
 10
-441.8237
 20
162.5972
 10
-442.2305
 20
162.7969
 10
-442.6234
 20
163.0273
 10
-442.9997
 20
163.2867
 10
-443.3551
 20
163.5728
 10
-443.6897
 20
163.8857
 10
-444.0035
 20
164.2254
 10
-444.2965
 20
164.5918
 10
-444.5689
 20
164.9849
 10
-444.8205
 20
165.4049
 10
-445.0516
 20
165.8516
 10
-445.2585
 20
166.3235
 10
-445.4378
 20
166.8188
 10
-445.5895
 20
167.3376
 10
-445.7136
 20
167.8799
 10
-445.8101
 20
168.4457
 10
-445.879
 20
169.0351
 10
-445.9203
 20
169.6479
 10
-445.9341
 20
170.2843
 10
-445.9203
 20
170.9205
 10
-445.879
 20
171.5332
 10
-445.8101
 20
172.1225
 10
-445.7136
 20
172.6883
 10
-445.5895
 20
173.2306
 10
-445.4378
 20
173.7494
 10
-445.2585
 20
174.2446
 10
-445.0516
 20
174.7162
 10
-444.8205
 20
175.1629
 10
-444.5689
 20
175.5829
 10
-444.2965
 20
175.976
 10
-444.0035
 20
176.3424
 10
-443.6897
 20
176.682
 10
-443.3551
 20
176.9949
 10
-442.9997
 20
177.2811
 10
-442.6234
 20
177.5405
 10
-442.2305
 20
177.7709
 10
-441.8237
 20
177.9706
 10
-441.4032
 20
178.1396
 10
-440.969
 20
178.2779
 10
-440.5209
 20
178.3854
 10
-440.0591
 20
178.4623
 10
-439.5836
 20
178.5084
 10
-439.0942
 20
178.5238
 10
-438.6045
 20
178.5084
 10
-438.1287
 20
178.4623
 10
-437.6667
 20
178.3854
 10
-437.2186
 20
178.2779
 10
-436.7843
 20
178.1396
 10
-436.3638
 20
177.9706
 10
-435.957
 20
177.7709
 10
-435.5641
 20
177.5405
 10
-435.1882
 20
177.2811
 10
-434.8326
 20
176.9949
 10
-434.4972
 20
176.682
 10
-434.1821
 20
176.3424
 10
-433.8872
 20
175.976
 10
-433.6126
 20
175.5829
 10
-433.3582
 20
175.1629
 10
-433.124
 20
174.7162
 10
-432.9143
 20
174.2446
 10
-432.7325
 20
173.7494
 10
-432.5788
 20
173.2306
 10
-432.453
 20
172.6883
 10
-432.3552
 20
172.1225
 10
-432.2854
 20
171.5332
 10
-432.2435
 20
170.9205
 10
-432.2295
 20
170.2843
 10
-432.2435
 20
169.6479
 10
-432.2854
 20
169.0351
 10
-432.3552
 20
168.4457
 10
-432.453
 20
167.8799
 10
-432.5788
 20
167.3376
 10
-432.7325
 20
166.8188
 10
-432.9143
 20
166.3235
 10
-433.124
 20
165.8516
 10
-433.3582
 20
165.4049
 10
-433.6126
 20
164.9849
 10
-433.8872
 20
164.5918
 10
-434.1821
 20
164.2254
 10
-434.4972
 20
163.8857
 10
-434.8326
 20
163.5728
 10
-435.1882
 20
163.2867
 10
-435.5641
 20
163.0273
 10
-435.957
 20
162.7969
 10
-436.3638
 20
162.5972
 10
-436.7843
 20
162.4282
 10
-437.2186
 20
162.29
 10
-437.6667
 20
162.1824
 10
-438.1287
 20
162.1055
 10
-438.6045
 20
162.0594
 10
-439.0942
 20
162.044
  0
LWPOLYLINE
  5
B0
330
1F
100
AcDbEntity
  8
Layer 1
 62
     7
370
    18
100
AcDbPolyline
 90
       97
 70
     1
 43
0.0
 10
-439.0942
 20
163.5719
 10
-438.7203
 20
163.584
 10
-438.3586
 20
163.6203
 10
-438.0092
 20
163.6808
 10
-437.6722
 20
163.7655
 10
-437.3473
 20
163.8744
 10
-437.0348
 20
164.0077
 10
-436.7346
 20
164.1652
 10
-436.4466
 20
164.3471
 10
-436.1724
 20
164.552
 10
-435.9135
 20
164.7794
 10
-435.6699
 20
165.0293
 10
-435.4416
 20
165.3017
 10
-435.2286
 20
165.5965
 10
-435.031
 20
165.9137
 10
-434.8486
 20
166.2534
 10
-434.6816
 20
166.6155
 10
-434.5322
 20
166.9994
 10
-434.4028
 20
167.4047
 10
-434.2932
 20
167.8312
 10
-434.2036
 20
168.2791
 10
-434.1338
 20
168.7483
 10
-434.084
 20
169.2389
 10
-434.0542
 20
169.7509
 10
-434.0442
 20
170.2843
 10
-434.0542
 20
170.8175
 10
-434.084
 20
171.3293
 10
-434.1338
 20
171.8199
 10
-434.2036
 20
172.2891
 10
-434.2932
 20
172.737
 10
-434.4028
 20
173.1635
 10
-434.5322
 20
173.5685
 10
-434.6816
 20
173.9522
 10
-434.8486
 20
174.3143
 10
-435.031
 20
174.654
 10
-435.2286
 20
174.9713
 10
-435.4416
 20
175.2661
 10
-435.6699
 20
175.5384
 10
-435.9135
 20
175.7883
 10
-436.1724
 20
176.0158
 10
-436.4466
 20
176.2207
 10
-436.7346
 20
176.4026
 10
-437.0348
 20
176.5602
 10
-437.3473
 20
176.6936
 10
-437.6722
 20
176.8028
 10
-438.0092
 20
176.8877
 10
-438.3586
 20
176.9483
 10
-438.7203
 20
176.9847
 10
-439.0942
 20
176.9968
 10
-439.4567
 20
176.9847
 10
-439.8094
 20
176.9483
 10
-440.1521
 20
176.8877
 10
-440.485
 20
176.8028
 10
-440.8079
 20
176.6936
 10
-441.1209
 20
176.5602
 10
-441.4239
 20
176.4026
 10
-441.717
 20
176.2207
 10
-441.9968
 20
176.0158
 10
-442.2605
 20
175.7883
 10
-442.5083
 20
175.5384
 10
-442.74
 20
175.2661
 10
-442.9557
 20
174.9713
 10
-443.1555
 20
174.654
 10
-443.3392
 20
174.3143
 10
-443.5069
 20
173.9522
 10
-443.6563
 20
173.5685
 10
-443.7857
 20
173.1635
 10
-443.8953
 20
172.737
 10
-443.9849
 20
172.2891
 10
-444.0546
 20
171.8199
 10
-444.1044
 20
171.3293
 10
-444.1342
 20
170.8175
 10
-444.1442
 20
170.2843
 10
-444.1342
 20
169.7509
 10
-444.1044
 20
169.2389
 10
-444.0546
 20
168.7483
 10
-443.9849
 20
168.2791
 10
-443.8953
 20
167.8312
 10
-443.7857
 20
167.4047
 10
-443.6563
 20
166.9994
 10
-443.5069
 20
166.6155
 10
-443.3392
 20
166.2534
 10
-443.1555
 20
165.9137
 10
-442.9557
 20
165.5965
 10
-442.74
 20
165.3017
 10
-442.5083
 20
165.0293
 10
-442.2605
 20
164.7794
 10
-441.9968
 20
164.552
 10
-441.717
 20
164.3471
 10
-441.4239
 20
164.1652
 10
-441.1209
 20
164.0077
 10
-440.8079
 20
163.8744
 10
-440.485
 20
163.7655
 10
-440.1521
 20
163.6808
 10
-439.8094
 20
163.6203
 10
-439.4567
 20
163.584
 10
-439.0942
 20
163.5719
  0
LWPOLYLINE
  5
B1
330
1F
100
AcDbEntity
  8
Layer 1
 62
     7
370
    18
100
AcDbPolyline
 90
      117
 70
     1
 43
0.0
 10
-399.4983
 20
99.3251
 10
-399.9608
 20
99.334
 10
-400.4169
 20
99.3606
 10
-400.8665
 20
99.4049
 10
-401.3097
 20
99.467
 10
-401.7463
 20
99.5468
 10
-402.1766
 20
99.6442
 10
-402.6003
 20
99.7594
 10
-403.0175
 20
99.8922
 10
-403.421
 20
100.0398
 10
-403.8042
 20
100.1994
 10
-404.167
 20
100.371
 10
-404.5096
 20
100.5545
 10
-404.8319
 20
100.7499
 10
-405.1339
 20
100.9573
 10
-405.4157
 20
101.1766
 10
-405.6771
 20
101.4079
 10
-404.8193
 20
102.7277
 10
-404.6019
 20
102.5295
 10
-404.3664
 20
102.34
 10
-404.113
 20
102.1592
 10
-403.8416
 20
101.987
 10
-403.5522
 20
101.8235
 10
-403.2448
 20
101.6687
 10
-402.9193
 20
101.5227
 10
-402.5758
 20
101.3854
 10
-402.2195
 20
101.2605
 10
-401.8551
 20
101.1524
 10
-401.4825
 20
101.0609
 10
-401.1019
 20
100.986
 10
-400.7131
 20
100.9278
 10
-400.3162
 20
100.8862
 10
-399.9113
 20
100.8613
 10
-399.4983
 20
100.853
 10
-398.9807
 20
100.8667
 10
-398.4941
 20
100.9079
 10
-398.0385
 20
100.9765
 10
-397.614
 20
101.0726
 10
-397.2205
 20
101.1962
 10
-396.858
 20
101.3474
 10
-396.5266
 20
101.526
 10
-396.2263
 20
101.7323
 10
-395.959
 20
101.9614
 10
-395.7273
 20
102.2094
 10
-395.5312
 20
102.4763
 10
-395.3709
 20
102.7621
 10
-395.2461
 20
103.0667
 10
-395.157
 20
103.3901
 10
-395.1035
 20
103.7324
 10
-395.0857
 20
104.0935
 10
-395.1031
 20
104.4543
 10
-395.1555
 20
104.7963
 10
-395.2427
 20
105.1196
 10
-395.3648
 20
105.4241
 10
-395.5217
 20
105.7097
 10
-395.7135
 20
105.9766
 10
-395.9401
 20
106.2246
 10
-396.2015
 20
106.4537
 10
-396.5004
 20
106.66
 10
-396.8395
 20
106.8388
 10
-397.2189
 20
106.9901
 10
-397.6384
 20
107.1139
 10
-398.0982
 20
107.2101
 10
-398.5981
 20
107.2789
 10
-399.1383
 20
107.3201
 10
-399.7187
 20
107.3339
 10
-400.9447
 20
107.3339
 10
-400.9447
 20
108.56
 10
-395.6495
 20
114.8328
 10
-395.4043
 20
114.1851
 10
-404.9663
 20
114.1851
 10
-404.9663
 20
115.6661
 10
-393.9341
 20
115.6661
 10
-393.9341
 20
114.486
 10
-399.2293
 20
108.2132
 10
-400.087
 20
108.7456
 10
-399.4249
 20
108.7456
 10
-398.6771
 20
108.7253
 10
-397.9779
 20
108.6646
 10
-397.3273
 20
108.5633
 10
-396.7253
 20
108.4215
 10
-396.1719
 20
108.2392
 10
-395.6672
 20
108.0164
 10
-395.2111
 20
107.7531
 10
-394.8037
 20
107.4492
 10
-394.4449
 20
107.1136
 10
-394.1338
 20
106.7548
 10
-393.8706
 20
106.3729
 10
-393.6551
 20
105.9679
 10
-393.4875
 20
105.5396
 10
-393.3677
 20
105.0883
 10
-393.2959
 20
104.6137
 10
-393.2719
 20
104.116
 10
-393.2827
 20
103.779
 10
-393.3149
 20
103.4507
 10
-393.3686
 20
103.1311
 10
-393.4438
 20
102.8202
 10
-393.5404
 20
102.5179
 10
-393.6585
 20
102.2243
 10
-393.798
 20
101.9393
 10
-393.9589
 20
101.6629
 10
-394.1411
 20
101.3981
 10
-394.3453
 20
101.1478
 10
-394.5714
 20
100.9119
 10
-394.8194
 20
100.6906
 10
-395.0892
 20
100.4838
 10
-395.3809
 20
100.2915
 10
-395.6944
 20
100.1136
 10
-396.0297
 20
99.9503
 10
-396.3869
 20
99.8037
 10
-396.7659
 20
99.6766
 10
-397.1667
 20
99.5692
 10
-397.5894
 20
99.4813
 10
-398.0339
 20
99.4129
 10
-398.5003
 20
99.3641
 10
-398.9884
 20
99.3349
 10
-399.4983
 20
99.3251
  0
LWPOLYLINE
  5
B2
330
1F
100
AcDbEntity
  8
Layer 1
 62
     7
370
    18
100
AcDbPolyline
 90
      131
 70
     1
 43
0.0
 10
-385.623
 20
99.3251
 10
-386.0797
 20
99.334
 10
-386.5311
 20
99.3606
 10
-386.9773
 20
99.4049
 10
-387.4181
 20
99.467
 10
-387.8536
 20
99.5468
 10
-388.2838
 20
99.6442
 10
-388.7087
 20
99.7594
 10
-389.1283
 20
99.8922
 10
-389.5342
 20
100.0398
 10
-389.9187
 20
100.1994
 10
-390.2818
 20
100.371
 10
-390.6235
 20
100.5545
 10
-390.9438
 20
100.7499
 10
-391.2429
 20
100.9573
 10
-391.5205
 20
101.1766
 10
-391.7769
 20
101.4079
 10
-390.9172
 20
102.7277
 10
-390.7056
 20
102.5295
 10
-390.4753
 20
102.34
 10
-390.2262
 20
102.1592
 10
-389.9583
 20
101.987
 10
-389.6717
 20
101.8235
 10
-389.3663
 20
101.6687
 10
-389.0422
 20
101.5227
 10
-388.6994
 20
101.3854
 10
-388.3432
 20
101.2605
 10
-387.9798
 20
101.1524
 10
-387.6092
 20
101.0609
 10
-387.2313
 20
100.986
 10
-386.8462
 20
100.9278
 10
-386.4539
 20
100.8862
 10
-386.0545
 20
100.8613
 10
-385.6478
 20
100.853
 10
-385.1184
 20
100.8673
 10
-384.6216
 20
100.9101
 10
-384.1575
 20
100.9815
 10
-383.726
 20
101.0815
 10
-383.3271
 20
101.21
 10
-382.9609
 20
101.3671
 10
-382.6272
 20
101.5527
 10
-382.3261
 20
101.7669
 10
-382.0587
 20
102.0043
 10
-381.8269
 20
102.2594
 10
-381.6307
 20
102.5323
 10
-381.4702
 20
102.8229
 10
-381.3452
 20
103.1312
 10
-381.2559
 20
103.4574
 10
-381.2024
 20
103.8012
 10
-381.1845
 20
104.1628
 10
-381.1927
 20
104.4185
 10
-381.2175
 20
104.6651
 10
-381.2587
 20
104.9028
 10
-381.3164
 20
105.1315
 10
-381.3906
 20
105.3511
 10
-381.4814
 20
105.5618
 10
-381.5887
 20
105.7634
 10
-381.7126
 20
105.956
 10
-381.8557
 20
106.1388
 10
-382.0214
 20
106.3112
 10
-382.2098
 20
106.4731
 10
-382.4207
 20
106.6245
 10
-382.6543
 20
106.7653
 10
-382.9104
 20
106.8957
 10
-383.1892
 20
107.0156
 10
-383.4906
 20
107.1249
 10
-383.8175
 20
107.2228
 10
-384.1735
 20
107.3075
 10
-384.5587
 20
107.3792
 10
-384.9731
 20
107.4379
 10
-385.4167
 20
107.4834
 10
-385.8894
 20
107.516
 10
-386.3913
 20
107.5355
 10
-386.9225
 20
107.542
 10
-390.5747
 20
107.542
 10
-389.6922
 20
115.6661
 10
-380.302
 20
115.6661
 10
-380.302
 20
114.1851
 10
-388.9814
 20
114.1851
 10
-388.074
 20
114.995
 10
-388.8345
 20
108.1897
 10
-389.7408
 20
109.0231
 10
-386.5293
 20
109.0231
 10
-385.8958
 20
109.0137
 10
-385.2945
 20
108.9855
 10
-384.7254
 20
108.9385
 10
-384.1885
 20
108.8727
 10
-383.6838
 20
108.788
 10
-383.2113
 20
108.6846
 10
-382.771
 20
108.5623
 10
-382.3629
 20
108.4213
 10
-381.9838
 20
108.2634
 10
-381.6321
 20
108.0907
 10
-381.3076
 20
107.9032
 10
-381.0105
 20
107.7008
 10
-380.7407
 20
107.4836
 10
-380.4981
 20
107.2517
 10
-380.2827
 20
107.0049
 10
-380.0945
 20
106.7434
 10
-379.9305
 20
106.4686
 10
-379.7885
 20
106.1826
 10
-379.6683
 20
105.8854
 10
-379.5701
 20
105.5771
 10
-379.4937
 20
105.2576
 10
-379.4392
 20
104.927
 10
-379.4065
 20
104.5852
 10
-379.3956
 20
104.2322
 10
-379.4063
 20
103.8944
 10
-379.4384
 20
103.5643
 10
-379.492
 20
103.2419
 10
-379.567
 20
102.9271
 10
-379.6634
 20
102.6199
 10
-379.7813
 20
102.3202
 10
-379.9207
 20
102.0281
 10
-380.0816
 20
101.7435
 10
-380.264
 20
101.4704
 10
-380.4678
 20
101.212
 10
-380.6931
 20
100.9685
 10
-380.9399
 20
100.7397
 10
-381.2082
 20
100.5257
 10
-381.4978
 20
100.3266
 10
-381.809
 20
100.1423
 10
-382.1415
 20
99.9728
 10
-382.4962
 20
99.8209
 10
-382.874
 20
99.6893
 10
-383.2747
 20
99.578
 10
-383.6984
 20
99.4869
 10
-384.145
 20
99.4161
 10
-384.6147
 20
99.3655
 10
-385.1074
 20
99.3352
 10
-385.623
 20
99.3251
  0
LWPOLYLINE
  5
B3
330
1F
100
AcDbEntity
  8
Layer 1
 62
     7
370
    35
100
AcDbPolyline
 90
       33
 70
     1
 43
0.0
 10
-420.211
 20
117.1092
 10
-418.0574
 20
116.9042
 10
-416.0514
 20
116.3163
 10
-414.2362
 20
115.386
 10
-412.6546
 20
114.154
 10
-411.3496
 20
112.6608
 10
-410.3643
 20
110.9469
 10
-409.7416
 20
109.053
 10
-409.5245
 20
107.0197
 10
-409.7416
 20
104.9864
 10
-410.3643
 20
103.0925
 10
-411.3496
 20
101.3786
 10
-412.6546
 20
99.8854
 10
-414.2362
 20
98.6534
 10
-416.0514
 20
97.7231
 10
-418.0574
 20
97.1352
 10
-420.211
 20
96.9302
 10
-422.3646
 20
97.1352
 10
-424.3706
 20
97.7231
 10
-426.1858
 20
98.6534
 10
-427.7674
 20
99.8854
 10
-429.0724
 20
101.3786
 10
-430.0577
 20
103.0925
 10
-430.6804
 20
104.9864
 10
-430.8975
 20
107.0197
 10
-430.6804
 20
109.053
 10
-430.0577
 20
110.9469
 10
-429.0724
 20
112.6608
 10
-427.7674
 20
114.154
 10
-426.1858
 20
115.386
 10
-424.3706
 20
116.3163
 10
-422.3646
 20
116.9042
 10
-420.211
 20
117.1092
  0
LWPOLYLINE
  5
B4
330
1F
100
AcDbEntity
  8
Layer 1
 62
     7
370
    35
100
AcDbPolyline
 90
        2
 70
     0
 43
0.0
 10
-416.7259
 20
123.3325
 10
-423.7508
 20
89.4165
  0
ENDSEC
  0
SECTION
  2
OBJECTS
  0
DICTIONARY
  5
C
330
0
100
AcDbDictionary
281
     1
  3
ACAD_DETAILVIEWSTYLE
350
BC
  3
ACAD_GROUP
350
D
  3
ACAD_LAYOUT
350
1A
  3
ACAD_MATERIAL
350
43
  3
ACAD_MLEADERSTYLE
350
5B
  3
ACAD_MLINESTYLE
350
17
  3
ACAD_PLOTSETTINGS
350
19
  3
ACAD_PLOTSTYLENAME
350
E
  3
ACAD_SCALELIST
350
47
  3
ACAD_SECTIONVIEWSTYLE
350
BD
  3
ACAD_TABLESTYLE
350
59
  3
ACAD_VISUALSTYLE
350
2A
  3
ACDB_RECOMPOSE_DATA
350
B9
  3
AcDbVariableDictionary
350
B5
  0
SUN
  5
5D
330
29
100
AcDbSun
 90
        1
290
     0
 63
     7
421
 16777215
 40
1.0
291
     1
 91
  2455826
 92
 54000000
292
     0
 70
     2
 71
   256
280
     1
  0
DICTIONARY
  5
BC
102
{ACAD_REACTORS
330
C
102
}
330
C
100
AcDbDictionary
281
     1
  0
DICTIONARY
  5
D
102
{ACAD_REACTORS
330
C
102
}
330
C
100
AcDbDictionary
281
     1
  0
DICTIONARY
  5
1A
102
{ACAD_REACTORS
330
C
102
}
330
C
100
AcDbDictionary
281
     1
  3
Layout1
350
1E
  3
Layout2
350
26
  3
Model
350
22
  0
DICTIONARY
  5
43
102
{ACAD_REACTORS
330
C
102
}
330
C
100
AcDbDictionary
281
     1
  3
ByBlock
350
45
  3
ByLayer
350
44
  3
Global
350
46
  0
DICTIONARY
  5
5B
102
{ACAD_REACTORS
330
C
102
}
330
C
100
AcDbDictionary
281
     1
  3
Standard
350
5C
  0
DICTIONARY
  5
17
102
{ACAD_REACTORS
330
C
102
}
330
C
100
AcDbDictionary
281
     1
  3
Standard
350
18
  0
DICTIONARY
  5
19
102
{ACAD_REACTORS
330
C
102
}
330
C
100
AcDbDictionary
281
     1
  0
ACDBDICTIONARYWDFLT
  5
E
102
{ACAD_REACTORS
330
C
102
}
330
C
100
AcDbDictionary
281
     1
  3
Normal
350
F
100
AcDbDictionaryWithDefault
340
F
  0
DICTIONARY
  5
47
102
{ACAD_REACTORS
330
C
102
}
330
C
100
AcDbDictionary
281
     1
  3
A0
350
48
  3
A1
350
49
  3
A2
350
4A
  3
A3
350
4B
  3
A4
350
4C
  3
A5
350
4D
  3
A6
350
4E
  3
A7
350
4F
  3
A8
350
50
  3
A9
350
51
  3
B1
350
52
  3
B2
350
53
  3
B3
350
54
  3
B4
350
55
  3
B5
350
56
  3
B6
350
57
  3
B7
350
58
  0
DICTIONARY
  5
BD
102
{ACAD_REACTORS
330
C
102
}
330
C
100
AcDbDictionary
281
     1
  0
DICTIONARY
  5
59
102
{ACAD_REACTORS
330
C
102
}
330
C
100
AcDbDictionary
281
     1
  3
Standard
350
5A
  0
DICTIONARY
  5
2A
102
{ACAD_REACTORS
330
C
102
}
330
C
100
AcDbDictionary
281
     1
  3
2dWireframe
350
2F
  3
Basic
350
32
  3
Brighten
350
36
  3
ColorChange
350
3A
  3
Conceptual
350
34
  3
Dim
350
35
  3
EdgeColorOff
350
3D
  3
Facepattern
350
39
  3
Flat
350
2B
  3
FlatWithEdges
350
2C
  3
Gouraud
350
2D
  3
GouraudWithEdges
350
2E
  3
Hidden
350
31
  3
JitterOff
350
3B
  3
Linepattern
350
38
  3
OverhangOff
350
3C
  3
Realistic
350
33
  3
Shaded
350
42
  3
Shaded with edges
350
41
  3
Shades of Gray
350
3E
  3
Sketchy
350
3F
  3
Thicken
350
37
  3
Wireframe
350
30
  3
X-Ray
350
40
  0
XRECORD
  5
B9
102
{ACAD_REACTORS
330
C
102
}
330
C
100
AcDbXrecord
280
     1
 90
        1
330
5A
  0
DICTIONARY
  5
B5
102
{ACAD_REACTORS
330
C
102
}
330
C
100
AcDbDictionary
281
     1
  3
CANNOSCALE
350
B6
  3
CMLEADERSTYLE
350
BB
  3
CTABLESTYLE
350
BA
  0
LAYOUT
  5
1E
102
{ACAD_REACTORS
330
1A
102
}
330
1A
100
AcDbPlotSettings
  1

  2
none_device
  4

  6

 40
0.0
 41
0.0
 42
0.0
 43
0.0
 44
0.0
 45
0.0
 46
0.0
 47
0.0
 48
0.0
 49
0.0
140
0.0
141
0.0
142
1.0
143
1.0
 70
   688
 72
     0
 73
     0
 74
     5
  7

 75
    16
 76
     0
 77
     2
 78
   300
147
1.0
148
0.0
149
0.0
100
AcDbLayout
  1
Layout1
 70
     1
 71
     1
 10
0.0
 20
0.0
 11
12.0
 21
9.0
 12
0.0
 22
0.0
 32
0.0
 14
1.000000000000000E+20
 24
1.000000000000000E+20
 34
1.000000000000000E+20
 15
-1.000000000000000E+20
 25
-1.000000000000000E+20
 35
-1.000000000000000E+20
146
0.0
 13
0.0
 23
0.0
 33
0.0
 16
1.0
 26
0.0
 36
0.0
 17
0.0
 27
1.0
 37
0.0
 76
     0
330
1B
  0
LAYOUT
  5
26
102
{ACAD_REACTORS
330
1A
102
}
330
1A
100
AcDbPlotSettings
  1

  2
none_device
  4

  6

 40
0.0
 41
0.0
 42
0.0
 43
0.0
 44
0.0
 45
0.0
 46
0.0
 47
0.0
 48
0.0
 49
0.0
140
0.0
141
0.0
142
1.0
143
1.0
 70
   688
 72
     0
 73
     0
 74
     5
  7

 75
    16
 76
     0
 77
     2
 78
   300
147
1.0
148
0.0
149
0.0
100
AcDbLayout
  1
Layout2
 70
     1
 71
     2
 10
0.0
 20
0.0
 11
0.0
 21
0.0
 12
0.0
 22
0.0
 32
0.0
 14
0.0
 24
0.0
 34
0.0
 15
0.0
 25
0.0
 35
0.0
146
0.0
 13
0.0
 23
0.0
 33
0.0
 16
1.0
 26
0.0
 36
0.0
 17
0.0
 27
1.0
 37
0.0
 76
     0
330
23
  0
LAYOUT
  5
22
102
{ACAD_REACTORS
330
1A
102
}
330
1A
100
AcDbPlotSettings
  1

  2
none_device
  4
Letter_(8.50_x_11.00_Inches)
  6

 40
6.35
 41
6.35
 42
6.35000508
 43
6.35000508
 44
215.9
 45
279.4
 46
0.0
 47
0.0
 48
0.0
 49
0.0
140
0.0
141
0.0
142
1.0
143
1.0
 70
  1712
 72
     0
 73
     0
 74
     0
  7

 75
     0
 76
     0
 77
     2
 78
   300
147
1.0
148
0.0
149
0.0
100
AcDbLayout
  1
Model
 70
     1
 71
     0
 10
0.0
 20
0.0
 11
12.0
 21
9.0
 12
0.0
 22
0.0
 32
0.0
 14
-1119.1869
 24
-232.8513
 34
0.0
 15
-175.0226
 25
264.7562
 35
0.0
146
0.0
 13
0.0
 23
0.0
 33
0.0
 16
1.0
 26
0.0
 36
0.0
 17
0.0
 27
1.0
 37
0.0
 76
     0
330
1F
331
29
  0
MATERIAL
  5
45
102
{ACAD_REACTORS
330
43
102
}
330
43
100
AcDbMaterial
  1
ByBlock
 72
     1
 94
      127
  0
MATERIAL
  5
44
102
{ACAD_REACTORS
330
43
102
}
330
43
100
AcDbMaterial
  1
ByLayer
 72
     1
 94
      127
  0
MATERIAL
  5
46
102
{ACAD_REACTORS
330
43
102
}
330
43
100
AcDbMaterial
  1
Global
 72
     1
 94
      127
  0
MLEADERSTYLE
  5
5C
102
{ACAD_REACTORS
330
5B
102
}
330
5B
100
AcDbMLeaderStyle
179
     2
170
     2
171
     1
172
     0
 90
        2
 40
0.0
 41
0.0
173
     1
 91
-1056964608
340
14
 92
       -2
290
     1
 42
0.09
291
     1
 43
0.36
  3
Standard
341
0
 44
0.18
300

342
11
174
     1
178
     6
175
     1
176
     0
 93
-1056964608
 45
0.18
292
     0
297
     0
 46
0.18
343
0
 94
-1056964608
 47
1.0
 49
1.0
140
1.0
293
     1
141
0.0
294
     1
177
     0
142
1.0
295
     0
296
     0
143
0.125
271
     0
272
     9
273
     9
298
     0
  0
MLINESTYLE
  5
18
102
{ACAD_REACTORS
330
17
102
}
330
17
100
AcDbMlineStyle
  2
Standard
 70
     0
  3

 62
   256
 51
90.0
 52
90.0
 71
     2
 49
0.5
 62
   256
  6
BYLAYER
 49
-0.5
 62
   256
  6
BYLAYER
  0
ACDBPLACEHOLDER
  5
F
102
{ACAD_REACTORS
330
E
102
}
330
E
  0
SCALE
  5
48
102
{ACAD_REACTORS
330
47
102
}
330
47
100
AcDbScale
 70
     0
300
1:1
140
1.0
141
1.0
290
     1
  0
SCALE
  5
49
102
{ACAD_REACTORS
330
47
102
}
330
47
100
AcDbScale
 70
     0
300
1/128" = 1'-0"
140
0.0078125
141
12.0
290
     0
  0
SCALE
  5
4A
102
{ACAD_REACTORS
330
47
102
}
330
47
100
AcDbScale
 70
     0
300
1/64" = 1'-0"
140
0.015625
141
12.0
290
     0
  0
SCALE
  5
4B
102
{ACAD_REACTORS
330
47
102
}
330
47
100
AcDbScale
 70
     0
300
1/32" = 1'-0"
140
0.03125
141
12.0
290
     0
  0
SCALE
  5
4C
102
{ACAD_REACTORS
330
47
102
}
330
47
100
AcDbScale
 70
     0
300
1/16" = 1'-0"
140
0.0625
141
12.0
290
     0
  0
SCALE
  5
4D
102
{ACAD_REACTORS
330
47
102
}
330
47
100
AcDbScale
 70
     0
300
3/32" = 1'-0"
140
0.09375
141
12.0
290
     0
  0
SCALE
  5
4E
102
{ACAD_REACTORS
330
47
102
}
330
47
100
AcDbScale
 70
     0
300
1/8" = 1'-0"
140
0.125
141
12.0
290
     0
  0
SCALE
  5
4F
102
{ACAD_REACTORS
330
47
102
}
330
47
100
AcDbScale
 70
     0
300
3/16" = 1'-0"
140
0.1875
141
12.0
290
     0
  0
SCALE
  5
50
102
{ACAD_REACTORS
330
47
102
}
330
47
100
AcDbScale
 70
     0
300
1/4" = 1'-0"
140
0.25
141
12.0
290
     0
  0
SCALE
  5
51
102
{ACAD_REACTORS
330
47
102
}
330
47
100
AcDbScale
 70
     0
300
3/8" = 1'-0"
140
0.375
141
12.0
290
     0
  0
SCALE
  5
52
102
{ACAD_REACTORS
330
47
102
}
330
47
100
AcDbScale
 70
     0
300
1/2" = 1'-0"
140
0.5
141
12.0
290
     0
  0
SCALE
  5
53
102
{ACAD_REACTORS
330
47
102
}
330
47
100
AcDbScale
 70
     0
300
3/4" = 1'-0"
140
0.75
141
12.0
290
     0
  0
SCALE
  5
54
102
{ACAD_REACTORS
330
47
102
}
330
47
100
AcDbScale
 70
     0
300
1" = 1'-0"
140
1.0
141
12.0
290
     0
  0
SCALE
  5
55
102
{ACAD_REACTORS
330
47
102
}
330
47
100
AcDbScale
 70
     0
300
1-1/2" = 1'-0"
140
1.5
141
12.0
290
     0
  0
SCALE
  5
56
102
{ACAD_REACTORS
330
47
102
}
330
47
100
AcDbScale
 70
     0
300
3" = 1'-0"
140
3.0
141
12.0
290
     0
  0
SCALE
  5
57
102
{ACAD_REACTORS
330
47
102
}
330
47
100
AcDbScale
 70
     0
300
6" = 1'-0"
140
6.0
141
12.0
290
     0
  0
SCALE
  5
58
102
{ACAD_REACTORS
330
47
102
}
330
47
100
AcDbScale
 70
     0
300
1'-0" = 1'-0"
140
12.0
141
12.0
290
     0
  0
TABLESTYLE
  5
5A
102
{ACAD_REACTORS
330
59
102
}
102
{ACAD_XDICTIONARY
360
B7
102
}
330
59
100
AcDbTableStyle
  3
Standard
 70
     0
 71
     0
 40
0.06
 41
0.06
280
     0
281
     0
  7
Standard
140
0.18
170
     2
 62
     0
 63
   257
283
     0
 90
        4
 91
        0
  1

274
    -2
284
     1
 64
     0
275
    -2
285
     1
 65
     0
276
    -2
286
     1
 66
     0
277
    -2
287
     1
 67
     0
278
    -2
288
     1
 68
     0
279
    -2
289
     1
 69
     0
  7
Standard
140
0.25
170
     5
 62
     0
 63
   257
283
     0
 90
        4
 91
        0
  1

274
    -2
284
     1
 64
     0
275
    -2
285
     1
 65
     0
276
    -2
286
     1
 66
     0
277
    -2
287
     1
 67
     0
278
    -2
288
     1
 68
     0
279
    -2
289
     1
 69
     0
  7
Standard
140
0.18
170
     5
 62
     0
 63
   257
283
     0
 90
        4
 91
        0
  1

274
    -2
284
     1
 64
     0
275
    -2
285
     1
 65
     0
276
    -2
286
     1
 66
     0
277
    -2
287
     1
 67
     0
278
    -2
288
     1
 68
     0
279
    -2
289
     1
 69
     0
  0
VISUALSTYLE
  5
2F
102
{ACAD_REACTORS
330
2A
102
}
330
2A
100
AcDbVisualStyle
  2
2dWireframe
 70
     4
177
     3
291
     0
 70
    58
 90
        0
176
     1
 90
        2
176
     1
 90
        0
176
     1
 90
        0
176
     1
 40
0.6
176
     1
 40
30.0
176
     1
 62
     7
420
 16777215
176
     1
 90
        1
176
     1
 90
        4
176
     1
 62
     7
176
     1
 62
   257
176
     1
 90
        1
176
     1
 90
        1
176
     1
 40
1.0
176
     1
 90
        0
176
     1
 62
   257
176
     1
 40
1.0
176
     1
 90
        1
176
     1
 90
        6
176
     1
 90
        2
176
     1
 62
     7
176
     1
 90
        5
176
     1
 90
        0
176
     1
 90
        0
176
     1
290
     0
176
     1
 90
        1
176
     1
 40
0.0
176
     1
 90
        0
176
     1
290
     1
176
     1
290
     1
176
     1
290
     0
176
     1
290
     0
176
     1
290
     0
176
     1
290
     0
176
     1
290
     0
176
     1
290
     0
176
     1
290
     0
176
     1
 90
       50
176
     1
 40
0.0
176
     1
 40
1.0
176
     1
 90
        0
176
     1
 62
    18
420
        0
176
     1
 90
       50
176
     1
 90
        3
176
     1
 62
     5
420
      255
176
     1
290
     0
176
     1
 90
       50
176
     1
 90
       50
176
     1
 90
       50
176
     1
290
     0
176
     1
 90
       50
176
     1
 62
   256
176
     0
 40
1.0
176
     0
 90
        2
176
     1
  1
strokes_ogs.tif
176
     1
290
     0
176
     1
 40
1.0
176
     1
 40
1.0
176
     1
  0
VISUALSTYLE
  5
32
102
{ACAD_REACTORS
330
2A
102
}
330
2A
100
AcDbVisualStyle
  2
Basic
 70
     7
177
     3
291
     1
 70
    58
 90
        1
176
     1
 90
        0
176
     1
 90
        1
176
     1
 90
        0
176
     1
 40
0.6
176
     1
 40
30.0
176
     1
 62
     7
420
 16777215
176
     1
 90
        0
176
     1
 90
        4
176
     1
 62
     7
176
     1
 62
   257
176
     1
 90
        1
176
     1
 90
        1
176
     1
 40
1.0
176
     1
 90
        8
176
     1
 62
     7
176
     1
 40
1.0
176
     1
 90
        1
176
     1
 90
        6
176
     1
 90
        2
176
     1
 62
     7
176
     1
 90
        5
176
     1
 90
        0
176
     1
 90
        0
176
     1
290
     0
176
     1
 90
        1
176
     1
 40
0.0
176
     1
 90
        0
176
     1
290
     0
176
     1
290
     1
176
     1
290
     1
176
     1
290
     0
176
     1
290
     0
176
     1
290
     0
176
     1
290
     0
176
     1
290
     0
176
     1
290
     0
176
     1
 90
       50
176
     1
 40
0.0
176
     1
 40
1.0
176
     1
 90
        0
176
     1
 62
    18
420
        0
176
     1
 90
       50
176
     1
 90
        3
176
     1
 62
     5
420
      255
176
     1
290
     0
176
     1
 90
       50
176
     1
 90
       50
176
     1
 90
       50
176
     1
290
     0
176
     1
 90
       50
176
     1
 62
   256
176
     0
 40
1.0
176
     0
 90
        2
176
     1
  1
strokes_ogs.tif
176
     1
290
     0
176
     1
 40
1.0
176
     1
 40
1.0
176
     1
  0
VISUALSTYLE
  5
36
102
{ACAD_REACTORS
330
2A
102
}
330
2A
100
AcDbVisualStyle
  2
Brighten
 70
    12
177
     3
291
     1
 70
    58
 90
        2
176
     1
 90
        2
176
     1
 90
        0
176
     1
 90
        0
176
     1
 40
0.6
176
     1
 40
30.0
176
     1
 62
     7
420
 16777215
176
     1
 90
        1
176
     1
 90
        4
176
     1
 62
     7
176
     1
 62
   257
176
     1
 90
        1
176
     1
 90
        1
176
     1
 40
1.0
176
     1
 90
        8
176
     1
 62
     7
176
     1
 40
1.0
176
     1
 90
        1
176
     1
 90
        6
176
     1
 90
        2
176
     1
 62
     7
176
     1
 90
        5
176
     1
 90
        0
176
     1
 90
        0
176
     1
290
     0
176
     1
 90
        1
176
     1
 40
50.0
176
     1
 90
        0
176
     1
290
     0
176
     1
290
     1
176
     1
290
     1
176
     1
290
     0
176
     1
290
     0
176
     1
290
     0
176
     1
290
     0
176
     1
290
     0
176
     1
290
     0
176
     1
 90
       50
176
     1
 40
0.0
176
     1
 40
1.0
176
     1
 90
        0
176
     1
 62
    18
420
        0
176
     1
 90
       50
176
     1
 90
        3
176
     1
 62
     5
420
      255
176
     1
290
     0
176
     1
 90
       50
176
     1
 90
       50
176
     1
 90
       50
176
     1
290
     0
176
     1
 90
       50
176
     1
 62
   256
176
     0
 40
1.0
176
     0
 90
        2
176
     1
  1
strokes_ogs.tif
176
     1
290
     0
176
     1
 40
1.0
176
     1
 40
1.0
176
     1
  0
VISUALSTYLE
  5
3A
102
{ACAD_REACTORS
330
2A
102
}
330
2A
100
AcDbVisualStyle
  2
ColorChange
 70
    16
177
     3
291
     1
 70
    58
 90
        2
176
     1
 90
        2
176
     1
 90
        3
176
     1
 90
        0
176
     1
 40
0.6
176
     1
 40
30.0
176
     1
 62
     8
420
  8421504
176
     1
 90
        1
176
     1
 90
        4
176
     1
 62
     7
176
     1
 62
   257
176
     1
 90
        1
176
     1
 90
        1
176
     1
 40
1.0
176
     1
 90
        8
176
     1
 62
     8
420
  8421504
176
     1
 40
1.0
176
     1
 90
        1
176
     1
 90
        6
176
     1
 90
        2
176
     1
 62
     7
176
     1
 90
        5
176
     1
 90
        0
176
     1
 90
        0
176
     1
290
     0
176
     1
 90
        1
176
     1
 40
0.0
176
     1
 90
        0
176
     1
290
     0
176
     1
290
     1
176
     1
290
     1
176
     1
290
     0
176
     1
290
     0
176
     1
290
     0
176
     1
290
     0
176
     1
290
     0
176
     1
290
     0
176
     1
 90
       50
176
     1
 40
0.0
176
     1
 40
1.0
176
     1
 90
        0
176
     1
 62
    18
420
        0
176
     1
 90
       50
176
     1
 90
        3
176
     1
 62
     5
420
      255
176
     1
290
     0
176
     1
 90
       50
176
     1
 90
       50
176
     1
 90
       50
176
     1
290
     0
176
     1
 90
       50
176
     1
 62
   256
176
     0
 40
1.0
176
     0
 90
        2
176
     1
  1
strokes_ogs.tif
176
     1
290
     0
176
     1
 40
1.0
176
     1
 40
1.0
176
     1
  0
VISUALSTYLE
  5
34
102
{ACAD_REACTORS
330
2A
102
}
330
2A
100
AcDbVisualStyle
  2
Conceptual
 70
     9
177
     3
291
     0
 70
    58
 90
        3
176
     1
 90
        2
176
     1
 90
        0
176
     1
 90
        0
176
     1
 40
0.6
176
     1
 40
30.0
176
     1
 62
     7
420
 16777215
176
     1
 90
        2
176
     1
 90
        2
176
     1
 62
     7
176
     1
 62
   257
176
     1
 90
        1
176
     1
 90
        1
176
     1
 40
179.0
176
     1
 90
        8
176
     1
 62
     7
176
     1
 40
1.0
176
     1
 90
        1
176
     1
 90
        6
176
     1
 90
        2
176
     1
 62
     7
176
     1
 90
        3
176
     1
 90
        0
176
     1
 90
        0
176
     1
290
     0
176
     1
 90
        1
176
     1
 40
0.0
176
     1
 90
        0
176
     1
290
     0
176
     1
290
     1
176
     1
290
     1
176
     1
290
     0
176
     1
290
     0
176
     1
290
     0
176
     1
290
     0
176
     1
290
     0
176
     1
290
     0
176
     1
 90
       50
176
     1
 40
0.0
176
     1
 40
1.0
176
     1
 90
        0
176
     1
 62
    18
420
        0
176
     1
 90
       50
176
     1
 90
        3
176
     1
 62
     5
420
      255
176
     1
290
     0
176
     1
 90
       50
176
     1
 90
       50
176
     1
 90
       50
176
     1
290
     0
176
     1
 90
       50
176
     1
 62
   256
176
     0
 40
1.0
176
     0
 90
        2
176
     1
  1
strokes_ogs.tif
176
     1
290
     0
176
     1
 40
1.0
176
     1
 40
1.0
176
     1
  0
VISUALSTYLE
  5
35
102
{ACAD_REACTORS
330
2A
102
}
330
2A
100
AcDbVisualStyle
  2
Dim
 70
    11
177
     3
291
     1
 70
    58
 90
        2
176
     1
 90
        2
176
     1
 90
        0
176
     1
 90
        0
176
     1
 40
0.6
176
     1
 40
30.0
176
     1
 62
     7
420
 16777215
176
     1
 90
        1
176
     1
 90
        4
176
     1
 62
     7
176
     1
 62
   257
176
     1
 90
        1
176
     1
 90
        1
176
     1
 40
1.0
176
     1
 90
        8
176
     1
 62
     7
176
     1
 40
1.0
176
     1
 90
        1
176
     1
 90
        6
176
     1
 90
        2
176
     1
 62
     7
176
     1
 90
        5
176
     1
 90
        0
176
     1
 90
        0
176
     1
290
     0
176
     1
 90
        1
176
     1
 40
-50.0
176
     1
 90
        0
176
     1
290
     0
176
     1
290
     1
176
     1
290
     1
176
     1
290
     0
176
     1
290
     0
176
     1
290
     0
176
     1
290
     0
176
     1
290
     0
176
     1
290
     0
176
     1
 90
       50
176
     1
 40
0.0
176
     1
 40
1.0
176
     1
 90
        0
176
     1
 62
    18
420
        0
176
     1
 90
       50
176
     1
 90
        3
176
     1
 62
     5
420
      255
176
     1
290
     0
176
     1
 90
       50
176
     1
 90
       50
176
     1
 90
       50
176
     1
290
     0
176
     1
 90
       50
176
     1
 62
   256
176
     0
 40
1.0
176
     0
 90
        2
176
     1
  1
strokes_ogs.tif
176
     1
290
     0
176
     1
 40
1.0
176
     1
 40
1.0
176
     1
  0
VISUALSTYLE
  5
3D
102
{ACAD_REACTORS
330
2A
102
}
330
2A
100
AcDbVisualStyle
  2
EdgeColorOff
 70
    22
177
     3
291
     1
 70
    58
 90
        2
176
     0
 90
        2
176
     0
 90
        0
176
     0
 90
        0
176
     0
 40
0.6
176
     0
 40
30.0
176
     0
 62
     7
420
 16777215
176
     0
 90
        1
176
     0
 90
        4
176
     0
 62
     7
176
     0
 62
   257
176
     0
 90
        1
176
     0
 90
        1
176
     0
 40
1.0
176
     0
 90
        8
176
     2
 62
     7
176
     0
 40
1.0
176
     0
 90
        1
176
     0
 90
        6
176
     0
 90
        2
176
     0
 62
     7
176
     0
 90
        5
176
     0
 90
        0
176
     0
 90
        0
176
     0
290
     0
176
     0
 90
        1
176
     0
 40
0.0
176
     0
 90
        0
176
     0
290
     0
176
     0
290
     1
176
     0
290
     1
176
     0
290
     0
176
     0
290
     0
176
     0
290
     0
176
     0
290
     0
176
     0
290
     0
176
     0
290
     0
176
     0
 90
       50
176
     0
 40
0.0
176
     0
 40
1.0
176
     0
 90
        0
176
     0
 62
    18
420
        0
176
     0
 90
       50
176
     0
 90
        3
176
     0
 62
     5
420
      255
176
     0
290
     0
176
     0
 90
       50
176
     0
 90
       50
176
     0
 90
       50
176
     0
290
     0
176
     0
 90
       50
176
     0
 62
   256
176
     0
 40
1.0
176
     0
 90
        2
176
     0
  1
strokes_ogs.tif
176
     0
290
     0
176
     0
 40
1.0
176
     0
 40
1.0
176
     0
  0
VISUALSTYLE
  5
39
102
{ACAD_REACTORS
330
2A
102
}
330
2A
100
AcDbVisualStyle
  2
Facepattern
 70
    15
177
     3
291
     1
 70
    58
 90
        2
176
     1
 90
        2
176
     1
 90
        0
176
     1
 90
        0
176
     1
 40
0.6
176
     1
 40
30.0
176
     1
 62
     7
420
 16777215
176
     1
 90
        1
176
     1
 90
        4
176
     1
 62
     7
176
     1
 62
   257
176
     1
 90
        1
176
     1
 90
        1
176
     1
 40
1.0
176
     1
 90
        8
176
     1
 62
     7
176
     1
 40
1.0
176
     1
 90
        1
176
     1
 90
        6
176
     1
 90
        2
176
     1
 62
     7
176
     1
 90
        5
176
     1
 90
        0
176
     1
 90
        0
176
     1
290
     0
176
     1
 90
        1
176
     1
 40
0.0
176
     1
 90
        0
176
     1
290
     0
176
     1
290
     1
176
     1
290
     1
176
     1
290
     0
176
     1
290
     0
176
     1
290
     0
176
     1
290
     0
176
     1
290
     0
176
     1
290
     0
176
     1
 90
       50
176
     1
 40
0.0
176
     1
 40
1.0
176
     1
 90
        0
176
     1
 62
    18
420
        0
176
     1
 90
       50
176
     1
 90
        3
176
     1
 62
     5
420
      255
176
     1
290
     0
176
     1
 90
       50
176
     1
 90
       50
176
     1
 90
       50
176
     1
290
     0
176
     1
 90
       50
176
     1
 62
   256
176
     0
 40
1.0
176
     0
 90
        2
176
     1
  1
strokes_ogs.tif
176
     1
290
     0
176
     1
 40
1.0
176
     1
 40
1.0
176
     1
  0
VISUALSTYLE
  5
2B
102
{ACAD_REACTORS
330
2A
102
}
330
2A
100
AcDbVisualStyle
  2
Flat
 70
     0
177
     3
291
     1
 70
    58
 90
        2
176
     1
 90
        1
176
     1
 90
        1
176
     1
 90
        2
176
     1
 40
0.6
176
     1
 40
30.0
176
     1
 62
     7
420
 16777215
176
     1
 90
        0
176
     1
 90
        0
176
     1
 62
     7
176
     1
 62
   257
176
     1
 90
        1
176
     1
 90
        1
176
     1
 40
1.0
176
     1
 90
        8
176
     1
 62
     7
176
     1
 40
1.0
176
     1
 90
        1
176
     1
 90
        6
176
     1
 90
        2
176
     1
 62
     7
176
     1
 90
        5
176
     1
 90
        0
176
     1
 90
        0
176
     1
290
     0
176
     1
 90
       13
176
     1
 40
0.0
176
     1
 90
        0
176
     1
290
     0
176
     1
290
     1
176
     1
290
     1
176
     1
290
     0
176
     1
290
     0
176
     1
290
     0
176
     1
290
     0
176
     1
290
     0
176
     1
290
     0
176
     1
 90
       50
176
     1
 40
0.0
176
     1
 40
1.0
176
     1
 90
        0
176
     1
 62
    18
420
        0
176
     1
 90
       50
176
     1
 90
        3
176
     1
 62
     5
420
      255
176
     1
290
     0
176
     1
 90
       50
176
     1
 90
       50
176
     1
 90
       50
176
     1
290
     0
176
     1
 90
       50
176
     1
 62
   256
176
     0
 40
1.0
176
     0
 90
        2
176
     1
  1
strokes_ogs.tif
176
     1
290
     0
176
     1
 40
1.0
176
     1
 40
1.0
176
     1
  0
VISUALSTYLE
  5
2C
102
{ACAD_REACTORS
330
2A
102
}
330
2A
100
AcDbVisualStyle
  2
FlatWithEdges
 70
     1
177
     3
291
     1
 70
    58
 90
        2
176
     1
 90
        1
176
     1
 90
        1
176
     1
 90
        2
176
     1
 40
0.6
176
     1
 40
30.0
176
     1
 62
     7
420
 16777215
176
     1
 90
        1
176
     1
 90
        0
176
     1
 62
     7
176
     1
 62
   257
176
     1
 90
        1
176
     1
 90
        1
176
     1
 40
1.0
176
     1
 90
        0
176
     1
 62
   257
176
     1
 40
1.0
176
     1
 90
        1
176
     1
 90
        6
176
     1
 90
        2
176
     1
 62
     7
176
     1
 90
        5
176
     1
 90
        0
176
     1
 90
        0
176
     1
290
     0
176
     1
 90
       13
176
     1
 40
0.0
176
     1
 90
        0
176
     1
290
     0
176
     1
290
     1
176
     1
290
     1
176
     1
290
     0
176
     1
290
     0
176
     1
290
     0
176
     1
290
     0
176
     1
290
     0
176
     1
290
     0
176
     1
 90
       50
176
     1
 40
0.0
176
     1
 40
1.0
176
     1
 90
        0
176
     1
 62
    18
420
        0
176
     1
 90
       50
176
     1
 90
        3
176
     1
 62
     5
420
      255
176
     1
290
     0
176
     1
 90
       50
176
     1
 90
       50
176
     1
 90
       50
176
     1
290
     0
176
     1
 90
       50
176
     1
 62
   256
176
     0
 40
1.0
176
     0
 90
        2
176
     1
  1
strokes_ogs.tif
176
     1
290
     0
176
     1
 40
1.0
176
     1
 40
1.0
176
     1
  0
VISUALSTYLE
  5
2D
102
{ACAD_REACTORS
330
2A
102
}
330
2A
100
AcDbVisualStyle
  2
Gouraud
 70
     2
177
     3
291
     1
 70
    58
 90
        2
176
     1
 90
        2
176
     1
 90
        1
176
     1
 90
        2
176
     1
 40
0.6
176
     1
 40
30.0
176
     1
 62
     7
420
 16777215
176
     1
 90
        0
176
     1
 90
        0
176
     1
 62
     7
176
     1
 62
   257
176
     1
 90
        1
176
     1
 90
        1
176
     1
 40
1.0
176
     1
 90
        0
176
     1
 62
     7
176
     1
 40
1.0
176
     1
 90
        1
176
     1
 90
        6
176
     1
 90
        2
176
     1
 62
     7
176
     1
 90
        5
176
     1
 90
        0
176
     1
 90
        0
176
     1
290
     0
176
     1
 90
       13
176
     1
 40
0.0
176
     1
 90
        0
176
     1
290
     0
176
     1
290
     1
176
     1
290
     1
176
     1
290
     0
176
     1
290
     0
176
     1
290
     0
176
     1
290
     0
176
     1
290
     0
176
     1
290
     0
176
     1
 90
       50
176
     1
 40
0.0
176
     1
 40
1.0
176
     1
 90
        0
176
     1
 62
    18
420
        0
176
     1
 90
       50
176
     1
 90
        3
176
     1
 62
     5
420
      255
176
     1
290
     0
176
     1
 90
       50
176
     1
 90
       50
176
     1
 90
       50
176
     1
290
     0
176
     1
 90
       50
176
     1
 62
   256
176
     0
 40
1.0
176
     0
 90
        2
176
     1
  1
strokes_ogs.tif
176
     1
290
     0
176
     1
 40
1.0
176
     1
 40
1.0
176
     1
  0
VISUALSTYLE
  5
2E
102
{ACAD_REACTORS
330
2A
102
}
330
2A
100
AcDbVisualStyle
  2
GouraudWithEdges
 70
     3
177
     3
291
     1
 70
    58
 90
        2
176
     1
 90
        2
176
     1
 90
        1
176
     1
 90
        2
176
     1
 40
0.6
176
     1
 40
30.0
176
     1
 62
     7
420
 16777215
176
     1
 90
        1
176
     1
 90
        0
176
     1
 62
     7
176
     1
 62
   257
176
     1
 90
        1
176
     1
 90
        1
176
     1
 40
1.0
176
     1
 90
        0
176
     1
 62
   257
176
     1
 40
1.0
176
     1
 90
        1
176
     1
 90
        6
176
     1
 90
        2
176
     1
 62
     7
176
     1
 90
        5
176
     1
 90
        0
176
     1
 90
        0
176
     1
290
     0
176
     1
 90
       13
176
     1
 40
0.0
176
     1
 90
        0
176
     1
290
     0
176
     1
290
     1
176
     1
290
     1
176
     1
290
     0
176
     1
290
     0
176
     1
290
     0
176
     1
290
     0
176
     1
290
     0
176
     1
290
     0
176
     1
 90
       50
176
     1
 40
0.0
176
     1
 40
1.0
176
     1
 90
        0
176
     1
 62
    18
420
        0
176
     1
 90
       50
176
     1
 90
        3
176
     1
 62
     5
420
      255
176
     1
290
     0
176
     1
 90
       50
176
     1
 90
       50
176
     1
 90
       50
176
     1
290
     0
176
     1
 90
       50
176
     1
 62
   256
176
     0
 40
1.0
176
     0
 90
        2
176
     1
  1
strokes_ogs.tif
176
     1
290
     0
176
     1
 40
1.0
176
     1
 40
1.0
176
     1
  0
VISUALSTYLE
  5
31
102
{ACAD_REACTORS
330
2A
102
}
330
2A
100
AcDbVisualStyle
  2
Hidden
 70
     6
177
     3
291
     0
 70
    58
 90
        1
176
     1
 90
        2
176
     1
 90
        2
176
     1
 90
        0
176
     1
 40
0.6
176
     1
 40
30.0
176
     1
 62
     7
420
 16777215
176
     1
 90
        2
176
     1
 90
        2
176
     1
 62
     7
176
     1
 62
   257
176
     1
 90
        2
176
     1
 90
        1
176
     1
 40
40.0
176
     1
 90
        0
176
     1
 62
   257
176
     1
 40
1.0
176
     1
 90
        1
176
     1
 90
        6
176
     1
 90
        2
176
     1
 62
     7
176
     1
 90
        3
176
     1
 90
        0
176
     1
 90
        0
176
     1
290
     0
176
     1
 90
        1
176
     1
 40
0.0
176
     1
 90
        0
176
     1
290
     0
176
     1
290
     1
176
     1
290
     1
176
     1
290
     0
176
     1
290
     0
176
     1
290
     0
176
     1
290
     0
176
     1
290
     0
176
     1
290
     0
176
     1
 90
       50
176
     1
 40
0.0
176
     1
 40
1.0
176
     1
 90
        0
176
     1
 62
    18
420
        0
176
     1
 90
       50
176
     1
 90
        3
176
     1
 62
     5
420
      255
176
     1
290
     0
176
     1
 90
       50
176
     1
 90
       50
176
     1
 90
       50
176
     1
290
     0
176
     1
 90
       50
176
     1
 62
   256
176
     0
 40
1.0
176
     0
 90
        2
176
     1
  1
strokes_ogs.tif
176
     1
290
     0
176
     1
 40
1.0
176
     1
 40
1.0
176
     1
  0
VISUALSTYLE
  5
3B
102
{ACAD_REACTORS
330
2A
102
}
330
2A
100
AcDbVisualStyle
  2
JitterOff
 70
    20
177
     3
291
     1
 70
    58
 90
        2
176
     0
 90
        2
176
     0
 90
        0
176
     0
 90
        0
176
     0
 40
0.6
176
     0
 40
30.0
176
     0
 62
     7
420
 16777215
176
     0
 90
        1
176
     0
 90
        4
176
     0
 62
     7
176
     0
 62
   257
176
     0
 90
        1
176
     0
 90
        1
176
     0
 40
1.0
176
     0
 90
       10
176
     2
 62
     7
176
     0
 40
1.0
176
     0
 90
        1
176
     0
 90
        6
176
     0
 90
        2
176
     0
 62
     7
176
     0
 90
        5
176
     0
 90
        0
176
     0
 90
        0
176
     0
290
     0
176
     0
 90
        1
176
     0
 40
0.0
176
     0
 90
        0
176
     0
290
     0
176
     0
290
     1
176
     0
290
     1
176
     0
290
     0
176
     0
290
     0
176
     0
290
     0
176
     0
290
     0
176
     0
290
     0
176
     0
290
     0
176
     0
 90
       50
176
     0
 40
0.0
176
     0
 40
1.0
176
     0
 90
        0
176
     0
 62
    18
420
        0
176
     0
 90
       50
176
     0
 90
        3
176
     0
 62
     5
420
      255
176
     0
290
     0
176
     0
 90
       50
176
     0
 90
       50
176
     0
 90
       50
176
     0
290
     0
176
     0
 90
       50
176
     0
 62
   256
176
     0
 40
1.0
176
     0
 90
        2
176
     0
  1
strokes_ogs.tif
176
     0
290
     0
176
     0
 40
1.0
176
     0
 40
1.0
176
     0
  0
VISUALSTYLE
  5
38
102
{ACAD_REACTORS
330
2A
102
}
330
2A
100
AcDbVisualStyle
  2
Linepattern
 70
    14
177
     3
291
     1
 70
    58
 90
        2
176
     1
 90
        2
176
     1
 90
        0
176
     1
 90
        0
176
     1
 40
0.6
176
     1
 40
30.0
176
     1
 62
     7
420
 16777215
176
     1
 90
        1
176
     1
 90
        4
176
     1
 62
     7
176
     1
 62
   257
176
     1
 90
        7
176
     1
 90
        7
176
     1
 40
1.0
176
     1
 90
        8
176
     1
 62
     7
176
     1
 40
1.0
176
     1
 90
        1
176
     1
 90
        6
176
     1
 90
        2
176
     1
 62
     7
176
     1
 90
        5
176
     1
 90
        0
176
     1
 90
        0
176
     1
290
     0
176
     1
 90
        1
176
     1
 40
0.0
176
     1
 90
        0
176
     1
290
     0
176
     1
290
     1
176
     1
290
     1
176
     1
290
     0
176
     1
290
     0
176
     1
290
     0
176
     1
290
     0
176
     1
290
     0
176
     1
290
     0
176
     1
 90
       50
176
     1
 40
0.0
176
     1
 40
1.0
176
     1
 90
        0
176
     1
 62
    18
420
        0
176
     1
 90
       50
176
     1
 90
        3
176
     1
 62
     5
420
      255
176
     1
290
     0
176
     1
 90
       50
176
     1
 90
       50
176
     1
 90
       50
176
     1
290
     0
176
     1
 90
       50
176
     1
 62
   256
176
     0
 40
1.0
176
     0
 90
        2
176
     1
  1
strokes_ogs.tif
176
     1
290
     0
176
     1
 40
1.0
176
     1
 40
1.0
176
     1
  0
VISUALSTYLE
  5
3C
102
{ACAD_REACTORS
330
2A
102
}
330
2A
100
AcDbVisualStyle
  2
OverhangOff
 70
    21
177
     3
291
     1
 70
    58
 90
        2
176
     0
 90
        2
176
     0
 90
        0
176
     0
 90
        0
176
     0
 40
0.6
176
     0
 40
30.0
176
     0
 62
     7
420
 16777215
176
     0
 90
        1
176
     0
 90
        4
176
     0
 62
     7
176
     0
 62
   257
176
     0
 90
        1
176
     0
 90
        1
176
     0
 40
1.0
176
     0
 90
        9
176
     2
 62
     7
176
     0
 40
1.0
176
     0
 90
        1
176
     0
 90
        6
176
     0
 90
        2
176
     0
 62
     7
176
     0
 90
        5
176
     0
 90
        0
176
     0
 90
        0
176
     0
290
     0
176
     0
 90
        1
176
     0
 40
0.0
176
     0
 90
        0
176
     0
290
     0
176
     0
290
     1
176
     0
290
     1
176
     0
290
     0
176
     0
290
     0
176
     0
290
     0
176
     0
290
     0
176
     0
290
     0
176
     0
290
     0
176
     0
 90
       50
176
     0
 40
0.0
176
     0
 40
1.0
176
     0
 90
        0
176
     0
 62
    18
420
        0
176
     0
 90
       50
176
     0
 90
        3
176
     0
 62
     5
420
      255
176
     0
290
     0
176
     0
 90
       50
176
     0
 90
       50
176
     0
 90
       50
176
     0
290
     0
176
     0
 90
       50
176
     0
 62
   256
176
     0
 40
1.0
176
     0
 90
        2
176
     0
  1
strokes_ogs.tif
176
     0
290
     0
176
     0
 40
1.0
176
     0
 40
1.0
176
     0
  0
VISUALSTYLE
  5
33
102
{ACAD_REACTORS
330
2A
102
}
330
2A
100
AcDbVisualStyle
  2
Realistic
 70
     8
177
     3
291
     0
 70
    58
 90
        2
176
     1
 90
        3
176
     1
 90
        0
176
     1
 90
        2
176
     1
 40
0.6
176
     1
 40
30.0
176
     1
 62
     7
420
 16777215
176
     1
 90
        0
176
     1
 90
        0
176
     1
 62
     7
176
     1
 62
   257
176
     1
 90
        1
176
     1
 90
        1
176
     1
 40
1.0
176
     1
 90
        8
176
     1
 62
   257
176
     1
 40
1.0
176
     1
 90
        1
176
     1
 90
        6
176
     1
 90
        2
176
     1
 62
     7
176
     1
 90
        3
176
     1
 90
        0
176
     1
 90
        0
176
     1
290
     0
176
     1
 90
       13
176
     1
 40
0.0
176
     1
 90
        0
176
     1
290
     0
176
     1
290
     1
176
     1
290
     1
176
     1
290
     0
176
     1
290
     0
176
     1
290
     0
176
     1
290
     0
176
     1
290
     0
176
     1
290
     0
176
     1
 90
       50
176
     1
 40
0.0
176
     1
 40
1.0
176
     1
 90
        0
176
     1
 62
    18
420
        0
176
     1
 90
       50
176
     1
 90
        3
176
     1
 62
     5
420
      255
176
     1
290
     0
176
     1
 90
       50
176
     1
 90
       50
176
     1
 90
       50
176
     1
290
     0
176
     1
 90
       50
176
     1
 62
   256
176
     0
 40
1.0
176
     0
 90
        2
176
     1
  1
strokes_ogs.tif
176
     1
290
     0
176
     1
 40
1.0
176
     1
 40
1.0
176
     1
  0
VISUALSTYLE
  5
42
102
{ACAD_REACTORS
330
2A
102
}
330
2A
100
AcDbVisualStyle
  2
Shaded
 70
    27
177
     3
291
     0
 70
    58
 90
        2
176
     1
 90
        2
176
     1
 90
        1
176
     1
 90
        2
176
     1
 40
0.6
176
     1
 40
30.0
176
     1
 62
     7
420
 16777215
176
     1
 90
        0
176
     1
 90
        4
176
     1
 62
     7
176
     1
 62
   257
176
     1
 90
        1
176
     1
 90
        1
176
     1
 40
1.0
176
     1
 90
        8
176
     1
 62
   257
176
     1
 40
1.0
176
     1
 90
        1
176
     1
 90
        6
176
     1
 90
        2
176
     1
 62
     8
420
  7895160
176
     1
 90
        3
176
     1
 90
        0
176
     1
 90
        0
176
     1
290
     0
176
     1
 90
        5
176
     1
 40
0.0
176
     1
 90
        0
176
     1
290
     0
176
     1
290
     1
176
     1
290
     1
176
     1
290
     0
176
     1
290
     0
176
     1
290
     0
176
     1
290
     0
176
     1
290
     0
176
     1
290
     0
176
     1
 90
       50
176
     1
 40
0.0
176
     1
 40
1.0
176
     1
 90
        0
176
     1
 62
    18
420
        0
176
     1
 90
       50
176
     1
 90
        3
176
     1
 62
     5
420
      255
176
     1
290
     0
176
     1
 90
       50
176
     1
 90
       50
176
     1
 90
       50
176
     1
290
     0
176
     1
 90
       50
176
     1
 62
   256
176
     0
 40
1.0
176
     0
 90
        2
176
     1
  1
strokes_ogs.tif
176
     1
290
     0
176
     1
 40
1.0
176
     1
 40
1.0
176
     1
  0
VISUALSTYLE
  5
41
102
{ACAD_REACTORS
330
2A
102
}
330
2A
100
AcDbVisualStyle
  2
Shaded with edges
 70
    26
177
     3
291
     0
 70
    58
 90
        2
176
     1
 90
        2
176
     1
 90
        1
176
     1
 90
        2
176
     1
 40
0.6
176
     1
 40
30.0
176
     1
 62
     7
420
 16777215
176
     1
 90
        1
176
     1
 90
       10
176
     1
 62
     7
176
     1
 62
   257
176
     1
 90
        2
176
     1
 90
        1
176
     1
 40
1.0
176
     1
 90
        8
176
     1
 62
   257
176
     1
 40
1.0
176
     1
 90
        1
176
     1
 90
        6
176
     1
 90
        2
176
     1
 62
     7
176
     1
 90
        3
176
     1
 90
        0
176
     1
 90
        0
176
     1
290
     0
176
     1
 90
        5
176
     1
 40
0.0
176
     1
 90
        0
176
     1
290
     0
176
     1
290
     1
176
     1
290
     1
176
     1
290
     0
176
     1
290
     0
176
     1
290
     0
176
     1
290
     0
176
     1
290
     0
176
     1
290
     0
176
     1
 90
       50
176
     1
 40
0.0
176
     1
 40
1.0
176
     1
 90
        0
176
     1
 62
    18
420
        0
176
     1
 90
       50
176
     1
 90
        3
176
     1
 62
     5
420
      255
176
     1
290
     0
176
     1
 90
       50
176
     1
 90
       50
176
     1
 90
       50
176
     1
290
     0
176
     1
 90
       50
176
     1
 62
   256
176
     0
 40
1.0
176
     0
 90
        2
176
     1
  1
strokes_ogs.tif
176
     1
290
     0
176
     1
 40
1.0
176
     1
 40
1.0
176
     1
  0
VISUALSTYLE
  5
3E
102
{ACAD_REACTORS
330
2A
102
}
330
2A
100
AcDbVisualStyle
  2
Shades of Gray
 70
    23
177
     3
291
     0
 70
    58
 90
        2
176
     1
 90
        2
176
     1
 90
        3
176
     1
 90
        0
176
     1
 40
0.6
176
     1
 40
30.0
176
     1
 62
     7
420
 16777215
176
     1
 90
        2
176
     1
 90
        2
176
     1
 62
     7
176
     1
 62
     7
176
     1
 90
        1
176
     1
 90
        1
176
     1
 40
40.0
176
     1
 90
        8
176
     1
 62
     7
176
     1
 40
1.0
176
     1
 90
        1
176
     1
 90
        6
176
     1
 90
        2
176
     1
 62
     7
176
     1
 90
        3
176
     1
 90
        0
176
     1
 90
        0
176
     1
290
     0
176
     1
 90
        1
176
     1
 40
0.0
176
     1
 90
        0
176
     1
290
     0
176
     1
290
     1
176
     1
290
     1
176
     1
290
     0
176
     1
290
     0
176
     1
290
     0
176
     1
290
     0
176
     1
290
     0
176
     1
290
     0
176
     1
 90
       50
176
     1
 40
0.0
176
     1
 40
1.0
176
     1
 90
        0
176
     1
 62
    18
420
        0
176
     1
 90
       50
176
     1
 90
        3
176
     1
 62
     5
420
      255
176
     1
290
     0
176
     1
 90
       50
176
     1
 90
       50
176
     1
 90
       50
176
     1
290
     0
176
     1
 90
       50
176
     1
 62
   256
176
     0
 40
1.0
176
     0
 90
        2
176
     1
  1
strokes_ogs.tif
176
     1
290
     0
176
     1
 40
1.0
176
     1
 40
1.0
176
     1
  0
VISUALSTYLE
  5
3F
102
{ACAD_REACTORS
330
2A
102
}
330
2A
100
AcDbVisualStyle
  2
Sketchy
 70
    24
177
     3
291
     0
 70
    58
 90
        1
176
     1
 90
        2
176
     1
 90
        2
176
     1
 90
        0
176
     1
 40
0.6
176
     1
 40
30.0
176
     1
 62
     7
420
 16777215
176
     1
 90
        2
176
     1
 90
        2
176
     1
 62
     7
176
     1
 62
     7
176
     1
 90
        1
176
     1
 90
        1
176
     1
 40
40.0
176
     1
 90
       11
176
     1
 62
     7
176
     1
 40
1.0
176
     1
 90
        1
176
     1
 90
        6
176
     1
 90
        2
176
     1
 62
     7
176
     1
 90
        6
176
     1
 90
        0
176
     1
 90
        0
176
     1
290
     0
176
     1
 90
        1
176
     1
 40
0.0
176
     1
 90
        0
176
     1
290
     0
176
     1
290
     1
176
     1
290
     1
176
     1
290
     0
176
     1
290
     0
176
     1
290
     0
176
     1
290
     0
176
     1
290
     0
176
     1
290
     0
176
     1
 90
       50
176
     1
 40
0.0
176
     1
 40
1.0
176
     1
 90
        0
176
     1
 62
    18
420
        0
176
     1
 90
       50
176
     1
 90
        3
176
     1
 62
     5
420
      255
176
     1
290
     0
176
     1
 90
       50
176
     1
 90
       50
176
     1
 90
       50
176
     1
290
     0
176
     1
 90
       50
176
     1
 62
   256
176
     0
 40
1.0
176
     0
 90
        2
176
     1
  1
strokes_ogs.tif
176
     1
290
     0
176
     1
 40
1.0
176
     1
 40
1.0
176
     1
  0
VISUALSTYLE
  5
37
102
{ACAD_REACTORS
330
2A
102
}
330
2A
100
AcDbVisualStyle
  2
Thicken
 70
    13
177
     3
291
     1
 70
    58
 90
        2
176
     1
 90
        2
176
     1
 90
        0
176
     1
 90
        0
176
     1
 40
0.6
176
     1
 40
30.0
176
     1
 62
     7
420
 16777215
176
     1
 90
        1
176
     1
 90
        4
176
     1
 62
     7
176
     1
 62
   257
176
     1
 90
        1
176
     1
 90
        1
176
     1
 40
1.0
176
     1
 90
       12
176
     1
 62
     7
176
     1
 40
1.0
176
     1
 90
        1
176
     1
 90
        6
176
     1
 90
        2
176
     1
 62
     7
176
     1
 90
        5
176
     1
 90
        0
176
     1
 90
        0
176
     1
290
     0
176
     1
 90
        1
176
     1
 40
0.0
176
     1
 90
        0
176
     1
290
     0
176
     1
290
     1
176
     1
290
     1
176
     1
290
     0
176
     1
290
     0
176
     1
290
     0
176
     1
290
     0
176
     1
290
     0
176
     1
290
     0
176
     1
 90
       50
176
     1
 40
0.0
176
     1
 40
1.0
176
     1
 90
        0
176
     1
 62
    18
420
        0
176
     1
 90
       50
176
     1
 90
        3
176
     1
 62
     5
420
      255
176
     1
290
     0
176
     1
 90
       50
176
     1
 90
       50
176
     1
 90
       50
176
     1
290
     0
176
     1
 90
       50
176
     1
 62
   256
176
     0
 40
1.0
176
     0
 90
        2
176
     1
  1
strokes_ogs.tif
176
     1
290
     0
176
     1
 40
1.0
176
     1
 40
1.0
176
     1
  0
VISUALSTYLE
  5
30
102
{ACAD_REACTORS
330
2A
102
}
330
2A
100
AcDbVisualStyle
  2
Wireframe
 70
     5
177
     3
291
     0
 70
    58
 90
        0
176
     1
 90
        2
176
     1
 90
        0
176
     1
 90
        0
176
     1
 40
0.6
176
     1
 40
30.0
176
     1
 62
     7
420
 16777215
176
     1
 90
        1
176
     1
 90
        4
176
     1
 62
     7
176
     1
 62
   257
176
     1
 90
        1
176
     1
 90
        1
176
     1
 40
1.0
176
     1
 90
        0
176
     1
 62
   257
176
     1
 40
1.0
176
     1
 90
        1
176
     1
 90
        6
176
     1
 90
        2
176
     1
 62
     7
176
     1
 90
        3
176
     1
 90
        0
176
     1
 90
        0
176
     1
290
     0
176
     1
 90
        1
176
     1
 40
0.0
176
     1
 90
        0
176
     1
290
     0
176
     1
290
     1
176
     1
290
     1
176
     1
290
     0
176
     1
290
     0
176
     1
290
     0
176
     1
290
     0
176
     1
290
     0
176
     1
290
     0
176
     1
 90
       50
176
     1
 40
0.0
176
     1
 40
1.0
176
     1
 90
        0
176
     1
 62
    18
420
        0
176
     1
 90
       50
176
     1
 90
        3
176
     1
 62
     5
420
      255
176
     1
290
     0
176
     1
 90
       50
176
     1
 90
       50
176
     1
 90
       50
176
     1
290
     0
176
     1
 90
       50
176
     1
 62
   256
176
     0
 40
1.0
176
     0
 90
        2
176
     1
  1
strokes_ogs.tif
176
     1
290
     0
176
     1
 40
1.0
176
     1
 40
1.0
176
     1
  0
VISUALSTYLE
  5
40
102
{ACAD_REACTORS
330
2A
102
}
330
2A
100
AcDbVisualStyle
  2
X-Ray
 70
    25
177
     3
291
     0
 70
    58
 90
        2
176
     1
 90
        2
176
     1
 90
        1
176
     1
 90
        1
176
     1
 40
0.5
176
     1
 40
30.0
176
     1
 62
     7
420
 16777215
176
     1
 90
        1
176
     1
 90
        0
176
     1
 62
     7
176
     1
 62
   257
176
     1
 90
        1
176
     1
 90
        1
176
     1
 40
1.0
176
     1
 90
        8
176
     1
 62
     7
176
     1
 40
1.0
176
     1
 90
        1
176
     1
 90
        6
176
     1
 90
        2
176
     1
 62
     7
176
     1
 90
        3
176
     1
 90
        0
176
     1
 90
        0
176
     1
290
     0
176
     1
 90
       13
176
     1
 40
0.0
176
     1
 90
        0
176
     1
290
     0
176
     1
290
     1
176
     1
290
     1
176
     1
290
     0
176
     1
290
     0
176
     1
290
     0
176
     1
290
     0
176
     1
290
     0
176
     1
290
     0
176
     1
 90
       50
176
     1
 40
0.0
176
     1
 40
1.0
176
     1
 90
        0
176
     1
 62
    18
420
        0
176
     1
 90
       50
176
     1
 90
        3
176
     1
 62
     5
420
      255
176
     1
290
     0
176
     1
 90
       50
176
     1
 90
       50
176
     1
 90
       50
176
     1
290
     0
176
     1
 90
       50
176
     1
 62
   256
176
     0
 40
1.0
176
     0
 90
        2
176
     1
  1
strokes_ogs.tif
176
     1
290
     0
176
     1
 40
1.0
176
     1
 40
1.0
176
     1
  0
DICTIONARYVAR
  5
B6
102
{ACAD_REACTORS
330
B5
102
}
330
B5
100
DictionaryVariables
280
     0
  1
1:1
  0
DICTIONARYVAR
  5
BB
102
{ACAD_REACTORS
330
B5
102
}
330
B5
100
DictionaryVariables
280
     0
  1
Standard
  0
DICTIONARYVAR
  5
BA
102
{ACAD_REACTORS
330
B5
102
}
330
B5
100
DictionaryVariables
280
     0
  1
Standard
  0
DICTIONARY
  5
B7
330
5A
100
AcDbDictionary
280
     1
281
     1
  3
ACAD_ROUNDTRIP_2008_TABLESTYLE_CELLSTYLEMAP
360
B8
  0
CELLSTYLEMAP
  5
B8
102
{ACAD_REACTORS
330
B7
102
}
330
B7
100
AcDbCellStyleMap
 90
        3
300
CELLSTYLE
  1
TABLEFORMAT_BEGIN
 90
        5
170
     1
 91
        0
 92
    32768
 62
   257
 93
        1
300
CONTENTFORMAT
  1
CONTENTFORMAT_BEGIN
 90
        0
 91
        0
 92
        4
 93
        0
300

 40
0.0
140
1.0
 94
        5
 62
     0
340
11
144
0.25
309
CONTENTFORMAT_END
171
     1
301
MARGIN
  1
CELLMARGIN_BEGIN
 40
0.06
 40
0.06
 40
0.06
 40
0.06
 40
0.06
 40
0.06
309
CELLMARGIN_END
 94
        6
 95
        1
302
GRIDFORMAT
  1
GRIDFORMAT_BEGIN
 90
        0
 91
        1
 62
     0
 92
       -2
340
14
 93
        0
 40
0.045
309
GRIDFORMAT_END
 95
        2
302
GRIDFORMAT
  1
GRIDFORMAT_BEGIN
 90
        0
 91
        1
 62
     0
 92
       -2
340
14
 93
        0
 40
0.045
309
GRIDFORMAT_END
 95
        4
302
GRIDFORMAT
  1
GRIDFORMAT_BEGIN
 90
        0
 91
        1
 62
     0
 92
       -2
340
14
 93
        0
 40
0.045
309
GRIDFORMAT_END
 95
        8
302
GRIDFORMAT
  1
GRIDFORMAT_BEGIN
 90
        0
 91
        1
 62
     0
 92
       -2
340
14
 93
        0
 40
0.045
309
GRIDFORMAT_END
 95
       16
302
GRIDFORMAT
  1
GRIDFORMAT_BEGIN
 90
        0
 91
        1
 62
     0
 92
       -2
340
14
 93
        0
 40
0.045
309
GRIDFORMAT_END
 95
       32
302
GRIDFORMAT
  1
GRIDFORMAT_BEGIN
 90
        0
 91
        1
 62
     0
 92
       -2
340
14
 93
        0
 40
0.045
309
GRIDFORMAT_END
309
TABLEFORMAT_END
  1
CELLSTYLE_BEGIN
 90
        1
 91
        1
300
_TITLE
309
CELLSTYLE_END
300
CELLSTYLE
  1
TABLEFORMAT_BEGIN
 90
        5
170
     1
 91
        0
 92
        0
 62
   257
 93
        1
300
CONTENTFORMAT
  1
CONTENTFORMAT_BEGIN
 90
        0
 91
        0
 92
        4
 93
        0
300

 40
0.0
140
1.0
 94
        5
 62
     0
340
11
144
0.18
309
CONTENTFORMAT_END
171
     1
301
MARGIN
  1
CELLMARGIN_BEGIN
 40
0.06
 40
0.06
 40
0.06
 40
0.06
 40
0.06
 40
0.06
309
CELLMARGIN_END
 94
        6
 95
        1
302
GRIDFORMAT
  1
GRIDFORMAT_BEGIN
 90
        0
 91
        1
 62
     0
 92
       -2
340
14
 93
        0
 40
0.045
309
GRIDFORMAT_END
 95
        2
302
GRIDFORMAT
  1
GRIDFORMAT_BEGIN
 90
        0
 91
        1
 62
     0
 92
       -2
340
14
 93
        0
 40
0.045
309
GRIDFORMAT_END
 95
        4
302
GRIDFORMAT
  1
GRIDFORMAT_BEGIN
 90
        0
 91
        1
 62
     0
 92
       -2
340
14
 93
        0
 40
0.045
309
GRIDFORMAT_END
 95
        8
302
GRIDFORMAT
  1
GRIDFORMAT_BEGIN
 90
        0
 91
        1
 62
     0
 92
       -2
340
14
 93
        0
 40
0.045
309
GRIDFORMAT_END
 95
       16
302
GRIDFORMAT
  1
GRIDFORMAT_BEGIN
 90
        0
 91
        1
 62
     0
 92
       -2
340
14
 93
        0
 40
0.045
309
GRIDFORMAT_END
 95
       32
302
GRIDFORMAT
  1
GRIDFORMAT_BEGIN
 90
        0
 91
        1
 62
     0
 92
       -2
340
14
 93
        0
 40
0.045
309
GRIDFORMAT_END
309
TABLEFORMAT_END
  1
CELLSTYLE_BEGIN
 90
        2
 91
        1
300
_HEADER
309
CELLSTYLE_END
300
CELLSTYLE
  1
TABLEFORMAT_BEGIN
 90
        5
170
     1
 91
        0
 92
        0
 62
   257
 93
        1
300
CONTENTFORMAT
  1
CONTENTFORMAT_BEGIN
 90
        0
 91
        0
 92
        4
 93
        0
300

 40
0.0
140
1.0
 94
        2
 62
     0
340
11
144
0.18
309
CONTENTFORMAT_END
171
     1
301
MARGIN
  1
CELLMARGIN_BEGIN
 40
0.06
 40
0.06
 40
0.06
 40
0.06
 40
0.06
 40
0.06
309
CELLMARGIN_END
 94
        6
 95
        1
302
GRIDFORMAT
  1
GRIDFORMAT_BEGIN
 90
        0
 91
        1
 62
     0
 92
       -2
340
14
 93
        0
 40
0.045
309
GRIDFORMAT_END
 95
        2
302
GRIDFORMAT
  1
GRIDFORMAT_BEGIN
 90
        0
 91
        1
 62
     0
 92
       -2
340
14
 93
        0
 40
0.045
309
GRIDFORMAT_END
 95
        4
302
GRIDFORMAT
  1
GRIDFORMAT_BEGIN
 90
        0
 91
        1
 62
     0
 92
       -2
340
14
 93
        0
 40
0.045
309
GRIDFORMAT_END
 95
        8
302
GRIDFORMAT
  1
GRIDFORMAT_BEGIN
 90
        0
 91
        1
 62
     0
 92
       -2
340
14
 93
        0
 40
0.045
309
GRIDFORMAT_END
 95
       16
302
GRIDFORMAT
  1
GRIDFORMAT_BEGIN
 90
        0
 91
        1
 62
     0
 92
       -2
340
14
 93
        0
 40
0.045
309
GRIDFORMAT_END
 95
       32
302
GRIDFORMAT
  1
GRIDFORMAT_BEGIN
 90
        0
 91
        1
 62
     0
 92
       -2
340
14
 93
        0
 40
0.045
309
GRIDFORMAT_END
309
TABLEFORMAT_END
  1
CELLSTYLE_BEGIN
 90
        3
 91
        2
300
_DATA
309
CELLSTYLE_END
  0
ENDSEC
  0
EOF
