  0
SECTION
  2
HEADER
  9
$ACADVER
  1
AC1027
  9
$ACADMAINTVER
 70
   105
  9
$DWGCODEPAGE
  3
ANSI_1252
  9
$LASTSAVEDBY
  1
Office Desk
  9
$REQUIREDVERSIONS
160
                 0
  9
$INSBASE
 10
0.0
 20
0.0
 30
0.0
  9
$EXTMIN
 10
243.5071
 20
-158.0862
 30
0.0
  9
$EXTMAX
 10
1265.269
 20
337.9436
 30
0.0
  9
$LIMMIN
 10
0.0
 20
0.0
  9
$LIMMAX
 10
12.0
 20
9.0
  9
$ORTHOMODE
 70
     0
  9
$REGENMODE
 70
     1
  9
$FILLMODE
 70
     1
  9
$QTEXTMODE
 70
     0
  9
$MIRRTEXT
 70
     1
  9
$LTSCALE
 40
1.0
  9
$ATTMODE
 70
     1
  9
$TEXTSIZE
 40
0.2
  9
$TRACEWID
 40
0.05
  9
$TEXTSTYLE
  7
Standard
  9
$CLAYER
  8
0
  9
$CELTYPE
  6
ByLayer
  9
$CECOLOR
 62
   256
  9
$CELTSCALE
 40
1.0
  9
$DISPSILH
 70
     0
  9
$DIMSCALE
 40
1.0
  9
$DIMASZ
 40
0.18
  9
$DIMEXO
 40
0.0625
  9
$DIMDLI
 40
0.38
  9
$DIMRND
 40
0.0
  9
$DIMDLE
 40
0.0
  9
$DIMEXE
 40
0.18
  9
$DIMTP
 40
0.0
  9
$DIMTM
 40
0.0
  9
$DIMTXT
 40
0.18
  9
$DIMCEN
 40
0.09
  9
$DIMTSZ
 40
0.0
  9
$DIMTOL
 70
     0
  9
$DIMLIM
 70
     0
  9
$DIMTIH
 70
     1
  9
$DIMTOH
 70
     1
  9
$DIMSE1
 70
     0
  9
$DIMSE2
 70
     0
  9
$DIMTAD
 70
     0
  9
$DIMZIN
 70
     0
  9
$DIMBLK
  1

  9
$DIMASO
 70
     1
  9
$DIMSHO
 70
     1
  9
$DIMPOST
  1

  9
$DIMAPOST
  1

  9
$DIMALT
 70
     0
  9
$DIMALTD
 70
     2
  9
$DIMALTF
 40
25.4
  9
$DIMLFAC
 40
1.0
  9
$DIMTOFL
 70
     0
  9
$DIMTVP
 40
0.0
  9
$DIMTIX
 70
     0
  9
$DIMSOXD
 70
     0
  9
$DIMSAH
 70
     0
  9
$DIMBLK1
  1

  9
$DIMBLK2
  1

  9
$DIMSTYLE
  2
Standard
  9
$DIMCLRD
 70
     0
  9
$DIMCLRE
 70
     0
  9
$DIMCLRT
 70
     0
  9
$DIMTFAC
 40
1.0
  9
$DIMGAP
 40
0.09
  9
$DIMJUST
 70
     0
  9
$DIMSD1
 70
     0
  9
$DIMSD2
 70
     0
  9
$DIMTOLJ
 70
     1
  9
$DIMTZIN
 70
     0
  9
$DIMALTZ
 70
     0
  9
$DIMALTTZ
 70
     0
  9
$DIMUPT
 70
     0
  9
$DIMDEC
 70
     4
  9
$DIMTDEC
 70
     4
  9
$DIMALTU
 70
     2
  9
$DIMALTTD
 70
     2
  9
$DIMTXSTY
  7
Standard
  9
$DIMAUNIT
 70
     0
  9
$DIMADEC
 70
     0
  9
$DIMALTRND
 40
0.0
  9
$DIMAZIN
 70
     0
  9
$DIMDSEP
 70
    46
  9
$DIMATFIT
 70
     3
  9
$DIMFRAC
 70
     0
  9
$DIMLDRBLK
  1

  9
$DIMLUNIT
 70
     2
  9
$DIMLWD
 70
    -2
  9
$DIMLWE
 70
    -2
  9
$DIMTMOVE
 70
     0
  9
$DIMFXL
 40
1.0
  9
$DIMFXLON
 70
     0
  9
$DIMJOGANG
 40
0.7853981633974483
  9
$DIMTFILL
 70
     0
  9
$DIMTFILLCLR
 70
     0
  9
$DIMARCSYM
 70
     0
  9
$DIMLTYPE
  6

  9
$DIMLTEX1
  6

  9
$DIMLTEX2
  6

  9
$DIMTXTDIRECTION
 70
     0
  9
$LUNITS
 70
     2
  9
$LUPREC
 70
     4
  9
$SKETCHINC
 40
0.1
  9
$FILLETRAD
 40
0.0
  9
$AUNITS
 70
     0
  9
$AUPREC
 70
     0
  9
$MENU
  1
.
  9
$ELEVATION
 40
0.0
  9
$PELEVATION
 40
0.0
  9
$THICKNESS
 40
0.0
  9
$LIMCHECK
 70
     0
  9
$CHAMFERA
 40
0.0
  9
$CHAMFERB
 40
0.0
  9
$CHAMFERC
 40
0.0
  9
$CHAMFERD
 40
0.0
  9
$SKPOLY
 70
     0
  9
$TDCREATE
 40
2461013.66329059
  9
$TDUCREATE
 40
2461013.434123924
  9
$TDUPDATE
 40
2461013.663290741
  9
$TDUUPDATE
 40
2461013.434124074
  9
$TDINDWG
 40
0.0000000116
  9
$TDUSRTIMER
 40
0.0000000116
  9
$USRTIMER
 70
     1
  9
$ANGBASE
 50
0.0
  9
$ANGDIR
 70
     0
  9
$PDMODE
 70
     0
  9
$PDSIZE
 40
0.0
  9
$PLINEWID
 40
0.0
  9
$SPLFRAME
 70
     0
  9
$SPLINETYPE
 70
     6
  9
$SPLINESEGS
 70
     8
  9
$HANDSEED
  5
9A
  9
$SURFTAB1
 70
     6
  9
$SURFTAB2
 70
     6
  9
$SURFTYPE
 70
     6
  9
$SURFU
 70
     6
  9
$SURFV
 70
     6
  9
$UCSBASE
  2

  9
$UCSNAME
  2

  9
$UCSORG
 10
0.0
 20
0.0
 30
0.0
  9
$UCSXDIR
 10
1.0
 20
0.0
 30
0.0
  9
$UCSYDIR
 10
0.0
 20
1.0
 30
0.0
  9
$UCSORTHOREF
  2

  9
$UCSORTHOVIEW
 70
     0
  9
$UCSORGTOP
 10
0.0
 20
0.0
 30
0.0
  9
$UCSORGBOTTOM
 10
0.0
 20
0.0
 30
0.0
  9
$UCSORGLEFT
 10
0.0
 20
0.0
 30
0.0
  9
$UCSORGRIGHT
 10
0.0
 20
0.0
 30
0.0
  9
$UCSORGFRONT
 10
0.0
 20
0.0
 30
0.0
  9
$UCSORGBACK
 10
0.0
 20
0.0
 30
0.0
  9
$PUCSBASE
  2

  9
$PUCSNAME
  2

  9
$PUCSORG
 10
0.0
 20
0.0
 30
0.0
  9
$PUCSXDIR
 10
1.0
 20
0.0
 30
0.0
  9
$PUCSYDIR
 10
0.0
 20
1.0
 30
0.0
  9
$PUCSORTHOREF
  2

  9
$PUCSORTHOVIEW
 70
     0
  9
$PUCSORGTOP
 10
0.0
 20
0.0
 30
0.0
  9
$PUCSORGBOTTOM
 10
0.0
 20
0.0
 30
0.0
  9
$PUCSORGLEFT
 10
0.0
 20
0.0
 30
0.0
  9
$PUCSORGRIGHT
 10
0.0
 20
0.0
 30
0.0
  9
$PUCSORGFRONT
 10
0.0
 20
0.0
 30
0.0
  9
$PUCSORGBACK
 10
0.0
 20
0.0
 30
0.0
  9
$USERI1
 70
     0
  9
$USERI2
 70
     0
  9
$USERI3
 70
     0
  9
$USERI4
 70
     0
  9
$USERI5
 70
     0
  9
$USERR1
 40
0.0
  9
$USERR2
 40
0.0
  9
$USERR3
 40
0.0
  9
$USERR4
 40
0.0
  9
$USERR5
 40
0.0
  9
$WORLDVIEW
 70
     1
  9
$SHADEDGE
 70
     3
  9
$SHADEDIF
 70
    70
  9
$TILEMODE
 70
     1
  9
$MAXACTVP
 70
    64
  9
$PINSBASE
 10
0.0
 20
0.0
 30
0.0
  9
$PLIMCHECK
 70
     0
  9
$PEXTMIN
 10
1.000000000000000E+20
 20
1.000000000000000E+20
 30
1.000000000000000E+20
  9
$PEXTMAX
 10
-1.000000000000000E+20
 20
-1.000000000000000E+20
 30
-1.000000000000000E+20
  9
$PLIMMIN
 10
0.0
 20
0.0
  9
$PLIMMAX
 10
12.0
 20
9.0
  9
$UNITMODE
 70
     0
  9
$VISRETAIN
 70
     1
  9
$PLINEGEN
 70
     0
  9
$PSLTSCALE
 70
     1
  9
$TREEDEPTH
 70
  3020
  9
$CMLSTYLE
  2
Standard
  9
$CMLJUST
 70
     0
  9
$CMLSCALE
 40
1.0
  9
$PROXYGRAPHICS
 70
     1
  9
$MEASUREMENT
 70
     0
  9
$CELWEIGHT
370
    -1
  9
$ENDCAPS
280
     0
  9
$JOINSTYLE
280
     0
  9
$LWDISPLAY
290
     0
  9
$INSUNITS
 70
     4
  9
$HYPERLINKBASE
  1

  9
$STYLESHEET
  1

  9
$XEDIT
290
     1
  9
$CEPSNTYPE
380
     0
  9
$PSTYLEMODE
290
     1
  9
$FINGERPRINTGUID
  2
{c7ebe9db-5da8-463b-bb0e-8899d73bb648}
  9
$VERSIONGUID
  2
{FAEB1C32-E019-11D5-929B-00C0DF256EC4}
  9
$EXTNAMES
290
     1
  9
$PSVPSCALE
 40
0.0
  9
$OLESTARTUP
290
     0
  9
$SORTENTS
280
   127
  9
$INDEXCTL
280
     0
  9
$HIDETEXT
280
     1
  9
$XCLIPFRAME
280
     2
  9
$HALOGAP
280
     0
  9
$OBSCOLOR
 70
   257
  9
$OBSLTYPE
280
     0
  9
$INTERSECTIONDISPLAY
280
     0
  9
$INTERSECTIONCOLOR
 70
   257
  9
$DIMASSOC
280
     2
  9
$PROJECTNAME
  1

  9
$CAMERADISPLAY
290
     0
  9
$LENSLENGTH
 40
50.0
  9
$CAMERAHEIGHT
 40
0.0
  9
$STEPSPERSEC
 40
2.0
  9
$STEPSIZE
 40
6.0
  9
$3DDWFPREC
 40
2.0
  9
$PSOLWIDTH
 40
0.25
  9
$PSOLHEIGHT
 40
4.0
  9
$LOFTANG1
 40
1.570796326794897
  9
$LOFTANG2
 40
1.570796326794897
  9
$LOFTMAG1
 40
0.0
  9
$LOFTMAG2
 40
0.0
  9
$LOFTPARAM
 70
     7
  9
$LOFTNORMALS
280
     1
  9
$LATITUDE
 40
37.795
  9
$LONGITUDE
 40
-122.394
  9
$NORTHDIRECTION
 40
0.0
  9
$TIMEZONE
 70
 -8000
  9
$LIGHTGLYPHDISPLAY
280
     1
  9
$TILEMODELIGHTSYNCH
280
     1
  9
$CMATERIAL
347
44
  9
$SOLIDHIST
280
     0
  9
$SHOWHIST
280
     1
  9
$DWFFRAME
280
     2
  9
$DGNFRAME
280
     2
  9
$REALWORLDSCALE
290
     1
  9
$INTERFERECOLOR
 62
   256
  9
$CSHADOW
280
     0
  9
$SHADOWPLANELOCATION
 40
0.0
  0
ENDSEC
  0
SECTION
  2
CLASSES
  0
CLASS
  1
ACDBDICTIONARYWDFLT
  2
AcDbDictionaryWithDefault
  3
ObjectDBX Classes
 90
        0
 91
        3
280
     0
281
     0
  0
CLASS
  1
VISUALSTYLE
  2
AcDbVisualStyle
  3
ObjectDBX Classes
 90
     4095
 91
        3
280
     0
281
     0
  0
CLASS
  1
MATERIAL
  2
AcDbMaterial
  3
ObjectDBX Classes
 90
     1153
 91
        3
280
     0
281
     0
  0
CLASS
  1
SCALE
  2
AcDbScale
  3
ObjectDBX Classes
 90
     1153
 91
        3
280
     0
281
     0
  0
CLASS
  1
TABLESTYLE
  2
AcDbTableStyle
  3
ObjectDBX Classes
 90
     4095
 91
        3
280
     0
281
     0
  0
CLASS
  1
MLEADERSTYLE
  2
AcDbMLeaderStyle
  3
ACDB_MLEADERSTYLE_CLASS
 90
     4095
 91
        3
280
     0
281
     0
  0
CLASS
  1
SUN
  2
AcDbSun
  3
SCENEOE
 90
     1153
 91
        3
280
     0
281
     0
  0
CLASS
  1
DICTIONARYVAR
  2
AcDbDictionaryVar
  3
ObjectDBX Classes
 90
        0
 91
        3
280
     0
281
     0
  0
CLASS
  1
CELLSTYLEMAP
  2
AcDbCellStyleMap
  3
ObjectDBX Classes
 90
     1152
 91
        3
280
     0
281
     0
  0
ENDSEC
  0
SECTION
  2
TABLES
  0
TABLE
  2
VPORT
  5
8
330
0
100
AcDbSymbolTable
 70
     1
  0
VPORT
  5
29
330
8
100
AcDbSymbolTableRecord
100
AcDbViewportTableRecord
  2
*Active
 70
     0
 10
0.0
 20
0.0
 11
1.0
 21
1.0
 12
10.42990654205607
 22
4.5
 13
0.0
 23
0.0
 14
0.5
 24
0.5
 15
0.5
 25
0.5
 16
0.0
 26
0.0
 36
1.0
 17
0.0
 27
0.0
 37
0.0
 40
9.0
 41
1.972972972850329
 42
50.0
 43
0.0
 44
0.0
 50
0.0
 51
0.0
 71
     0
 72
   100
 73
     1
 74
     3
 75
     0
 76
     0
 77
     0
 78
     0
281
     0
 65
     1
110
0.0
120
0.0
130
0.0
111
1.0
121
0.0
131
0.0
112
0.0
122
1.0
132
0.0
 79
     0
146
0.0
348
2F
 60
     3
 61
     5
292
     1
282
     1
141
0.0
142
0.0
 63
   250
361
5D
  0
ENDTAB
  0
TABLE
  2
LTYPE
  5
5
330
0
100
AcDbSymbolTable
 70
     1
  0
LTYPE
  5
14
330
5
100
AcDbSymbolTableRecord
100
AcDbLinetypeTableRecord
  2
ByBlock
 70
     0
  3

 72
    65
 73
     0
 40
0.0
  0
LTYPE
  5
15
330
5
100
AcDbSymbolTableRecord
100
AcDbLinetypeTableRecord
  2
ByLayer
 70
     0
  3

 72
    65
 73
     0
 40
0.0
  0
LTYPE
  5
16
330
5
100
AcDbSymbolTableRecord
100
AcDbLinetypeTableRecord
  2
Continuous
 70
     0
  3
Solid line
 72
    65
 73
     0
 40
0.0
  0
ENDTAB
  0
TABLE
  2
LAYER
  5
2
330
0
100
AcDbSymbolTable
 70
     2
  0
LAYER
  5
10
330
2
100
AcDbSymbolTableRecord
100
AcDbLayerTableRecord
  2
0
 70
     0
 62
     7
  6
Continuous
370
    -3
390
F
347
46
348
0
  0
LAYER
  5
5F
330
2
100
AcDbSymbolTableRecord
100
AcDbLayerTableRecord
  2
Layer 1
 70
     0
 62
     7
  6
Continuous
370
    -3
390
F
347
46
348
0
  0
ENDTAB
  0
TABLE
  2
STYLE
  5
3
330
0
100
AcDbSymbolTable
 70
     1
  0
STYLE
  5
11
330
3
100
AcDbSymbolTableRecord
100
AcDbTextStyleTableRecord
  2
Standard
 70
     0
 40
0.0
 41
1.0
 50
0.0
 71
     0
 42
0.2
  3
txt
  4

  0
ENDTAB
  0
TABLE
  2
VIEW
  5
6
330
0
100
AcDbSymbolTable
 70
     0
  0
ENDTAB
  0
TABLE
  2
UCS
  5
7
330
0
100
AcDbSymbolTable
 70
     0
  0
ENDTAB
  0
TABLE
  2
APPID
  5
9
330
0
100
AcDbSymbolTable
 70
     2
  0
APPID
  5
12
330
9
100
AcDbSymbolTableRecord
100
AcDbRegAppTableRecord
  2
ACAD
 70
     0
  0
APPID
  5
5E
330
9
100
AcDbSymbolTableRecord
100
AcDbRegAppTableRecord
  2
ODA
 70
     0
  0
ENDTAB
  0
TABLE
  2
DIMSTYLE
  5
A
330
0
100
AcDbSymbolTable
 70
     1
100
AcDbDimStyleTable
  0
DIMSTYLE
105
27
330
A
100
AcDbSymbolTableRecord
100
AcDbDimStyleTableRecord
  2
Standard
 70
     0
178
     0
340
11
  0
ENDTAB
  0
TABLE
  2
BLOCK_RECORD
  5
1
330
0
100
AcDbSymbolTable
 70
     1
  0
BLOCK_RECORD
  5
1F
330
1
100
AcDbSymbolTableRecord
100
AcDbBlockTableRecord
  2
*Model_Space
340
22
 70
     0
280
     1
281
     0
  0
BLOCK_RECORD
  5
1B
330
1
100
AcDbSymbolTableRecord
100
AcDbBlockTableRecord
  2
*Paper_Space
340
1E
 70
     0
280
     1
281
     0
  0
BLOCK_RECORD
  5
23
330
1
100
AcDbSymbolTableRecord
100
AcDbBlockTableRecord
  2
*Paper_Space0
340
26
 70
     0
280
     1
281
     0
  0
ENDTAB
  0
ENDSEC
  0
SECTION
  2
BLOCKS
  0
BLOCK
  5
20
330
1F
100
AcDbEntity
  8
0
100
AcDbBlockBegin
  2
*Model_Space
 70
     0
 10
0.0
 20
0.0
 30
0.0
  3
*Model_Space
  1

  0
ENDBLK
  5
21
330
1F
100
AcDbEntity
  8
0
100
AcDbBlockEnd
  0
BLOCK
  5
1C
330
1B
100
AcDbEntity
 67
     1
  8
0
100
AcDbBlockBegin
  2
*Paper_Space
 70
     0
 10
0.0
 20
0.0
 30
0.0
  3
*Paper_Space
  1

  0
ENDBLK
  5
1D
330
1B
100
AcDbEntity
 67
     1
  8
0
100
AcDbBlockEnd
  0
BLOCK
  5
24
330
23
100
AcDbEntity
  8
0
100
AcDbBlockBegin
  2
*Paper_Space0
 70
     0
 10
0.0
 20
0.0
 30
0.0
  3
*Paper_Space0
  1

  0
ENDBLK
  5
25
330
23
100
AcDbEntity
  8
0
100
AcDbBlockEnd
  0
ENDSEC
  0
SECTION
  2
ENTITIES
  0
LWPOLYLINE
  5
60
330
1F
100
AcDbEntity
  8
Layer 1
 62
   250
370
    18
100
AcDbPolyline
 90
        5
 70
     1
 43
0.0
 10
243.5953
 20
-157.998
 10
1265.1807
 20
-157.998
 10
1265.1807
 20
337.8554
 10
243.5953
 20
337.8554
 10
243.5953
 20
-157.998
  0
LWPOLYLINE
  5
61
330
1F
100
AcDbEntity
  8
Layer 1
 62
     7
370
    35
100
AcDbPolyline
 90
       51
 70
     1
 43
0.0
 10
327.9864
 20
100.2771
 10
437.6304
 20
100.2771
 10
438.0963
 20
100.2298
 10
438.544
 20
100.0947
 10
438.9568
 20
99.8818
 10
439.3177
 20
99.601
 10
439.61
 20
99.2625
 10
439.8169
 20
98.8763
 10
439.9214
 20
98.4524
 10
439.9067
 20
98.0008
 10
438.7087
 20
92.7032
 10
437.0051
 20
87.8672
 10
434.7629
 20
83.4811
 10
431.9494
 20
79.5333
 10
428.5316
 20
76.0121
 10
424.4767
 20
72.9058
 10
419.7517
 20
70.2027
 10
414.3239
 20
67.8912
 10
413.8743
 20
67.652
 10
413.4095
 20
67.2897
 10
412.9333
 20
66.852
 10
412.4496
 20
66.3869
 10
411.9623
 20
65.9419
 10
411.4753
 20
65.565
 10
410.9925
 20
65.3038
 10
410.5178
 20
65.2061
 10
355.0987
 20
65.2061
 10
354.624
 20
65.3038
 10
354.1412
 20
65.565
 10
353.6543
 20
65.9419
 10
353.167
 20
66.3869
 10
352.6833
 20
66.852
 10
352.2072
 20
67.2897
 10
351.7424
 20
67.652
 10
351.2929
 20
67.8912
 10
345.8651
 20
70.2027
 10
341.1402
 20
72.9058
 10
337.0854
 20
76.0121
 10
333.6678
 20
79.5333
 10
330.8546
 20
83.4811
 10
328.613
 20
87.8672
 10
326.9102
 20
92.7032
 10
325.7132
 20
98.0008
 10
325.6984
 20
98.4524
 10
325.8025
 20
98.8763
 10
326.0088
 20
99.2625
 10
326.3005
 20
99.601
 10
326.6609
 20
99.8818
 10
327.0732
 20
100.0947
 10
327.5206
 20
100.2298
 10
327.9864
 20
100.2771
  0
LWPOLYLINE
  5
62
330
1F
100
AcDbEntity
  8
Layer 1
 62
     7
370
    35
100
AcDbPolyline
 90
       35
 70
     0
 43
0.0
 10
356.6369
 20
65.2061
 10
356.6585
 20
65.1277
 10
356.717
 20
64.9169
 10
356.803
 20
64.6105
 10
356.9068
 20
64.2452
 10
357.0191
 20
63.8578
 10
357.1302
 20
63.4849
 10
357.2309
 20
63.1634
 10
357.3114
 20
62.93
 10
357.399
 20
62.7344
 10
357.5316
 20
62.5146
 10
357.7211
 20
62.2861
 10
357.9791
 20
62.0644
 10
358.3172
 20
61.865
 10
358.7472
 20
61.7034
 10
359.2807
 20
61.5951
 10
359.9294
 20
61.5555
 10
382.8098
 20
61.5555
 10
405.6874
 20
61.5555
 10
406.3368
 20
61.5951
 10
406.8709
 20
61.7034
 10
407.3012
 20
61.865
 10
407.6395
 20
62.0644
 10
407.8973
 20
62.2861
 10
408.0863
 20
62.5146
 10
408.2181
 20
62.7344
 10
408.3043
 20
62.93
 10
408.3851
 20
63.1634
 10
408.4859
 20
63.4849
 10
408.5973
 20
63.8578
 10
408.7097
 20
64.2452
 10
408.8136
 20
64.6105
 10
408.8995
 20
64.9169
 10
408.9581
 20
65.1277
 10
408.9797
 20
65.2061
  0
LWPOLYLINE
  5
63
330
1F
100
AcDbEntity
  8
Layer 1
 62
     7
370
    35
100
AcDbPolyline
 90
        2
 70
     0
 43
0.0
 10
313.6556
 20
99.7111
 10
303.8712
 20
99.7111
  0
LWPOLYLINE
  5
64
330
1F
100
AcDbEntity
  8
Layer 1
 62
     7
370
    35
100
AcDbPolyline
 90
        2
 70
     0
 43
0.0
 10
313.6556
 20
61.5555
 10
303.8712
 20
61.5555
  0
LWPOLYLINE
  5
65
330
1F
100
AcDbEntity
  8
Layer 1
 62
     7
370
    35
100
AcDbPolyline
 90
        2
 70
     0
 43
0.0
 10
309.2453
 20
61.5555
 10
309.2453
 20
72.9785
  0
LWPOLYLINE
  5
66
330
1F
100
AcDbEntity
  8
Layer 1
 62
     7
370
    35
100
AcDbPolyline
 90
        2
 70
     0
 43
0.0
 10
309.2453
 20
99.711
 10
309.2453
 20
71.807
  0
LWPOLYLINE
  5
67
330
1F
100
AcDbEntity
  8
Layer 1
 62
     7
370
    18
100
AcDbPolyline
 90
        8
 70
     1
 43
0.0
 10
303.8107
 20
77.0779
 10
300.1287
 20
77.0779
 10
300.3155
 20
77.2538
 10
300.3155
 20
76.1712
 10
299.964
 20
76.1712
 10
299.964
 20
77.4736
 10
303.8107
 20
77.4736
 10
303.8107
 20
77.0779
  0
LWPOLYLINE
  5
68
330
1F
100
AcDbEntity
  8
Layer 1
 62
     7
370
    18
100
AcDbPolyline
 90
        9
 70
     1
 43
0.0
 10
302.7996
 20
78.3252
 10
302.5137
 20
78.3252
 10
299.964
 20
80.364
 10
299.964
 20
80.8036
 10
302.5137
 20
78.7812
 10
302.4478
 20
78.567
 10
302.4478
 20
81.6606
 10
302.7996
 20
81.6606
 10
302.7996
 20
78.3252
  0
LWPOLYLINE
  5
69
330
1F
100
AcDbEntity
  8
Layer 1
 62
     7
370
    18
100
AcDbPolyline
 90
        7
 70
     1
 43
0.0
 10
303.8107
 20
80.4957
 10
302.7996
 20
80.4957
 10
302.4478
 20
80.5068
 10
301.5575
 20
80.5068
 10
301.5575
 20
80.8914
 10
303.8107
 20
80.8914
 10
303.8107
 20
80.4957
  0
LWPOLYLINE
  5
6A
330
1F
100
AcDbEntity
  8
Layer 1
 62
     7
370
    18
100
AcDbPolyline
 90
       97
 70
     1
 43
0.0
 10
303.8438
 20
83.5564
 10
303.8401
 20
83.4467
 10
303.8292
 20
83.34
 10
303.8109
 20
83.2364
 10
303.7854
 20
83.136
 10
303.7525
 20
83.0386
 10
303.7124
 20
82.9443
 10
303.6649
 20
82.8531
 10
303.6102
 20
82.7651
 10
303.5486
 20
82.6808
 10
303.4807
 20
82.6012
 10
303.4064
 20
82.5263
 10
303.3258
 20
82.456
 10
303.2388
 20
82.3903
 10
303.1455
 20
82.3292
 10
303.0458
 20
82.2728
 10
302.9397
 20
82.221
 10
302.8276
 20
82.1747
 10
302.71
 20
82.1345
 10
302.5869
 20
82.1005
 10
302.4581
 20
82.0727
 10
302.3238
 20
82.0511
 10
302.1839
 20
82.0356
 10
302.0384
 20
82.0263
 10
301.8873
 20
82.0232
 10
301.7362
 20
82.0263
 10
301.5907
 20
82.0356
 10
301.4508
 20
82.0511
 10
301.3164
 20
82.0727
 10
301.1877
 20
82.1005
 10
301.0645
 20
82.1345
 10
300.9469
 20
82.1747
 10
300.8349
 20
82.221
 10
300.7289
 20
82.2728
 10
300.6292
 20
82.3292
 10
300.5359
 20
82.3903
 10
300.4489
 20
82.456
 10
300.3683
 20
82.5263
 10
300.294
 20
82.6012
 10
300.2261
 20
82.6808
 10
300.1645
 20
82.7651
 10
300.1098
 20
82.8531
 10
300.0623
 20
82.9443
 10
300.0222
 20
83.0386
 10
299.9893
 20
83.136
 10
299.9638
 20
83.2364
 10
299.9455
 20
83.34
 10
299.9346
 20
83.4467
 10
299.9309
 20
83.5564
 10
299.9346
 20
83.6661
 10
299.9455
 20
83.7727
 10
299.9638
 20
83.8763
 10
299.9893
 20
83.9767
 10
300.0222
 20
84.0741
 10
300.0623
 20
84.1684
 10
300.1098
 20
84.2595
 10
300.1645
 20
84.3476
 10
300.2261
 20
84.4319
 10
300.294
 20
84.5116
 10
300.3683
 20
84.5868
 10
300.4489
 20
84.6574
 10
300.5359
 20
84.7234
 10
300.6292
 20
84.7849
 10
300.7289
 20
84.8419
 10
300.8349
 20
84.8943
 10
300.9469
 20
84.9413
 10
301.0645
 20
84.9821
 10
301.1877
 20
85.0166
 10
301.3164
 20
85.0448
 10
301.4508
 20
85.0668
 10
301.5907
 20
85.0824
 10
301.7362
 20
85.0919
 10
301.8873
 20
85.095
 10
302.0384
 20
85.0919
 10
302.1839
 20
85.0824
 10
302.3238
 20
85.0668
 10
302.4581
 20
85.0448
 10
302.5869
 20
85.0166
 10
302.71
 20
84.9821
 10
302.8276
 20
84.9413
 10
302.9397
 20
84.8943
 10
303.0458
 20
84.8419
 10
303.1455
 20
84.7849
 10
303.2388
 20
84.7234
 10
303.3258
 20
84.6574
 10
303.4064
 20
84.5868
 10
303.4807
 20
84.5116
 10
303.5486
 20
84.4319
 10
303.6102
 20
84.3476
 10
303.6649
 20
84.2595
 10
303.7124
 20
84.1684
 10
303.7525
 20
84.0741
 10
303.7854
 20
83.9767
 10
303.8109
 20
83.8763
 10
303.8292
 20
83.7727
 10
303.8401
 20
83.6661
 10
303.8438
 20
83.5564
  0
LWPOLYLINE
  5
6B
330
1F
100
AcDbEntity
  8
Layer 1
 62
     7
370
    18
100
AcDbPolyline
 90
       89
 70
     1
 43
0.0
 10
303.4811
 20
83.5564
 10
303.4782
 20
83.6402
 10
303.4696
 20
83.7213
 10
303.4552
 20
83.7995
 10
303.4351
 20
83.8751
 10
303.4092
 20
83.9478
 10
303.3776
 20
84.0179
 10
303.3402
 20
84.0851
 10
303.2971
 20
84.1497
 10
303.2484
 20
84.2112
 10
303.1943
 20
84.2693
 10
303.135
 20
84.3239
 10
303.0703
 20
84.3751
 10
303.0004
 20
84.4229
 10
302.9251
 20
84.4672
 10
302.8444
 20
84.508
 10
302.7585
 20
84.5454
 10
302.6673
 20
84.5789
 10
302.571
 20
84.6079
 10
302.4697
 20
84.6324
 10
302.3633
 20
84.6525
 10
302.1354
 20
84.6793
 10
301.8873
 20
84.6882
 10
301.6391
 20
84.6793
 10
301.4113
 20
84.6525
 10
301.3049
 20
84.6324
 10
301.2037
 20
84.6079
 10
301.1075
 20
84.5789
 10
301.0164
 20
84.5454
 10
300.9305
 20
84.508
 10
300.8499
 20
84.4672
 10
300.7745
 20
84.4229
 10
300.7046
 20
84.3751
 10
300.6399
 20
84.3239
 10
300.5805
 20
84.2693
 10
300.5266
 20
84.2112
 10
300.4779
 20
84.1497
 10
300.4347
 20
84.0851
 10
300.3972
 20
84.0179
 10
300.3655
 20
83.9478
 10
300.3396
 20
83.8751
 10
300.3194
 20
83.7995
 10
300.305
 20
83.7213
 10
300.2964
 20
83.6402
 10
300.2935
 20
83.5564
 10
300.2964
 20
83.4751
 10
300.305
 20
83.396
 10
300.3194
 20
83.3192
 10
300.3396
 20
83.2446
 10
300.3655
 20
83.1722
 10
300.3972
 20
83.1021
 10
300.4347
 20
83.0342
 10
300.4779
 20
82.9685
 10
300.5266
 20
82.9057
 10
300.5805
 20
82.8465
 10
300.6399
 20
82.7909
 10
300.7046
 20
82.7389
 10
300.7745
 20
82.6906
 10
300.8499
 20
82.6458
 10
300.9305
 20
82.6047
 10
301.0164
 20
82.5672
 10
301.1075
 20
82.5338
 10
301.2037
 20
82.5048
 10
301.3049
 20
82.4802
 10
301.4113
 20
82.4601
 10
301.6391
 20
82.4333
 10
301.8873
 20
82.4244
 10
302.1354
 20
82.4333
 10
302.3633
 20
82.4601
 10
302.4697
 20
82.4802
 10
302.571
 20
82.5048
 10
302.6673
 20
82.5338
 10
302.7585
 20
82.5672
 10
302.8444
 20
82.6047
 10
302.9251
 20
82.6458
 10
303.0004
 20
82.6906
 10
303.0703
 20
82.7389
 10
303.135
 20
82.7909
 10
303.1943
 20
82.8465
 10
303.2484
 20
82.9057
 10
303.2971
 20
82.9685
 10
303.3402
 20
83.0342
 10
303.3776
 20
83.1021
 10
303.4092
 20
83.1722
 10
303.4351
 20
83.2446
 10
303.4552
 20
83.3192
 10
303.4696
 20
83.396
 10
303.4782
 20
83.4751
 10
303.4811
 20
83.5564
  0
LWPOLYLINE
  5
6C
330
1F
100
AcDbEntity
  8
Layer 1
 62
     7
370
    35
100
AcDbPolyline
 90
       37
 70
     1
 43
0.0
 10
642.4328
 20
228.2179
 10
1088.7442
 20
228.2179
 10
1106.188
 20
226.5308
 10
1122.4616
 20
221.6956
 10
1137.2087
 20
214.0513
 10
1150.0732
 20
203.9369
 10
1160.699
 20
191.6915
 10
1168.7298
 20
177.6542
 10
1173.8095
 20
162.1639
 10
1175.5819
 20
145.5597
 10
1175.5819
 20
-22.4808
 10
1173.8095
 20
-39.0849
 10
1168.7298
 20
-54.5752
 10
1160.699
 20
-68.6126
 10
1150.0732
 20
-80.858
 10
1137.2087
 20
-90.9723
 10
1122.4616
 20
-98.6167
 10
1106.188
 20
-103.4519
 10
1088.7442
 20
-105.139
 10
642.4328
 20
-105.139
 10
624.9894
 20
-103.4519
 10
608.7168
 20
-98.6167
 10
593.9711
 20
-90.9723
 10
581.1081
 20
-80.858
 10
570.4839
 20
-68.6126
 10
562.4545
 20
-54.5752
 10
557.3758
 20
-39.0849
 10
555.6038
 20
-22.4808
 10
555.6038
 20
145.5597
 10
557.3758
 20
162.1639
 10
562.4545
 20
177.6542
 10
570.4839
 20
191.6915
 10
581.1081
 20
203.9369
 10
593.9711
 20
214.0513
 10
608.7168
 20
221.6956
 10
624.9894
 20
226.5308
 10
642.4328
 20
228.2179
  0
LWPOLYLINE
  5
6D
330
1F
100
AcDbEntity
  8
Layer 1
 62
     7
370
    35
100
AcDbPolyline
 90
       33
 70
     1
 43
0.0
 10
865.5926
 20
84.7906
 10
870.5154
 20
84.3182
 10
875.1006
 20
82.9634
 10
879.2498
 20
80.8197
 10
882.8648
 20
77.9805
 10
885.8475
 20
74.5394
 10
888.0996
 20
70.5899
 10
889.5229
 20
66.2254
 10
890.0192
 20
61.5395
 10
889.5229
 20
56.8535
 10
888.0996
 20
52.489
 10
885.8475
 20
48.5395
 10
882.8648
 20
45.0984
 10
879.2498
 20
42.2592
 10
875.1006
 20
40.1155
 10
870.5154
 20
38.7607
 10
865.5926
 20
38.2883
 10
860.6699
 20
38.7607
 10
856.0849
 20
40.1155
 10
851.9358
 20
42.2592
 10
848.3208
 20
45.0984
 10
845.3381
 20
48.5395
 10
843.086
 20
52.489
 10
841.6628
 20
56.8535
 10
841.1665
 20
61.5395
 10
841.6628
 20
66.2254
 10
843.086
 20
70.5899
 10
845.3381
 20
74.5394
 10
848.3208
 20
77.9805
 10
851.9358
 20
80.8197
 10
856.0849
 20
82.9634
 10
860.6699
 20
84.3182
 10
865.5926
 20
84.7906
  0
LWPOLYLINE
  5
6E
330
1F
100
AcDbEntity
  8
Layer 1
 62
     7
370
    35
100
AcDbPolyline
 90
       33
 70
     1
 43
0.0
 10
865.5926
 20
101.2834
 10
874.0061
 20
100.4758
 10
881.8431
 20
98.1596
 10
888.9355
 20
94.4947
 10
895.1153
 20
89.6412
 10
900.2143
 20
83.7589
 10
904.0645
 20
77.0079
 10
906.4979
 20
69.5481
 10
907.3464
 20
61.5395
 10
906.4979
 20
53.5284
 10
904.0645
 20
46.0674
 10
900.2143
 20
39.3162
 10
895.1153
 20
33.4345
 10
888.9355
 20
28.582
 10
881.8431
 20
24.9182
 10
874.0061
 20
22.6029
 10
865.5926
 20
21.7956
 10
857.1766
 20
22.6029
 10
849.3385
 20
24.9182
 10
842.246
 20
28.582
 10
836.0669
 20
33.4345
 10
830.969
 20
39.3162
 10
827.1199
 20
46.0674
 10
824.6874
 20
53.5284
 10
823.8393
 20
61.5395
 10
824.6874
 20
69.5481
 10
827.1199
 20
77.0079
 10
830.969
 20
83.7589
 10
836.0669
 20
89.6412
 10
842.246
 20
94.4947
 10
849.3385
 20
98.1596
 10
857.1766
 20
100.4758
 10
865.5926
 20
101.2834
  0
LWPOLYLINE
  5
6F
330
1F
100
AcDbEntity
  8
Layer 1
 62
     7
370
    35
100
AcDbPolyline
 90
        2
 70
     0
 43
0.0
 10
1175.5819
 20
264.8912
 10
1175.5819
 20
294.8595
  0
LWPOLYLINE
  5
70
330
1F
100
AcDbEntity
  8
Layer 1
 62
     7
370
    35
100
AcDbPolyline
 90
        2
 70
     0
 43
0.0
 10
555.6038
 20
264.8912
 10
555.6038
 20
294.8595
  0
LWPOLYLINE
  5
71
330
1F
100
AcDbEntity
  8
Layer 1
 62
     7
370
    35
100
AcDbPolyline
 90
        2
 70
     0
 43
0.0
 10
924.2654
 20
278.3959
 10
1175.5733
 20
278.3959
  0
LWPOLYLINE
  5
72
330
1F
100
AcDbEntity
  8
Layer 1
 62
     7
370
    35
100
AcDbPolyline
 90
        2
 70
     0
 43
0.0
 10
555.6038
 20
278.3959
 10
807.9032
 20
278.3959
  0
LWPOLYLINE
  5
73
330
1F
100
AcDbEntity
  8
Layer 1
 62
     7
370
    35
100
AcDbPolyline
 90
        2
 70
     0
 43
0.0
 10
517.0683
 20
228.2102
 10
485.5844
 20
228.2102
  0
LWPOLYLINE
  5
74
330
1F
100
AcDbEntity
  8
Layer 1
 62
     7
370
    35
100
AcDbPolyline
 90
        2
 70
     0
 43
0.0
 10
517.0683
 20
-105.139
 10
485.5844
 20
-105.139
  0
LWPOLYLINE
  5
75
330
1F
100
AcDbEntity
  8
Layer 1
 62
     7
370
    35
100
AcDbPolyline
 90
        2
 70
     0
 43
0.0
 10
502.8832
 20
117.602
 10
502.8832
 20
228.2179
  0
LWPOLYLINE
  5
76
330
1F
100
AcDbEntity
  8
Layer 1
 62
     7
370
    35
100
AcDbPolyline
 90
        2
 70
     0
 43
0.0
 10
502.8832
 20
-105.139
 10
502.8832
 20
5.4538
  0
LWPOLYLINE
  5
77
330
1F
100
AcDbEntity
  8
Layer 1
 62
     7
370
    35
100
AcDbPolyline
 90
        2
 70
     0
 43
0.0
 10
948.5914
 20
61.5395
 10
890.0192
 20
61.5395
  0
LWPOLYLINE
  5
78
330
1F
100
AcDbEntity
  8
Layer 1
 62
     7
370
    35
100
AcDbPolyline
 90
        2
 70
     0
 43
0.0
 10
765.4912
 20
61.5395
 10
824.0628
 20
61.5395
  0
LWPOLYLINE
  5
79
330
1F
100
AcDbEntity
  8
Layer 1
 62
     7
370
    35
100
AcDbPolyline
 90
       37
 70
     1
 43
0.0
 10
652.5707
 20
220.6441
 10
1078.6063
 20
220.6441
 10
1095.258
 20
219.0336
 10
1110.7921
 20
214.4179
 10
1124.8687
 20
207.1206
 10
1137.148
 20
197.4653
 10
1147.2901
 20
185.7756
 10
1154.9553
 20
172.375
 10
1159.8036
 20
157.5873
 10
1161.4952
 20
141.7359
 10
1161.4952
 20
-18.6657
 10
1159.8036
 20
-34.5163
 10
1154.9553
 20
-49.3037
 10
1147.2901
 20
-62.7042
 10
1137.148
 20
-74.3941
 10
1124.8687
 20
-84.0497
 10
1110.7921
 20
-91.3474
 10
1095.258
 20
-95.9633
 10
1078.6063
 20
-97.5739
 10
652.5707
 20
-97.5739
 10
635.9188
 20
-95.9633
 10
620.3847
 20
-91.3474
 10
606.308
 20
-84.0497
 10
594.0288
 20
-74.3941
 10
583.8868
 20
-62.7042
 10
576.2217
 20
-49.3037
 10
571.3735
 20
-34.5163
 10
569.6819
 20
-18.6657
 10
569.6819
 20
141.7359
 10
571.3735
 20
157.5873
 10
576.2217
 20
172.375
 10
583.8868
 20
185.7756
 10
594.0288
 20
197.4653
 10
606.308
 20
207.1206
 10
620.3847
 20
214.4179
 10
635.9188
 20
219.0336
 10
652.5707
 20
220.6441
  0
LWPOLYLINE
  5
7A
330
1F
100
AcDbEntity
  8
Layer 1
 62
     7
370
    35
100
AcDbPolyline
 90
       33
 70
     1
 43
0.0
 10
865.5926
 20
83.7294
 10
870.2899
 20
83.2787
 10
874.6654
 20
81.9861
 10
878.6253
 20
79.9406
 10
882.0757
 20
77.2314
 10
884.9227
 20
73.9475
 10
887.0725
 20
70.1782
 10
888.4312
 20
66.0125
 10
888.905
 20
61.5395
 10
888.4312
 20
57.0663
 10
887.0725
 20
52.8999
 10
884.9227
 20
49.1296
 10
882.0757
 20
45.8446
 10
878.6253
 20
43.1343
 10
874.6654
 20
41.0878
 10
870.2899
 20
39.7944
 10
865.5926
 20
39.3435
 10
860.8934
 20
39.7944
 10
856.5164
 20
41.0878
 10
852.5555
 20
43.1343
 10
849.1044
 20
45.8446
 10
846.257
 20
49.1296
 10
844.107
 20
52.8999
 10
842.7482
 20
57.0663
 10
842.2744
 20
61.5395
 10
842.7482
 20
66.0125
 10
844.107
 20
70.1782
 10
846.257
 20
73.9475
 10
849.1044
 20
77.2314
 10
852.5555
 20
79.9406
 10
856.5164
 20
81.9861
 10
860.8934
 20
83.2787
 10
865.5926
 20
83.7294
  0
LWPOLYLINE
  5
7B
330
1F
100
AcDbEntity
  8
Layer 1
 62
     7
370
    35
100
AcDbPolyline
 90
       33
 70
     1
 43
0.0
 10
865.5926
 20
99.4795
 10
873.6249
 20
98.7086
 10
881.1065
 20
96.4977
 10
887.877
 20
92.9995
 10
893.7761
 20
88.3665
 10
898.6435
 20
82.7513
 10
902.3187
 20
76.3067
 10
904.6414
 20
69.1852
 10
905.4513
 20
61.5395
 10
904.6414
 20
53.8938
 10
902.3187
 20
46.7723
 10
898.6435
 20
40.3277
 10
893.7761
 20
34.7125
 10
887.877
 20
30.0795
 10
881.1065
 20
26.5813
 10
873.6249
 20
24.3704
 10
865.5926
 20
23.5995
 10
857.5605
 20
24.3704
 10
850.0791
 20
26.5813
 10
843.3086
 20
30.0795
 10
837.4096
 20
34.7125
 10
832.5423
 20
40.3277
 10
828.8671
 20
46.7723
 10
826.5444
 20
53.8938
 10
825.7345
 20
61.5395
 10
826.5444
 20
69.1852
 10
828.8671
 20
76.3067
 10
832.5423
 20
82.7513
 10
837.4096
 20
88.3665
 10
843.3086
 20
92.9995
 10
850.0791
 20
96.4977
 10
857.5605
 20
98.7086
 10
865.5926
 20
99.4795
  0
LWPOLYLINE
  5
7C
330
1F
100
AcDbEntity
  8
Layer 1
 62
     7
370
    18
100
AcDbPolyline
 90
        9
 70
     1
 43
0.0
 10
506.9965
 20
39.9636
 10
505.3305
 20
39.9636
 10
490.4728
 20
51.2718
 10
490.4728
 20
53.7104
 10
505.3305
 20
42.4932
 10
504.9467
 20
41.3047
 10
504.9467
 20
58.4657
 10
506.9965
 20
58.4657
 10
506.9965
 20
39.9636
  0
LWPOLYLINE
  5
7D
330
1F
100
AcDbEntity
  8
Layer 1
 62
     7
370
    18
100
AcDbPolyline
 90
        7
 70
     1
 43
0.0
 10
512.8887
 20
52.0038
 10
506.9965
 20
52.0038
 10
504.9467
 20
52.0641
 10
499.7602
 20
52.0641
 10
499.7602
 20
54.1976
 10
512.8887
 20
54.1976
 10
512.8887
 20
52.0038
  0
LWPOLYLINE
  5
7E
330
1F
100
AcDbEntity
  8
Layer 1
 62
     7
370
    18
100
AcDbPolyline
 90
       97
 70
     1
 43
0.0
 10
513.0813
 20
68.9815
 10
513.06
 20
68.3728
 10
512.9962
 20
67.7812
 10
512.8899
 20
67.2069
 10
512.741
 20
66.6497
 10
512.5496
 20
66.1097
 10
512.3157
 20
65.5869
 10
512.0393
 20
65.0813
 10
511.7203
 20
64.5929
 10
511.3615
 20
64.1255
 10
510.9657
 20
63.6839
 10
510.5328
 20
63.2681
 10
510.0628
 20
62.8781
 10
509.5557
 20
62.5138
 10
509.0116
 20
62.1751
 10
508.4303
 20
61.8621
 10
507.812
 20
61.5748
 10
507.1594
 20
61.3178
 10
506.4743
 20
61.095
 10
505.7567
 20
60.9064
 10
505.0066
 20
60.752
 10
504.224
 20
60.6319
 10
503.4088
 20
60.546
 10
502.561
 20
60.4945
 10
501.6807
 20
60.4773
 10
500.8004
 20
60.4945
 10
499.9526
 20
60.546
 10
499.1374
 20
60.6319
 10
498.3546
 20
60.752
 10
497.6044
 20
60.9064
 10
496.8866
 20
61.095
 10
496.2011
 20
61.3178
 10
495.5481
 20
61.5748
 10
494.9302
 20
61.8621
 10
494.3493
 20
62.1751
 10
493.8054
 20
62.5138
 10
493.2985
 20
62.8781
 10
492.8286
 20
63.2681
 10
492.3957
 20
63.6839
 10
491.9999
 20
64.1255
 10
491.6411
 20
64.5929
 10
491.3226
 20
65.0813
 10
491.0464
 20
65.5869
 10
490.8128
 20
66.1097
 10
490.6216
 20
66.6497
 10
490.4728
 20
67.2069
 10
490.3665
 20
67.7812
 10
490.3028
 20
68.3728
 10
490.2815
 20
68.9815
 10
490.3028
 20
69.5903
 10
490.3665
 20
70.1819
 10
490.4728
 20
70.7563
 10
490.6216
 20
71.3136
 10
490.8128
 20
71.8537
 10
491.0464
 20
72.3767
 10
491.3226
 20
72.8827
 10
491.6411
 20
73.3715
 10
491.9999
 20
73.8387
 10
492.3957
 20
74.2808
 10
492.8286
 20
74.6978
 10
493.2985
 20
75.0895
 10
493.8054
 20
75.456
 10
494.3493
 20
75.7974
 10
494.9302
 20
76.1135
 10
495.5481
 20
76.4043
 10
496.2011
 20
76.6648
 10
496.8866
 20
76.8906
 10
497.6044
 20
77.0817
 10
498.3546
 20
77.2382
 10
499.1374
 20
77.3599
 10
499.9526
 20
77.4469
 10
500.8004
 20
77.4991
 10
501.6807
 20
77.5165
 10
502.561
 20
77.4991
 10
503.4088
 20
77.4469
 10
504.224
 20
77.3599
 10
505.0066
 20
77.2382
 10
505.7567
 20
77.0817
 10
506.4743
 20
76.8906
 10
507.1594
 20
76.6648
 10
507.812
 20
76.4043
 10
508.4303
 20
76.1135
 10
509.0116
 20
75.7974
 10
509.5557
 20
75.456
 10
510.0628
 20
75.0895
 10
510.5328
 20
74.6978
 10
510.9657
 20
74.2808
 10
511.3615
 20
73.8387
 10
511.7203
 20
73.3715
 10
512.0393
 20
72.8827
 10
512.3157
 20
72.3767
 10
512.5496
 20
71.8537
 10
512.741
 20
71.3136
 10
512.8899
 20
70.7563
 10
512.9962
 20
70.1819
 10
513.06
 20
69.5903
 10
513.0813
 20
68.9815
  0
LWPOLYLINE
  5
7F
330
1F
100
AcDbEntity
  8
Layer 1
 62
     7
370
    18
100
AcDbPolyline
 90
       97
 70
     1
 43
0.0
 10
510.9681
 20
68.9815
 10
510.9513
 20
69.4464
 10
510.901
 20
69.896
 10
510.8171
 20
70.3304
 10
510.6998
 20
70.7496
 10
510.5489
 20
71.1535
 10
510.3645
 20
71.5422
 10
510.1467
 20
71.9157
 10
509.8954
 20
72.274
 10
509.6114
 20
72.6151
 10
509.2964
 20
72.937
 10
508.9504
 20
73.2399
 10
508.5734
 20
73.5237
 10
508.1655
 20
73.7885
 10
507.7266
 20
74.0343
 10
507.2568
 20
74.2611
 10
506.7561
 20
74.4689
 10
506.2248
 20
74.6545
 10
505.6641
 20
74.8154
 10
505.074
 20
74.9516
 10
504.4545
 20
75.0631
 10
503.8054
 20
75.1498
 10
503.1268
 20
75.2117
 10
502.4186
 20
75.2489
 10
501.6807
 20
75.2613
 10
500.9432
 20
75.2489
 10
500.2352
 20
75.2117
 10
499.5566
 20
75.1498
 10
498.9075
 20
75.0631
 10
498.2878
 20
74.9516
 10
497.6976
 20
74.8154
 10
497.1368
 20
74.6545
 10
496.6054
 20
74.4689
 10
496.1043
 20
74.2611
 10
495.6343
 20
74.0343
 10
495.1955
 20
73.7885
 10
494.7877
 20
73.5237
 10
494.411
 20
73.2399
 10
494.0654
 20
72.937
 10
493.7508
 20
72.6151
 10
493.4673
 20
72.274
 10
493.2156
 20
71.9157
 10
492.9976
 20
71.5422
 10
492.8132
 20
71.1535
 10
492.6625
 20
70.7496
 10
492.5452
 20
70.3304
 10
492.4615
 20
69.896
 10
492.4113
 20
69.4464
 10
492.3946
 20
68.9815
 10
492.4113
 20
68.5305
 10
492.4615
 20
68.092
 10
492.5452
 20
67.6658
 10
492.6625
 20
67.252
 10
492.8132
 20
66.8505
 10
492.9976
 20
66.4614
 10
493.2156
 20
66.0845
 10
493.4673
 20
65.7199
 10
493.7508
 20
65.3718
 10
494.0654
 20
65.0437
 10
494.411
 20
64.7356
 10
494.7877
 20
64.4475
 10
495.1955
 20
64.1794
 10
495.6343
 20
63.9314
 10
496.1043
 20
63.7034
 10
496.6054
 20
63.4954
 10
497.1368
 20
63.3094
 10
497.6976
 20
63.1484
 10
498.2878
 20
63.0122
 10
498.9075
 20
62.9008
 10
499.5566
 20
62.8142
 10
500.2352
 20
62.7524
 10
500.9432
 20
62.7153
 10
501.6807
 20
62.703
 10
502.4186
 20
62.7153
 10
503.1268
 20
62.7524
 10
503.8054
 20
62.8142
 10
504.4545
 20
62.9008
 10
505.074
 20
63.0122
 10
505.6641
 20
63.1484
 10
506.2248
 20
63.3094
 10
506.7561
 20
63.4954
 10
507.2568
 20
63.7034
 10
507.7266
 20
63.9314
 10
508.1655
 20
64.1794
 10
508.5734
 20
64.4475
 10
508.9504
 20
64.7356
 10
509.2964
 20
65.0437
 10
509.6114
 20
65.3718
 10
509.8954
 20
65.7199
 10
510.1467
 20
66.0845
 10
510.3645
 20
66.4614
 10
510.5489
 20
66.8505
 10
510.6998
 20
67.252
 10
510.8171
 20
67.6658
 10
510.901
 20
68.092
 10
510.9513
 20
68.5305
 10
510.9681
 20
68.9815
  0
LWPOLYLINE
  5
80
330
1F
100
AcDbEntity
  8
Layer 1
 62
     7
370
    18
100
AcDbPolyline
 90
       97
 70
     1
 43
0.0
 10
513.0813
 20
89.1594
 10
513.06
 20
88.5507
 10
512.9962
 20
87.9591
 10
512.8899
 20
87.3848
 10
512.741
 20
86.8276
 10
512.5496
 20
86.2876
 10
512.3157
 20
85.7648
 10
512.0393
 20
85.2591
 10
511.7203
 20
84.7707
 10
511.3615
 20
84.3033
 10
510.9657
 20
83.8617
 10
510.5328
 20
83.4459
 10
510.0628
 20
83.0559
 10
509.5557
 20
82.6916
 10
509.0116
 20
82.3529
 10
508.4303
 20
82.0399
 10
507.812
 20
81.7526
 10
507.1594
 20
81.4956
 10
506.4743
 20
81.2728
 10
505.7567
 20
81.0842
 10
505.0066
 20
80.9299
 10
504.224
 20
80.8097
 10
503.4088
 20
80.7239
 10
502.561
 20
80.6724
 10
501.6807
 20
80.6552
 10
500.8004
 20
80.6724
 10
499.9526
 20
80.7239
 10
499.1374
 20
80.8097
 10
498.3546
 20
80.9299
 10
497.6044
 20
81.0842
 10
496.8866
 20
81.2728
 10
496.2011
 20
81.4956
 10
495.5481
 20
81.7526
 10
494.9302
 20
82.0399
 10
494.3493
 20
82.3529
 10
493.8054
 20
82.6916
 10
493.2985
 20
83.0559
 10
492.8286
 20
83.4459
 10
492.3957
 20
83.8617
 10
491.9999
 20
84.3033
 10
491.6411
 20
84.7707
 10
491.3226
 20
85.2591
 10
491.0464
 20
85.7648
 10
490.8128
 20
86.2876
 10
490.6216
 20
86.8276
 10
490.4728
 20
87.3848
 10
490.3665
 20
87.9591
 10
490.3028
 20
88.5507
 10
490.2815
 20
89.1594
 10
490.3028
 20
89.7681
 10
490.3665
 20
90.3597
 10
490.4728
 20
90.9341
 10
490.6216
 20
91.4914
 10
490.8128
 20
92.0315
 10
491.0464
 20
92.5545
 10
491.3226
 20
93.0605
 10
491.6411
 20
93.5493
 10
491.9999
 20
94.0166
 10
492.3957
 20
94.4587
 10
492.8286
 20
94.8756
 10
493.2985
 20
95.2673
 10
493.8054
 20
95.6339
 10
494.3493
 20
95.9752
 10
494.9302
 20
96.2913
 10
495.5481
 20
96.5821
 10
496.2011
 20
96.8426
 10
496.8866
 20
97.0684
 10
497.6044
 20
97.2595
 10
498.3546
 20
97.416
 10
499.1374
 20
97.5378
 10
499.9526
 20
97.6248
 10
500.8004
 20
97.677
 10
501.6807
 20
97.6944
 10
502.561
 20
97.677
 10
503.4088
 20
97.6248
 10
504.224
 20
97.5378
 10
505.0066
 20
97.416
 10
505.7567
 20
97.2595
 10
506.4743
 20
97.0684
 10
507.1594
 20
96.8426
 10
507.812
 20
96.5821
 10
508.4303
 20
96.2913
 10
509.0116
 20
95.9752
 10
509.5557
 20
95.6339
 10
510.0628
 20
95.2673
 10
510.5328
 20
94.8756
 10
510.9657
 20
94.4587
 10
511.3615
 20
94.0166
 10
511.7203
 20
93.5493
 10
512.0393
 20
93.0605
 10
512.3157
 20
92.5545
 10
512.5496
 20
92.0315
 10
512.741
 20
91.4914
 10
512.8899
 20
90.9341
 10
512.9962
 20
90.3597
 10
513.06
 20
89.7681
 10
513.0813
 20
89.1594
  0
LWPOLYLINE
  5
81
330
1F
100
AcDbEntity
  8
Layer 1
 62
     7
370
    18
100
AcDbPolyline
 90
       97
 70
     1
 43
0.0
 10
510.9681
 20
89.1594
 10
510.9513
 20
89.6242
 10
510.901
 20
90.0739
 10
510.8171
 20
90.5083
 10
510.6998
 20
90.9274
 10
510.5489
 20
91.3314
 10
510.3645
 20
91.7201
 10
510.1467
 20
92.0936
 10
509.8954
 20
92.4518
 10
509.6114
 20
92.7929
 10
509.2964
 20
93.1149
 10
508.9504
 20
93.4177
 10
508.5734
 20
93.7016
 10
508.1655
 20
93.9663
 10
507.7266
 20
94.2121
 10
507.2568
 20
94.4389
 10
506.7561
 20
94.6468
 10
506.2248
 20
94.8324
 10
505.6641
 20
94.9933
 10
505.074
 20
95.1294
 10
504.4545
 20
95.2409
 10
503.8054
 20
95.3276
 10
503.1268
 20
95.3895
 10
502.4186
 20
95.4267
 10
501.6807
 20
95.4391
 10
500.9432
 20
95.4267
 10
500.2352
 20
95.3895
 10
499.5566
 20
95.3276
 10
498.9075
 20
95.2409
 10
498.2878
 20
95.1294
 10
497.6976
 20
94.9933
 10
497.1368
 20
94.8324
 10
496.6054
 20
94.6468
 10
496.1043
 20
94.4389
 10
495.6343
 20
94.2121
 10
495.1955
 20
93.9663
 10
494.7877
 20
93.7016
 10
494.411
 20
93.4177
 10
494.0654
 20
93.1149
 10
493.7508
 20
92.7929
 10
493.4673
 20
92.4518
 10
493.2156
 20
92.0936
 10
492.9976
 20
91.7201
 10
492.8132
 20
91.3314
 10
492.6625
 20
90.9274
 10
492.5452
 20
90.5083
 10
492.4615
 20
90.0739
 10
492.4113
 20
89.6242
 10
492.3946
 20
89.1594
 10
492.4113
 20
88.7084
 10
492.4615
 20
88.2698
 10
492.5452
 20
87.8436
 10
492.6625
 20
87.4298
 10
492.8132
 20
87.0283
 10
492.9976
 20
86.6392
 10
493.2156
 20
86.2623
 10
493.4673
 20
85.8977
 10
493.7508
 20
85.5497
 10
494.0654
 20
85.2216
 10
494.411
 20
84.9135
 10
494.7877
 20
84.6254
 10
495.1955
 20
84.3573
 10
495.6343
 20
84.1092
 10
496.1043
 20
83.8812
 10
496.6054
 20
83.6732
 10
497.1368
 20
83.4873
 10
497.6976
 20
83.3262
 10
498.2878
 20
83.19
 10
498.9075
 20
83.0787
 10
499.5566
 20
82.9921
 10
500.2352
 20
82.9303
 10
500.9432
 20
82.8932
 10
501.6807
 20
82.8809
 10
502.4186
 20
82.8932
 10
503.1268
 20
82.9303
 10
503.8054
 20
82.9921
 10
504.4545
 20
83.0787
 10
505.074
 20
83.19
 10
505.6641
 20
83.3262
 10
506.2248
 20
83.4873
 10
506.7561
 20
83.6732
 10
507.2568
 20
83.8812
 10
507.7266
 20
84.1092
 10
508.1655
 20
84.3573
 10
508.5734
 20
84.6254
 10
508.9504
 20
84.9135
 10
509.2964
 20
85.2216
 10
509.6114
 20
85.5497
 10
509.8954
 20
85.8977
 10
510.1467
 20
86.2623
 10
510.3645
 20
86.6392
 10
510.5489
 20
87.0283
 10
510.6998
 20
87.4298
 10
510.8171
 20
87.8436
 10
510.901
 20
88.2698
 10
510.9513
 20
88.7084
 10
510.9681
 20
89.1594
  0
LWPOLYLINE
  5
82
330
1F
100
AcDbEntity
  8
Layer 1
 62
     7
370
    18
100
AcDbPolyline
 90
       12
 70
     1
 43
0.0
 10
782.213
 20
74.2056
 10
791.8533
 20
94.5004
 10
792.555
 20
93.5284
 10
778.7351
 20
93.5284
 10
779.9151
 20
94.5914
 10
779.9151
 20
89.5482
 10
777.6494
 20
89.5482
 10
777.6494
 20
95.4723
 10
794.0543
 20
95.4723
 10
794.0543
 20
93.9233
 10
784.7035
 20
74.2056
 10
782.213
 20
74.2056
  0
LWPOLYLINE
  5
83
330
1F
100
AcDbEntity
  8
Layer 1
 62
     7
370
    18
100
AcDbPolyline
 90
      131
 70
     1
 43
0.0
 10
803.5342
 20
74.0235
 10
802.9396
 20
74.0352
 10
802.3519
 20
74.0701
 10
801.7711
 20
74.1283
 10
801.1972
 20
74.2098
 10
800.6302
 20
74.3145
 10
800.0701
 20
74.4424
 10
799.517
 20
74.5936
 10
798.9707
 20
74.7679
 10
798.4423
 20
74.9617
 10
797.9417
 20
75.1711
 10
797.4691
 20
75.3963
 10
797.0243
 20
75.6371
 10
796.6074
 20
75.8937
 10
796.2183
 20
76.1659
 10
795.8571
 20
76.4538
 10
795.5238
 20
76.7574
 10
796.6417
 20
78.4897
 10
796.9171
 20
78.2296
 10
797.217
 20
77.9809
 10
797.5413
 20
77.7435
 10
797.8901
 20
77.5175
 10
798.2632
 20
77.3029
 10
798.6608
 20
77.0997
 10
799.0827
 20
76.908
 10
799.529
 20
76.7279
 10
799.9927
 20
76.564
 10
800.4658
 20
76.422
 10
800.9484
 20
76.3018
 10
801.4403
 20
76.2036
 10
801.9417
 20
76.1272
 10
802.4524
 20
76.0726
 10
802.9725
 20
76.0399
 10
803.5019
 20
76.029
 10
804.1912
 20
76.0477
 10
804.8379
 20
76.104
 10
805.4421
 20
76.1977
 10
806.0039
 20
76.3289
 10
806.5232
 20
76.4976
 10
807.0
 20
76.7038
 10
807.4344
 20
76.9475
 10
807.8264
 20
77.2286
 10
808.1749
 20
77.5402
 10
808.4768
 20
77.875
 10
808.7323
 20
78.2332
 10
808.9413
 20
78.6146
 10
809.1038
 20
79.0194
 10
809.2199
 20
79.4474
 10
809.2895
 20
79.8988
 10
809.3127
 20
80.3734
 10
809.302
 20
80.7089
 10
809.2698
 20
81.0327
 10
809.2162
 20
81.3447
 10
809.1411
 20
81.6448
 10
809.0446
 20
81.9332
 10
808.9266
 20
82.2097
 10
808.7872
 20
82.4743
 10
808.6264
 20
82.7271
 10
808.4397
 20
82.9671
 10
808.2236
 20
83.1933
 10
807.9782
 20
83.4058
 10
807.7035
 20
83.6045
 10
807.3993
 20
83.7894
 10
807.0657
 20
83.9605
 10
806.7028
 20
84.1178
 10
806.3104
 20
84.2613
 10
805.8848
 20
84.3898
 10
805.4212
 20
84.501
 10
804.9197
 20
84.5952
 10
804.3803
 20
84.6721
 10
803.8028
 20
84.7319
 10
803.1874
 20
84.7747
 10
802.5339
 20
84.8003
 10
801.8424
 20
84.8088
 10
797.0876
 20
84.8088
 10
798.2366
 20
95.4723
 10
810.4617
 20
95.4723
 10
810.4617
 20
93.5284
 10
799.1619
 20
93.5284
 10
800.3432
 20
94.5914
 10
799.3532
 20
85.659
 10
798.1732
 20
86.7528
 10
802.3542
 20
86.7528
 10
803.179
 20
86.7405
 10
803.9618
 20
86.7034
 10
804.7028
 20
86.6417
 10
805.4018
 20
86.5553
 10
806.0588
 20
86.4442
 10
806.674
 20
86.3085
 10
807.2473
 20
86.148
 10
807.7786
 20
85.9629
 10
808.2721
 20
85.7557
 10
808.73
 20
85.529
 10
809.1524
 20
85.2828
 10
809.5392
 20
85.0172
 10
809.8905
 20
84.7322
 10
810.2064
 20
84.4277
 10
810.4868
 20
84.1039
 10
810.7318
 20
83.7606
 10
810.9453
 20
83.3998
 10
811.1302
 20
83.0244
 10
811.2866
 20
82.6344
 10
811.4145
 20
82.2297
 10
811.514
 20
81.8104
 10
811.5849
 20
81.3764
 10
811.6275
 20
80.9278
 10
811.6417
 20
80.4645
 10
811.6278
 20
80.0211
 10
811.5859
 20
79.5878
 10
811.5162
 20
79.1646
 10
811.4186
 20
78.7514
 10
811.293
 20
78.3481
 10
811.1395
 20
77.9548
 10
810.958
 20
77.5714
 10
810.7486
 20
77.1979
 10
810.5112
 20
76.8394
 10
810.2458
 20
76.5003
 10
809.9524
 20
76.1806
 10
809.6311
 20
75.8803
 10
809.2819
 20
75.5994
 10
808.9048
 20
75.3381
 10
808.4997
 20
75.0961
 10
808.0668
 20
74.8737
 10
807.605
 20
74.6743
 10
807.1132
 20
74.5016
 10
806.5916
 20
74.3554
 10
806.0399
 20
74.2359
 10
805.4584
 20
74.143
 10
804.8469
 20
74.0766
 10
804.2055
 20
74.0368
 10
803.5342
 20
74.0235
  0
LWPOLYLINE
  5
84
330
1F
100
AcDbEntity
  8
Layer 1
 62
     7
370
    18
100
AcDbPolyline
 90
      187
 70
     1
 43
0.0
 10
850.1522
 20
268.6906
 10
849.4247
 20
268.7103
 10
848.7261
 20
268.7693
 10
848.0564
 20
268.8677
 10
847.4157
 20
269.0056
 10
846.8038
 20
269.1828
 10
846.2208
 20
269.3996
 10
845.6667
 20
269.6559
 10
845.1414
 20
269.9517
 10
844.6465
 20
270.2844
 10
844.1823
 20
270.6521
 10
843.749
 20
271.055
 10
843.3466
 20
271.493
 10
842.975
 20
271.9662
 10
842.6344
 20
272.4746
 10
842.3248
 20
273.0183
 10
842.0461
 20
273.5972
 10
841.7993
 20
274.2083
 10
841.5852
 20
274.8494
 10
841.404
 20
275.5204
 10
841.2556
 20
276.2213
 10
841.1401
 20
276.952
 10
841.0575
 20
277.7127
 10
841.0079
 20
278.5031
 10
840.9914
 20
279.3233
 10
841.0116
 20
280.2089
 10
841.0723
 20
281.0579
 10
841.1735
 20
281.8704
 10
841.315
 20
282.6464
 10
841.497
 20
283.3858
 10
841.7193
 20
284.0888
 10
841.9821
 20
284.7553
 10
842.2852
 20
285.3853
 10
842.6241
 20
285.9779
 10
842.9945
 20
286.533
 10
843.3962
 20
287.0506
 10
843.8293
 20
287.5307
 10
844.2938
 20
287.9733
 10
844.7896
 20
288.3785
 10
845.3169
 20
288.7461
 10
845.8755
 20
289.0763
 10
846.4614
 20
289.3682
 10
847.0702
 20
289.6212
 10
847.7021
 20
289.8353
 10
848.3569
 20
290.0103
 10
849.0346
 20
290.1465
 10
849.7353
 20
290.2437
 10
850.459
 20
290.3021
 10
851.2055
 20
290.3215
 10
851.5786
 20
290.3172
 10
851.9476
 20
290.3044
 10
852.3125
 20
290.2831
 10
852.6734
 20
290.2532
 10
853.0303
 20
290.2148
 10
853.3832
 20
290.1678
 10
853.7322
 20
290.1123
 10
854.0773
 20
290.0483
 10
854.4159
 20
289.9748
 10
854.7444
 20
289.8908
 10
855.0629
 20
289.7963
 10
855.3713
 20
289.6914
 10
855.6697
 20
289.576
 10
855.958
 20
289.4502
 10
856.2363
 20
289.314
 10
856.5045
 20
289.1674
 10
855.5791
 20
287.4055
 10
855.3595
 20
287.5371
 10
855.132
 20
287.6588
 10
854.8965
 20
287.7705
 10
854.6531
 20
287.8723
 10
854.4016
 20
287.9641
 10
854.1422
 20
288.0459
 10
853.8747
 20
288.1176
 10
853.5991
 20
288.1794
 10
853.3179
 20
288.233
 10
853.0328
 20
288.2795
 10
852.7436
 20
288.3189
 10
852.4503
 20
288.3511
 10
852.153
 20
288.3761
 10
851.8516
 20
288.394
 10
851.5461
 20
288.4047
 10
851.2365
 20
288.4083
 10
850.3578
 20
288.3741
 10
849.5244
 20
288.2715
 10
848.7365
 20
288.1006
 10
847.9938
 20
287.8613
 10
847.2965
 20
287.5536
 10
846.6445
 20
287.1776
 10
846.0377
 20
286.7333
 10
845.4762
 20
286.2207
 10
844.9714
 20
285.6399
 10
844.534
 20
284.9918
 10
844.1639
 20
284.2764
 10
843.8611
 20
283.4936
 10
843.6257
 20
282.6435
 10
843.4575
 20
281.726
 10
843.3566
 20
280.7411
 10
843.323
 20
279.6887
 10
843.3242
 20
279.5167
 10
843.3279
 20
279.3346
 10
843.334
 20
279.1425
 10
843.3425
 20
278.9405
 10
843.3536
 20
278.7285
 10
843.3671
 20
278.5065
 10
843.3832
 20
278.2746
 10
843.4018
 20
278.0327
 10
843.4253
 20
277.7861
 10
843.4552
 20
277.5399
 10
843.4914
 20
277.2942
 10
843.534
 20
277.049
 10
843.583
 20
276.8042
 10
843.6385
 20
276.5599
 10
843.7004
 20
276.3161
 10
843.7689
 20
276.0727
 10
842.9715
 20
276.6497
 10
843.0697
 20
277.0373
 10
843.1889
 20
277.4103
 10
843.329
 20
277.7686
 10
843.4901
 20
278.1122
 10
843.6721
 20
278.4411
 10
843.8751
 20
278.7552
 10
844.0991
 20
279.0546
 10
844.344
 20
279.3393
 10
844.6074
 20
279.6082
 10
844.8866
 20
279.8605
 10
845.1817
 20
280.096
 10
845.4928
 20
280.315
 10
845.8198
 20
280.5173
 10
846.1628
 20
280.703
 10
846.5217
 20
280.8722
 10
846.8966
 20
281.0249
 10
847.284
 20
281.1603
 10
847.6805
 20
281.2775
 10
848.086
 20
281.3767
 10
848.5005
 20
281.4578
 10
848.9239
 20
281.5209
 10
849.3563
 20
281.5659
 10
849.7976
 20
281.5929
 10
850.2478
 20
281.6019
 10
850.7977
 20
281.5896
 10
851.3308
 20
281.5525
 10
851.8469
 20
281.4908
 10
852.3462
 20
281.4044
 10
852.8286
 20
281.2933
 10
853.2941
 20
281.1576
 10
853.7426
 20
280.9971
 10
854.1742
 20
280.812
 10
854.5858
 20
280.6046
 10
854.9744
 20
280.3772
 10
855.34
 20
280.1299
 10
855.6827
 20
279.8626
 10
856.0023
 20
279.5755
 10
856.2991
 20
279.2685
 10
856.5728
 20
278.9416
 10
856.8237
 20
278.5949
 10
857.0482
 20
278.2297
 10
857.2427
 20
277.8484
 10
857.4073
 20
277.451
 10
857.542
 20
277.0374
 10
857.6467
 20
276.6078
 10
857.7215
 20
276.1621
 10
857.7664
 20
275.7003
 10
857.7814
 20
275.2225
 10
857.7659
 20
274.7367
 10
857.7194
 20
274.2665
 10
857.6419
 20
273.812
 10
857.5336
 20
273.3731
 10
857.3943
 20
272.9499
 10
857.2241
 20
272.5423
 10
857.0232
 20
272.1502
 10
856.7914
 20
271.7738
 10
856.5325
 20
271.416
 10
856.2501
 20
271.079
 10
855.9441
 20
270.7628
 10
855.6147
 20
270.4675
 10
855.2617
 20
270.193
 10
854.8852
 20
269.9395
 10
854.4853
 20
269.7068
 10
854.0618
 20
269.4952
 10
853.6203
 20
269.3066
 10
853.1652
 20
269.1432
 10
852.6966
 20
269.0049
 10
852.2146
 20
268.8918
 10
851.7191
 20
268.8037
 10
851.2102
 20
268.7409
 10
850.6879
 20
268.7032
 10
850.1522
 20
268.6906
  0
LWPOLYLINE
  5
85
330
1F
100
AcDbEntity
  8
Layer 1
 62
     7
370
    18
100
AcDbPolyline
 90
       89
 70
     1
 43
0.0
 10
850.0566
 20
270.5435
 10
850.4497
 20
270.5523
 10
850.8313
 20
270.5786
 10
851.2014
 20
270.6225
 10
851.5601
 20
270.6839
 10
851.9074
 20
270.763
 10
852.2432
 20
270.8596
 10
852.5675
 20
270.9739
 10
852.8805
 20
271.1058
 10
853.1796
 20
271.2537
 10
853.4623
 20
271.4169
 10
853.7286
 20
271.5954
 10
853.9784
 20
271.7892
 10
854.2118
 20
271.9982
 10
854.4286
 20
272.2224
 10
854.6289
 20
272.4618
 10
854.8127
 20
272.7163
 10
854.9772
 20
272.9838
 10
855.1198
 20
273.2621
 10
855.2404
 20
273.5513
 10
855.3391
 20
273.8514
 10
855.4158
 20
274.1624
 10
855.4706
 20
274.4844
 10
855.5035
 20
274.8172
 10
855.5145
 20
275.161
 10
855.4908
 20
275.6719
 10
855.4197
 20
276.1562
 10
855.3012
 20
276.614
 10
855.1353
 20
277.0452
 10
854.922
 20
277.4498
 10
854.6612
 20
277.8278
 10
854.3529
 20
278.1791
 10
853.9972
 20
278.5039
 10
853.6015
 20
278.7958
 10
853.1725
 20
279.0488
 10
852.7101
 20
279.2628
 10
852.2143
 20
279.4379
 10
851.685
 20
279.574
 10
851.1223
 20
279.6712
 10
850.5261
 20
279.7296
 10
849.8963
 20
279.749
 10
849.4725
 20
279.7395
 10
849.0626
 20
279.711
 10
848.6668
 20
279.6634
 10
848.285
 20
279.5969
 10
847.917
 20
279.5114
 10
847.563
 20
279.4069
 10
847.2229
 20
279.2835
 10
846.8966
 20
279.1412
 10
846.5861
 20
278.9825
 10
846.2925
 20
278.8099
 10
846.0158
 20
278.6236
 10
845.756
 20
278.4234
 10
845.5132
 20
278.2095
 10
845.2874
 20
277.9818
 10
845.0786
 20
277.7403
 10
844.8868
 20
277.4851
 10
844.7146
 20
277.2189
 10
844.5655
 20
276.9435
 10
844.4393
 20
276.659
 10
844.3361
 20
276.3654
 10
844.2558
 20
276.0627
 10
844.1985
 20
275.751
 10
844.1642
 20
275.4303
 10
844.1527
 20
275.1007
 10
844.1631
 20
274.8139
 10
844.1944
 20
274.5304
 10
844.2466
 20
274.2502
 10
844.3198
 20
273.9732
 10
844.4138
 20
273.6995
 10
844.5289
 20
273.4292
 10
844.665
 20
273.1621
 10
844.8222
 20
272.8984
 10
845.0001
 20
272.6425
 10
845.1983
 20
272.3989
 10
845.417
 20
272.1677
 10
845.6562
 20
271.9488
 10
845.9157
 20
271.7423
 10
846.1959
 20
271.5481
 10
846.4965
 20
271.3663
 10
846.8177
 20
271.1968
 10
847.158
 20
271.0437
 10
847.5166
 20
270.911
 10
847.8937
 20
270.7987
 10
848.2893
 20
270.7068
 10
848.7034
 20
270.6354
 10
849.1359
 20
270.5843
 10
849.587
 20
270.5537
 10
850.0566
 20
270.5435
  0
LWPOLYLINE
  5
86
330
1F
100
AcDbEntity
  8
Layer 1
 62
     7
370
    18
100
AcDbPolyline
 90
      187
 70
     1
 43
0.0
 10
867.388
 20
290.3215
 10
868.1156
 20
290.3018
 10
868.8142
 20
290.2428
 10
869.4839
 20
290.1444
 10
870.1246
 20
290.0065
 10
870.7365
 20
289.8292
 10
871.3195
 20
289.6124
 10
871.8736
 20
289.3561
 10
872.3988
 20
289.0603
 10
872.8937
 20
288.7279
 10
873.3579
 20
288.3608
 10
873.7912
 20
287.9592
 10
874.1937
 20
287.5229
 10
874.5652
 20
287.0519
 10
874.9058
 20
286.5462
 10
875.2155
 20
286.0059
 10
875.4942
 20
285.4308
 10
875.741
 20
284.8227
 10
875.9549
 20
284.1832
 10
876.1359
 20
283.5124
 10
876.284
 20
282.8103
 10
876.3993
 20
282.0768
 10
876.4816
 20
281.3121
 10
876.531
 20
280.516
 10
876.5475
 20
279.6887
 10
876.5273
 20
278.8098
 10
876.4668
 20
277.9661
 10
876.3659
 20
277.1576
 10
876.2246
 20
276.3843
 10
876.0428
 20
275.6461
 10
875.8207
 20
274.9431
 10
875.5581
 20
274.2753
 10
875.2551
 20
273.6427
 10
874.9161
 20
273.0463
 10
874.5458
 20
272.4879
 10
874.144
 20
271.9675
 10
873.7109
 20
271.4852
 10
873.2464
 20
271.0408
 10
872.7506
 20
270.6345
 10
872.2233
 20
270.2661
 10
871.6647
 20
269.9357
 10
871.0789
 20
269.6438
 10
870.47
 20
269.3908
 10
869.8382
 20
269.1768
 10
869.1833
 20
269.0017
 10
868.5053
 20
268.8656
 10
867.8044
 20
268.7684
 10
867.0804
 20
268.71
 10
866.3334
 20
268.6906
 10
865.961
 20
268.6949
 10
865.5929
 20
268.7077
 10
865.2292
 20
268.729
 10
864.8699
 20
268.7589
 10
864.515
 20
268.7973
 10
864.1646
 20
268.8442
 10
863.8186
 20
268.8997
 10
863.4771
 20
268.9637
 10
863.1425
 20
269.0372
 10
862.8163
 20
269.1212
 10
862.4985
 20
269.2157
 10
862.1891
 20
269.3206
 10
861.888
 20
269.436
 10
861.5955
 20
269.5618
 10
861.3114
 20
269.698
 10
861.0357
 20
269.8446
 10
861.9611
 20
271.6065
 10
862.181
 20
271.4749
 10
862.4092
 20
271.3532
 10
862.6459
 20
271.2415
 10
862.8911
 20
271.1397
 10
863.1446
 20
271.0479
 10
863.4068
 20
270.9661
 10
863.6774
 20
270.8944
 10
863.9566
 20
270.8326
 10
864.2409
 20
270.779
 10
864.5278
 20
270.7327
 10
864.8172
 20
270.6935
 10
865.1091
 20
270.6616
 10
865.4036
 20
270.6368
 10
865.7007
 20
270.6191
 10
866.0003
 20
270.6085
 10
866.3024
 20
270.605
 10
867.1816
 20
270.6391
 10
868.0153
 20
270.7416
 10
868.8035
 20
270.9124
 10
869.5463
 20
271.1514
 10
870.2437
 20
271.4589
 10
870.8957
 20
271.8346
 10
871.5025
 20
272.2788
 10
872.0641
 20
272.7913
 10
872.5688
 20
273.3721
 10
873.0063
 20
274.0202
 10
873.3763
 20
274.7356
 10
873.6791
 20
275.5184
 10
873.9145
 20
276.3685
 10
874.0827
 20
277.286
 10
874.1836
 20
278.2709
 10
874.2172
 20
279.3233
 10
874.216
 20
279.5024
 10
874.2123
 20
279.6901
 10
874.2062
 20
279.8863
 10
874.1977
 20
280.0911
 10
874.1866
 20
280.3043
 10
874.1731
 20
280.5262
 10
874.157
 20
280.7565
 10
874.1384
 20
280.9954
 10
874.1153
 20
281.2381
 10
874.0856
 20
281.4809
 10
874.0494
 20
281.7239
 10
874.0067
 20
281.9669
 10
873.9576
 20
282.2099
 10
873.902
 20
282.453
 10
873.8399
 20
282.6962
 10
873.7714
 20
282.9393
 10
874.5688
 20
282.3623
 10
874.4777
 20
281.9747
 10
874.3642
 20
281.6017
 10
874.2284
 20
281.2434
 10
874.0702
 20
280.8999
 10
873.8896
 20
280.571
 10
873.6866
 20
280.2568
 10
873.461
 20
279.9574
 10
873.213
 20
279.6727
 10
872.9462
 20
279.4038
 10
872.6644
 20
279.1515
 10
872.3676
 20
278.916
 10
872.0558
 20
278.697
 10
871.7291
 20
278.4947
 10
871.3874
 20
278.309
 10
871.0308
 20
278.1398
 10
870.6592
 20
277.9871
 10
870.275
 20
277.8517
 10
869.8803
 20
277.7345
 10
869.4752
 20
277.6353
 10
869.0597
 20
277.5542
 10
868.6336
 20
277.4911
 10
868.1971
 20
277.4461
 10
867.75
 20
277.4191
 10
867.2924
 20
277.4101
 10
866.7491
 20
277.4224
 10
866.2215
 20
277.4595
 10
865.7094
 20
277.5212
 10
865.2129
 20
277.6076
 10
864.7318
 20
277.7187
 10
864.2663
 20
277.8544
 10
863.8162
 20
278.0149
 10
863.3815
 20
278.2
 10
862.9663
 20
278.4074
 10
862.5745
 20
278.6348
 10
862.2063
 20
278.8821
 10
861.8615
 20
279.1494
 10
861.5401
 20
279.4365
 10
861.2422
 20
279.7435
 10
860.9676
 20
280.0704
 10
860.7165
 20
280.4171
 10
860.4921
 20
280.7823
 10
860.2975
 20
281.1636
 10
860.1329
 20
281.561
 10
859.9983
 20
281.9746
 10
859.8935
 20
282.4042
 10
859.8187
 20
282.8499
 10
859.7738
 20
283.3117
 10
859.7588
 20
283.7895
 10
859.7743
 20
284.2824
 10
859.8208
 20
284.7582
 10
859.8983
 20
285.2168
 10
860.0066
 20
285.6583
 10
860.1459
 20
286.0826
 10
860.3161
 20
286.4898
 10
860.517
 20
286.88
 10
860.7488
 20
287.253
 10
861.0077
 20
287.6073
 10
861.2902
 20
287.9413
 10
861.5961
 20
288.255
 10
861.9254
 20
288.5482
 10
862.2782
 20
288.8211
 10
862.6544
 20
289.0735
 10
863.0541
 20
289.3054
 10
863.4771
 20
289.5168
 10
863.9187
 20
289.7054
 10
864.3737
 20
289.8688
 10
864.8424
 20
290.0071
 10
865.3245
 20
290.1203
 10
865.8202
 20
290.2083
 10
866.3293
 20
290.2712
 10
866.8519
 20
290.3089
 10
867.388
 20
290.3215
  0
LWPOLYLINE
  5
87
330
1F
100
AcDbEntity
  8
Layer 1
 62
     7
370
    18
100
AcDbPolyline
 90
       89
 70
     1
 43
0.0
 10
867.4837
 20
288.4685
 10
867.0901
 20
288.4597
 10
866.7082
 20
288.4334
 10
866.3378
 20
288.3895
 10
865.979
 20
288.3281
 10
865.6316
 20
288.2491
 10
865.2958
 20
288.1524
 10
864.9714
 20
288.0382
 10
864.6584
 20
287.9063
 10
864.3594
 20
287.7586
 10
864.0768
 20
287.596
 10
863.8107
 20
287.4187
 10
863.5611
 20
287.2266
 10
863.328
 20
287.0199
 10
863.1114
 20
286.7984
 10
862.9112
 20
286.5623
 10
862.7275
 20
286.3117
 10
862.563
 20
286.0472
 10
862.4205
 20
285.7703
 10
862.2999
 20
285.4811
 10
862.2012
 20
285.1796
 10
862.1244
 20
284.8659
 10
862.0696
 20
284.5398
 10
862.0367
 20
284.2015
 10
862.0257
 20
283.851
 10
862.0494
 20
283.3401
 10
862.1205
 20
282.8558
 10
862.2389
 20
282.398
 10
862.4047
 20
281.9669
 10
862.6179
 20
281.5622
 10
862.8785
 20
281.1842
 10
863.1865
 20
280.8329
 10
863.5418
 20
280.5081
 10
863.9374
 20
280.2162
 10
864.3665
 20
279.9632
 10
864.8289
 20
279.7492
 10
865.3248
 20
279.5741
 10
865.8542
 20
279.438
 10
866.4172
 20
279.3408
 10
867.0137
 20
279.2824
 10
867.6439
 20
279.263
 10
868.068
 20
279.2725
 10
868.4785
 20
279.301
 10
868.8756
 20
279.3486
 10
869.2591
 20
279.4151
 10
869.6292
 20
279.5006
 10
869.9859
 20
279.6051
 10
870.3292
 20
279.7285
 10
870.6592
 20
279.8708
 10
870.9734
 20
280.0298
 10
871.2696
 20
280.203
 10
871.5479
 20
280.3905
 10
871.8081
 20
280.5923
 10
872.0505
 20
280.8083
 10
872.2749
 20
281.0385
 10
872.4815
 20
281.283
 10
872.6702
 20
281.5416
 10
872.8383
 20
281.8112
 10
872.984
 20
282.0884
 10
873.1073
 20
282.3731
 10
873.2082
 20
282.6656
 10
873.2866
 20
282.9656
 10
873.3427
 20
283.2732
 10
873.3763
 20
283.5884
 10
873.3875
 20
283.9113
 10
873.3771
 20
284.2051
 10
873.3458
 20
284.4943
 10
873.2936
 20
284.7786
 10
873.2205
 20
285.0583
 10
873.1264
 20
285.3332
 10
873.0113
 20
285.6034
 10
872.8752
 20
285.8689
 10
872.718
 20
286.1296
 10
872.5404
 20
286.3816
 10
872.3428
 20
286.6219
 10
872.1254
 20
286.8504
 10
871.8881
 20
287.067
 10
871.6308
 20
287.2718
 10
871.3536
 20
287.4648
 10
871.0565
 20
287.6459
 10
870.7393
 20
287.8152
 10
870.4022
 20
287.9683
 10
870.045
 20
288.101
 10
869.668
 20
288.2133
 10
869.271
 20
288.3052
 10
868.854
 20
288.3766
 10
868.4171
 20
288.4277
 10
867.9604
 20
288.4583
 10
867.4837
 20
288.4685
  0
LWPOLYLINE
  5
88
330
1F
100
AcDbEntity
  8
Layer 1
 62
     7
370
    18
100
AcDbPolyline
 90
       97
 70
     1
 43
0.0
 10
888.7713
 20
268.6906
 10
888.1342
 20
268.7108
 10
887.5151
 20
268.7713
 10
886.9138
 20
268.8722
 10
886.3306
 20
269.0134
 10
885.7652
 20
269.1949
 10
885.2178
 20
269.4167
 10
884.6883
 20
269.6788
 10
884.1767
 20
269.9812
 10
883.6872
 20
270.3217
 10
883.2248
 20
270.6973
 10
882.7894
 20
271.108
 10
882.381
 20
271.5538
 10
881.9996
 20
272.0347
 10
881.6451
 20
272.5507
 10
881.3175
 20
273.1019
 10
881.0167
 20
273.6883
 10
880.7472
 20
274.3076
 10
880.5137
 20
274.9578
 10
880.316
 20
275.6388
 10
880.1542
 20
276.3506
 10
880.0284
 20
277.0933
 10
879.9384
 20
277.8668
 10
879.8845
 20
278.6713
 10
879.8665
 20
279.5066
 10
879.8845
 20
280.3416
 10
879.9384
 20
281.1459
 10
880.0284
 20
281.9193
 10
880.1542
 20
282.662
 10
880.316
 20
283.3738
 10
880.5137
 20
284.0548
 10
880.7472
 20
284.7048
 10
881.0167
 20
285.3238
 10
881.3175
 20
285.9102
 10
881.6451
 20
286.4613
 10
881.9996
 20
286.9774
 10
882.381
 20
287.4583
 10
882.7894
 20
287.9041
 10
883.2248
 20
288.3147
 10
883.6872
 20
288.6903
 10
884.1767
 20
289.0308
 10
884.6883
 20
289.3332
 10
885.2178
 20
289.5953
 10
885.7652
 20
289.8171
 10
886.3306
 20
289.9987
 10
886.9138
 20
290.1399
 10
887.5151
 20
290.2408
 10
888.1342
 20
290.3013
 10
888.7713
 20
290.3215
 10
889.4088
 20
290.3013
 10
890.0283
 20
290.2408
 10
890.6298
 20
290.1399
 10
891.2133
 20
289.9987
 10
891.7789
 20
289.8171
 10
892.3267
 20
289.5953
 10
892.8565
 20
289.3332
 10
893.3685
 20
289.0308
 10
893.8579
 20
288.6903
 10
894.3208
 20
288.3147
 10
894.7574
 20
287.9041
 10
895.1675
 20
287.4583
 10
895.5513
 20
286.9774
 10
895.9086
 20
286.4613
 10
896.2395
 20
285.9102
 10
896.544
 20
285.3238
 10
896.817
 20
284.7048
 10
897.0536
 20
284.0548
 10
897.2537
 20
283.3738
 10
897.4175
 20
282.662
 10
897.5448
 20
281.9193
 10
897.6357
 20
281.1459
 10
897.6902
 20
280.3416
 10
897.7084
 20
279.5066
 10
897.6902
 20
278.6713
 10
897.6357
 20
277.8668
 10
897.5448
 20
277.0933
 10
897.4175
 20
276.3506
 10
897.2537
 20
275.6388
 10
897.0536
 20
274.9578
 10
896.817
 20
274.3076
 10
896.544
 20
273.6883
 10
896.2395
 20
273.1019
 10
895.9086
 20
272.5507
 10
895.5513
 20
272.0347
 10
895.1675
 20
271.5538
 10
894.7574
 20
271.108
 10
894.3208
 20
270.6973
 10
893.8579
 20
270.3217
 10
893.3685
 20
269.9812
 10
892.8565
 20
269.6788
 10
892.3267
 20
269.4167
 10
891.7789
 20
269.1949
 10
891.2133
 20
269.0134
 10
890.6298
 20
268.8722
 10
890.0283
 20
268.7713
 10
889.4088
 20
268.7108
 10
888.7713
 20
268.6906
  0
LWPOLYLINE
  5
89
330
1F
100
AcDbEntity
  8
Layer 1
 62
     7
370
    18
100
AcDbPolyline
 90
       97
 70
     1
 43
0.0
 10
888.7713
 20
270.696
 10
889.2581
 20
270.7119
 10
889.729
 20
270.7595
 10
890.1838
 20
270.8389
 10
890.6227
 20
270.9501
 10
891.0456
 20
271.0931
 10
891.4524
 20
271.268
 10
891.8433
 20
271.4748
 10
892.2182
 20
271.7135
 10
892.5756
 20
271.9825
 10
892.913
 20
272.281
 10
893.2304
 20
272.609
 10
893.5278
 20
272.9665
 10
893.8052
 20
273.3535
 10
894.0626
 20
273.7699
 10
894.3
 20
274.2157
 10
894.5174
 20
274.691
 10
894.7119
 20
275.1949
 10
894.8804
 20
275.7268
 10
895.0231
 20
276.2867
 10
895.1398
 20
276.8746
 10
895.2305
 20
277.4904
 10
895.2953
 20
278.1344
 10
895.3342
 20
278.8064
 10
895.3472
 20
279.5066
 10
895.3342
 20
280.2064
 10
895.2953
 20
280.8783
 10
895.2305
 20
281.5222
 10
895.1398
 20
282.1381
 10
895.0231
 20
282.7259
 10
894.8804
 20
283.2857
 10
894.7119
 20
283.8174
 10
894.5174
 20
284.321
 10
894.3
 20
284.7963
 10
894.0626
 20
285.2421
 10
893.8052
 20
285.6585
 10
893.5278
 20
286.0455
 10
893.2304
 20
286.403
 10
892.913
 20
286.731
 10
892.5756
 20
287.0295
 10
892.2182
 20
287.2985
 10
891.8433
 20
287.5372
 10
891.4524
 20
287.7442
 10
891.0456
 20
287.9193
 10
890.6227
 20
288.0625
 10
890.1838
 20
288.1739
 10
889.729
 20
288.2535
 10
889.2581
 20
288.3013
 10
888.7713
 20
288.3172
 10
888.2994
 20
288.3013
 10
887.8403
 20
288.2535
 10
887.3941
 20
288.1739
 10
886.9608
 20
288.0625
 10
886.5403
 20
287.9193
 10
886.1329
 20
287.7442
 10
885.7383
 20
287.5372
 10
885.3567
 20
287.2985
 10
884.9925
 20
287.0295
 10
884.6491
 20
286.731
 10
884.3266
 20
286.403
 10
884.025
 20
286.0455
 10
883.7443
 20
285.6585
 10
883.4845
 20
285.2421
 10
883.2456
 20
284.7963
 10
883.0277
 20
284.321
 10
882.8332
 20
283.8174
 10
882.6647
 20
283.2857
 10
882.5221
 20
282.7259
 10
882.4054
 20
282.1381
 10
882.3147
 20
281.5222
 10
882.2499
 20
280.8783
 10
882.211
 20
280.2064
 10
882.198
 20
279.5066
 10
882.211
 20
278.8064
 10
882.2499
 20
278.1344
 10
882.3147
 20
277.4904
 10
882.4054
 20
276.8746
 10
882.5221
 20
276.2867
 10
882.6647
 20
275.7268
 10
882.8332
 20
275.1949
 10
883.0277
 20
274.691
 10
883.2456
 20
274.2157
 10
883.4845
 20
273.7699
 10
883.7443
 20
273.3535
 10
884.025
 20
272.9665
 10
884.3266
 20
272.609
 10
884.6491
 20
272.281
 10
884.9925
 20
271.9825
 10
885.3567
 20
271.7135
 10
885.7383
 20
271.4748
 10
886.1329
 20
271.268
 10
886.5403
 20
271.0931
 10
886.9608
 20
270.9501
 10
887.3941
 20
270.8389
 10
887.8403
 20
270.7595
 10
888.2994
 20
270.7119
 10
888.7713
 20
270.696
  0
LWPOLYLINE
  5
8A
330
1F
100
AcDbEntity
  8
Layer 1
 62
     7
370
    18
100
AcDbPolyline
 90
        9
 70
     1
 43
0.0
 10
940.6598
 20
79.7964
 10
940.6598
 20
81.3762
 10
952.501
 20
95.4723
 10
955.0536
 20
95.4723
 10
943.308
 20
81.3762
 10
942.0634
 20
81.7403
 10
960.032
 20
81.7403
 10
960.032
 20
79.7964
 10
940.6598
 20
79.7964
  0
LWPOLYLINE
  5
8B
330
1F
100
AcDbEntity
  8
Layer 1
 62
     7
370
    18
100
AcDbPolyline
 90
        7
 70
     1
 43
0.0
 10
953.2661
 20
74.2056
 10
953.2661
 20
79.7964
 10
953.3308
 20
81.7403
 10
953.3308
 20
86.6618
 10
955.5641
 20
86.6618
 10
955.5641
 20
74.2056
 10
953.2661
 20
74.2056
  0
LWPOLYLINE
  5
8C
330
1F
100
AcDbEntity
  8
Layer 1
 62
     7
370
    18
100
AcDbPolyline
 90
      131
 70
     1
 43
0.0
 10
969.1294
 20
74.0235
 10
968.5348
 20
74.0352
 10
967.9471
 20
74.0701
 10
967.3663
 20
74.1283
 10
966.7924
 20
74.2098
 10
966.2254
 20
74.3145
 10
965.6653
 20
74.4424
 10
965.1122
 20
74.5936
 10
964.5659
 20
74.7679
 10
964.037
 20
74.9617
 10
963.5362
 20
75.1711
 10
963.0633
 20
75.3963
 10
962.6183
 20
75.6371
 10
962.2013
 20
75.8937
 10
961.8122
 20
76.1659
 10
961.451
 20
76.4538
 10
961.1177
 20
76.7574
 10
962.2356
 20
78.4897
 10
962.511
 20
78.2296
 10
962.8109
 20
77.9809
 10
963.1353
 20
77.7435
 10
963.4841
 20
77.5175
 10
963.8574
 20
77.3029
 10
964.2552
 20
77.0997
 10
964.6775
 20
76.908
 10
965.1242
 20
76.7279
 10
965.5879
 20
76.564
 10
966.061
 20
76.422
 10
966.5436
 20
76.3018
 10
967.0355
 20
76.2036
 10
967.5369
 20
76.1272
 10
968.0476
 20
76.0726
 10
968.5677
 20
76.0399
 10
969.0971
 20
76.029
 10
969.7864
 20
76.0477
 10
970.4331
 20
76.104
 10
971.0373
 20
76.1977
 10
971.5991
 20
76.3289
 10
972.1184
 20
76.4976
 10
972.5952
 20
76.7038
 10
973.0296
 20
76.9475
 10
973.4216
 20
77.2286
 10
973.7696
 20
77.5402
 10
974.0713
 20
77.875
 10
974.3265
 20
78.2332
 10
974.5354
 20
78.6146
 10
974.6978
 20
79.0194
 10
974.8138
 20
79.4474
 10
974.8834
 20
79.8988
 10
974.9066
 20
80.3734
 10
974.8959
 20
80.7089
 10
974.8637
 20
81.0327
 10
974.8101
 20
81.3447
 10
974.735
 20
81.6448
 10
974.6385
 20
81.9332
 10
974.5205
 20
82.2097
 10
974.3811
 20
82.4743
 10
974.2203
 20
82.7271
 10
974.034
 20
82.9671
 10
973.8183
 20
83.1933
 10
973.5731
 20
83.4058
 10
973.2985
 20
83.6045
 10
972.9944
 20
83.7894
 10
972.6609
 20
83.9605
 10
972.298
 20
84.1178
 10
971.9056
 20
84.2613
 10
971.48
 20
84.3898
 10
971.0164
 20
84.501
 10
970.5149
 20
84.5952
 10
969.9755
 20
84.6721
 10
969.398
 20
84.7319
 10
968.7826
 20
84.7747
 10
968.1291
 20
84.8003
 10
967.4376
 20
84.8088
 10
962.6815
 20
84.8088
 10
963.8305
 20
95.4723
 10
976.0556
 20
95.4723
 10
976.0556
 20
93.5284
 10
964.7571
 20
93.5284
 10
965.9384
 20
94.5914
 10
964.9484
 20
85.659
 10
963.7671
 20
86.7528
 10
967.9494
 20
86.7528
 10
968.7742
 20
86.7405
 10
969.557
 20
86.7034
 10
970.298
 20
86.6417
 10
970.997
 20
86.5553
 10
971.654
 20
86.4442
 10
972.2692
 20
86.3085
 10
972.8425
 20
86.148
 10
973.3738
 20
85.9629
 10
973.8669
 20
85.7557
 10
974.3245
 20
85.529
 10
974.7466
 20
85.2828
 10
975.1333
 20
85.0172
 10
975.4845
 20
84.7322
 10
975.8003
 20
84.4277
 10
976.0807
 20
84.1039
 10
976.3257
 20
83.7606
 10
976.5392
 20
83.3998
 10
976.7241
 20
83.0244
 10
976.8805
 20
82.6344
 10
977.0084
 20
82.2297
 10
977.1079
 20
81.8104
 10
977.1788
 20
81.3764
 10
977.2214
 20
80.9278
 10
977.2356
 20
80.4645
 10
977.2217
 20
80.0211
 10
977.1798
 20
79.5878
 10
977.1101
 20
79.1646
 10
977.0125
 20
78.7514
 10
976.8869
 20
78.3481
 10
976.7334
 20
77.9548
 10
976.5519
 20
77.5714
 10
976.3425
 20
77.1979
 10
976.1051
 20
76.8394
 10
975.8397
 20
76.5003
 10
975.5464
 20
76.1806
 10
975.2252
 20
75.8803
 10
974.8761
 20
75.5994
 10
974.4992
 20
75.3381
 10
974.0945
 20
75.0961
 10
973.662
 20
74.8737
 10
973.2002
 20
74.6743
 10
972.7084
 20
74.5016
 10
972.1868
 20
74.3554
 10
971.6351
 20
74.2359
 10
971.0536
 20
74.143
 10
970.4421
 20
74.0766
 10
969.8007
 20
74.0368
 10
969.1294
 20
74.0235
  0
LWPOLYLINE
  5
8D
330
1F
100
AcDbEntity
  8
Layer 1
 62
     7
370
    35
100
AcDbPolyline
 90
       33
 70
     1
 43
0.0
 10
757.6478
 20
96.4479
 10
760.3406
 20
96.1895
 10
762.8486
 20
95.4484
 10
765.1183
 20
94.2757
 10
767.0958
 20
92.7227
 10
768.7273
 20
90.8403
 10
769.9593
 20
88.6799
 10
770.7378
 20
86.2926
 10
771.0093
 20
83.7294
 10
770.7378
 20
81.1663
 10
769.9593
 20
78.7789
 10
768.7273
 20
76.6185
 10
767.0958
 20
74.7362
 10
765.1183
 20
73.1832
 10
762.8486
 20
72.0105
 10
760.3406
 20
71.2694
 10
757.6478
 20
71.011
 10
754.9551
 20
71.2694
 10
752.447
 20
72.0105
 10
750.1774
 20
73.1832
 10
748.1999
 20
74.7362
 10
746.5684
 20
76.6185
 10
745.3364
 20
78.7789
 10
744.5579
 20
81.1663
 10
744.2864
 20
83.7294
 10
744.5579
 20
86.2926
 10
745.3364
 20
88.6799
 10
746.5684
 20
90.8403
 10
748.1999
 20
92.7227
 10
750.1774
 20
94.2757
 10
752.447
 20
95.4484
 10
754.9551
 20
96.1895
 10
757.6478
 20
96.4479
  0
LWPOLYLINE
  5
8E
330
1F
100
AcDbEntity
  8
Layer 1
 62
     7
370
    35
100
AcDbPolyline
 90
        2
 70
     0
 43
0.0
 10
762.0054
 20
104.2929
 10
753.222
 20
61.5395
  0
LWPOLYLINE
  5
8F
330
1F
100
AcDbEntity
  8
Layer 1
 62
     7
370
    35
100
AcDbPolyline
 90
       33
 70
     1
 43
0.0
 10
921.4858
 20
96.4479
 10
924.1785
 20
96.1895
 10
926.6866
 20
95.4484
 10
928.9562
 20
94.2757
 10
930.9337
 20
92.7227
 10
932.5653
 20
90.8403
 10
933.7973
 20
88.6799
 10
934.5758
 20
86.2926
 10
934.8473
 20
83.7294
 10
934.5758
 20
81.1663
 10
933.7973
 20
78.7789
 10
932.5653
 20
76.6185
 10
930.9337
 20
74.7362
 10
928.9562
 20
73.1832
 10
926.6866
 20
72.0105
 10
924.1785
 20
71.2694
 10
921.4858
 20
71.011
 10
918.7931
 20
71.2694
 10
916.285
 20
72.0105
 10
914.0154
 20
73.1832
 10
912.0379
 20
74.7362
 10
910.4064
 20
76.6185
 10
909.1744
 20
78.7789
 10
908.3959
 20
81.1663
 10
908.1244
 20
83.7294
 10
908.3959
 20
86.2926
 10
909.1744
 20
88.6799
 10
910.4064
 20
90.8403
 10
912.0379
 20
92.7227
 10
914.0154
 20
94.2757
 10
916.285
 20
95.4484
 10
918.7931
 20
96.1895
 10
921.4858
 20
96.4479
  0
LWPOLYLINE
  5
90
330
1F
100
AcDbEntity
  8
Layer 1
 62
     7
370
    35
100
AcDbPolyline
 90
        2
 70
     0
 43
0.0
 10
925.8434
 20
104.2929
 10
917.06
 20
61.5395
  0
ENDSEC
  0
SECTION
  2
OBJECTS
  0
DICTIONARY
  5
C
330
0
100
AcDbDictionary
281
     1
  3
ACAD_DETAILVIEWSTYLE
350
98
  3
ACAD_GROUP
350
D
  3
ACAD_LAYOUT
350
1A
  3
ACAD_MATERIAL
350
43
  3
ACAD_MLEADERSTYLE
350
5B
  3
ACAD_MLINESTYLE
350
17
  3
ACAD_PLOTSETTINGS
350
19
  3
ACAD_PLOTSTYLENAME
350
E
  3
ACAD_SCALELIST
350
47
  3
ACAD_SECTIONVIEWSTYLE
350
99
  3
ACAD_TABLESTYLE
350
59
  3
ACAD_VISUALSTYLE
350
2A
  3
ACDB_RECOMPOSE_DATA
350
95
  3
AcDbVariableDictionary
350
91
  0
SUN
  5
5D
330
29
100
AcDbSun
 90
        1
290
     0
 63
     7
421
 16777215
 40
1.0
291
     1
 91
  2455826
 92
 54000000
292
     0
 70
     2
 71
   256
280
     1
  0
DICTIONARY
  5
98
102
{ACAD_REACTORS
330
C
102
}
330
C
100
AcDbDictionary
281
     1
  0
DICTIONARY
  5
D
102
{ACAD_REACTORS
330
C
102
}
330
C
100
AcDbDictionary
281
     1
  0
DICTIONARY
  5
1A
102
{ACAD_REACTORS
330
C
102
}
330
C
100
AcDbDictionary
281
     1
  3
Layout1
350
1E
  3
Layout2
350
26
  3
Model
350
22
  0
DICTIONARY
  5
43
102
{ACAD_REACTORS
330
C
102
}
330
C
100
AcDbDictionary
281
     1
  3
ByBlock
350
45
  3
ByLayer
350
44
  3
Global
350
46
  0
DICTIONARY
  5
5B
102
{ACAD_REACTORS
330
C
102
}
330
C
100
AcDbDictionary
281
     1
  3
Standard
350
5C
  0
DICTIONARY
  5
17
102
{ACAD_REACTORS
330
C
102
}
330
C
100
AcDbDictionary
281
     1
  3
Standard
350
18
  0
DICTIONARY
  5
19
102
{ACAD_REACTORS
330
C
102
}
330
C
100
AcDbDictionary
281
     1
  0
ACDBDICTIONARYWDFLT
  5
E
102
{ACAD_REACTORS
330
C
102
}
330
C
100
AcDbDictionary
281
     1
  3
Normal
350
F
100
AcDbDictionaryWithDefault
340
F
  0
DICTIONARY
  5
47
102
{ACAD_REACTORS
330
C
102
}
330
C
100
AcDbDictionary
281
     1
  3
A0
350
48
  3
A1
350
49
  3
A2
350
4A
  3
A3
350
4B
  3
A4
350
4C
  3
A5
350
4D
  3
A6
350
4E
  3
A7
350
4F
  3
A8
350
50
  3
A9
350
51
  3
B1
350
52
  3
B2
350
53
  3
B3
350
54
  3
B4
350
55
  3
B5
350
56
  3
B6
350
57
  3
B7
350
58
  0
DICTIONARY
  5
99
102
{ACAD_REACTORS
330
C
102
}
330
C
100
AcDbDictionary
281
     1
  0
DICTIONARY
  5
59
102
{ACAD_REACTORS
330
C
102
}
330
C
100
AcDbDictionary
281
     1
  3
Standard
350
5A
  0
DICTIONARY
  5
2A
102
{ACAD_REACTORS
330
C
102
}
330
C
100
AcDbDictionary
281
     1
  3
2dWireframe
350
2F
  3
Basic
350
32
  3
Brighten
350
36
  3
ColorChange
350
3A
  3
Conceptual
350
34
  3
Dim
350
35
  3
EdgeColorOff
350
3D
  3
Facepattern
350
39
  3
Flat
350
2B
  3
FlatWithEdges
350
2C
  3
Gouraud
350
2D
  3
GouraudWithEdges
350
2E
  3
Hidden
350
31
  3
JitterOff
350
3B
  3
Linepattern
350
38
  3
OverhangOff
350
3C
  3
Realistic
350
33
  3
Shaded
350
42
  3
Shaded with edges
350
41
  3
Shades of Gray
350
3E
  3
Sketchy
350
3F
  3
Thicken
350
37
  3
Wireframe
350
30
  3
X-Ray
350
40
  0
XRECORD
  5
95
102
{ACAD_REACTORS
330
C
102
}
330
C
100
AcDbXrecord
280
     1
 90
        1
330
5A
  0
DICTIONARY
  5
91
102
{ACAD_REACTORS
330
C
102
}
330
C
100
AcDbDictionary
281
     1
  3
CANNOSCALE
350
92
  3
CMLEADERSTYLE
350
97
  3
CTABLESTYLE
350
96
  0
LAYOUT
  5
1E
102
{ACAD_REACTORS
330
1A
102
}
330
1A
100
AcDbPlotSettings
  1

  2
none_device
  4

  6

 40
0.0
 41
0.0
 42
0.0
 43
0.0
 44
0.0
 45
0.0
 46
0.0
 47
0.0
 48
0.0
 49
0.0
140
0.0
141
0.0
142
1.0
143
1.0
 70
   688
 72
     0
 73
     0
 74
     5
  7

 75
    16
 76
     0
 77
     2
 78
   300
147
1.0
148
0.0
149
0.0
100
AcDbLayout
  1
Layout1
 70
     1
 71
     1
 10
0.0
 20
0.0
 11
12.0
 21
9.0
 12
0.0
 22
0.0
 32
0.0
 14
1.000000000000000E+20
 24
1.000000000000000E+20
 34
1.000000000000000E+20
 15
-1.000000000000000E+20
 25
-1.000000000000000E+20
 35
-1.000000000000000E+20
146
0.0
 13
0.0
 23
0.0
 33
0.0
 16
1.0
 26
0.0
 36
0.0
 17
0.0
 27
1.0
 37
0.0
 76
     0
330
1B
  0
LAYOUT
  5
26
102
{ACAD_REACTORS
330
1A
102
}
330
1A
100
AcDbPlotSettings
  1

  2
none_device
  4

  6

 40
0.0
 41
0.0
 42
0.0
 43
0.0
 44
0.0
 45
0.0
 46
0.0
 47
0.0
 48
0.0
 49
0.0
140
0.0
141
0.0
142
1.0
143
1.0
 70
   688
 72
     0
 73
     0
 74
     5
  7

 75
    16
 76
     0
 77
     2
 78
   300
147
1.0
148
0.0
149
0.0
100
AcDbLayout
  1
Layout2
 70
     1
 71
     2
 10
0.0
 20
0.0
 11
0.0
 21
0.0
 12
0.0
 22
0.0
 32
0.0
 14
0.0
 24
0.0
 34
0.0
 15
0.0
 25
0.0
 35
0.0
146
0.0
 13
0.0
 23
0.0
 33
0.0
 16
1.0
 26
0.0
 36
0.0
 17
0.0
 27
1.0
 37
0.0
 76
     0
330
23
  0
LAYOUT
  5
22
102
{ACAD_REACTORS
330
1A
102
}
330
1A
100
AcDbPlotSettings
  1

  2
none_device
  4
Letter_(8.50_x_11.00_Inches)
  6

 40
6.35
 41
6.35
 42
6.35000508
 43
6.35000508
 44
215.9
 45
279.4
 46
0.0
 47
0.0
 48
0.0
 49
0.0
140
0.0
141
0.0
142
1.0
143
1.0
 70
  1712
 72
     0
 73
     0
 74
     0
  7

 75
     0
 76
     0
 77
     2
 78
   300
147
1.0
148
0.0
149
0.0
100
AcDbLayout
  1
Model
 70
     1
 71
     0
 10
0.0
 20
0.0
 11
12.0
 21
9.0
 12
0.0
 22
0.0
 32
0.0
 14
243.5071
 24
-158.0862
 34
0.0
 15
1265.269
 25
337.9436
 35
0.0
146
0.0
 13
0.0
 23
0.0
 33
0.0
 16
1.0
 26
0.0
 36
0.0
 17
0.0
 27
1.0
 37
0.0
 76
     0
330
1F
331
29
  0
MATERIAL
  5
45
102
{ACAD_REACTORS
330
43
102
}
330
43
100
AcDbMaterial
  1
ByBlock
 72
     1
 94
      127
  0
MATERIAL
  5
44
102
{ACAD_REACTORS
330
43
102
}
330
43
100
AcDbMaterial
  1
ByLayer
 72
     1
 94
      127
  0
MATERIAL
  5
46
102
{ACAD_REACTORS
330
43
102
}
330
43
100
AcDbMaterial
  1
Global
 72
     1
 94
      127
  0
MLEADERSTYLE
  5
5C
102
{ACAD_REACTORS
330
5B
102
}
330
5B
100
AcDbMLeaderStyle
179
     2
170
     2
171
     1
172
     0
 90
        2
 40
0.0
 41
0.0
173
     1
 91
-1056964608
340
14
 92
       -2
290
     1
 42
0.09
291
     1
 43
0.36
  3
Standard
341
0
 44
0.18
300

342
11
174
     1
178
     6
175
     1
176
     0
 93
-1056964608
 45
0.18
292
     0
297
     0
 46
0.18
343
0
 94
-1056964608
 47
1.0
 49
1.0
140
1.0
293
     1
141
0.0
294
     1
177
     0
142
1.0
295
     0
296
     0
143
0.125
271
     0
272
     9
273
     9
298
     0
  0
MLINESTYLE
  5
18
102
{ACAD_REACTORS
330
17
102
}
330
17
100
AcDbMlineStyle
  2
Standard
 70
     0
  3

 62
   256
 51
90.0
 52
90.0
 71
     2
 49
0.5
 62
   256
  6
BYLAYER
 49
-0.5
 62
   256
  6
BYLAYER
  0
ACDBPLACEHOLDER
  5
F
102
{ACAD_REACTORS
330
E
102
}
330
E
  0
SCALE
  5
48
102
{ACAD_REACTORS
330
47
102
}
330
47
100
AcDbScale
 70
     0
300
1:1
140
1.0
141
1.0
290
     1
  0
SCALE
  5
49
102
{ACAD_REACTORS
330
47
102
}
330
47
100
AcDbScale
 70
     0
300
1/128" = 1'-0"
140
0.0078125
141
12.0
290
     0
  0
SCALE
  5
4A
102
{ACAD_REACTORS
330
47
102
}
330
47
100
AcDbScale
 70
     0
300
1/64" = 1'-0"
140
0.015625
141
12.0
290
     0
  0
SCALE
  5
4B
102
{ACAD_REACTORS
330
47
102
}
330
47
100
AcDbScale
 70
     0
300
1/32" = 1'-0"
140
0.03125
141
12.0
290
     0
  0
SCALE
  5
4C
102
{ACAD_REACTORS
330
47
102
}
330
47
100
AcDbScale
 70
     0
300
1/16" = 1'-0"
140
0.0625
141
12.0
290
     0
  0
SCALE
  5
4D
102
{ACAD_REACTORS
330
47
102
}
330
47
100
AcDbScale
 70
     0
300
3/32" = 1'-0"
140
0.09375
141
12.0
290
     0
  0
SCALE
  5
4E
102
{ACAD_REACTORS
330
47
102
}
330
47
100
AcDbScale
 70
     0
300
1/8" = 1'-0"
140
0.125
141
12.0
290
     0
  0
SCALE
  5
4F
102
{ACAD_REACTORS
330
47
102
}
330
47
100
AcDbScale
 70
     0
300
3/16" = 1'-0"
140
0.1875
141
12.0
290
     0
  0
SCALE
  5
50
102
{ACAD_REACTORS
330
47
102
}
330
47
100
AcDbScale
 70
     0
300
1/4" = 1'-0"
140
0.25
141
12.0
290
     0
  0
SCALE
  5
51
102
{ACAD_REACTORS
330
47
102
}
330
47
100
AcDbScale
 70
     0
300
3/8" = 1'-0"
140
0.375
141
12.0
290
     0
  0
SCALE
  5
52
102
{ACAD_REACTORS
330
47
102
}
330
47
100
AcDbScale
 70
     0
300
1/2" = 1'-0"
140
0.5
141
12.0
290
     0
  0
SCALE
  5
53
102
{ACAD_REACTORS
330
47
102
}
330
47
100
AcDbScale
 70
     0
300
3/4" = 1'-0"
140
0.75
141
12.0
290
     0
  0
SCALE
  5
54
102
{ACAD_REACTORS
330
47
102
}
330
47
100
AcDbScale
 70
     0
300
1" = 1'-0"
140
1.0
141
12.0
290
     0
  0
SCALE
  5
55
102
{ACAD_REACTORS
330
47
102
}
330
47
100
AcDbScale
 70
     0
300
1-1/2" = 1'-0"
140
1.5
141
12.0
290
     0
  0
SCALE
  5
56
102
{ACAD_REACTORS
330
47
102
}
330
47
100
AcDbScale
 70
     0
300
3" = 1'-0"
140
3.0
141
12.0
290
     0
  0
SCALE
  5
57
102
{ACAD_REACTORS
330
47
102
}
330
47
100
AcDbScale
 70
     0
300
6" = 1'-0"
140
6.0
141
12.0
290
     0
  0
SCALE
  5
58
102
{ACAD_REACTORS
330
47
102
}
330
47
100
AcDbScale
 70
     0
300
1'-0" = 1'-0"
140
12.0
141
12.0
290
     0
  0
TABLESTYLE
  5
5A
102
{ACAD_REACTORS
330
59
102
}
102
{ACAD_XDICTIONARY
360
93
102
}
330
59
100
AcDbTableStyle
  3
Standard
 70
     0
 71
     0
 40
0.06
 41
0.06
280
     0
281
     0
  7
Standard
140
0.18
170
     2
 62
     0
 63
   257
283
     0
 90
        4
 91
        0
  1

274
    -2
284
     1
 64
     0
275
    -2
285
     1
 65
     0
276
    -2
286
     1
 66
     0
277
    -2
287
     1
 67
     0
278
    -2
288
     1
 68
     0
279
    -2
289
     1
 69
     0
  7
Standard
140
0.25
170
     5
 62
     0
 63
   257
283
     0
 90
        4
 91
        0
  1

274
    -2
284
     1
 64
     0
275
    -2
285
     1
 65
     0
276
    -2
286
     1
 66
     0
277
    -2
287
     1
 67
     0
278
    -2
288
     1
 68
     0
279
    -2
289
     1
 69
     0
  7
Standard
140
0.18
170
     5
 62
     0
 63
   257
283
     0
 90
        4
 91
        0
  1

274
    -2
284
     1
 64
     0
275
    -2
285
     1
 65
     0
276
    -2
286
     1
 66
     0
277
    -2
287
     1
 67
     0
278
    -2
288
     1
 68
     0
279
    -2
289
     1
 69
     0
  0
VISUALSTYLE
  5
2F
102
{ACAD_REACTORS
330
2A
102
}
330
2A
100
AcDbVisualStyle
  2
2dWireframe
 70
     4
177
     3
291
     0
 70
    58
 90
        0
176
     1
 90
        2
176
     1
 90
        0
176
     1
 90
        0
176
     1
 40
0.6
176
     1
 40
30.0
176
     1
 62
     7
420
 16777215
176
     1
 90
        1
176
     1
 90
        4
176
     1
 62
     7
176
     1
 62
   257
176
     1
 90
        1
176
     1
 90
        1
176
     1
 40
1.0
176
     1
 90
        0
176
     1
 62
   257
176
     1
 40
1.0
176
     1
 90
        1
176
     1
 90
        6
176
     1
 90
        2
176
     1
 62
     7
176
     1
 90
        5
176
     1
 90
        0
176
     1
 90
        0
176
     1
290
     0
176
     1
 90
        1
176
     1
 40
0.0
176
     1
 90
        0
176
     1
290
     1
176
     1
290
     1
176
     1
290
     0
176
     1
290
     0
176
     1
290
     0
176
     1
290
     0
176
     1
290
     0
176
     1
290
     0
176
     1
290
     0
176
     1
 90
       50
176
     1
 40
0.0
176
     1
 40
1.0
176
     1
 90
        0
176
     1
 62
    18
420
        0
176
     1
 90
       50
176
     1
 90
        3
176
     1
 62
     5
420
      255
176
     1
290
     0
176
     1
 90
       50
176
     1
 90
       50
176
     1
 90
       50
176
     1
290
     0
176
     1
 90
       50
176
     1
 62
   256
176
     0
 40
1.0
176
     0
 90
        2
176
     1
  1
strokes_ogs.tif
176
     1
290
     0
176
     1
 40
1.0
176
     1
 40
1.0
176
     1
  0
VISUALSTYLE
  5
32
102
{ACAD_REACTORS
330
2A
102
}
330
2A
100
AcDbVisualStyle
  2
Basic
 70
     7
177
     3
291
     1
 70
    58
 90
        1
176
     1
 90
        0
176
     1
 90
        1
176
     1
 90
        0
176
     1
 40
0.6
176
     1
 40
30.0
176
     1
 62
     7
420
 16777215
176
     1
 90
        0
176
     1
 90
        4
176
     1
 62
     7
176
     1
 62
   257
176
     1
 90
        1
176
     1
 90
        1
176
     1
 40
1.0
176
     1
 90
        8
176
     1
 62
     7
176
     1
 40
1.0
176
     1
 90
        1
176
     1
 90
        6
176
     1
 90
        2
176
     1
 62
     7
176
     1
 90
        5
176
     1
 90
        0
176
     1
 90
        0
176
     1
290
     0
176
     1
 90
        1
176
     1
 40
0.0
176
     1
 90
        0
176
     1
290
     0
176
     1
290
     1
176
     1
290
     1
176
     1
290
     0
176
     1
290
     0
176
     1
290
     0
176
     1
290
     0
176
     1
290
     0
176
     1
290
     0
176
     1
 90
       50
176
     1
 40
0.0
176
     1
 40
1.0
176
     1
 90
        0
176
     1
 62
    18
420
        0
176
     1
 90
       50
176
     1
 90
        3
176
     1
 62
     5
420
      255
176
     1
290
     0
176
     1
 90
       50
176
     1
 90
       50
176
     1
 90
       50
176
     1
290
     0
176
     1
 90
       50
176
     1
 62
   256
176
     0
 40
1.0
176
     0
 90
        2
176
     1
  1
strokes_ogs.tif
176
     1
290
     0
176
     1
 40
1.0
176
     1
 40
1.0
176
     1
  0
VISUALSTYLE
  5
36
102
{ACAD_REACTORS
330
2A
102
}
330
2A
100
AcDbVisualStyle
  2
Brighten
 70
    12
177
     3
291
     1
 70
    58
 90
        2
176
     1
 90
        2
176
     1
 90
        0
176
     1
 90
        0
176
     1
 40
0.6
176
     1
 40
30.0
176
     1
 62
     7
420
 16777215
176
     1
 90
        1
176
     1
 90
        4
176
     1
 62
     7
176
     1
 62
   257
176
     1
 90
        1
176
     1
 90
        1
176
     1
 40
1.0
176
     1
 90
        8
176
     1
 62
     7
176
     1
 40
1.0
176
     1
 90
        1
176
     1
 90
        6
176
     1
 90
        2
176
     1
 62
     7
176
     1
 90
        5
176
     1
 90
        0
176
     1
 90
        0
176
     1
290
     0
176
     1
 90
        1
176
     1
 40
50.0
176
     1
 90
        0
176
     1
290
     0
176
     1
290
     1
176
     1
290
     1
176
     1
290
     0
176
     1
290
     0
176
     1
290
     0
176
     1
290
     0
176
     1
290
     0
176
     1
290
     0
176
     1
 90
       50
176
     1
 40
0.0
176
     1
 40
1.0
176
     1
 90
        0
176
     1
 62
    18
420
        0
176
     1
 90
       50
176
     1
 90
        3
176
     1
 62
     5
420
      255
176
     1
290
     0
176
     1
 90
       50
176
     1
 90
       50
176
     1
 90
       50
176
     1
290
     0
176
     1
 90
       50
176
     1
 62
   256
176
     0
 40
1.0
176
     0
 90
        2
176
     1
  1
strokes_ogs.tif
176
     1
290
     0
176
     1
 40
1.0
176
     1
 40
1.0
176
     1
  0
VISUALSTYLE
  5
3A
102
{ACAD_REACTORS
330
2A
102
}
330
2A
100
AcDbVisualStyle
  2
ColorChange
 70
    16
177
     3
291
     1
 70
    58
 90
        2
176
     1
 90
        2
176
     1
 90
        3
176
     1
 90
        0
176
     1
 40
0.6
176
     1
 40
30.0
176
     1
 62
     8
420
  8421504
176
     1
 90
        1
176
     1
 90
        4
176
     1
 62
     7
176
     1
 62
   257
176
     1
 90
        1
176
     1
 90
        1
176
     1
 40
1.0
176
     1
 90
        8
176
     1
 62
     8
420
  8421504
176
     1
 40
1.0
176
     1
 90
        1
176
     1
 90
        6
176
     1
 90
        2
176
     1
 62
     7
176
     1
 90
        5
176
     1
 90
        0
176
     1
 90
        0
176
     1
290
     0
176
     1
 90
        1
176
     1
 40
0.0
176
     1
 90
        0
176
     1
290
     0
176
     1
290
     1
176
     1
290
     1
176
     1
290
     0
176
     1
290
     0
176
     1
290
     0
176
     1
290
     0
176
     1
290
     0
176
     1
290
     0
176
     1
 90
       50
176
     1
 40
0.0
176
     1
 40
1.0
176
     1
 90
        0
176
     1
 62
    18
420
        0
176
     1
 90
       50
176
     1
 90
        3
176
     1
 62
     5
420
      255
176
     1
290
     0
176
     1
 90
       50
176
     1
 90
       50
176
     1
 90
       50
176
     1
290
     0
176
     1
 90
       50
176
     1
 62
   256
176
     0
 40
1.0
176
     0
 90
        2
176
     1
  1
strokes_ogs.tif
176
     1
290
     0
176
     1
 40
1.0
176
     1
 40
1.0
176
     1
  0
VISUALSTYLE
  5
34
102
{ACAD_REACTORS
330
2A
102
}
330
2A
100
AcDbVisualStyle
  2
Conceptual
 70
     9
177
     3
291
     0
 70
    58
 90
        3
176
     1
 90
        2
176
     1
 90
        0
176
     1
 90
        0
176
     1
 40
0.6
176
     1
 40
30.0
176
     1
 62
     7
420
 16777215
176
     1
 90
        2
176
     1
 90
        2
176
     1
 62
     7
176
     1
 62
   257
176
     1
 90
        1
176
     1
 90
        1
176
     1
 40
179.0
176
     1
 90
        8
176
     1
 62
     7
176
     1
 40
1.0
176
     1
 90
        1
176
     1
 90
        6
176
     1
 90
        2
176
     1
 62
     7
176
     1
 90
        3
176
     1
 90
        0
176
     1
 90
        0
176
     1
290
     0
176
     1
 90
        1
176
     1
 40
0.0
176
     1
 90
        0
176
     1
290
     0
176
     1
290
     1
176
     1
290
     1
176
     1
290
     0
176
     1
290
     0
176
     1
290
     0
176
     1
290
     0
176
     1
290
     0
176
     1
290
     0
176
     1
 90
       50
176
     1
 40
0.0
176
     1
 40
1.0
176
     1
 90
        0
176
     1
 62
    18
420
        0
176
     1
 90
       50
176
     1
 90
        3
176
     1
 62
     5
420
      255
176
     1
290
     0
176
     1
 90
       50
176
     1
 90
       50
176
     1
 90
       50
176
     1
290
     0
176
     1
 90
       50
176
     1
 62
   256
176
     0
 40
1.0
176
     0
 90
        2
176
     1
  1
strokes_ogs.tif
176
     1
290
     0
176
     1
 40
1.0
176
     1
 40
1.0
176
     1
  0
VISUALSTYLE
  5
35
102
{ACAD_REACTORS
330
2A
102
}
330
2A
100
AcDbVisualStyle
  2
Dim
 70
    11
177
     3
291
     1
 70
    58
 90
        2
176
     1
 90
        2
176
     1
 90
        0
176
     1
 90
        0
176
     1
 40
0.6
176
     1
 40
30.0
176
     1
 62
     7
420
 16777215
176
     1
 90
        1
176
     1
 90
        4
176
     1
 62
     7
176
     1
 62
   257
176
     1
 90
        1
176
     1
 90
        1
176
     1
 40
1.0
176
     1
 90
        8
176
     1
 62
     7
176
     1
 40
1.0
176
     1
 90
        1
176
     1
 90
        6
176
     1
 90
        2
176
     1
 62
     7
176
     1
 90
        5
176
     1
 90
        0
176
     1
 90
        0
176
     1
290
     0
176
     1
 90
        1
176
     1
 40
-50.0
176
     1
 90
        0
176
     1
290
     0
176
     1
290
     1
176
     1
290
     1
176
     1
290
     0
176
     1
290
     0
176
     1
290
     0
176
     1
290
     0
176
     1
290
     0
176
     1
290
     0
176
     1
 90
       50
176
     1
 40
0.0
176
     1
 40
1.0
176
     1
 90
        0
176
     1
 62
    18
420
        0
176
     1
 90
       50
176
     1
 90
        3
176
     1
 62
     5
420
      255
176
     1
290
     0
176
     1
 90
       50
176
     1
 90
       50
176
     1
 90
       50
176
     1
290
     0
176
     1
 90
       50
176
     1
 62
   256
176
     0
 40
1.0
176
     0
 90
        2
176
     1
  1
strokes_ogs.tif
176
     1
290
     0
176
     1
 40
1.0
176
     1
 40
1.0
176
     1
  0
VISUALSTYLE
  5
3D
102
{ACAD_REACTORS
330
2A
102
}
330
2A
100
AcDbVisualStyle
  2
EdgeColorOff
 70
    22
177
     3
291
     1
 70
    58
 90
        2
176
     0
 90
        2
176
     0
 90
        0
176
     0
 90
        0
176
     0
 40
0.6
176
     0
 40
30.0
176
     0
 62
     7
420
 16777215
176
     0
 90
        1
176
     0
 90
        4
176
     0
 62
     7
176
     0
 62
   257
176
     0
 90
        1
176
     0
 90
        1
176
     0
 40
1.0
176
     0
 90
        8
176
     2
 62
     7
176
     0
 40
1.0
176
     0
 90
        1
176
     0
 90
        6
176
     0
 90
        2
176
     0
 62
     7
176
     0
 90
        5
176
     0
 90
        0
176
     0
 90
        0
176
     0
290
     0
176
     0
 90
        1
176
     0
 40
0.0
176
     0
 90
        0
176
     0
290
     0
176
     0
290
     1
176
     0
290
     1
176
     0
290
     0
176
     0
290
     0
176
     0
290
     0
176
     0
290
     0
176
     0
290
     0
176
     0
290
     0
176
     0
 90
       50
176
     0
 40
0.0
176
     0
 40
1.0
176
     0
 90
        0
176
     0
 62
    18
420
        0
176
     0
 90
       50
176
     0
 90
        3
176
     0
 62
     5
420
      255
176
     0
290
     0
176
     0
 90
       50
176
     0
 90
       50
176
     0
 90
       50
176
     0
290
     0
176
     0
 90
       50
176
     0
 62
   256
176
     0
 40
1.0
176
     0
 90
        2
176
     0
  1
strokes_ogs.tif
176
     0
290
     0
176
     0
 40
1.0
176
     0
 40
1.0
176
     0
  0
VISUALSTYLE
  5
39
102
{ACAD_REACTORS
330
2A
102
}
330
2A
100
AcDbVisualStyle
  2
Facepattern
 70
    15
177
     3
291
     1
 70
    58
 90
        2
176
     1
 90
        2
176
     1
 90
        0
176
     1
 90
        0
176
     1
 40
0.6
176
     1
 40
30.0
176
     1
 62
     7
420
 16777215
176
     1
 90
        1
176
     1
 90
        4
176
     1
 62
     7
176
     1
 62
   257
176
     1
 90
        1
176
     1
 90
        1
176
     1
 40
1.0
176
     1
 90
        8
176
     1
 62
     7
176
     1
 40
1.0
176
     1
 90
        1
176
     1
 90
        6
176
     1
 90
        2
176
     1
 62
     7
176
     1
 90
        5
176
     1
 90
        0
176
     1
 90
        0
176
     1
290
     0
176
     1
 90
        1
176
     1
 40
0.0
176
     1
 90
        0
176
     1
290
     0
176
     1
290
     1
176
     1
290
     1
176
     1
290
     0
176
     1
290
     0
176
     1
290
     0
176
     1
290
     0
176
     1
290
     0
176
     1
290
     0
176
     1
 90
       50
176
     1
 40
0.0
176
     1
 40
1.0
176
     1
 90
        0
176
     1
 62
    18
420
        0
176
     1
 90
       50
176
     1
 90
        3
176
     1
 62
     5
420
      255
176
     1
290
     0
176
     1
 90
       50
176
     1
 90
       50
176
     1
 90
       50
176
     1
290
     0
176
     1
 90
       50
176
     1
 62
   256
176
     0
 40
1.0
176
     0
 90
        2
176
     1
  1
strokes_ogs.tif
176
     1
290
     0
176
     1
 40
1.0
176
     1
 40
1.0
176
     1
  0
VISUALSTYLE
  5
2B
102
{ACAD_REACTORS
330
2A
102
}
330
2A
100
AcDbVisualStyle
  2
Flat
 70
     0
177
     3
291
     1
 70
    58
 90
        2
176
     1
 90
        1
176
     1
 90
        1
176
     1
 90
        2
176
     1
 40
0.6
176
     1
 40
30.0
176
     1
 62
     7
420
 16777215
176
     1
 90
        0
176
     1
 90
        0
176
     1
 62
     7
176
     1
 62
   257
176
     1
 90
        1
176
     1
 90
        1
176
     1
 40
1.0
176
     1
 90
        8
176
     1
 62
     7
176
     1
 40
1.0
176
     1
 90
        1
176
     1
 90
        6
176
     1
 90
        2
176
     1
 62
     7
176
     1
 90
        5
176
     1
 90
        0
176
     1
 90
        0
176
     1
290
     0
176
     1
 90
       13
176
     1
 40
0.0
176
     1
 90
        0
176
     1
290
     0
176
     1
290
     1
176
     1
290
     1
176
     1
290
     0
176
     1
290
     0
176
     1
290
     0
176
     1
290
     0
176
     1
290
     0
176
     1
290
     0
176
     1
 90
       50
176
     1
 40
0.0
176
     1
 40
1.0
176
     1
 90
        0
176
     1
 62
    18
420
        0
176
     1
 90
       50
176
     1
 90
        3
176
     1
 62
     5
420
      255
176
     1
290
     0
176
     1
 90
       50
176
     1
 90
       50
176
     1
 90
       50
176
     1
290
     0
176
     1
 90
       50
176
     1
 62
   256
176
     0
 40
1.0
176
     0
 90
        2
176
     1
  1
strokes_ogs.tif
176
     1
290
     0
176
     1
 40
1.0
176
     1
 40
1.0
176
     1
  0
VISUALSTYLE
  5
2C
102
{ACAD_REACTORS
330
2A
102
}
330
2A
100
AcDbVisualStyle
  2
FlatWithEdges
 70
     1
177
     3
291
     1
 70
    58
 90
        2
176
     1
 90
        1
176
     1
 90
        1
176
     1
 90
        2
176
     1
 40
0.6
176
     1
 40
30.0
176
     1
 62
     7
420
 16777215
176
     1
 90
        1
176
     1
 90
        0
176
     1
 62
     7
176
     1
 62
   257
176
     1
 90
        1
176
     1
 90
        1
176
     1
 40
1.0
176
     1
 90
        0
176
     1
 62
   257
176
     1
 40
1.0
176
     1
 90
        1
176
     1
 90
        6
176
     1
 90
        2
176
     1
 62
     7
176
     1
 90
        5
176
     1
 90
        0
176
     1
 90
        0
176
     1
290
     0
176
     1
 90
       13
176
     1
 40
0.0
176
     1
 90
        0
176
     1
290
     0
176
     1
290
     1
176
     1
290
     1
176
     1
290
     0
176
     1
290
     0
176
     1
290
     0
176
     1
290
     0
176
     1
290
     0
176
     1
290
     0
176
     1
 90
       50
176
     1
 40
0.0
176
     1
 40
1.0
176
     1
 90
        0
176
     1
 62
    18
420
        0
176
     1
 90
       50
176
     1
 90
        3
176
     1
 62
     5
420
      255
176
     1
290
     0
176
     1
 90
       50
176
     1
 90
       50
176
     1
 90
       50
176
     1
290
     0
176
     1
 90
       50
176
     1
 62
   256
176
     0
 40
1.0
176
     0
 90
        2
176
     1
  1
strokes_ogs.tif
176
     1
290
     0
176
     1
 40
1.0
176
     1
 40
1.0
176
     1
  0
VISUALSTYLE
  5
2D
102
{ACAD_REACTORS
330
2A
102
}
330
2A
100
AcDbVisualStyle
  2
Gouraud
 70
     2
177
     3
291
     1
 70
    58
 90
        2
176
     1
 90
        2
176
     1
 90
        1
176
     1
 90
        2
176
     1
 40
0.6
176
     1
 40
30.0
176
     1
 62
     7
420
 16777215
176
     1
 90
        0
176
     1
 90
        0
176
     1
 62
     7
176
     1
 62
   257
176
     1
 90
        1
176
     1
 90
        1
176
     1
 40
1.0
176
     1
 90
        0
176
     1
 62
     7
176
     1
 40
1.0
176
     1
 90
        1
176
     1
 90
        6
176
     1
 90
        2
176
     1
 62
     7
176
     1
 90
        5
176
     1
 90
        0
176
     1
 90
        0
176
     1
290
     0
176
     1
 90
       13
176
     1
 40
0.0
176
     1
 90
        0
176
     1
290
     0
176
     1
290
     1
176
     1
290
     1
176
     1
290
     0
176
     1
290
     0
176
     1
290
     0
176
     1
290
     0
176
     1
290
     0
176
     1
290
     0
176
     1
 90
       50
176
     1
 40
0.0
176
     1
 40
1.0
176
     1
 90
        0
176
     1
 62
    18
420
        0
176
     1
 90
       50
176
     1
 90
        3
176
     1
 62
     5
420
      255
176
     1
290
     0
176
     1
 90
       50
176
     1
 90
       50
176
     1
 90
       50
176
     1
290
     0
176
     1
 90
       50
176
     1
 62
   256
176
     0
 40
1.0
176
     0
 90
        2
176
     1
  1
strokes_ogs.tif
176
     1
290
     0
176
     1
 40
1.0
176
     1
 40
1.0
176
     1
  0
VISUALSTYLE
  5
2E
102
{ACAD_REACTORS
330
2A
102
}
330
2A
100
AcDbVisualStyle
  2
GouraudWithEdges
 70
     3
177
     3
291
     1
 70
    58
 90
        2
176
     1
 90
        2
176
     1
 90
        1
176
     1
 90
        2
176
     1
 40
0.6
176
     1
 40
30.0
176
     1
 62
     7
420
 16777215
176
     1
 90
        1
176
     1
 90
        0
176
     1
 62
     7
176
     1
 62
   257
176
     1
 90
        1
176
     1
 90
        1
176
     1
 40
1.0
176
     1
 90
        0
176
     1
 62
   257
176
     1
 40
1.0
176
     1
 90
        1
176
     1
 90
        6
176
     1
 90
        2
176
     1
 62
     7
176
     1
 90
        5
176
     1
 90
        0
176
     1
 90
        0
176
     1
290
     0
176
     1
 90
       13
176
     1
 40
0.0
176
     1
 90
        0
176
     1
290
     0
176
     1
290
     1
176
     1
290
     1
176
     1
290
     0
176
     1
290
     0
176
     1
290
     0
176
     1
290
     0
176
     1
290
     0
176
     1
290
     0
176
     1
 90
       50
176
     1
 40
0.0
176
     1
 40
1.0
176
     1
 90
        0
176
     1
 62
    18
420
        0
176
     1
 90
       50
176
     1
 90
        3
176
     1
 62
     5
420
      255
176
     1
290
     0
176
     1
 90
       50
176
     1
 90
       50
176
     1
 90
       50
176
     1
290
     0
176
     1
 90
       50
176
     1
 62
   256
176
     0
 40
1.0
176
     0
 90
        2
176
     1
  1
strokes_ogs.tif
176
     1
290
     0
176
     1
 40
1.0
176
     1
 40
1.0
176
     1
  0
VISUALSTYLE
  5
31
102
{ACAD_REACTORS
330
2A
102
}
330
2A
100
AcDbVisualStyle
  2
Hidden
 70
     6
177
     3
291
     0
 70
    58
 90
        1
176
     1
 90
        2
176
     1
 90
        2
176
     1
 90
        0
176
     1
 40
0.6
176
     1
 40
30.0
176
     1
 62
     7
420
 16777215
176
     1
 90
        2
176
     1
 90
        2
176
     1
 62
     7
176
     1
 62
   257
176
     1
 90
        2
176
     1
 90
        1
176
     1
 40
40.0
176
     1
 90
        0
176
     1
 62
   257
176
     1
 40
1.0
176
     1
 90
        1
176
     1
 90
        6
176
     1
 90
        2
176
     1
 62
     7
176
     1
 90
        3
176
     1
 90
        0
176
     1
 90
        0
176
     1
290
     0
176
     1
 90
        1
176
     1
 40
0.0
176
     1
 90
        0
176
     1
290
     0
176
     1
290
     1
176
     1
290
     1
176
     1
290
     0
176
     1
290
     0
176
     1
290
     0
176
     1
290
     0
176
     1
290
     0
176
     1
290
     0
176
     1
 90
       50
176
     1
 40
0.0
176
     1
 40
1.0
176
     1
 90
        0
176
     1
 62
    18
420
        0
176
     1
 90
       50
176
     1
 90
        3
176
     1
 62
     5
420
      255
176
     1
290
     0
176
     1
 90
       50
176
     1
 90
       50
176
     1
 90
       50
176
     1
290
     0
176
     1
 90
       50
176
     1
 62
   256
176
     0
 40
1.0
176
     0
 90
        2
176
     1
  1
strokes_ogs.tif
176
     1
290
     0
176
     1
 40
1.0
176
     1
 40
1.0
176
     1
  0
VISUALSTYLE
  5
3B
102
{ACAD_REACTORS
330
2A
102
}
330
2A
100
AcDbVisualStyle
  2
JitterOff
 70
    20
177
     3
291
     1
 70
    58
 90
        2
176
     0
 90
        2
176
     0
 90
        0
176
     0
 90
        0
176
     0
 40
0.6
176
     0
 40
30.0
176
     0
 62
     7
420
 16777215
176
     0
 90
        1
176
     0
 90
        4
176
     0
 62
     7
176
     0
 62
   257
176
     0
 90
        1
176
     0
 90
        1
176
     0
 40
1.0
176
     0
 90
       10
176
     2
 62
     7
176
     0
 40
1.0
176
     0
 90
        1
176
     0
 90
        6
176
     0
 90
        2
176
     0
 62
     7
176
     0
 90
        5
176
     0
 90
        0
176
     0
 90
        0
176
     0
290
     0
176
     0
 90
        1
176
     0
 40
0.0
176
     0
 90
        0
176
     0
290
     0
176
     0
290
     1
176
     0
290
     1
176
     0
290
     0
176
     0
290
     0
176
     0
290
     0
176
     0
290
     0
176
     0
290
     0
176
     0
290
     0
176
     0
 90
       50
176
     0
 40
0.0
176
     0
 40
1.0
176
     0
 90
        0
176
     0
 62
    18
420
        0
176
     0
 90
       50
176
     0
 90
        3
176
     0
 62
     5
420
      255
176
     0
290
     0
176
     0
 90
       50
176
     0
 90
       50
176
     0
 90
       50
176
     0
290
     0
176
     0
 90
       50
176
     0
 62
   256
176
     0
 40
1.0
176
     0
 90
        2
176
     0
  1
strokes_ogs.tif
176
     0
290
     0
176
     0
 40
1.0
176
     0
 40
1.0
176
     0
  0
VISUALSTYLE
  5
38
102
{ACAD_REACTORS
330
2A
102
}
330
2A
100
AcDbVisualStyle
  2
Linepattern
 70
    14
177
     3
291
     1
 70
    58
 90
        2
176
     1
 90
        2
176
     1
 90
        0
176
     1
 90
        0
176
     1
 40
0.6
176
     1
 40
30.0
176
     1
 62
     7
420
 16777215
176
     1
 90
        1
176
     1
 90
        4
176
     1
 62
     7
176
     1
 62
   257
176
     1
 90
        7
176
     1
 90
        7
176
     1
 40
1.0
176
     1
 90
        8
176
     1
 62
     7
176
     1
 40
1.0
176
     1
 90
        1
176
     1
 90
        6
176
     1
 90
        2
176
     1
 62
     7
176
     1
 90
        5
176
     1
 90
        0
176
     1
 90
        0
176
     1
290
     0
176
     1
 90
        1
176
     1
 40
0.0
176
     1
 90
        0
176
     1
290
     0
176
     1
290
     1
176
     1
290
     1
176
     1
290
     0
176
     1
290
     0
176
     1
290
     0
176
     1
290
     0
176
     1
290
     0
176
     1
290
     0
176
     1
 90
       50
176
     1
 40
0.0
176
     1
 40
1.0
176
     1
 90
        0
176
     1
 62
    18
420
        0
176
     1
 90
       50
176
     1
 90
        3
176
     1
 62
     5
420
      255
176
     1
290
     0
176
     1
 90
       50
176
     1
 90
       50
176
     1
 90
       50
176
     1
290
     0
176
     1
 90
       50
176
     1
 62
   256
176
     0
 40
1.0
176
     0
 90
        2
176
     1
  1
strokes_ogs.tif
176
     1
290
     0
176
     1
 40
1.0
176
     1
 40
1.0
176
     1
  0
VISUALSTYLE
  5
3C
102
{ACAD_REACTORS
330
2A
102
}
330
2A
100
AcDbVisualStyle
  2
OverhangOff
 70
    21
177
     3
291
     1
 70
    58
 90
        2
176
     0
 90
        2
176
     0
 90
        0
176
     0
 90
        0
176
     0
 40
0.6
176
     0
 40
30.0
176
     0
 62
     7
420
 16777215
176
     0
 90
        1
176
     0
 90
        4
176
     0
 62
     7
176
     0
 62
   257
176
     0
 90
        1
176
     0
 90
        1
176
     0
 40
1.0
176
     0
 90
        9
176
     2
 62
     7
176
     0
 40
1.0
176
     0
 90
        1
176
     0
 90
        6
176
     0
 90
        2
176
     0
 62
     7
176
     0
 90
        5
176
     0
 90
        0
176
     0
 90
        0
176
     0
290
     0
176
     0
 90
        1
176
     0
 40
0.0
176
     0
 90
        0
176
     0
290
     0
176
     0
290
     1
176
     0
290
     1
176
     0
290
     0
176
     0
290
     0
176
     0
290
     0
176
     0
290
     0
176
     0
290
     0
176
     0
290
     0
176
     0
 90
       50
176
     0
 40
0.0
176
     0
 40
1.0
176
     0
 90
        0
176
     0
 62
    18
420
        0
176
     0
 90
       50
176
     0
 90
        3
176
     0
 62
     5
420
      255
176
     0
290
     0
176
     0
 90
       50
176
     0
 90
       50
176
     0
 90
       50
176
     0
290
     0
176
     0
 90
       50
176
     0
 62
   256
176
     0
 40
1.0
176
     0
 90
        2
176
     0
  1
strokes_ogs.tif
176
     0
290
     0
176
     0
 40
1.0
176
     0
 40
1.0
176
     0
  0
VISUALSTYLE
  5
33
102
{ACAD_REACTORS
330
2A
102
}
330
2A
100
AcDbVisualStyle
  2
Realistic
 70
     8
177
     3
291
     0
 70
    58
 90
        2
176
     1
 90
        3
176
     1
 90
        0
176
     1
 90
        2
176
     1
 40
0.6
176
     1
 40
30.0
176
     1
 62
     7
420
 16777215
176
     1
 90
        0
176
     1
 90
        0
176
     1
 62
     7
176
     1
 62
   257
176
     1
 90
        1
176
     1
 90
        1
176
     1
 40
1.0
176
     1
 90
        8
176
     1
 62
   257
176
     1
 40
1.0
176
     1
 90
        1
176
     1
 90
        6
176
     1
 90
        2
176
     1
 62
     7
176
     1
 90
        3
176
     1
 90
        0
176
     1
 90
        0
176
     1
290
     0
176
     1
 90
       13
176
     1
 40
0.0
176
     1
 90
        0
176
     1
290
     0
176
     1
290
     1
176
     1
290
     1
176
     1
290
     0
176
     1
290
     0
176
     1
290
     0
176
     1
290
     0
176
     1
290
     0
176
     1
290
     0
176
     1
 90
       50
176
     1
 40
0.0
176
     1
 40
1.0
176
     1
 90
        0
176
     1
 62
    18
420
        0
176
     1
 90
       50
176
     1
 90
        3
176
     1
 62
     5
420
      255
176
     1
290
     0
176
     1
 90
       50
176
     1
 90
       50
176
     1
 90
       50
176
     1
290
     0
176
     1
 90
       50
176
     1
 62
   256
176
     0
 40
1.0
176
     0
 90
        2
176
     1
  1
strokes_ogs.tif
176
     1
290
     0
176
     1
 40
1.0
176
     1
 40
1.0
176
     1
  0
VISUALSTYLE
  5
42
102
{ACAD_REACTORS
330
2A
102
}
330
2A
100
AcDbVisualStyle
  2
Shaded
 70
    27
177
     3
291
     0
 70
    58
 90
        2
176
     1
 90
        2
176
     1
 90
        1
176
     1
 90
        2
176
     1
 40
0.6
176
     1
 40
30.0
176
     1
 62
     7
420
 16777215
176
     1
 90
        0
176
     1
 90
        4
176
     1
 62
     7
176
     1
 62
   257
176
     1
 90
        1
176
     1
 90
        1
176
     1
 40
1.0
176
     1
 90
        8
176
     1
 62
   257
176
     1
 40
1.0
176
     1
 90
        1
176
     1
 90
        6
176
     1
 90
        2
176
     1
 62
     8
420
  7895160
176
     1
 90
        3
176
     1
 90
        0
176
     1
 90
        0
176
     1
290
     0
176
     1
 90
        5
176
     1
 40
0.0
176
     1
 90
        0
176
     1
290
     0
176
     1
290
     1
176
     1
290
     1
176
     1
290
     0
176
     1
290
     0
176
     1
290
     0
176
     1
290
     0
176
     1
290
     0
176
     1
290
     0
176
     1
 90
       50
176
     1
 40
0.0
176
     1
 40
1.0
176
     1
 90
        0
176
     1
 62
    18
420
        0
176
     1
 90
       50
176
     1
 90
        3
176
     1
 62
     5
420
      255
176
     1
290
     0
176
     1
 90
       50
176
     1
 90
       50
176
     1
 90
       50
176
     1
290
     0
176
     1
 90
       50
176
     1
 62
   256
176
     0
 40
1.0
176
     0
 90
        2
176
     1
  1
strokes_ogs.tif
176
     1
290
     0
176
     1
 40
1.0
176
     1
 40
1.0
176
     1
  0
VISUALSTYLE
  5
41
102
{ACAD_REACTORS
330
2A
102
}
330
2A
100
AcDbVisualStyle
  2
Shaded with edges
 70
    26
177
     3
291
     0
 70
    58
 90
        2
176
     1
 90
        2
176
     1
 90
        1
176
     1
 90
        2
176
     1
 40
0.6
176
     1
 40
30.0
176
     1
 62
     7
420
 16777215
176
     1
 90
        1
176
     1
 90
       10
176
     1
 62
     7
176
     1
 62
   257
176
     1
 90
        2
176
     1
 90
        1
176
     1
 40
1.0
176
     1
 90
        8
176
     1
 62
   257
176
     1
 40
1.0
176
     1
 90
        1
176
     1
 90
        6
176
     1
 90
        2
176
     1
 62
     7
176
     1
 90
        3
176
     1
 90
        0
176
     1
 90
        0
176
     1
290
     0
176
     1
 90
        5
176
     1
 40
0.0
176
     1
 90
        0
176
     1
290
     0
176
     1
290
     1
176
     1
290
     1
176
     1
290
     0
176
     1
290
     0
176
     1
290
     0
176
     1
290
     0
176
     1
290
     0
176
     1
290
     0
176
     1
 90
       50
176
     1
 40
0.0
176
     1
 40
1.0
176
     1
 90
        0
176
     1
 62
    18
420
        0
176
     1
 90
       50
176
     1
 90
        3
176
     1
 62
     5
420
      255
176
     1
290
     0
176
     1
 90
       50
176
     1
 90
       50
176
     1
 90
       50
176
     1
290
     0
176
     1
 90
       50
176
     1
 62
   256
176
     0
 40
1.0
176
     0
 90
        2
176
     1
  1
strokes_ogs.tif
176
     1
290
     0
176
     1
 40
1.0
176
     1
 40
1.0
176
     1
  0
VISUALSTYLE
  5
3E
102
{ACAD_REACTORS
330
2A
102
}
330
2A
100
AcDbVisualStyle
  2
Shades of Gray
 70
    23
177
     3
291
     0
 70
    58
 90
        2
176
     1
 90
        2
176
     1
 90
        3
176
     1
 90
        0
176
     1
 40
0.6
176
     1
 40
30.0
176
     1
 62
     7
420
 16777215
176
     1
 90
        2
176
     1
 90
        2
176
     1
 62
     7
176
     1
 62
     7
176
     1
 90
        1
176
     1
 90
        1
176
     1
 40
40.0
176
     1
 90
        8
176
     1
 62
     7
176
     1
 40
1.0
176
     1
 90
        1
176
     1
 90
        6
176
     1
 90
        2
176
     1
 62
     7
176
     1
 90
        3
176
     1
 90
        0
176
     1
 90
        0
176
     1
290
     0
176
     1
 90
        1
176
     1
 40
0.0
176
     1
 90
        0
176
     1
290
     0
176
     1
290
     1
176
     1
290
     1
176
     1
290
     0
176
     1
290
     0
176
     1
290
     0
176
     1
290
     0
176
     1
290
     0
176
     1
290
     0
176
     1
 90
       50
176
     1
 40
0.0
176
     1
 40
1.0
176
     1
 90
        0
176
     1
 62
    18
420
        0
176
     1
 90
       50
176
     1
 90
        3
176
     1
 62
     5
420
      255
176
     1
290
     0
176
     1
 90
       50
176
     1
 90
       50
176
     1
 90
       50
176
     1
290
     0
176
     1
 90
       50
176
     1
 62
   256
176
     0
 40
1.0
176
     0
 90
        2
176
     1
  1
strokes_ogs.tif
176
     1
290
     0
176
     1
 40
1.0
176
     1
 40
1.0
176
     1
  0
VISUALSTYLE
  5
3F
102
{ACAD_REACTORS
330
2A
102
}
330
2A
100
AcDbVisualStyle
  2
Sketchy
 70
    24
177
     3
291
     0
 70
    58
 90
        1
176
     1
 90
        2
176
     1
 90
        2
176
     1
 90
        0
176
     1
 40
0.6
176
     1
 40
30.0
176
     1
 62
     7
420
 16777215
176
     1
 90
        2
176
     1
 90
        2
176
     1
 62
     7
176
     1
 62
     7
176
     1
 90
        1
176
     1
 90
        1
176
     1
 40
40.0
176
     1
 90
       11
176
     1
 62
     7
176
     1
 40
1.0
176
     1
 90
        1
176
     1
 90
        6
176
     1
 90
        2
176
     1
 62
     7
176
     1
 90
        6
176
     1
 90
        0
176
     1
 90
        0
176
     1
290
     0
176
     1
 90
        1
176
     1
 40
0.0
176
     1
 90
        0
176
     1
290
     0
176
     1
290
     1
176
     1
290
     1
176
     1
290
     0
176
     1
290
     0
176
     1
290
     0
176
     1
290
     0
176
     1
290
     0
176
     1
290
     0
176
     1
 90
       50
176
     1
 40
0.0
176
     1
 40
1.0
176
     1
 90
        0
176
     1
 62
    18
420
        0
176
     1
 90
       50
176
     1
 90
        3
176
     1
 62
     5
420
      255
176
     1
290
     0
176
     1
 90
       50
176
     1
 90
       50
176
     1
 90
       50
176
     1
290
     0
176
     1
 90
       50
176
     1
 62
   256
176
     0
 40
1.0
176
     0
 90
        2
176
     1
  1
strokes_ogs.tif
176
     1
290
     0
176
     1
 40
1.0
176
     1
 40
1.0
176
     1
  0
VISUALSTYLE
  5
37
102
{ACAD_REACTORS
330
2A
102
}
330
2A
100
AcDbVisualStyle
  2
Thicken
 70
    13
177
     3
291
     1
 70
    58
 90
        2
176
     1
 90
        2
176
     1
 90
        0
176
     1
 90
        0
176
     1
 40
0.6
176
     1
 40
30.0
176
     1
 62
     7
420
 16777215
176
     1
 90
        1
176
     1
 90
        4
176
     1
 62
     7
176
     1
 62
   257
176
     1
 90
        1
176
     1
 90
        1
176
     1
 40
1.0
176
     1
 90
       12
176
     1
 62
     7
176
     1
 40
1.0
176
     1
 90
        1
176
     1
 90
        6
176
     1
 90
        2
176
     1
 62
     7
176
     1
 90
        5
176
     1
 90
        0
176
     1
 90
        0
176
     1
290
     0
176
     1
 90
        1
176
     1
 40
0.0
176
     1
 90
        0
176
     1
290
     0
176
     1
290
     1
176
     1
290
     1
176
     1
290
     0
176
     1
290
     0
176
     1
290
     0
176
     1
290
     0
176
     1
290
     0
176
     1
290
     0
176
     1
 90
       50
176
     1
 40
0.0
176
     1
 40
1.0
176
     1
 90
        0
176
     1
 62
    18
420
        0
176
     1
 90
       50
176
     1
 90
        3
176
     1
 62
     5
420
      255
176
     1
290
     0
176
     1
 90
       50
176
     1
 90
       50
176
     1
 90
       50
176
     1
290
     0
176
     1
 90
       50
176
     1
 62
   256
176
     0
 40
1.0
176
     0
 90
        2
176
     1
  1
strokes_ogs.tif
176
     1
290
     0
176
     1
 40
1.0
176
     1
 40
1.0
176
     1
  0
VISUALSTYLE
  5
30
102
{ACAD_REACTORS
330
2A
102
}
330
2A
100
AcDbVisualStyle
  2
Wireframe
 70
     5
177
     3
291
     0
 70
    58
 90
        0
176
     1
 90
        2
176
     1
 90
        0
176
     1
 90
        0
176
     1
 40
0.6
176
     1
 40
30.0
176
     1
 62
     7
420
 16777215
176
     1
 90
        1
176
     1
 90
        4
176
     1
 62
     7
176
     1
 62
   257
176
     1
 90
        1
176
     1
 90
        1
176
     1
 40
1.0
176
     1
 90
        0
176
     1
 62
   257
176
     1
 40
1.0
176
     1
 90
        1
176
     1
 90
        6
176
     1
 90
        2
176
     1
 62
     7
176
     1
 90
        3
176
     1
 90
        0
176
     1
 90
        0
176
     1
290
     0
176
     1
 90
        1
176
     1
 40
0.0
176
     1
 90
        0
176
     1
290
     0
176
     1
290
     1
176
     1
290
     1
176
     1
290
     0
176
     1
290
     0
176
     1
290
     0
176
     1
290
     0
176
     1
290
     0
176
     1
290
     0
176
     1
 90
       50
176
     1
 40
0.0
176
     1
 40
1.0
176
     1
 90
        0
176
     1
 62
    18
420
        0
176
     1
 90
       50
176
     1
 90
        3
176
     1
 62
     5
420
      255
176
     1
290
     0
176
     1
 90
       50
176
     1
 90
       50
176
     1
 90
       50
176
     1
290
     0
176
     1
 90
       50
176
     1
 62
   256
176
     0
 40
1.0
176
     0
 90
        2
176
     1
  1
strokes_ogs.tif
176
     1
290
     0
176
     1
 40
1.0
176
     1
 40
1.0
176
     1
  0
VISUALSTYLE
  5
40
102
{ACAD_REACTORS
330
2A
102
}
330
2A
100
AcDbVisualStyle
  2
X-Ray
 70
    25
177
     3
291
     0
 70
    58
 90
        2
176
     1
 90
        2
176
     1
 90
        1
176
     1
 90
        1
176
     1
 40
0.5
176
     1
 40
30.0
176
     1
 62
     7
420
 16777215
176
     1
 90
        1
176
     1
 90
        0
176
     1
 62
     7
176
     1
 62
   257
176
     1
 90
        1
176
     1
 90
        1
176
     1
 40
1.0
176
     1
 90
        8
176
     1
 62
     7
176
     1
 40
1.0
176
     1
 90
        1
176
     1
 90
        6
176
     1
 90
        2
176
     1
 62
     7
176
     1
 90
        3
176
     1
 90
        0
176
     1
 90
        0
176
     1
290
     0
176
     1
 90
       13
176
     1
 40
0.0
176
     1
 90
        0
176
     1
290
     0
176
     1
290
     1
176
     1
290
     1
176
     1
290
     0
176
     1
290
     0
176
     1
290
     0
176
     1
290
     0
176
     1
290
     0
176
     1
290
     0
176
     1
 90
       50
176
     1
 40
0.0
176
     1
 40
1.0
176
     1
 90
        0
176
     1
 62
    18
420
        0
176
     1
 90
       50
176
     1
 90
        3
176
     1
 62
     5
420
      255
176
     1
290
     0
176
     1
 90
       50
176
     1
 90
       50
176
     1
 90
       50
176
     1
290
     0
176
     1
 90
       50
176
     1
 62
   256
176
     0
 40
1.0
176
     0
 90
        2
176
     1
  1
strokes_ogs.tif
176
     1
290
     0
176
     1
 40
1.0
176
     1
 40
1.0
176
     1
  0
DICTIONARYVAR
  5
92
102
{ACAD_REACTORS
330
91
102
}
330
91
100
DictionaryVariables
280
     0
  1
1:1
  0
DICTIONARYVAR
  5
97
102
{ACAD_REACTORS
330
91
102
}
330
91
100
DictionaryVariables
280
     0
  1
Standard
  0
DICTIONARYVAR
  5
96
102
{ACAD_REACTORS
330
91
102
}
330
91
100
DictionaryVariables
280
     0
  1
Standard
  0
DICTIONARY
  5
93
330
5A
100
AcDbDictionary
280
     1
281
     1
  3
ACAD_ROUNDTRIP_2008_TABLESTYLE_CELLSTYLEMAP
360
94
  0
CELLSTYLEMAP
  5
94
102
{ACAD_REACTORS
330
93
102
}
330
93
100
AcDbCellStyleMap
 90
        3
300
CELLSTYLE
  1
TABLEFORMAT_BEGIN
 90
        5
170
     1
 91
        0
 92
    32768
 62
   257
 93
        1
300
CONTENTFORMAT
  1
CONTENTFORMAT_BEGIN
 90
        0
 91
        0
 92
        4
 93
        0
300

 40
0.0
140
1.0
 94
        5
 62
     0
340
11
144
0.25
309
CONTENTFORMAT_END
171
     1
301
MARGIN
  1
CELLMARGIN_BEGIN
 40
0.06
 40
0.06
 40
0.06
 40
0.06
 40
0.06
 40
0.06
309
CELLMARGIN_END
 94
        6
 95
        1
302
GRIDFORMAT
  1
GRIDFORMAT_BEGIN
 90
        0
 91
        1
 62
     0
 92
       -2
340
14
 93
        0
 40
0.045
309
GRIDFORMAT_END
 95
        2
302
GRIDFORMAT
  1
GRIDFORMAT_BEGIN
 90
        0
 91
        1
 62
     0
 92
       -2
340
14
 93
        0
 40
0.045
309
GRIDFORMAT_END
 95
        4
302
GRIDFORMAT
  1
GRIDFORMAT_BEGIN
 90
        0
 91
        1
 62
     0
 92
       -2
340
14
 93
        0
 40
0.045
309
GRIDFORMAT_END
 95
        8
302
GRIDFORMAT
  1
GRIDFORMAT_BEGIN
 90
        0
 91
        1
 62
     0
 92
       -2
340
14
 93
        0
 40
0.045
309
GRIDFORMAT_END
 95
       16
302
GRIDFORMAT
  1
GRIDFORMAT_BEGIN
 90
        0
 91
        1
 62
     0
 92
       -2
340
14
 93
        0
 40
0.045
309
GRIDFORMAT_END
 95
       32
302
GRIDFORMAT
  1
GRIDFORMAT_BEGIN
 90
        0
 91
        1
 62
     0
 92
       -2
340
14
 93
        0
 40
0.045
309
GRIDFORMAT_END
309
TABLEFORMAT_END
  1
CELLSTYLE_BEGIN
 90
        1
 91
        1
300
_TITLE
309
CELLSTYLE_END
300
CELLSTYLE
  1
TABLEFORMAT_BEGIN
 90
        5
170
     1
 91
        0
 92
        0
 62
   257
 93
        1
300
CONTENTFORMAT
  1
CONTENTFORMAT_BEGIN
 90
        0
 91
        0
 92
        4
 93
        0
300

 40
0.0
140
1.0
 94
        5
 62
     0
340
11
144
0.18
309
CONTENTFORMAT_END
171
     1
301
MARGIN
  1
CELLMARGIN_BEGIN
 40
0.06
 40
0.06
 40
0.06
 40
0.06
 40
0.06
 40
0.06
309
CELLMARGIN_END
 94
        6
 95
        1
302
GRIDFORMAT
  1
GRIDFORMAT_BEGIN
 90
        0
 91
        1
 62
     0
 92
       -2
340
14
 93
        0
 40
0.045
309
GRIDFORMAT_END
 95
        2
302
GRIDFORMAT
  1
GRIDFORMAT_BEGIN
 90
        0
 91
        1
 62
     0
 92
       -2
340
14
 93
        0
 40
0.045
309
GRIDFORMAT_END
 95
        4
302
GRIDFORMAT
  1
GRIDFORMAT_BEGIN
 90
        0
 91
        1
 62
     0
 92
       -2
340
14
 93
        0
 40
0.045
309
GRIDFORMAT_END
 95
        8
302
GRIDFORMAT
  1
GRIDFORMAT_BEGIN
 90
        0
 91
        1
 62
     0
 92
       -2
340
14
 93
        0
 40
0.045
309
GRIDFORMAT_END
 95
       16
302
GRIDFORMAT
  1
GRIDFORMAT_BEGIN
 90
        0
 91
        1
 62
     0
 92
       -2
340
14
 93
        0
 40
0.045
309
GRIDFORMAT_END
 95
       32
302
GRIDFORMAT
  1
GRIDFORMAT_BEGIN
 90
        0
 91
        1
 62
     0
 92
       -2
340
14
 93
        0
 40
0.045
309
GRIDFORMAT_END
309
TABLEFORMAT_END
  1
CELLSTYLE_BEGIN
 90
        2
 91
        1
300
_HEADER
309
CELLSTYLE_END
300
CELLSTYLE
  1
TABLEFORMAT_BEGIN
 90
        5
170
     1
 91
        0
 92
        0
 62
   257
 93
        1
300
CONTENTFORMAT
  1
CONTENTFORMAT_BEGIN
 90
        0
 91
        0
 92
        4
 93
        0
300

 40
0.0
140
1.0
 94
        2
 62
     0
340
11
144
0.18
309
CONTENTFORMAT_END
171
     1
301
MARGIN
  1
CELLMARGIN_BEGIN
 40
0.06
 40
0.06
 40
0.06
 40
0.06
 40
0.06
 40
0.06
309
CELLMARGIN_END
 94
        6
 95
        1
302
GRIDFORMAT
  1
GRIDFORMAT_BEGIN
 90
        0
 91
        1
 62
     0
 92
       -2
340
14
 93
        0
 40
0.045
309
GRIDFORMAT_END
 95
        2
302
GRIDFORMAT
  1
GRIDFORMAT_BEGIN
 90
        0
 91
        1
 62
     0
 92
       -2
340
14
 93
        0
 40
0.045
309
GRIDFORMAT_END
 95
        4
302
GRIDFORMAT
  1
GRIDFORMAT_BEGIN
 90
        0
 91
        1
 62
     0
 92
       -2
340
14
 93
        0
 40
0.045
309
GRIDFORMAT_END
 95
        8
302
GRIDFORMAT
  1
GRIDFORMAT_BEGIN
 90
        0
 91
        1
 62
     0
 92
       -2
340
14
 93
        0
 40
0.045
309
GRIDFORMAT_END
 95
       16
302
GRIDFORMAT
  1
GRIDFORMAT_BEGIN
 90
        0
 91
        1
 62
     0
 92
       -2
340
14
 93
        0
 40
0.045
309
GRIDFORMAT_END
 95
       32
302
GRIDFORMAT
  1
GRIDFORMAT_BEGIN
 90
        0
 91
        1
 62
     0
 92
       -2
340
14
 93
        0
 40
0.045
309
GRIDFORMAT_END
309
TABLEFORMAT_END
  1
CELLSTYLE_BEGIN
 90
        3
 91
        2
300
_DATA
309
CELLSTYLE_END
  0
ENDSEC
  0
EOF
