  0
SECTION
  2
HEADER
  9
$ACADVER
  1
AC1027
  9
$ACADMAINTVER
 70
   105
  9
$DWGCODEPAGE
  3
ANSI_1252
  9
$LASTSAVEDBY
  1
Office Desk
  9
$REQUIREDVERSIONS
160
                 0
  9
$INSBASE
 10
0.0
 20
0.0
 30
0.0
  9
$EXTMIN
 10
227.3306
 20
-209.6391
 30
0.0
  9
$EXTMAX
 10
914.4579
 20
321.0045
 30
0.0
  9
$LIMMIN
 10
0.0
 20
0.0
  9
$LIMMAX
 10
12.0
 20
9.0
  9
$ORTHOMODE
 70
     0
  9
$REGENMODE
 70
     1
  9
$FILLMODE
 70
     1
  9
$QTEXTMODE
 70
     0
  9
$MIRRTEXT
 70
     1
  9
$LTSCALE
 40
1.0
  9
$ATTMODE
 70
     1
  9
$TEXTSIZE
 40
0.2
  9
$TRACEWID
 40
0.05
  9
$TEXTSTYLE
  7
Standard
  9
$CLAYER
  8
0
  9
$CELTYPE
  6
ByLayer
  9
$CECOLOR
 62
   256
  9
$CELTSCALE
 40
1.0
  9
$DISPSILH
 70
     0
  9
$DIMSCALE
 40
1.0
  9
$DIMASZ
 40
0.18
  9
$DIMEXO
 40
0.0625
  9
$DIMDLI
 40
0.38
  9
$DIMRND
 40
0.0
  9
$DIMDLE
 40
0.0
  9
$DIMEXE
 40
0.18
  9
$DIMTP
 40
0.0
  9
$DIMTM
 40
0.0
  9
$DIMTXT
 40
0.18
  9
$DIMCEN
 40
0.09
  9
$DIMTSZ
 40
0.0
  9
$DIMTOL
 70
     0
  9
$DIMLIM
 70
     0
  9
$DIMTIH
 70
     1
  9
$DIMTOH
 70
     1
  9
$DIMSE1
 70
     0
  9
$DIMSE2
 70
     0
  9
$DIMTAD
 70
     0
  9
$DIMZIN
 70
     0
  9
$DIMBLK
  1

  9
$DIMASO
 70
     1
  9
$DIMSHO
 70
     1
  9
$DIMPOST
  1

  9
$DIMAPOST
  1

  9
$DIMALT
 70
     0
  9
$DIMALTD
 70
     2
  9
$DIMALTF
 40
25.4
  9
$DIMLFAC
 40
1.0
  9
$DIMTOFL
 70
     0
  9
$DIMTVP
 40
0.0
  9
$DIMTIX
 70
     0
  9
$DIMSOXD
 70
     0
  9
$DIMSAH
 70
     0
  9
$DIMBLK1
  1

  9
$DIMBLK2
  1

  9
$DIMSTYLE
  2
Standard
  9
$DIMCLRD
 70
     0
  9
$DIMCLRE
 70
     0
  9
$DIMCLRT
 70
     0
  9
$DIMTFAC
 40
1.0
  9
$DIMGAP
 40
0.09
  9
$DIMJUST
 70
     0
  9
$DIMSD1
 70
     0
  9
$DIMSD2
 70
     0
  9
$DIMTOLJ
 70
     1
  9
$DIMTZIN
 70
     0
  9
$DIMALTZ
 70
     0
  9
$DIMALTTZ
 70
     0
  9
$DIMUPT
 70
     0
  9
$DIMDEC
 70
     4
  9
$DIMTDEC
 70
     4
  9
$DIMALTU
 70
     2
  9
$DIMALTTD
 70
     2
  9
$DIMTXSTY
  7
Standard
  9
$DIMAUNIT
 70
     0
  9
$DIMADEC
 70
     0
  9
$DIMALTRND
 40
0.0
  9
$DIMAZIN
 70
     0
  9
$DIMDSEP
 70
    46
  9
$DIMATFIT
 70
     3
  9
$DIMFRAC
 70
     0
  9
$DIMLDRBLK
  1

  9
$DIMLUNIT
 70
     2
  9
$DIMLWD
 70
    -2
  9
$DIMLWE
 70
    -2
  9
$DIMTMOVE
 70
     0
  9
$DIMFXL
 40
1.0
  9
$DIMFXLON
 70
     0
  9
$DIMJOGANG
 40
0.7853981633974483
  9
$DIMTFILL
 70
     0
  9
$DIMTFILLCLR
 70
     0
  9
$DIMARCSYM
 70
     0
  9
$DIMLTYPE
  6

  9
$DIMLTEX1
  6

  9
$DIMLTEX2
  6

  9
$DIMTXTDIRECTION
 70
     0
  9
$LUNITS
 70
     2
  9
$LUPREC
 70
     4
  9
$SKETCHINC
 40
0.1
  9
$FILLETRAD
 40
0.0
  9
$AUNITS
 70
     0
  9
$AUPREC
 70
     0
  9
$MENU
  1
.
  9
$ELEVATION
 40
0.0
  9
$PELEVATION
 40
0.0
  9
$THICKNESS
 40
0.0
  9
$LIMCHECK
 70
     0
  9
$CHAMFERA
 40
0.0
  9
$CHAMFERB
 40
0.0
  9
$CHAMFERC
 40
0.0
  9
$CHAMFERD
 40
0.0
  9
$SKPOLY
 70
     0
  9
$TDCREATE
 40
2461013.66877588
  9
$TDUCREATE
 40
2461013.439609213
  9
$TDUPDATE
 40
2461013.668776123
  9
$TDUUPDATE
 40
2461013.439609456
  9
$TDINDWG
 40
0.0000000116
  9
$TDUSRTIMER
 40
0.0000000116
  9
$USRTIMER
 70
     1
  9
$ANGBASE
 50
0.0
  9
$ANGDIR
 70
     0
  9
$PDMODE
 70
     0
  9
$PDSIZE
 40
0.0
  9
$PLINEWID
 40
0.0
  9
$SPLFRAME
 70
     0
  9
$SPLINETYPE
 70
     6
  9
$SPLINESEGS
 70
     8
  9
$HANDSEED
  5
92
  9
$SURFTAB1
 70
     6
  9
$SURFTAB2
 70
     6
  9
$SURFTYPE
 70
     6
  9
$SURFU
 70
     6
  9
$SURFV
 70
     6
  9
$UCSBASE
  2

  9
$UCSNAME
  2

  9
$UCSORG
 10
0.0
 20
0.0
 30
0.0
  9
$UCSXDIR
 10
1.0
 20
0.0
 30
0.0
  9
$UCSYDIR
 10
0.0
 20
1.0
 30
0.0
  9
$UCSORTHOREF
  2

  9
$UCSORTHOVIEW
 70
     0
  9
$UCSORGTOP
 10
0.0
 20
0.0
 30
0.0
  9
$UCSORGBOTTOM
 10
0.0
 20
0.0
 30
0.0
  9
$UCSORGLEFT
 10
0.0
 20
0.0
 30
0.0
  9
$UCSORGRIGHT
 10
0.0
 20
0.0
 30
0.0
  9
$UCSORGFRONT
 10
0.0
 20
0.0
 30
0.0
  9
$UCSORGBACK
 10
0.0
 20
0.0
 30
0.0
  9
$PUCSBASE
  2

  9
$PUCSNAME
  2

  9
$PUCSORG
 10
0.0
 20
0.0
 30
0.0
  9
$PUCSXDIR
 10
1.0
 20
0.0
 30
0.0
  9
$PUCSYDIR
 10
0.0
 20
1.0
 30
0.0
  9
$PUCSORTHOREF
  2

  9
$PUCSORTHOVIEW
 70
     0
  9
$PUCSORGTOP
 10
0.0
 20
0.0
 30
0.0
  9
$PUCSORGBOTTOM
 10
0.0
 20
0.0
 30
0.0
  9
$PUCSORGLEFT
 10
0.0
 20
0.0
 30
0.0
  9
$PUCSORGRIGHT
 10
0.0
 20
0.0
 30
0.0
  9
$PUCSORGFRONT
 10
0.0
 20
0.0
 30
0.0
  9
$PUCSORGBACK
 10
0.0
 20
0.0
 30
0.0
  9
$USERI1
 70
     0
  9
$USERI2
 70
     0
  9
$USERI3
 70
     0
  9
$USERI4
 70
     0
  9
$USERI5
 70
     0
  9
$USERR1
 40
0.0
  9
$USERR2
 40
0.0
  9
$USERR3
 40
0.0
  9
$USERR4
 40
0.0
  9
$USERR5
 40
0.0
  9
$WORLDVIEW
 70
     1
  9
$SHADEDGE
 70
     3
  9
$SHADEDIF
 70
    70
  9
$TILEMODE
 70
     1
  9
$MAXACTVP
 70
    64
  9
$PINSBASE
 10
0.0
 20
0.0
 30
0.0
  9
$PLIMCHECK
 70
     0
  9
$PEXTMIN
 10
1.000000000000000E+20
 20
1.000000000000000E+20
 30
1.000000000000000E+20
  9
$PEXTMAX
 10
-1.000000000000000E+20
 20
-1.000000000000000E+20
 30
-1.000000000000000E+20
  9
$PLIMMIN
 10
0.0
 20
0.0
  9
$PLIMMAX
 10
12.0
 20
9.0
  9
$UNITMODE
 70
     0
  9
$VISRETAIN
 70
     1
  9
$PLINEGEN
 70
     0
  9
$PSLTSCALE
 70
     1
  9
$TREEDEPTH
 70
  3020
  9
$CMLSTYLE
  2
Standard
  9
$CMLJUST
 70
     0
  9
$CMLSCALE
 40
1.0
  9
$PROXYGRAPHICS
 70
     1
  9
$MEASUREMENT
 70
     0
  9
$CELWEIGHT
370
    -1
  9
$ENDCAPS
280
     0
  9
$JOINSTYLE
280
     0
  9
$LWDISPLAY
290
     0
  9
$INSUNITS
 70
     4
  9
$HYPERLINKBASE
  1

  9
$STYLESHEET
  1

  9
$XEDIT
290
     1
  9
$CEPSNTYPE
380
     0
  9
$PSTYLEMODE
290
     1
  9
$FINGERPRINTGUID
  2
{bed20179-cb0d-4d54-af18-c114b080aa12}
  9
$VERSIONGUID
  2
{FAEB1C32-E019-11D5-929B-00C0DF256EC4}
  9
$EXTNAMES
290
     1
  9
$PSVPSCALE
 40
0.0
  9
$OLESTARTUP
290
     0
  9
$SORTENTS
280
   127
  9
$INDEXCTL
280
     0
  9
$HIDETEXT
280
     1
  9
$XCLIPFRAME
280
     2
  9
$HALOGAP
280
     0
  9
$OBSCOLOR
 70
   257
  9
$OBSLTYPE
280
     0
  9
$INTERSECTIONDISPLAY
280
     0
  9
$INTERSECTIONCOLOR
 70
   257
  9
$DIMASSOC
280
     2
  9
$PROJECTNAME
  1

  9
$CAMERADISPLAY
290
     0
  9
$LENSLENGTH
 40
50.0
  9
$CAMERAHEIGHT
 40
0.0
  9
$STEPSPERSEC
 40
2.0
  9
$STEPSIZE
 40
6.0
  9
$3DDWFPREC
 40
2.0
  9
$PSOLWIDTH
 40
0.25
  9
$PSOLHEIGHT
 40
4.0
  9
$LOFTANG1
 40
1.570796326794897
  9
$LOFTANG2
 40
1.570796326794897
  9
$LOFTMAG1
 40
0.0
  9
$LOFTMAG2
 40
0.0
  9
$LOFTPARAM
 70
     7
  9
$LOFTNORMALS
280
     1
  9
$LATITUDE
 40
37.795
  9
$LONGITUDE
 40
-122.394
  9
$NORTHDIRECTION
 40
0.0
  9
$TIMEZONE
 70
 -8000
  9
$LIGHTGLYPHDISPLAY
280
     1
  9
$TILEMODELIGHTSYNCH
280
     1
  9
$CMATERIAL
347
44
  9
$SOLIDHIST
280
     0
  9
$SHOWHIST
280
     1
  9
$DWFFRAME
280
     2
  9
$DGNFRAME
280
     2
  9
$REALWORLDSCALE
290
     1
  9
$INTERFERECOLOR
 62
   256
  9
$CSHADOW
280
     0
  9
$SHADOWPLANELOCATION
 40
0.0
  0
ENDSEC
  0
SECTION
  2
CLASSES
  0
CLASS
  1
ACDBDICTIONARYWDFLT
  2
AcDbDictionaryWithDefault
  3
ObjectDBX Classes
 90
        0
 91
        3
280
     0
281
     0
  0
CLASS
  1
VISUALSTYLE
  2
AcDbVisualStyle
  3
ObjectDBX Classes
 90
     4095
 91
        3
280
     0
281
     0
  0
CLASS
  1
MATERIAL
  2
AcDbMaterial
  3
ObjectDBX Classes
 90
     1153
 91
        3
280
     0
281
     0
  0
CLASS
  1
SCALE
  2
AcDbScale
  3
ObjectDBX Classes
 90
     1153
 91
        3
280
     0
281
     0
  0
CLASS
  1
TABLESTYLE
  2
AcDbTableStyle
  3
ObjectDBX Classes
 90
     4095
 91
        3
280
     0
281
     0
  0
CLASS
  1
MLEADERSTYLE
  2
AcDbMLeaderStyle
  3
ACDB_MLEADERSTYLE_CLASS
 90
     4095
 91
        3
280
     0
281
     0
  0
CLASS
  1
SUN
  2
AcDbSun
  3
SCENEOE
 90
     1153
 91
        3
280
     0
281
     0
  0
CLASS
  1
DICTIONARYVAR
  2
AcDbDictionaryVar
  3
ObjectDBX Classes
 90
        0
 91
        3
280
     0
281
     0
  0
CLASS
  1
CELLSTYLEMAP
  2
AcDbCellStyleMap
  3
ObjectDBX Classes
 90
     1152
 91
        3
280
     0
281
     0
  0
ENDSEC
  0
SECTION
  2
TABLES
  0
TABLE
  2
VPORT
  5
8
330
0
100
AcDbSymbolTable
 70
     1
  0
VPORT
  5
29
330
8
100
AcDbSymbolTableRecord
100
AcDbViewportTableRecord
  2
*Active
 70
     0
 10
0.0
 20
0.0
 11
1.0
 21
1.0
 12
10.42990654205607
 22
4.5
 13
0.0
 23
0.0
 14
0.5
 24
0.5
 15
0.5
 25
0.5
 16
0.0
 26
0.0
 36
1.0
 17
0.0
 27
0.0
 37
0.0
 40
9.0
 41
1.972972972850329
 42
50.0
 43
0.0
 44
0.0
 50
0.0
 51
0.0
 71
     0
 72
   100
 73
     1
 74
     3
 75
     0
 76
     0
 77
     0
 78
     0
281
     0
 65
     1
110
0.0
120
0.0
130
0.0
111
1.0
121
0.0
131
0.0
112
0.0
122
1.0
132
0.0
 79
     0
146
0.0
348
2F
 60
     3
 61
     5
292
     1
282
     1
141
0.0
142
0.0
 63
   250
361
5D
  0
ENDTAB
  0
TABLE
  2
LTYPE
  5
5
330
0
100
AcDbSymbolTable
 70
     1
  0
LTYPE
  5
14
330
5
100
AcDbSymbolTableRecord
100
AcDbLinetypeTableRecord
  2
ByBlock
 70
     0
  3

 72
    65
 73
     0
 40
0.0
  0
LTYPE
  5
15
330
5
100
AcDbSymbolTableRecord
100
AcDbLinetypeTableRecord
  2
ByLayer
 70
     0
  3

 72
    65
 73
     0
 40
0.0
  0
LTYPE
  5
16
330
5
100
AcDbSymbolTableRecord
100
AcDbLinetypeTableRecord
  2
Continuous
 70
     0
  3
Solid line
 72
    65
 73
     0
 40
0.0
  0
ENDTAB
  0
TABLE
  2
LAYER
  5
2
330
0
100
AcDbSymbolTable
 70
     2
  0
LAYER
  5
10
330
2
100
AcDbSymbolTableRecord
100
AcDbLayerTableRecord
  2
0
 70
     0
 62
     7
  6
Continuous
370
    -3
390
F
347
46
348
0
  0
LAYER
  5
5F
330
2
100
AcDbSymbolTableRecord
100
AcDbLayerTableRecord
  2
Layer 1
 70
     0
 62
     7
  6
Continuous
370
    -3
390
F
347
46
348
0
  0
ENDTAB
  0
TABLE
  2
STYLE
  5
3
330
0
100
AcDbSymbolTable
 70
     1
  0
STYLE
  5
11
330
3
100
AcDbSymbolTableRecord
100
AcDbTextStyleTableRecord
  2
Standard
 70
     0
 40
0.0
 41
1.0
 50
0.0
 71
     0
 42
0.2
  3
txt
  4

  0
ENDTAB
  0
TABLE
  2
VIEW
  5
6
330
0
100
AcDbSymbolTable
 70
     0
  0
ENDTAB
  0
TABLE
  2
UCS
  5
7
330
0
100
AcDbSymbolTable
 70
     0
  0
ENDTAB
  0
TABLE
  2
APPID
  5
9
330
0
100
AcDbSymbolTable
 70
     2
  0
APPID
  5
12
330
9
100
AcDbSymbolTableRecord
100
AcDbRegAppTableRecord
  2
ACAD
 70
     0
  0
APPID
  5
5E
330
9
100
AcDbSymbolTableRecord
100
AcDbRegAppTableRecord
  2
ODA
 70
     0
  0
ENDTAB
  0
TABLE
  2
DIMSTYLE
  5
A
330
0
100
AcDbSymbolTable
 70
     1
100
AcDbDimStyleTable
  0
DIMSTYLE
105
27
330
A
100
AcDbSymbolTableRecord
100
AcDbDimStyleTableRecord
  2
Standard
 70
     0
178
     0
340
11
  0
ENDTAB
  0
TABLE
  2
BLOCK_RECORD
  5
1
330
0
100
AcDbSymbolTable
 70
     1
  0
BLOCK_RECORD
  5
1F
330
1
100
AcDbSymbolTableRecord
100
AcDbBlockTableRecord
  2
*Model_Space
340
22
 70
     0
280
     1
281
     0
  0
BLOCK_RECORD
  5
1B
330
1
100
AcDbSymbolTableRecord
100
AcDbBlockTableRecord
  2
*Paper_Space
340
1E
 70
     0
280
     1
281
     0
  0
BLOCK_RECORD
  5
23
330
1
100
AcDbSymbolTableRecord
100
AcDbBlockTableRecord
  2
*Paper_Space0
340
26
 70
     0
280
     1
281
     0
  0
ENDTAB
  0
ENDSEC
  0
SECTION
  2
BLOCKS
  0
BLOCK
  5
20
330
1F
100
AcDbEntity
  8
0
100
AcDbBlockBegin
  2
*Model_Space
 70
     0
 10
0.0
 20
0.0
 30
0.0
  3
*Model_Space
  1

  0
ENDBLK
  5
21
330
1F
100
AcDbEntity
  8
0
100
AcDbBlockEnd
  0
BLOCK
  5
1C
330
1B
100
AcDbEntity
 67
     1
  8
0
100
AcDbBlockBegin
  2
*Paper_Space
 70
     0
 10
0.0
 20
0.0
 30
0.0
  3
*Paper_Space
  1

  0
ENDBLK
  5
1D
330
1B
100
AcDbEntity
 67
     1
  8
0
100
AcDbBlockEnd
  0
BLOCK
  5
24
330
23
100
AcDbEntity
  8
0
100
AcDbBlockBegin
  2
*Paper_Space0
 70
     0
 10
0.0
 20
0.0
 30
0.0
  3
*Paper_Space0
  1

  0
ENDBLK
  5
25
330
23
100
AcDbEntity
  8
0
100
AcDbBlockEnd
  0
ENDSEC
  0
SECTION
  2
ENTITIES
  0
LWPOLYLINE
  5
60
330
1F
100
AcDbEntity
  8
Layer 1
 62
   250
370
    18
100
AcDbPolyline
 90
        5
 70
     1
 43
0.0
 10
227.4188
 20
-209.5509
 10
914.3696
 20
-209.5509
 10
914.3696
 20
320.9163
 10
227.4188
 20
320.9163
 10
227.4188
 20
-209.5509
  0
LWPOLYLINE
  5
61
330
1F
100
AcDbEntity
  8
Layer 1
 62
     7
370
     9
100
AcDbPolyline
 90
       35
 70
     1
 43
0.0
 10
389.3146
 20
86.505
 10
389.6398
 20
86.4715
 10
389.943
 20
86.3756
 10
390.2179
 20
86.2241
 10
390.458
 20
86.0241
 10
390.657
 20
85.7822
 10
390.8086
 20
85.5055
 10
390.9062
 20
85.2008
 10
390.9437
 20
84.875
 10
391.0039
 20
79.054
 10
390.9012
 20
72.9582
 10
390.4805
 20
66.9114
 10
389.5866
 20
61.2376
 10
388.0642
 20
56.2608
 10
385.7582
 20
52.3049
 10
382.5132
 20
49.6938
 10
378.1741
 20
48.7514
 10
301.0373
 20
48.7514
 10
296.6986
 20
49.6938
 10
293.4545
 20
52.3049
 10
291.1497
 20
56.2608
 10
289.6287
 20
61.2376
 10
288.7361
 20
66.9114
 10
288.3165
 20
72.9582
 10
288.2145
 20
79.054
 10
288.2746
 20
84.875
 10
288.3121
 20
85.2008
 10
288.4092
 20
85.5055
 10
288.56
 20
85.7822
 10
288.7582
 20
86.0241
 10
288.9979
 20
86.2241
 10
289.2729
 20
86.3756
 10
289.5772
 20
86.4715
 10
289.9047
 20
86.505
 10
389.3146
 20
86.505
  0
LWPOLYLINE
  5
62
330
1F
100
AcDbEntity
  8
Layer 1
 62
     7
370
    13
100
AcDbPolyline
 90
        2
 70
     0
 43
0.0
 10
271.709
 20
86.2287
 10
262.3662
 20
86.2287
  0
LWPOLYLINE
  5
63
330
1F
100
AcDbEntity
  8
Layer 1
 62
     7
370
    13
100
AcDbPolyline
 90
        2
 70
     0
 43
0.0
 10
271.709
 20
46.1648
 10
262.3662
 20
46.1648
  0
LWPOLYLINE
  5
64
330
1F
100
AcDbEntity
  8
Layer 1
 62
     7
370
    13
100
AcDbPolyline
 90
        2
 70
     0
 43
0.0
 10
267.499
 20
46.1648
 10
267.499
 20
58.3367
  0
LWPOLYLINE
  5
65
330
1F
100
AcDbEntity
  8
Layer 1
 62
     7
370
    13
100
AcDbPolyline
 90
        2
 70
     0
 43
0.0
 10
267.499
 20
86.8232
 10
267.499
 20
57.0868
  0
LWPOLYLINE
  5
66
330
1F
100
AcDbEntity
  8
Layer 1
 62
     7
370
    35
100
AcDbPolyline
 90
       49
 70
     1
 43
0.0
 10
567.2889
 20
187.2588
 10
593.0081
 20
189.3284
 10
618.7275
 20
190.8066
 10
644.447
 20
191.6936
 10
670.1666
 20
191.9892
 10
695.8861
 20
191.6936
 10
721.6056
 20
190.8066
 10
747.325
 20
189.3284
 10
773.0443
 20
187.2588
 10
799.6135
 20
182.2443
 10
821.1319
 20
172.865
 10
838.0646
 20
159.5365
 10
850.8762
 20
142.6749
 10
860.0317
 20
122.696
 10
865.9958
 20
100.0155
 10
869.2334
 20
75.0495
 10
870.2093
 20
48.2137
 10
869.2334
 20
21.3898
 10
865.9958
 20
-3.5804
 10
860.0317
 20
-26.2747
 10
850.8762
 20
-46.2709
 10
838.0646
 20
-63.1468
 10
821.1319
 20
-76.4804
 10
799.6135
 20
-85.8493
 10
773.0443
 20
-90.8314
 10
747.325
 20
-92.8752
 10
721.6056
 20
-94.3505
 10
695.8861
 20
-95.2496
 10
670.1666
 20
-95.5647
 10
644.447
 20
-95.2881
 10
618.7275
 20
-94.4122
 10
593.0081
 20
-92.9292
 10
567.2889
 20
-90.8314
 10
540.7201
 20
-85.7831
 10
519.2025
 20
-76.3927
 10
502.2711
 20
-63.0694
 10
489.4609
 20
-46.2227
 10
480.3069
 20
-26.2618
 10
474.3441
 20
-3.5959
 10
471.1074
 20
21.3657
 10
470.1318
 20
48.2137
 10
471.1074
 20
75.0495
 10
474.3441
 20
100.0155
 10
480.3069
 20
122.696
 10
489.4609
 20
142.6749
 10
502.2711
 20
159.5365
 10
519.2025
 20
172.865
 10
540.7201
 20
182.2443
 10
567.2889
 20
187.2588
  0
LWPOLYLINE
  5
67
330
1F
100
AcDbEntity
  8
Layer 1
 62
     7
370
    35
100
AcDbPolyline
 90
       33
 70
     1
 43
0.0
 10
670.1656
 20
75.1381
 10
675.8829
 20
74.5911
 10
681.2083
 20
73.0222
 10
686.0276
 20
70.5397
 10
690.2266
 20
67.2519
 10
693.6912
 20
63.2672
 10
696.3072
 20
58.6937
 10
697.9605
 20
53.6398
 10
698.537
 20
48.2137
 10
697.9605
 20
42.7876
 10
696.3072
 20
37.7337
 10
693.6912
 20
33.1602
 10
690.2266
 20
29.1754
 10
686.0276
 20
25.8876
 10
681.2083
 20
23.4051
 10
675.8829
 20
21.8362
 10
670.1656
 20
21.2892
 10
664.4489
 20
21.8362
 10
659.124
 20
23.4051
 10
654.3051
 20
25.8876
 10
650.1064
 20
29.1754
 10
646.6419
 20
33.1602
 10
644.026
 20
37.7337
 10
642.3727
 20
42.7876
 10
641.7962
 20
48.2137
 10
642.3727
 20
53.6398
 10
644.026
 20
58.6937
 10
646.6419
 20
63.2672
 10
650.1064
 20
67.2519
 10
654.3051
 20
70.5397
 10
659.124
 20
73.0222
 10
664.4489
 20
74.5911
 10
670.1656
 20
75.1381
  0
LWPOLYLINE
  5
68
330
1F
100
AcDbEntity
  8
Layer 1
 62
     7
370
    35
100
AcDbPolyline
 90
       33
 70
     1
 43
0.0
 10
670.1656
 20
61.6088
 10
673.0113
 20
61.3368
 10
675.6613
 20
60.5567
 10
678.0592
 20
59.3221
 10
680.1482
 20
57.6869
 10
681.8715
 20
55.7046
 10
683.1727
 20
53.4292
 10
683.9949
 20
50.9143
 10
684.2816
 20
48.2137
 10
683.9949
 20
45.5131
 10
683.1727
 20
42.9982
 10
681.8715
 20
40.7228
 10
680.1482
 20
38.7406
 10
678.0592
 20
37.1053
 10
675.6613
 20
35.8707
 10
673.0113
 20
35.0906
 10
670.1656
 20
34.8186
 10
667.3223
 20
35.0906
 10
664.6735
 20
35.8707
 10
662.2761
 20
37.1053
 10
660.187
 20
38.7406
 10
658.4631
 20
40.7228
 10
657.1613
 20
42.9982
 10
656.3385
 20
45.5131
 10
656.0516
 20
48.2137
 10
656.3385
 20
50.9143
 10
657.1613
 20
53.4292
 10
658.4631
 20
55.7046
 10
660.187
 20
57.6869
 10
662.2761
 20
59.3221
 10
664.6735
 20
60.5567
 10
667.3223
 20
61.3368
 10
670.1656
 20
61.6088
  0
LWPOLYLINE
  5
69
330
1F
100
AcDbEntity
  8
Layer 1
 62
     7
370
    35
100
AcDbPolyline
 90
        2
 70
     0
 43
0.0
 10
870.2093
 20
222.6376
 10
870.2093
 20
244.4342
  0
LWPOLYLINE
  5
6A
330
1F
100
AcDbEntity
  8
Layer 1
 62
     7
370
    35
100
AcDbPolyline
 90
        2
 70
     0
 43
0.0
 10
470.1318
 20
222.6376
 10
470.1318
 20
244.4342
  0
LWPOLYLINE
  5
6B
330
1F
100
AcDbEntity
  8
Layer 1
 62
     7
370
    35
100
AcDbPolyline
 90
        2
 70
     0
 43
0.0
 10
725.6139
 20
232.4604
 10
870.2093
 20
232.4604
  0
LWPOLYLINE
  5
6C
330
1F
100
AcDbEntity
  8
Layer 1
 62
     7
370
    35
100
AcDbPolyline
 90
        2
 70
     0
 43
0.0
 10
470.1318
 20
232.4604
 10
612.184
 20
232.4604
  0
LWPOLYLINE
  5
6D
330
1F
100
AcDbEntity
  8
Layer 1
 62
     7
370
    35
100
AcDbPolyline
 90
        2
 70
     0
 43
0.0
 10
438.1856
 20
194.6793
 10
415.2112
 20
194.6793
  0
LWPOLYLINE
  5
6E
330
1F
100
AcDbEntity
  8
Layer 1
 62
     7
370
    35
100
AcDbPolyline
 90
        2
 70
     0
 43
0.0
 10
438.1856
 20
-95.5585
 10
415.2112
 20
-95.5585
  0
LWPOLYLINE
  5
6F
330
1F
100
AcDbEntity
  8
Layer 1
 62
     7
370
    35
100
AcDbPolyline
 90
        2
 70
     0
 43
0.0
 10
427.8296
 20
101.849
 10
427.8296
 20
194.6793
  0
LWPOLYLINE
  5
70
330
1F
100
AcDbEntity
  8
Layer 1
 62
     7
370
    35
100
AcDbPolyline
 90
        2
 70
     0
 43
0.0
 10
427.8296
 20
-95.5585
 10
427.8296
 20
-5.2024
  0
LWPOLYLINE
  5
71
330
1F
100
AcDbEntity
  8
Layer 1
 62
     7
370
    35
100
AcDbPolyline
 90
        2
 70
     0
 43
0.0
 10
727.0179
 20
48.2137
 10
684.2816
 20
48.2137
  0
LWPOLYLINE
  5
72
330
1F
100
AcDbEntity
  8
Layer 1
 62
     7
370
    35
100
AcDbPolyline
 90
        2
 70
     0
 43
0.0
 10
599.0598
 20
48.2137
 10
641.7962
 20
48.2137
  0
LWPOLYLINE
  5
73
330
1F
100
AcDbEntity
  8
Layer 1
 62
     7
370
    35
100
AcDbPolyline
 90
       49
 70
     1
 43
0.0
 10
572.664
 20
181.5771
 10
597.232
 20
183.5549
 10
621.7994
 20
184.9676
 10
646.3663
 20
185.8152
 10
670.9331
 20
186.0977
 10
695.4997
 20
185.8152
 10
720.0664
 20
184.9676
 10
744.6334
 20
183.5549
 10
769.2007
 20
181.5771
 10
794.5783
 20
176.7872
 10
815.1312
 20
167.8279
 10
831.3035
 20
155.0965
 10
843.5394
 20
138.9902
 10
852.2831
 20
119.9061
 10
857.9787
 20
98.2416
 10
861.0704
 20
74.3938
 10
862.0022
 20
48.7599
 10
861.0704
 20
23.1388
 10
857.9787
 20
-0.7118
 10
852.2831
 20
-22.3887
 10
843.5394
 20
-41.4885
 10
831.3035
 20
-57.6078
 10
815.1312
 20
-70.3434
 10
794.5783
 20
-79.2918
 10
769.2007
 20
-84.0497
 10
744.6334
 20
-86.0015
 10
720.0664
 20
-87.4107
 10
695.4997
 20
-88.2697
 10
670.9331
 20
-88.5711
 10
646.3663
 20
-88.3073
 10
621.7994
 20
-87.4708
 10
597.232
 20
-86.0541
 10
572.664
 20
-84.0497
 10
547.2847
 20
-79.2273
 10
526.731
 20
-70.2573
 10
510.5585
 20
-57.5307
 10
498.323
 20
-41.4389
 10
489.5799
 20
-22.3728
 10
483.8851
 20
-0.7235
 10
480.794
 20
23.1177
 10
479.8624
 20
48.7599
 10
480.7943
 20
74.3938
 10
483.8859
 20
98.2416
 10
489.5815
 20
119.9061
 10
498.3252
 20
138.9902
 10
510.5612
 20
155.0965
 10
526.7335
 20
167.8279
 10
547.2864
 20
176.7872
 10
572.664
 20
181.5771
  0
LWPOLYLINE
  5
74
330
1F
100
AcDbEntity
  8
Layer 1
 62
     7
370
    18
100
AcDbPolyline
 90
      117
 70
     1
 43
0.0
 10
436.2603
 20
37.6863
 10
436.251
 20
37.2525
 10
436.2231
 20
36.8249
 10
436.1767
 20
36.4033
 10
436.1117
 20
35.9879
 10
436.0281
 20
35.5785
 10
435.9261
 20
35.1752
 10
435.8056
 20
34.778
 10
435.6667
 20
34.3869
 10
435.512
 20
34.0083
 10
435.3448
 20
33.6488
 10
435.1651
 20
33.3084
 10
434.973
 20
32.987
 10
434.7683
 20
32.6847
 10
434.5513
 20
32.4014
 10
434.3217
 20
32.1372
 10
434.0797
 20
31.8921
 10
432.699
 20
32.6967
 10
432.9064
 20
32.9007
 10
433.1047
 20
33.1215
 10
433.294
 20
33.3592
 10
433.4742
 20
33.6137
 10
433.6453
 20
33.8851
 10
433.8073
 20
34.1734
 10
433.9602
 20
34.4786
 10
434.1041
 20
34.8008
 10
434.2347
 20
35.1352
 10
434.348
 20
35.4771
 10
434.4438
 20
35.8265
 10
434.5222
 20
36.1834
 10
434.5831
 20
36.5478
 10
434.6267
 20
36.9198
 10
434.6528
 20
37.2993
 10
434.6615
 20
37.6863
 10
434.6471
 20
38.1719
 10
434.6039
 20
38.6285
 10
434.532
 20
39.056
 10
434.4312
 20
39.4543
 10
434.3017
 20
39.8236
 10
434.1434
 20
40.1637
 10
433.9563
 20
40.4747
 10
433.7404
 20
40.7566
 10
433.5003
 20
41.0072
 10
433.2406
 20
41.2244
 10
432.9612
 20
41.4081
 10
432.6621
 20
41.5585
 10
432.3433
 20
41.6754
 10
432.0048
 20
41.759
 10
431.6465
 20
41.8091
 10
431.2684
 20
41.8258
 10
430.8907
 20
41.8094
 10
430.5326
 20
41.7604
 10
430.1943
 20
41.6786
 10
429.8756
 20
41.5642
 10
429.5766
 20
41.4171
 10
429.2972
 20
41.2373
 10
429.0375
 20
41.0249
 10
428.7974
 20
40.7798
 10
428.5816
 20
40.4992
 10
428.3946
 20
40.1809
 10
428.2364
 20
39.825
 10
428.1071
 20
39.4313
 10
428.0065
 20
38.9999
 10
427.9347
 20
38.5308
 10
427.8916
 20
38.024
 10
427.8773
 20
37.4794
 10
427.8773
 20
36.3304
 10
426.5924
 20
36.3304
 10
420.0262
 20
41.2968
 10
420.7048
 20
41.5269
 10
420.7048
 20
32.5584
 10
419.1549
 20
32.5584
 10
419.1549
 20
42.9061
 10
420.3899
 20
42.9061
 10
426.9561
 20
37.9397
 10
426.3988
 20
37.135
 10
426.3988
 20
37.756
 10
426.42
 20
38.4574
 10
426.4837
 20
39.1132
 10
426.5897
 20
39.7234
 10
426.7382
 20
40.2879
 10
426.9291
 20
40.8069
 10
427.1624
 20
41.2802
 10
427.438
 20
41.708
 10
427.756
 20
42.0903
 10
428.1073
 20
42.427
 10
428.4828
 20
42.7189
 10
428.8825
 20
42.9658
 10
429.3064
 20
43.1679
 10
429.7545
 20
43.325
 10
430.2268
 20
43.4373
 10
430.7233
 20
43.5046
 10
431.244
 20
43.5271
 10
431.597
 20
43.517
 10
431.9409
 20
43.4869
 10
432.2757
 20
43.4366
 10
432.6013
 20
43.3662
 10
432.9179
 20
43.2756
 10
433.2253
 20
43.1649
 10
433.5236
 20
43.034
 10
433.8128
 20
42.8829
 10
434.0901
 20
42.7118
 10
434.3522
 20
42.5203
 10
434.5991
 20
42.3082
 10
434.8308
 20
42.0756
 10
435.0474
 20
41.8225
 10
435.2488
 20
41.5489
 10
435.435
 20
41.2549
 10
435.6061
 20
40.9404
 10
435.7594
 20
40.6054
 10
435.8923
 20
40.2499
 10
436.0047
 20
39.8738
 10
436.0967
 20
39.4773
 10
436.1683
 20
39.0602
 10
436.2194
 20
38.6227
 10
436.2501
 20
38.1647
 10
436.2603
 20
37.6863
  0
LWPOLYLINE
  5
75
330
1F
100
AcDbEntity
  8
Layer 1
 62
     7
370
    18
100
AcDbPolyline
 90
        9
 70
     1
 43
0.0
 10
431.6556
 20
45.5736
 10
430.3962
 20
45.5736
 10
419.1549
 20
54.1049
 10
419.1549
 20
55.9445
 10
430.3962
 20
47.4818
 10
430.1058
 20
46.5852
 10
430.1058
 20
59.5308
 10
431.6556
 20
59.5308
 10
431.6556
 20
45.5736
  0
LWPOLYLINE
  5
76
330
1F
100
AcDbEntity
  8
Layer 1
 62
     7
370
    18
100
AcDbPolyline
 90
        7
 70
     1
 43
0.0
 10
436.1146
 20
54.6562
 10
431.6556
 20
54.6562
 10
430.1058
 20
54.7026
 10
426.1807
 20
54.7026
 10
426.1807
 20
56.312
 10
436.1146
 20
56.312
 10
436.1146
 20
54.6562
  0
LWPOLYLINE
  5
77
330
1F
100
AcDbEntity
  8
Layer 1
 62
     7
370
    18
100
AcDbPolyline
 90
       97
 70
     1
 43
0.0
 10
436.2603
 20
67.4644
 10
436.2442
 20
67.0052
 10
436.1959
 20
66.5588
 10
436.1155
 20
66.1254
 10
436.0029
 20
65.7049
 10
435.8581
 20
65.2974
 10
435.6811
 20
64.9028
 10
435.4719
 20
64.5213
 10
435.2306
 20
64.1528
 10
434.9592
 20
63.8002
 10
434.6597
 20
63.4672
 10
434.3322
 20
63.1535
 10
433.9767
 20
62.8593
 10
433.5931
 20
62.5844
 10
433.1816
 20
62.329
 10
432.7421
 20
62.0929
 10
432.2746
 20
61.8761
 10
431.7805
 20
61.6822
 10
431.262
 20
61.5142
 10
430.7189
 20
61.3719
 10
430.1512
 20
61.2554
 10
429.559
 20
61.1648
 10
428.9423
 20
61.1
 10
428.3008
 20
61.0612
 10
427.6348
 20
61.0482
 10
426.9687
 20
61.0612
 10
426.3272
 20
61.1
 10
425.7102
 20
61.1648
 10
425.1179
 20
61.2554
 10
424.5502
 20
61.3719
 10
424.0071
 20
61.5142
 10
423.4887
 20
61.6822
 10
422.9949
 20
61.8761
 10
422.5271
 20
62.0929
 10
422.0875
 20
62.329
 10
421.6759
 20
62.5844
 10
421.2925
 20
62.8593
 10
420.937
 20
63.1535
 10
420.6097
 20
63.4672
 10
420.3103
 20
63.8002
 10
420.0389
 20
64.1528
 10
419.7976
 20
64.5213
 10
419.5884
 20
64.9028
 10
419.4114
 20
65.2974
 10
419.2666
 20
65.7049
 10
419.154
 20
66.1254
 10
419.0736
 20
66.5588
 10
419.0253
 20
67.0052
 10
419.0092
 20
67.4644
 10
419.0253
 20
67.9233
 10
419.0736
 20
68.3695
 10
419.154
 20
68.8027
 10
419.2666
 20
69.2231
 10
419.4114
 20
69.6305
 10
419.5884
 20
70.025
 10
419.7976
 20
70.4065
 10
420.0389
 20
70.775
 10
420.3103
 20
71.1278
 10
420.6097
 20
71.4614
 10
420.937
 20
71.7759
 10
421.2925
 20
72.0714
 10
421.6759
 20
72.3478
 10
422.0875
 20
72.6052
 10
422.5271
 20
72.8435
 10
422.9949
 20
73.0629
 10
423.4887
 20
73.2597
 10
424.0071
 20
73.4302
 10
424.5502
 20
73.5746
 10
425.1179
 20
73.6927
 10
425.7102
 20
73.7846
 10
426.3272
 20
73.8503
 10
426.9687
 20
73.8897
 10
427.6348
 20
73.9028
 10
428.3008
 20
73.8897
 10
428.9423
 20
73.8503
 10
429.559
 20
73.7846
 10
430.1512
 20
73.6927
 10
430.7189
 20
73.5746
 10
431.262
 20
73.4302
 10
431.7805
 20
73.2597
 10
432.2746
 20
73.0629
 10
432.7421
 20
72.8435
 10
433.1816
 20
72.6052
 10
433.5931
 20
72.3478
 10
433.9767
 20
72.0714
 10
434.3322
 20
71.7759
 10
434.6597
 20
71.4614
 10
434.9592
 20
71.1278
 10
435.2306
 20
70.775
 10
435.4719
 20
70.4065
 10
435.6811
 20
70.025
 10
435.8581
 20
69.6305
 10
436.0029
 20
69.2231
 10
436.1155
 20
68.8027
 10
436.1959
 20
68.3695
 10
436.2442
 20
67.9233
 10
436.2603
 20
67.4644
  0
LWPOLYLINE
  5
78
330
1F
100
AcDbEntity
  8
Layer 1
 62
     7
370
    18
100
AcDbPolyline
 90
       97
 70
     1
 43
0.0
 10
434.6615
 20
67.4644
 10
434.6488
 20
67.815
 10
434.6107
 20
68.1541
 10
434.5473
 20
68.4816
 10
434.4585
 20
68.7977
 10
434.3444
 20
69.1022
 10
434.2049
 20
69.3953
 10
434.04
 20
69.6769
 10
433.8499
 20
69.9471
 10
433.6351
 20
70.2044
 10
433.3968
 20
70.4474
 10
433.1352
 20
70.676
 10
432.8501
 20
70.8902
 10
432.5415
 20
71.09
 10
432.2094
 20
71.2754
 10
431.8538
 20
71.4464
 10
431.4747
 20
71.6029
 10
431.0727
 20
71.7429
 10
430.6484
 20
71.8643
 10
430.2018
 20
71.967
 10
429.733
 20
72.0511
 10
429.2419
 20
72.1165
 10
428.7284
 20
72.1632
 10
428.1928
 20
72.1913
 10
427.6348
 20
72.2006
 10
427.0765
 20
72.1913
 10
426.5406
 20
72.1632
 10
426.027
 20
72.1165
 10
425.5359
 20
72.0511
 10
425.067
 20
71.967
 10
424.6206
 20
71.8643
 10
424.1965
 20
71.7429
 10
423.7948
 20
71.6029
 10
423.4159
 20
71.4464
 10
423.0604
 20
71.2754
 10
422.7282
 20
71.09
 10
422.4194
 20
70.8902
 10
422.1342
 20
70.676
 10
421.8724
 20
70.4474
 10
421.6342
 20
70.2044
 10
421.4196
 20
69.9471
 10
421.2295
 20
69.6769
 10
421.0647
 20
69.3953
 10
420.9252
 20
69.1022
 10
420.811
 20
68.7977
 10
420.7222
 20
68.4816
 10
420.6588
 20
68.1541
 10
420.6207
 20
67.815
 10
420.608
 20
67.4644
 10
420.6207
 20
67.1241
 10
420.6588
 20
66.7932
 10
420.7222
 20
66.4716
 10
420.811
 20
66.1593
 10
420.9252
 20
65.8564
 10
421.0647
 20
65.5629
 10
421.2295
 20
65.2787
 10
421.4196
 20
65.0039
 10
421.6342
 20
64.7411
 10
421.8724
 20
64.4933
 10
422.1342
 20
64.2608
 10
422.4194
 20
64.0433
 10
422.7282
 20
63.841
 10
423.0604
 20
63.6538
 10
423.4159
 20
63.4818
 10
423.7948
 20
63.3249
 10
424.1965
 20
63.1849
 10
424.6206
 20
63.0636
 10
425.067
 20
62.9608
 10
425.5359
 20
62.8768
 10
426.027
 20
62.8113
 10
426.5406
 20
62.7646
 10
427.0765
 20
62.7366
 10
427.6348
 20
62.7272
 10
428.1928
 20
62.7366
 10
428.7284
 20
62.7646
 10
429.2419
 20
62.8113
 10
429.733
 20
62.8768
 10
430.2018
 20
62.9608
 10
430.6484
 20
63.0636
 10
431.0727
 20
63.1849
 10
431.4747
 20
63.3249
 10
431.8538
 20
63.4818
 10
432.2094
 20
63.6538
 10
432.5415
 20
63.841
 10
432.8501
 20
64.0433
 10
433.1352
 20
64.2608
 10
433.3968
 20
64.4933
 10
433.6351
 20
64.7411
 10
433.8499
 20
65.0039
 10
434.04
 20
65.2787
 10
434.2049
 20
65.5629
 10
434.3444
 20
65.8564
 10
434.4585
 20
66.1593
 10
434.5473
 20
66.4716
 10
434.6107
 20
66.7932
 10
434.6488
 20
67.1241
 10
434.6615
 20
67.4644
  0
LWPOLYLINE
  5
79
330
1F
100
AcDbEntity
  8
Layer 1
 62
     7
370
    18
100
AcDbPolyline
 90
       12
 70
     1
 43
0.0
 10
616.8156
 20
65.3742
 10
624.1093
 20
80.6837
 10
624.6403
 20
79.9505
 10
614.1843
 20
79.9505
 10
615.077
 20
80.7524
 10
615.077
 20
76.948
 10
613.3629
 20
76.948
 10
613.3629
 20
81.4169
 10
625.7746
 20
81.4169
 10
625.7746
 20
80.2484
 10
618.6989
 20
65.3742
 10
616.8156
 20
65.3742
  0
LWPOLYLINE
  5
7A
330
1F
100
AcDbEntity
  8
Layer 1
 62
     7
370
    18
100
AcDbPolyline
 90
      131
 70
     1
 43
0.0
 10
632.9471
 20
65.2369
 10
632.4972
 20
65.2457
 10
632.0524
 20
65.272
 10
631.6128
 20
65.3159
 10
631.1784
 20
65.3774
 10
630.7492
 20
65.4564
 10
630.3253
 20
65.5529
 10
629.9067
 20
65.6669
 10
629.4933
 20
65.7984
 10
629.0935
 20
65.9446
 10
628.7148
 20
66.1026
 10
628.3572
 20
66.2724
 10
628.0207
 20
66.4541
 10
627.7052
 20
66.6476
 10
627.4109
 20
66.853
 10
627.1376
 20
67.0702
 10
626.8854
 20
67.2992
 10
627.7313
 20
68.606
 10
627.9396
 20
68.4098
 10
628.1665
 20
68.2221
 10
628.4119
 20
68.043
 10
628.6757
 20
67.8725
 10
628.9581
 20
67.7106
 10
629.2589
 20
67.5574
 10
629.5781
 20
67.4128
 10
629.9158
 20
67.2769
 10
630.2667
 20
67.1532
 10
630.6247
 20
67.0461
 10
630.99
 20
66.9555
 10
631.3624
 20
66.8814
 10
631.7418
 20
66.8237
 10
632.1284
 20
66.7826
 10
632.522
 20
66.7579
 10
632.9226
 20
66.7497
 10
633.4441
 20
66.7638
 10
633.9334
 20
66.8063
 10
634.3906
 20
66.877
 10
634.8156
 20
66.976
 10
635.2085
 20
67.1032
 10
635.5692
 20
67.2588
 10
635.8979
 20
67.4426
 10
636.1945
 20
67.6547
 10
636.4578
 20
67.8897
 10
636.686
 20
68.1423
 10
636.8791
 20
68.4124
 10
637.0371
 20
68.7002
 10
637.16
 20
69.0055
 10
637.2478
 20
69.3284
 10
637.3004
 20
69.6689
 10
637.318
 20
70.027
 10
637.3099
 20
70.2801
 10
637.2855
 20
70.5243
 10
637.245
 20
70.7597
 10
637.1882
 20
70.9861
 10
637.1152
 20
71.2036
 10
637.0259
 20
71.4122
 10
636.9205
 20
71.6118
 10
636.7988
 20
71.8025
 10
636.6578
 20
71.9835
 10
636.4946
 20
72.1542
 10
636.3091
 20
72.3144
 10
636.1013
 20
72.4643
 10
635.8713
 20
72.6038
 10
635.6189
 20
72.7329
 10
635.3444
 20
72.8516
 10
635.0475
 20
72.9598
 10
634.7255
 20
73.0567
 10
634.3748
 20
73.1407
 10
633.9954
 20
73.2117
 10
633.5872
 20
73.2697
 10
633.1503
 20
73.3149
 10
632.6847
 20
73.3471
 10
632.1903
 20
73.3665
 10
631.6671
 20
73.3729
 10
628.0686
 20
73.3729
 10
628.9379
 20
81.4169
 10
638.1873
 20
81.4169
 10
638.1873
 20
79.9505
 10
629.638
 20
79.9505
 10
630.5318
 20
80.7524
 10
629.7828
 20
74.0142
 10
628.89
 20
74.8393
 10
632.0543
 20
74.8393
 10
632.6783
 20
74.83
 10
633.2706
 20
74.8021
 10
633.8312
 20
74.7555
 10
634.36
 20
74.6903
 10
634.8572
 20
74.6065
 10
635.3226
 20
74.5041
 10
635.7563
 20
74.3831
 10
636.1583
 20
74.2434
 10
636.5314
 20
74.0871
 10
636.8776
 20
73.9161
 10
637.1969
 20
73.7304
 10
637.4895
 20
73.5301
 10
637.7552
 20
73.315
 10
637.9942
 20
73.0854
 10
638.2063
 20
72.841
 10
638.3917
 20
72.5821
 10
638.5532
 20
72.31
 10
638.6932
 20
72.0268
 10
638.8115
 20
71.7325
 10
638.9083
 20
71.4272
 10
638.9835
 20
71.1109
 10
639.0372
 20
70.7835
 10
639.0694
 20
70.4451
 10
639.0801
 20
70.0956
 10
639.0696
 20
69.7611
 10
639.0379
 20
69.4343
 10
638.9852
 20
69.115
 10
638.9113
 20
68.8033
 10
638.8163
 20
68.4992
 10
638.7002
 20
68.2025
 10
638.5629
 20
67.9133
 10
638.4044
 20
67.6315
 10
638.2248
 20
67.3611
 10
638.024
 20
67.1052
 10
637.8021
 20
66.8641
 10
637.559
 20
66.6376
 10
637.2949
 20
66.4257
 10
637.0097
 20
66.2285
 10
636.7035
 20
66.046
 10
636.3763
 20
65.8782
 10
636.0269
 20
65.7278
 10
635.6549
 20
65.5975
 10
635.2602
 20
65.4873
 10
634.8429
 20
65.3971
 10
634.4029
 20
65.327
 10
633.9403
 20
65.2769
 10
633.455
 20
65.2469
 10
632.9471
 20
65.2369
  0
LWPOLYLINE
  5
7B
330
1F
100
AcDbEntity
  8
Layer 1
 62
     7
370
    18
100
AcDbPolyline
 90
        9
 70
     1
 43
0.0
 10
650.0074
 20
226.99
 10
650.0074
 20
228.1817
 10
658.9664
 20
238.8153
 10
660.8986
 20
238.8153
 10
652.012
 20
228.1817
 10
651.0704
 20
228.4565
 10
664.6653
 20
228.4565
 10
664.6653
 20
226.99
 10
650.0074
 20
226.99
  0
LWPOLYLINE
  5
7C
330
1F
100
AcDbEntity
  8
Layer 1
 62
     7
370
    18
100
AcDbPolyline
 90
        7
 70
     1
 43
0.0
 10
659.5453
 20
222.7726
 10
659.5453
 20
226.99
 10
659.5942
 20
228.4565
 10
659.5942
 20
232.169
 10
661.2849
 20
232.169
 10
661.2849
 20
222.7726
 10
659.5453
 20
222.7726
  0
LWPOLYLINE
  5
7D
330
1F
100
AcDbEntity
  8
Layer 1
 62
     7
370
    18
100
AcDbPolyline
 90
      131
 70
     1
 43
0.0
 10
671.5483
 20
222.6352
 10
671.0984
 20
222.644
 10
670.6536
 20
222.6703
 10
670.214
 20
222.7143
 10
669.7796
 20
222.7757
 10
669.3504
 20
222.8547
 10
668.9265
 20
222.9512
 10
668.5079
 20
223.0653
 10
668.0946
 20
223.1968
 10
667.6948
 20
223.343
 10
667.3161
 20
223.501
 10
666.9585
 20
223.6708
 10
666.622
 20
223.8525
 10
666.3065
 20
224.046
 10
666.0122
 20
224.2513
 10
665.7389
 20
224.4685
 10
665.4867
 20
224.6975
 10
666.3325
 20
226.0043
 10
666.5409
 20
225.8081
 10
666.7678
 20
225.6204
 10
667.0131
 20
225.4414
 10
667.277
 20
225.2709
 10
667.5593
 20
225.109
 10
667.8601
 20
224.9558
 10
668.1793
 20
224.8112
 10
668.517
 20
224.6753
 10
668.8679
 20
224.5516
 10
669.2259
 20
224.4445
 10
669.5912
 20
224.3539
 10
669.9636
 20
224.2798
 10
670.3431
 20
224.2221
 10
670.7297
 20
224.181
 10
671.1233
 20
224.1563
 10
671.5239
 20
224.1481
 10
672.0454
 20
224.1622
 10
672.5347
 20
224.2047
 10
672.9918
 20
224.2753
 10
673.4169
 20
224.3743
 10
673.8097
 20
224.5016
 10
674.1705
 20
224.6571
 10
674.4992
 20
224.8409
 10
674.7957
 20
225.053
 10
675.059
 20
225.288
 10
675.2872
 20
225.5406
 10
675.4803
 20
225.8108
 10
675.6383
 20
226.0986
 10
675.7612
 20
226.4039
 10
675.849
 20
226.7268
 10
675.9016
 20
227.0673
 10
675.9192
 20
227.4253
 10
675.9111
 20
227.6784
 10
675.8868
 20
227.9226
 10
675.8462
 20
228.158
 10
675.7894
 20
228.3844
 10
675.7164
 20
228.6019
 10
675.6272
 20
228.8105
 10
675.5217
 20
229.0101
 10
675.4
 20
229.2008
 10
675.2591
 20
229.3818
 10
675.0959
 20
229.5525
 10
674.9104
 20
229.7128
 10
674.7026
 20
229.8627
 10
674.4725
 20
230.0022
 10
674.2202
 20
230.1313
 10
673.9456
 20
230.25
 10
673.6487
 20
230.3582
 10
673.3267
 20
230.4551
 10
672.976
 20
230.539
 10
672.5966
 20
230.61
 10
672.1884
 20
230.6681
 10
671.7515
 20
230.7132
 10
671.2859
 20
230.7454
 10
670.7915
 20
230.7648
 10
670.2683
 20
230.7712
 10
666.6699
 20
230.7712
 10
667.5392
 20
238.8153
 10
676.7885
 20
238.8153
 10
676.7885
 20
237.3488
 10
668.2393
 20
237.3488
 10
669.133
 20
238.1507
 10
668.384
 20
231.4125
 10
667.4912
 20
232.2376
 10
670.6555
 20
232.2376
 10
671.2795
 20
232.2283
 10
671.8719
 20
232.2004
 10
672.4324
 20
232.1538
 10
672.9613
 20
232.0887
 10
673.4584
 20
232.0049
 10
673.9239
 20
231.9025
 10
674.3575
 20
231.7814
 10
674.7595
 20
231.6418
 10
675.1326
 20
231.4855
 10
675.4788
 20
231.3145
 10
675.7982
 20
231.1288
 10
676.0907
 20
230.9284
 10
676.3565
 20
230.7134
 10
676.5954
 20
230.4837
 10
676.8075
 20
230.2394
 10
676.9929
 20
229.9804
 10
677.1544
 20
229.7083
 10
677.2944
 20
229.4251
 10
677.4127
 20
229.1309
 10
677.5095
 20
228.8256
 10
677.5847
 20
228.5093
 10
677.6384
 20
228.1819
 10
677.6706
 20
227.8435
 10
677.6813
 20
227.494
 10
677.6708
 20
227.1595
 10
677.6391
 20
226.8326
 10
677.5864
 20
226.5134
 10
677.5125
 20
226.2017
 10
677.4175
 20
225.8975
 10
677.3014
 20
225.6008
 10
677.1641
 20
225.3116
 10
677.0056
 20
225.0298
 10
676.826
 20
224.7594
 10
676.6252
 20
224.5036
 10
676.4033
 20
224.2624
 10
676.1603
 20
224.0359
 10
675.8962
 20
223.824
 10
675.611
 20
223.6269
 10
675.3048
 20
223.4444
 10
674.9776
 20
223.2766
 10
674.6282
 20
223.1262
 10
674.2561
 20
222.9959
 10
673.8614
 20
222.8856
 10
673.4441
 20
222.7954
 10
673.0041
 20
222.7253
 10
672.5415
 20
222.6752
 10
672.0562
 20
222.6452
 10
671.5483
 20
222.6352
  0
LWPOLYLINE
  5
7E
330
1F
100
AcDbEntity
  8
Layer 1
 62
     7
370
    18
100
AcDbPolyline
 90
      131
 70
     1
 43
0.0
 10
685.0953
 20
222.6352
 10
684.6454
 20
222.644
 10
684.2007
 20
222.6703
 10
683.7613
 20
222.7143
 10
683.3271
 20
222.7757
 10
682.8981
 20
222.8547
 10
682.4743
 20
222.9512
 10
682.0558
 20
223.0653
 10
681.6425
 20
223.1968
 10
681.2427
 20
223.343
 10
680.864
 20
223.501
 10
680.5064
 20
223.6708
 10
680.1698
 20
223.8525
 10
679.8542
 20
224.046
 10
679.5597
 20
224.2513
 10
679.2862
 20
224.4685
 10
679.0337
 20
224.6975
 10
679.8805
 20
226.0043
 10
680.0888
 20
225.8081
 10
680.3157
 20
225.6204
 10
680.5611
 20
225.4414
 10
680.8249
 20
225.2709
 10
681.1073
 20
225.109
 10
681.4081
 20
224.9558
 10
681.7273
 20
224.8112
 10
682.065
 20
224.6753
 10
682.4158
 20
224.5516
 10
682.7738
 20
224.4445
 10
683.1389
 20
224.3539
 10
683.5111
 20
224.2798
 10
683.8904
 20
224.2221
 10
684.2768
 20
224.181
 10
684.6703
 20
224.1563
 10
685.0709
 20
224.1481
 10
685.5924
 20
224.1622
 10
686.0817
 20
224.2047
 10
686.5388
 20
224.2753
 10
686.9639
 20
224.3743
 10
687.3567
 20
224.5016
 10
687.7175
 20
224.6571
 10
688.0462
 20
224.8409
 10
688.3427
 20
225.053
 10
688.606
 20
225.288
 10
688.8342
 20
225.5406
 10
689.0273
 20
225.8108
 10
689.1853
 20
226.0986
 10
689.3082
 20
226.4039
 10
689.396
 20
226.7268
 10
689.4486
 20
227.0673
 10
689.4662
 20
227.4253
 10
689.4581
 20
227.6784
 10
689.4338
 20
227.9226
 10
689.3932
 20
228.158
 10
689.3364
 20
228.3844
 10
689.2634
 20
228.6019
 10
689.1742
 20
228.8105
 10
689.0687
 20
229.0101
 10
688.947
 20
229.2008
 10
688.8061
 20
229.3818
 10
688.6429
 20
229.5525
 10
688.4574
 20
229.7128
 10
688.2496
 20
229.8627
 10
688.0195
 20
230.0022
 10
687.7672
 20
230.1313
 10
687.4926
 20
230.25
 10
687.1957
 20
230.3582
 10
686.8737
 20
230.4551
 10
686.523
 20
230.539
 10
686.1436
 20
230.61
 10
685.7354
 20
230.6681
 10
685.2985
 20
230.7132
 10
684.8329
 20
230.7454
 10
684.3385
 20
230.7648
 10
683.8153
 20
230.7712
 10
680.2178
 20
230.7712
 10
681.0871
 20
238.8153
 10
690.3365
 20
238.8153
 10
690.3365
 20
237.3488
 10
681.7873
 20
237.3488
 10
682.681
 20
238.1507
 10
681.932
 20
231.4125
 10
681.0392
 20
232.2376
 10
684.2025
 20
232.2376
 10
684.8265
 20
232.2283
 10
685.4189
 20
232.2004
 10
685.9794
 20
232.1538
 10
686.5083
 20
232.0887
 10
687.0054
 20
232.0049
 10
687.4709
 20
231.9025
 10
687.9045
 20
231.7814
 10
688.3065
 20
231.6418
 10
688.6796
 20
231.4855
 10
689.026
 20
231.3145
 10
689.3455
 20
231.1288
 10
689.6382
 20
230.9284
 10
689.9042
 20
230.7134
 10
690.1432
 20
230.4837
 10
690.3555
 20
230.2394
 10
690.5409
 20
229.9804
 10
690.7024
 20
229.7083
 10
690.8424
 20
229.4251
 10
690.9607
 20
229.1309
 10
691.0575
 20
228.8256
 10
691.1327
 20
228.5093
 10
691.1864
 20
228.1819
 10
691.2186
 20
227.8435
 10
691.2293
 20
227.494
 10
691.2188
 20
227.1595
 10
691.1871
 20
226.8326
 10
691.1344
 20
226.5134
 10
691.0605
 20
226.2017
 10
690.9655
 20
225.8975
 10
690.8494
 20
225.6008
 10
690.7121
 20
225.3116
 10
690.5536
 20
225.0298
 10
690.3739
 20
224.7594
 10
690.173
 20
224.5036
 10
689.951
 20
224.2624
 10
689.7078
 20
224.0359
 10
689.4435
 20
223.824
 10
689.1582
 20
223.6269
 10
688.8519
 20
223.4444
 10
688.5246
 20
223.2766
 10
688.1752
 20
223.1262
 10
687.8031
 20
222.9959
 10
687.4084
 20
222.8856
 10
686.9911
 20
222.7954
 10
686.5511
 20
222.7253
 10
686.0885
 20
222.6752
 10
685.6032
 20
222.6452
 10
685.0953
 20
222.6352
  0
LWPOLYLINE
  5
7F
330
1F
100
AcDbEntity
  8
Layer 1
 62
     7
370
    18
100
AcDbPolyline
 90
        8
 70
     1
 43
0.0
 10
260.9297
 20
63.7475
 10
256.215
 20
63.7475
 10
256.4541
 20
63.9727
 10
256.4541
 20
62.5865
 10
256.004
 20
62.5865
 10
256.004
 20
64.2542
 10
260.9297
 20
64.2542
 10
260.9297
 20
63.7475
  0
LWPOLYLINE
  5
80
330
1F
100
AcDbEntity
  8
Layer 1
 62
     7
370
    18
100
AcDbPolyline
 90
      115
 70
     1
 43
0.0
 10
260.972
 20
66.8996
 10
260.9693
 20
66.7669
 10
260.9612
 20
66.636
 10
260.9477
 20
66.507
 10
260.9288
 20
66.3799
 10
260.9046
 20
66.2546
 10
260.8749
 20
66.1312
 10
260.8399
 20
66.0097
 10
260.7996
 20
65.89
 10
260.7547
 20
65.7742
 10
260.7061
 20
65.6642
 10
260.6539
 20
65.56
 10
260.5981
 20
65.4617
 10
260.5387
 20
65.3692
 10
260.4756
 20
65.2825
 10
260.409
 20
65.2016
 10
260.3387
 20
65.1266
 10
259.9377
 20
65.3729
 10
259.9979
 20
65.4353
 10
260.0555
 20
65.5029
 10
260.1105
 20
65.5756
 10
260.1628
 20
65.6535
 10
260.2596
 20
65.8247
 10
260.3458
 20
66.0167
 10
260.3837
 20
66.119
 10
260.4166
 20
66.2236
 10
260.4444
 20
66.3305
 10
260.4672
 20
66.4397
 10
260.4849
 20
66.5512
 10
260.4976
 20
66.6651
 10
260.5052
 20
66.7812
 10
260.5077
 20
66.8996
 10
260.5035
 20
67.0482
 10
260.491
 20
67.1879
 10
260.4701
 20
67.3187
 10
260.4408
 20
67.4406
 10
260.4032
 20
67.5536
 10
260.3572
 20
67.6577
 10
260.3028
 20
67.7529
 10
260.2401
 20
67.8391
 10
260.1704
 20
67.9158
 10
260.095
 20
67.9822
 10
260.0138
 20
68.0385
 10
259.9269
 20
68.0845
 10
259.8343
 20
68.1203
 10
259.736
 20
68.1458
 10
259.632
 20
68.1612
 10
259.5222
 20
68.1663
 10
259.4125
 20
68.1613
 10
259.3085
 20
68.1463
 10
259.2102
 20
68.1213
 10
259.1177
 20
68.0862
 10
259.0308
 20
68.0412
 10
258.9497
 20
67.9862
 10
258.8742
 20
67.9212
 10
258.8045
 20
67.8462
 10
258.7418
 20
67.7603
 10
258.6875
 20
67.663
 10
258.6416
 20
67.554
 10
258.604
 20
67.4336
 10
258.5748
 20
67.3016
 10
258.554
 20
67.158
 10
258.5415
 20
67.0029
 10
258.5373
 20
66.8363
 10
258.5373
 20
66.4847
 10
258.1641
 20
66.4847
 10
256.257
 20
68.0044
 10
256.4541
 20
68.0748
 10
256.4541
 20
65.3305
 10
256.004
 20
65.3305
 10
256.004
 20
68.4968
 10
256.3627
 20
68.4968
 10
258.2697
 20
66.9772
 10
258.1079
 20
66.7309
 10
258.1079
 20
66.9209
 10
258.1141
 20
67.1355
 10
258.1326
 20
67.3362
 10
258.1634
 20
67.5229
 10
258.2065
 20
67.6957
 10
258.2619
 20
67.8544
 10
258.3297
 20
67.9993
 10
258.4097
 20
68.1302
 10
258.5021
 20
68.2472
 10
258.6041
 20
68.3502
 10
258.7132
 20
68.4395
 10
258.8292
 20
68.5151
 10
258.9524
 20
68.5769
 10
259.0825
 20
68.625
 10
259.2197
 20
68.6593
 10
259.3639
 20
68.6799
 10
259.5151
 20
68.6868
 10
259.6177
 20
68.6837
 10
259.7176
 20
68.6745
 10
259.8149
 20
68.6591
 10
259.9094
 20
68.6376
 10
260.0013
 20
68.6099
 10
260.0906
 20
68.576
 10
260.1772
 20
68.5359
 10
260.2611
 20
68.4897
 10
260.3417
 20
68.4374
 10
260.4178
 20
68.3787
 10
260.4895
 20
68.3138
 10
260.5568
 20
68.2427
 10
260.6197
 20
68.1652
 10
260.6782
 20
68.0815
 10
260.7323
 20
67.9915
 10
260.782
 20
67.8953
 10
260.8265
 20
67.7928
 10
260.8651
 20
67.684
 10
260.8978
 20
67.569
 10
260.9245
 20
67.4477
 10
260.9453
 20
67.3201
 10
260.9601
 20
67.1862
 10
260.969
 20
67.046
 10
260.972
 20
66.8996
  0
LWPOLYLINE
  5
81
330
1F
100
AcDbEntity
  8
Layer 1
 62
     7
370
    18
100
AcDbPolyline
 90
      127
 70
     1
 43
0.0
 10
260.972
 20
70.8822
 10
260.9693
 20
70.751
 10
260.9612
 20
70.6214
 10
260.9477
 20
70.4933
 10
260.9288
 20
70.3667
 10
260.9046
 20
70.2417
 10
260.8749
 20
70.1182
 10
260.8399
 20
69.9963
 10
260.7996
 20
69.8759
 10
260.7547
 20
69.7594
 10
260.7061
 20
69.649
 10
260.6539
 20
69.5448
 10
260.5981
 20
69.4468
 10
260.5387
 20
69.3548
 10
260.4756
 20
69.2691
 10
260.409
 20
69.1895
 10
260.3387
 20
69.116
 10
259.9377
 20
69.3622
 10
259.9979
 20
69.4229
 10
260.0555
 20
69.4891
 10
260.1105
 20
69.5606
 10
260.1628
 20
69.6375
 10
260.2596
 20
69.8075
 10
260.3458
 20
69.9989
 10
260.3837
 20
70.1011
 10
260.4166
 20
70.2054
 10
260.4444
 20
70.3118
 10
260.4672
 20
70.4203
 10
260.4849
 20
70.5308
 10
260.4976
 20
70.6435
 10
260.5052
 20
70.7582
 10
260.5077
 20
70.8751
 10
260.5033
 20
71.027
 10
260.4903
 20
71.1695
 10
260.4685
 20
71.3027
 10
260.4381
 20
71.4265
 10
260.399
 20
71.541
 10
260.3512
 20
71.6461
 10
260.2947
 20
71.7419
 10
260.2296
 20
71.8284
 10
260.1574
 20
71.9051
 10
260.0798
 20
71.9715
 10
259.9969
 20
72.0278
 10
259.9085
 20
72.0738
 10
259.8148
 20
72.1096
 10
259.7157
 20
72.1351
 10
259.6111
 20
72.1505
 10
259.5012
 20
72.1556
 10
259.4233
 20
72.1532
 10
259.3483
 20
72.1461
 10
259.2759
 20
72.1343
 10
259.2064
 20
72.1177
 10
259.1396
 20
72.0964
 10
259.0756
 20
72.0704
 10
259.0144
 20
72.0397
 10
258.9559
 20
72.0042
 10
258.9003
 20
71.9632
 10
258.8479
 20
71.9156
 10
258.7987
 20
71.8616
 10
258.7526
 20
71.8011
 10
258.7098
 20
71.7341
 10
258.6701
 20
71.6606
 10
258.6336
 20
71.5806
 10
258.6003
 20
71.4942
 10
258.5707
 20
71.4003
 10
258.545
 20
71.2981
 10
258.5233
 20
71.1874
 10
258.5055
 20
71.0685
 10
258.4818
 20
70.8054
 10
258.4739
 20
70.509
 10
258.4739
 20
69.4607
 10
256.004
 20
69.7141
 10
256.004
 20
72.4089
 10
256.4541
 20
72.4089
 10
256.4541
 20
69.918
 10
256.2079
 20
70.1784
 10
258.2768
 20
69.9603
 10
258.0235
 20
69.6999
 10
258.0235
 20
70.6217
 10
258.0264
 20
70.8036
 10
258.035
 20
70.9762
 10
258.0493
 20
71.1396
 10
258.0693
 20
71.2937
 10
258.095
 20
71.4386
 10
258.1264
 20
71.5743
 10
258.1636
 20
71.7007
 10
258.2064
 20
71.8179
 10
258.2544
 20
71.9266
 10
258.3069
 20
72.0274
 10
258.3639
 20
72.1205
 10
258.4255
 20
72.2058
 10
258.4915
 20
72.2832
 10
258.562
 20
72.3528
 10
258.637
 20
72.4146
 10
258.7165
 20
72.4686
 10
258.8
 20
72.5156
 10
258.8869
 20
72.5563
 10
258.9772
 20
72.5908
 10
259.0709
 20
72.619
 10
259.168
 20
72.6409
 10
259.2686
 20
72.6566
 10
259.3725
 20
72.666
 10
259.4799
 20
72.6691
 10
259.5826
 20
72.666
 10
259.6831
 20
72.6568
 10
259.7811
 20
72.6414
 10
259.8769
 20
72.6199
 10
259.9703
 20
72.5922
 10
260.0614
 20
72.5584
 10
260.1502
 20
72.5184
 10
260.2367
 20
72.4723
 10
260.3197
 20
72.4199
 10
260.3983
 20
72.3614
 10
260.4723
 20
72.2968
 10
260.5418
 20
72.226
 10
260.6068
 20
72.1491
 10
260.6673
 20
72.066
 10
260.7234
 20
71.9767
 10
260.7749
 20
71.8813
 10
260.821
 20
71.7795
 10
260.861
 20
71.6711
 10
260.8949
 20
71.556
 10
260.9227
 20
71.4344
 10
260.9442
 20
71.3062
 10
260.9597
 20
71.1715
 10
260.9689
 20
71.0301
 10
260.972
 20
70.8822
  0
LWPOLYLINE
  5
82
330
1F
100
AcDbEntity
  8
Layer 1
 62
     7
370
    18
100
AcDbPolyline
 90
        9
 70
     1
 43
0.0
 10
726.017
 20
68.9874
 10
726.017
 20
70.1792
 10
734.975
 20
80.8127
 10
736.9072
 20
80.8127
 10
728.0205
 20
70.1792
 10
727.0789
 20
70.4539
 10
740.6738
 20
70.4539
 10
740.6738
 20
68.9874
 10
726.017
 20
68.9874
  0
LWPOLYLINE
  5
83
330
1F
100
AcDbEntity
  8
Layer 1
 62
     7
370
    18
100
AcDbPolyline
 90
        7
 70
     1
 43
0.0
 10
735.5538
 20
64.77
 10
735.5538
 20
68.9874
 10
735.6027
 20
70.4539
 10
735.6027
 20
74.1664
 10
737.2934
 20
74.1664
 10
737.2934
 20
64.77
 10
735.5538
 20
64.77
  0
LWPOLYLINE
  5
84
330
1F
100
AcDbEntity
  8
Layer 1
 62
     7
370
    18
100
AcDbPolyline
 90
      131
 70
     1
 43
0.0
 10
747.5568
 20
64.6327
 10
747.1069
 20
64.6415
 10
746.6621
 20
64.6678
 10
746.2226
 20
64.7117
 10
745.7882
 20
64.7732
 10
745.359
 20
64.8522
 10
744.9351
 20
64.9487
 10
744.5165
 20
65.0627
 10
744.1031
 20
65.1942
 10
743.7033
 20
65.3404
 10
743.3246
 20
65.4984
 10
742.967
 20
65.6682
 10
742.6305
 20
65.8499
 10
742.315
 20
66.0434
 10
742.0207
 20
66.2488
 10
741.7474
 20
66.466
 10
741.4952
 20
66.695
 10
742.341
 20
68.0018
 10
742.5494
 20
67.8056
 10
742.7763
 20
67.6179
 10
743.0216
 20
67.4388
 10
743.2855
 20
67.2683
 10
743.5678
 20
67.1064
 10
743.8686
 20
66.9532
 10
744.1878
 20
66.8086
 10
744.5255
 20
66.6727
 10
744.8764
 20
66.549
 10
745.2344
 20
66.4419
 10
745.5997
 20
66.3513
 10
745.9721
 20
66.2772
 10
746.3516
 20
66.2195
 10
746.7382
 20
66.1784
 10
747.1318
 20
66.1537
 10
747.5324
 20
66.1455
 10
748.0539
 20
66.1596
 10
748.5432
 20
66.2021
 10
749.0003
 20
66.2728
 10
749.4254
 20
66.3718
 10
749.8182
 20
66.499
 10
750.179
 20
66.6545
 10
750.5077
 20
66.8383
 10
750.8042
 20
67.0504
 10
751.0676
 20
67.2854
 10
751.2958
 20
67.538
 10
751.4889
 20
67.8082
 10
751.6469
 20
68.096
 10
751.7698
 20
68.4013
 10
751.8576
 20
68.7242
 10
751.9102
 20
69.0647
 10
751.9278
 20
69.4227
 10
751.9197
 20
69.6758
 10
751.8953
 20
69.9201
 10
751.8548
 20
70.1554
 10
751.798
 20
70.3819
 10
751.7249
 20
70.5993
 10
751.6357
 20
70.8079
 10
751.5302
 20
71.0075
 10
751.4085
 20
71.1982
 10
751.2676
 20
71.3792
 10
751.1044
 20
71.5499
 10
750.9189
 20
71.7102
 10
750.7111
 20
71.8601
 10
750.481
 20
71.9996
 10
750.2287
 20
72.1287
 10
749.9541
 20
72.2474
 10
749.6572
 20
72.3556
 10
749.3352
 20
72.4525
 10
748.9845
 20
72.5364
 10
748.6051
 20
72.6074
 10
748.1969
 20
72.6655
 10
747.76
 20
72.7106
 10
747.2944
 20
72.7428
 10
746.8
 20
72.7622
 10
746.2768
 20
72.7686
 10
742.6784
 20
72.7686
 10
743.5477
 20
80.8127
 10
752.7971
 20
80.8127
 10
752.7971
 20
79.3463
 10
744.2478
 20
79.3463
 10
745.1416
 20
80.1482
 10
744.3925
 20
73.41
 10
743.4998
 20
74.2351
 10
746.6641
 20
74.2351
 10
747.2881
 20
74.2258
 10
747.8804
 20
74.1979
 10
748.441
 20
74.1513
 10
748.9698
 20
74.0861
 10
749.467
 20
74.0023
 10
749.9324
 20
73.8999
 10
750.3661
 20
73.7789
 10
750.7681
 20
73.6392
 10
751.1411
 20
73.4829
 10
751.4873
 20
73.3119
 10
751.8067
 20
73.1262
 10
752.0993
 20
72.9259
 10
752.365
 20
72.7108
 10
752.6039
 20
72.4812
 10
752.816
 20
72.2368
 10
753.0014
 20
71.9779
 10
753.1629
 20
71.7058
 10
753.3029
 20
71.4226
 10
753.4212
 20
71.1283
 10
753.518
 20
70.823
 10
753.5932
 20
70.5067
 10
753.6469
 20
70.1793
 10
753.6791
 20
69.8409
 10
753.6898
 20
69.4914
 10
753.6793
 20
69.1569
 10
753.6476
 20
68.8301
 10
753.5949
 20
68.5108
 10
753.521
 20
68.1991
 10
753.426
 20
67.8949
 10
753.3099
 20
67.5982
 10
753.1726
 20
67.309
 10
753.0142
 20
67.0272
 10
752.8346
 20
66.7568
 10
752.6338
 20
66.501
 10
752.4119
 20
66.2598
 10
752.1688
 20
66.0333
 10
751.9047
 20
65.8215
 10
751.6195
 20
65.6243
 10
751.3133
 20
65.4418
 10
750.9861
 20
65.274
 10
750.6367
 20
65.1236
 10
750.2646
 20
64.9933
 10
749.8699
 20
64.883
 10
749.4526
 20
64.7929
 10
749.0126
 20
64.7228
 10
748.55
 20
64.6727
 10
748.0647
 20
64.6427
 10
747.5568
 20
64.6327
  0
LWPOLYLINE
  5
85
330
1F
100
AcDbEntity
  8
Layer 1
 62
     7
370
    35
100
AcDbPolyline
 90
       33
 70
     1
 43
0.0
 10
596.8726
 20
83.7386
 10
599.1024
 20
83.5253
 10
601.1793
 20
82.9134
 10
603.0587
 20
81.9452
 10
604.6962
 20
80.663
 10
606.0473
 20
79.1089
 10
607.0674
 20
77.3252
 10
607.7121
 20
75.3541
 10
607.9369
 20
73.2379
 10
607.7121
 20
71.1217
 10
607.0674
 20
69.1506
 10
606.0473
 20
67.3669
 10
604.6962
 20
65.8128
 10
603.0587
 20
64.5305
 10
601.1793
 20
63.5623
 10
599.1024
 20
62.9504
 10
596.8726
 20
62.7371
 10
594.6428
 20
62.9504
 10
592.566
 20
63.5623
 10
590.6866
 20
64.5305
 10
589.0491
 20
65.8128
 10
587.698
 20
67.3669
 10
586.6779
 20
69.1506
 10
586.0332
 20
71.1217
 10
585.8084
 20
73.2379
 10
586.0332
 20
75.3541
 10
586.6779
 20
77.3252
 10
587.698
 20
79.1089
 10
589.0491
 20
80.663
 10
590.6866
 20
81.9452
 10
592.566
 20
82.9134
 10
594.6428
 20
83.5253
 10
596.8726
 20
83.7386
  0
LWPOLYLINE
  5
86
330
1F
100
AcDbEntity
  8
Layer 1
 62
     7
370
    35
100
AcDbPolyline
 90
        2
 70
     0
 43
0.0
 10
600.481
 20
90.2156
 10
593.2077
 20
54.9172
  0
LWPOLYLINE
  5
87
330
1F
100
AcDbEntity
  8
Layer 1
 62
     7
370
    35
100
AcDbPolyline
 90
       33
 70
     1
 43
0.0
 10
710.2307
 20
83.1345
 10
712.4605
 20
82.9212
 10
714.5373
 20
82.3093
 10
716.4167
 20
81.3411
 10
718.0543
 20
80.0588
 10
719.4053
 20
78.5047
 10
720.4255
 20
76.721
 10
721.0702
 20
74.7499
 10
721.295
 20
72.6337
 10
721.0702
 20
70.5175
 10
720.4255
 20
68.5464
 10
719.4053
 20
66.7627
 10
718.0543
 20
65.2087
 10
716.4167
 20
63.9264
 10
714.5373
 20
62.9582
 10
712.4605
 20
62.3463
 10
710.2307
 20
62.133
 10
708.0009
 20
62.3463
 10
705.924
 20
62.9582
 10
704.0446
 20
63.9264
 10
702.4071
 20
65.2087
 10
701.056
 20
66.7627
 10
700.0359
 20
68.5464
 10
699.3912
 20
70.5175
 10
699.1664
 20
72.6337
 10
699.3912
 20
74.7499
 10
700.0359
 20
76.721
 10
701.056
 20
78.5047
 10
702.4071
 20
80.0588
 10
704.0446
 20
81.3411
 10
705.924
 20
82.3093
 10
708.0009
 20
82.9212
 10
710.2307
 20
83.1345
  0
LWPOLYLINE
  5
88
330
1F
100
AcDbEntity
  8
Layer 1
 62
     7
370
    35
100
AcDbPolyline
 90
        2
 70
     0
 43
0.0
 10
713.8391
 20
89.6115
 10
706.5658
 20
54.3131
  0
ENDSEC
  0
SECTION
  2
OBJECTS
  0
DICTIONARY
  5
C
330
0
100
AcDbDictionary
281
     1
  3
ACAD_DETAILVIEWSTYLE
350
90
  3
ACAD_GROUP
350
D
  3
ACAD_LAYOUT
350
1A
  3
ACAD_MATERIAL
350
43
  3
ACAD_MLEADERSTYLE
350
5B
  3
ACAD_MLINESTYLE
350
17
  3
ACAD_PLOTSETTINGS
350
19
  3
ACAD_PLOTSTYLENAME
350
E
  3
ACAD_SCALELIST
350
47
  3
ACAD_SECTIONVIEWSTYLE
350
91
  3
ACAD_TABLESTYLE
350
59
  3
ACAD_VISUALSTYLE
350
2A
  3
ACDB_RECOMPOSE_DATA
350
8D
  3
AcDbVariableDictionary
350
89
  0
SUN
  5
5D
330
29
100
AcDbSun
 90
        1
290
     0
 63
     7
421
 16777215
 40
1.0
291
     1
 91
  2455826
 92
 54000000
292
     0
 70
     2
 71
   256
280
     1
  0
DICTIONARY
  5
90
102
{ACAD_REACTORS
330
C
102
}
330
C
100
AcDbDictionary
281
     1
  0
DICTIONARY
  5
D
102
{ACAD_REACTORS
330
C
102
}
330
C
100
AcDbDictionary
281
     1
  0
DICTIONARY
  5
1A
102
{ACAD_REACTORS
330
C
102
}
330
C
100
AcDbDictionary
281
     1
  3
Layout1
350
1E
  3
Layout2
350
26
  3
Model
350
22
  0
DICTIONARY
  5
43
102
{ACAD_REACTORS
330
C
102
}
330
C
100
AcDbDictionary
281
     1
  3
ByBlock
350
45
  3
ByLayer
350
44
  3
Global
350
46
  0
DICTIONARY
  5
5B
102
{ACAD_REACTORS
330
C
102
}
330
C
100
AcDbDictionary
281
     1
  3
Standard
350
5C
  0
DICTIONARY
  5
17
102
{ACAD_REACTORS
330
C
102
}
330
C
100
AcDbDictionary
281
     1
  3
Standard
350
18
  0
DICTIONARY
  5
19
102
{ACAD_REACTORS
330
C
102
}
330
C
100
AcDbDictionary
281
     1
  0
ACDBDICTIONARYWDFLT
  5
E
102
{ACAD_REACTORS
330
C
102
}
330
C
100
AcDbDictionary
281
     1
  3
Normal
350
F
100
AcDbDictionaryWithDefault
340
F
  0
DICTIONARY
  5
47
102
{ACAD_REACTORS
330
C
102
}
330
C
100
AcDbDictionary
281
     1
  3
A0
350
48
  3
A1
350
49
  3
A2
350
4A
  3
A3
350
4B
  3
A4
350
4C
  3
A5
350
4D
  3
A6
350
4E
  3
A7
350
4F
  3
A8
350
50
  3
A9
350
51
  3
B1
350
52
  3
B2
350
53
  3
B3
350
54
  3
B4
350
55
  3
B5
350
56
  3
B6
350
57
  3
B7
350
58
  0
DICTIONARY
  5
91
102
{ACAD_REACTORS
330
C
102
}
330
C
100
AcDbDictionary
281
     1
  0
DICTIONARY
  5
59
102
{ACAD_REACTORS
330
C
102
}
330
C
100
AcDbDictionary
281
     1
  3
Standard
350
5A
  0
DICTIONARY
  5
2A
102
{ACAD_REACTORS
330
C
102
}
330
C
100
AcDbDictionary
281
     1
  3
2dWireframe
350
2F
  3
Basic
350
32
  3
Brighten
350
36
  3
ColorChange
350
3A
  3
Conceptual
350
34
  3
Dim
350
35
  3
EdgeColorOff
350
3D
  3
Facepattern
350
39
  3
Flat
350
2B
  3
FlatWithEdges
350
2C
  3
Gouraud
350
2D
  3
GouraudWithEdges
350
2E
  3
Hidden
350
31
  3
JitterOff
350
3B
  3
Linepattern
350
38
  3
OverhangOff
350
3C
  3
Realistic
350
33
  3
Shaded
350
42
  3
Shaded with edges
350
41
  3
Shades of Gray
350
3E
  3
Sketchy
350
3F
  3
Thicken
350
37
  3
Wireframe
350
30
  3
X-Ray
350
40
  0
XRECORD
  5
8D
102
{ACAD_REACTORS
330
C
102
}
330
C
100
AcDbXrecord
280
     1
 90
        1
330
5A
  0
DICTIONARY
  5
89
102
{ACAD_REACTORS
330
C
102
}
330
C
100
AcDbDictionary
281
     1
  3
CANNOSCALE
350
8A
  3
CMLEADERSTYLE
350
8F
  3
CTABLESTYLE
350
8E
  0
LAYOUT
  5
1E
102
{ACAD_REACTORS
330
1A
102
}
330
1A
100
AcDbPlotSettings
  1

  2
none_device
  4

  6

 40
0.0
 41
0.0
 42
0.0
 43
0.0
 44
0.0
 45
0.0
 46
0.0
 47
0.0
 48
0.0
 49
0.0
140
0.0
141
0.0
142
1.0
143
1.0
 70
   688
 72
     0
 73
     0
 74
     5
  7

 75
    16
 76
     0
 77
     2
 78
   300
147
1.0
148
0.0
149
0.0
100
AcDbLayout
  1
Layout1
 70
     1
 71
     1
 10
0.0
 20
0.0
 11
12.0
 21
9.0
 12
0.0
 22
0.0
 32
0.0
 14
1.000000000000000E+20
 24
1.000000000000000E+20
 34
1.000000000000000E+20
 15
-1.000000000000000E+20
 25
-1.000000000000000E+20
 35
-1.000000000000000E+20
146
0.0
 13
0.0
 23
0.0
 33
0.0
 16
1.0
 26
0.0
 36
0.0
 17
0.0
 27
1.0
 37
0.0
 76
     0
330
1B
  0
LAYOUT
  5
26
102
{ACAD_REACTORS
330
1A
102
}
330
1A
100
AcDbPlotSettings
  1

  2
none_device
  4

  6

 40
0.0
 41
0.0
 42
0.0
 43
0.0
 44
0.0
 45
0.0
 46
0.0
 47
0.0
 48
0.0
 49
0.0
140
0.0
141
0.0
142
1.0
143
1.0
 70
   688
 72
     0
 73
     0
 74
     5
  7

 75
    16
 76
     0
 77
     2
 78
   300
147
1.0
148
0.0
149
0.0
100
AcDbLayout
  1
Layout2
 70
     1
 71
     2
 10
0.0
 20
0.0
 11
0.0
 21
0.0
 12
0.0
 22
0.0
 32
0.0
 14
0.0
 24
0.0
 34
0.0
 15
0.0
 25
0.0
 35
0.0
146
0.0
 13
0.0
 23
0.0
 33
0.0
 16
1.0
 26
0.0
 36
0.0
 17
0.0
 27
1.0
 37
0.0
 76
     0
330
23
  0
LAYOUT
  5
22
102
{ACAD_REACTORS
330
1A
102
}
330
1A
100
AcDbPlotSettings
  1

  2
none_device
  4
Letter_(8.50_x_11.00_Inches)
  6

 40
6.35
 41
6.35
 42
6.35000508
 43
6.35000508
 44
215.9
 45
279.4
 46
0.0
 47
0.0
 48
0.0
 49
0.0
140
0.0
141
0.0
142
1.0
143
1.0
 70
  1712
 72
     0
 73
     0
 74
     0
  7

 75
     0
 76
     0
 77
     2
 78
   300
147
1.0
148
0.0
149
0.0
100
AcDbLayout
  1
Model
 70
     1
 71
     0
 10
0.0
 20
0.0
 11
12.0
 21
9.0
 12
0.0
 22
0.0
 32
0.0
 14
227.3306
 24
-209.6391
 34
0.0
 15
914.4579
 25
321.0045
 35
0.0
146
0.0
 13
0.0
 23
0.0
 33
0.0
 16
1.0
 26
0.0
 36
0.0
 17
0.0
 27
1.0
 37
0.0
 76
     0
330
1F
331
29
  0
MATERIAL
  5
45
102
{ACAD_REACTORS
330
43
102
}
330
43
100
AcDbMaterial
  1
ByBlock
 72
     1
 94
      127
  0
MATERIAL
  5
44
102
{ACAD_REACTORS
330
43
102
}
330
43
100
AcDbMaterial
  1
ByLayer
 72
     1
 94
      127
  0
MATERIAL
  5
46
102
{ACAD_REACTORS
330
43
102
}
330
43
100
AcDbMaterial
  1
Global
 72
     1
 94
      127
  0
MLEADERSTYLE
  5
5C
102
{ACAD_REACTORS
330
5B
102
}
330
5B
100
AcDbMLeaderStyle
179
     2
170
     2
171
     1
172
     0
 90
        2
 40
0.0
 41
0.0
173
     1
 91
-1056964608
340
14
 92
       -2
290
     1
 42
0.09
291
     1
 43
0.36
  3
Standard
341
0
 44
0.18
300

342
11
174
     1
178
     6
175
     1
176
     0
 93
-1056964608
 45
0.18
292
     0
297
     0
 46
0.18
343
0
 94
-1056964608
 47
1.0
 49
1.0
140
1.0
293
     1
141
0.0
294
     1
177
     0
142
1.0
295
     0
296
     0
143
0.125
271
     0
272
     9
273
     9
298
     0
  0
MLINESTYLE
  5
18
102
{ACAD_REACTORS
330
17
102
}
330
17
100
AcDbMlineStyle
  2
Standard
 70
     0
  3

 62
   256
 51
90.0
 52
90.0
 71
     2
 49
0.5
 62
   256
  6
BYLAYER
 49
-0.5
 62
   256
  6
BYLAYER
  0
ACDBPLACEHOLDER
  5
F
102
{ACAD_REACTORS
330
E
102
}
330
E
  0
SCALE
  5
48
102
{ACAD_REACTORS
330
47
102
}
330
47
100
AcDbScale
 70
     0
300
1:1
140
1.0
141
1.0
290
     1
  0
SCALE
  5
49
102
{ACAD_REACTORS
330
47
102
}
330
47
100
AcDbScale
 70
     0
300
1/128" = 1'-0"
140
0.0078125
141
12.0
290
     0
  0
SCALE
  5
4A
102
{ACAD_REACTORS
330
47
102
}
330
47
100
AcDbScale
 70
     0
300
1/64" = 1'-0"
140
0.015625
141
12.0
290
     0
  0
SCALE
  5
4B
102
{ACAD_REACTORS
330
47
102
}
330
47
100
AcDbScale
 70
     0
300
1/32" = 1'-0"
140
0.03125
141
12.0
290
     0
  0
SCALE
  5
4C
102
{ACAD_REACTORS
330
47
102
}
330
47
100
AcDbScale
 70
     0
300
1/16" = 1'-0"
140
0.0625
141
12.0
290
     0
  0
SCALE
  5
4D
102
{ACAD_REACTORS
330
47
102
}
330
47
100
AcDbScale
 70
     0
300
3/32" = 1'-0"
140
0.09375
141
12.0
290
     0
  0
SCALE
  5
4E
102
{ACAD_REACTORS
330
47
102
}
330
47
100
AcDbScale
 70
     0
300
1/8" = 1'-0"
140
0.125
141
12.0
290
     0
  0
SCALE
  5
4F
102
{ACAD_REACTORS
330
47
102
}
330
47
100
AcDbScale
 70
     0
300
3/16" = 1'-0"
140
0.1875
141
12.0
290
     0
  0
SCALE
  5
50
102
{ACAD_REACTORS
330
47
102
}
330
47
100
AcDbScale
 70
     0
300
1/4" = 1'-0"
140
0.25
141
12.0
290
     0
  0
SCALE
  5
51
102
{ACAD_REACTORS
330
47
102
}
330
47
100
AcDbScale
 70
     0
300
3/8" = 1'-0"
140
0.375
141
12.0
290
     0
  0
SCALE
  5
52
102
{ACAD_REACTORS
330
47
102
}
330
47
100
AcDbScale
 70
     0
300
1/2" = 1'-0"
140
0.5
141
12.0
290
     0
  0
SCALE
  5
53
102
{ACAD_REACTORS
330
47
102
}
330
47
100
AcDbScale
 70
     0
300
3/4" = 1'-0"
140
0.75
141
12.0
290
     0
  0
SCALE
  5
54
102
{ACAD_REACTORS
330
47
102
}
330
47
100
AcDbScale
 70
     0
300
1" = 1'-0"
140
1.0
141
12.0
290
     0
  0
SCALE
  5
55
102
{ACAD_REACTORS
330
47
102
}
330
47
100
AcDbScale
 70
     0
300
1-1/2" = 1'-0"
140
1.5
141
12.0
290
     0
  0
SCALE
  5
56
102
{ACAD_REACTORS
330
47
102
}
330
47
100
AcDbScale
 70
     0
300
3" = 1'-0"
140
3.0
141
12.0
290
     0
  0
SCALE
  5
57
102
{ACAD_REACTORS
330
47
102
}
330
47
100
AcDbScale
 70
     0
300
6" = 1'-0"
140
6.0
141
12.0
290
     0
  0
SCALE
  5
58
102
{ACAD_REACTORS
330
47
102
}
330
47
100
AcDbScale
 70
     0
300
1'-0" = 1'-0"
140
12.0
141
12.0
290
     0
  0
TABLESTYLE
  5
5A
102
{ACAD_REACTORS
330
59
102
}
102
{ACAD_XDICTIONARY
360
8B
102
}
330
59
100
AcDbTableStyle
  3
Standard
 70
     0
 71
     0
 40
0.06
 41
0.06
280
     0
281
     0
  7
Standard
140
0.18
170
     2
 62
     0
 63
   257
283
     0
 90
        4
 91
        0
  1

274
    -2
284
     1
 64
     0
275
    -2
285
     1
 65
     0
276
    -2
286
     1
 66
     0
277
    -2
287
     1
 67
     0
278
    -2
288
     1
 68
     0
279
    -2
289
     1
 69
     0
  7
Standard
140
0.25
170
     5
 62
     0
 63
   257
283
     0
 90
        4
 91
        0
  1

274
    -2
284
     1
 64
     0
275
    -2
285
     1
 65
     0
276
    -2
286
     1
 66
     0
277
    -2
287
     1
 67
     0
278
    -2
288
     1
 68
     0
279
    -2
289
     1
 69
     0
  7
Standard
140
0.18
170
     5
 62
     0
 63
   257
283
     0
 90
        4
 91
        0
  1

274
    -2
284
     1
 64
     0
275
    -2
285
     1
 65
     0
276
    -2
286
     1
 66
     0
277
    -2
287
     1
 67
     0
278
    -2
288
     1
 68
     0
279
    -2
289
     1
 69
     0
  0
VISUALSTYLE
  5
2F
102
{ACAD_REACTORS
330
2A
102
}
330
2A
100
AcDbVisualStyle
  2
2dWireframe
 70
     4
177
     3
291
     0
 70
    58
 90
        0
176
     1
 90
        2
176
     1
 90
        0
176
     1
 90
        0
176
     1
 40
0.6
176
     1
 40
30.0
176
     1
 62
     7
420
 16777215
176
     1
 90
        1
176
     1
 90
        4
176
     1
 62
     7
176
     1
 62
   257
176
     1
 90
        1
176
     1
 90
        1
176
     1
 40
1.0
176
     1
 90
        0
176
     1
 62
   257
176
     1
 40
1.0
176
     1
 90
        1
176
     1
 90
        6
176
     1
 90
        2
176
     1
 62
     7
176
     1
 90
        5
176
     1
 90
        0
176
     1
 90
        0
176
     1
290
     0
176
     1
 90
        1
176
     1
 40
0.0
176
     1
 90
        0
176
     1
290
     1
176
     1
290
     1
176
     1
290
     0
176
     1
290
     0
176
     1
290
     0
176
     1
290
     0
176
     1
290
     0
176
     1
290
     0
176
     1
290
     0
176
     1
 90
       50
176
     1
 40
0.0
176
     1
 40
1.0
176
     1
 90
        0
176
     1
 62
    18
420
        0
176
     1
 90
       50
176
     1
 90
        3
176
     1
 62
     5
420
      255
176
     1
290
     0
176
     1
 90
       50
176
     1
 90
       50
176
     1
 90
       50
176
     1
290
     0
176
     1
 90
       50
176
     1
 62
   256
176
     0
 40
1.0
176
     0
 90
        2
176
     1
  1
strokes_ogs.tif
176
     1
290
     0
176
     1
 40
1.0
176
     1
 40
1.0
176
     1
  0
VISUALSTYLE
  5
32
102
{ACAD_REACTORS
330
2A
102
}
330
2A
100
AcDbVisualStyle
  2
Basic
 70
     7
177
     3
291
     1
 70
    58
 90
        1
176
     1
 90
        0
176
     1
 90
        1
176
     1
 90
        0
176
     1
 40
0.6
176
     1
 40
30.0
176
     1
 62
     7
420
 16777215
176
     1
 90
        0
176
     1
 90
        4
176
     1
 62
     7
176
     1
 62
   257
176
     1
 90
        1
176
     1
 90
        1
176
     1
 40
1.0
176
     1
 90
        8
176
     1
 62
     7
176
     1
 40
1.0
176
     1
 90
        1
176
     1
 90
        6
176
     1
 90
        2
176
     1
 62
     7
176
     1
 90
        5
176
     1
 90
        0
176
     1
 90
        0
176
     1
290
     0
176
     1
 90
        1
176
     1
 40
0.0
176
     1
 90
        0
176
     1
290
     0
176
     1
290
     1
176
     1
290
     1
176
     1
290
     0
176
     1
290
     0
176
     1
290
     0
176
     1
290
     0
176
     1
290
     0
176
     1
290
     0
176
     1
 90
       50
176
     1
 40
0.0
176
     1
 40
1.0
176
     1
 90
        0
176
     1
 62
    18
420
        0
176
     1
 90
       50
176
     1
 90
        3
176
     1
 62
     5
420
      255
176
     1
290
     0
176
     1
 90
       50
176
     1
 90
       50
176
     1
 90
       50
176
     1
290
     0
176
     1
 90
       50
176
     1
 62
   256
176
     0
 40
1.0
176
     0
 90
        2
176
     1
  1
strokes_ogs.tif
176
     1
290
     0
176
     1
 40
1.0
176
     1
 40
1.0
176
     1
  0
VISUALSTYLE
  5
36
102
{ACAD_REACTORS
330
2A
102
}
330
2A
100
AcDbVisualStyle
  2
Brighten
 70
    12
177
     3
291
     1
 70
    58
 90
        2
176
     1
 90
        2
176
     1
 90
        0
176
     1
 90
        0
176
     1
 40
0.6
176
     1
 40
30.0
176
     1
 62
     7
420
 16777215
176
     1
 90
        1
176
     1
 90
        4
176
     1
 62
     7
176
     1
 62
   257
176
     1
 90
        1
176
     1
 90
        1
176
     1
 40
1.0
176
     1
 90
        8
176
     1
 62
     7
176
     1
 40
1.0
176
     1
 90
        1
176
     1
 90
        6
176
     1
 90
        2
176
     1
 62
     7
176
     1
 90
        5
176
     1
 90
        0
176
     1
 90
        0
176
     1
290
     0
176
     1
 90
        1
176
     1
 40
50.0
176
     1
 90
        0
176
     1
290
     0
176
     1
290
     1
176
     1
290
     1
176
     1
290
     0
176
     1
290
     0
176
     1
290
     0
176
     1
290
     0
176
     1
290
     0
176
     1
290
     0
176
     1
 90
       50
176
     1
 40
0.0
176
     1
 40
1.0
176
     1
 90
        0
176
     1
 62
    18
420
        0
176
     1
 90
       50
176
     1
 90
        3
176
     1
 62
     5
420
      255
176
     1
290
     0
176
     1
 90
       50
176
     1
 90
       50
176
     1
 90
       50
176
     1
290
     0
176
     1
 90
       50
176
     1
 62
   256
176
     0
 40
1.0
176
     0
 90
        2
176
     1
  1
strokes_ogs.tif
176
     1
290
     0
176
     1
 40
1.0
176
     1
 40
1.0
176
     1
  0
VISUALSTYLE
  5
3A
102
{ACAD_REACTORS
330
2A
102
}
330
2A
100
AcDbVisualStyle
  2
ColorChange
 70
    16
177
     3
291
     1
 70
    58
 90
        2
176
     1
 90
        2
176
     1
 90
        3
176
     1
 90
        0
176
     1
 40
0.6
176
     1
 40
30.0
176
     1
 62
     8
420
  8421504
176
     1
 90
        1
176
     1
 90
        4
176
     1
 62
     7
176
     1
 62
   257
176
     1
 90
        1
176
     1
 90
        1
176
     1
 40
1.0
176
     1
 90
        8
176
     1
 62
     8
420
  8421504
176
     1
 40
1.0
176
     1
 90
        1
176
     1
 90
        6
176
     1
 90
        2
176
     1
 62
     7
176
     1
 90
        5
176
     1
 90
        0
176
     1
 90
        0
176
     1
290
     0
176
     1
 90
        1
176
     1
 40
0.0
176
     1
 90
        0
176
     1
290
     0
176
     1
290
     1
176
     1
290
     1
176
     1
290
     0
176
     1
290
     0
176
     1
290
     0
176
     1
290
     0
176
     1
290
     0
176
     1
290
     0
176
     1
 90
       50
176
     1
 40
0.0
176
     1
 40
1.0
176
     1
 90
        0
176
     1
 62
    18
420
        0
176
     1
 90
       50
176
     1
 90
        3
176
     1
 62
     5
420
      255
176
     1
290
     0
176
     1
 90
       50
176
     1
 90
       50
176
     1
 90
       50
176
     1
290
     0
176
     1
 90
       50
176
     1
 62
   256
176
     0
 40
1.0
176
     0
 90
        2
176
     1
  1
strokes_ogs.tif
176
     1
290
     0
176
     1
 40
1.0
176
     1
 40
1.0
176
     1
  0
VISUALSTYLE
  5
34
102
{ACAD_REACTORS
330
2A
102
}
330
2A
100
AcDbVisualStyle
  2
Conceptual
 70
     9
177
     3
291
     0
 70
    58
 90
        3
176
     1
 90
        2
176
     1
 90
        0
176
     1
 90
        0
176
     1
 40
0.6
176
     1
 40
30.0
176
     1
 62
     7
420
 16777215
176
     1
 90
        2
176
     1
 90
        2
176
     1
 62
     7
176
     1
 62
   257
176
     1
 90
        1
176
     1
 90
        1
176
     1
 40
179.0
176
     1
 90
        8
176
     1
 62
     7
176
     1
 40
1.0
176
     1
 90
        1
176
     1
 90
        6
176
     1
 90
        2
176
     1
 62
     7
176
     1
 90
        3
176
     1
 90
        0
176
     1
 90
        0
176
     1
290
     0
176
     1
 90
        1
176
     1
 40
0.0
176
     1
 90
        0
176
     1
290
     0
176
     1
290
     1
176
     1
290
     1
176
     1
290
     0
176
     1
290
     0
176
     1
290
     0
176
     1
290
     0
176
     1
290
     0
176
     1
290
     0
176
     1
 90
       50
176
     1
 40
0.0
176
     1
 40
1.0
176
     1
 90
        0
176
     1
 62
    18
420
        0
176
     1
 90
       50
176
     1
 90
        3
176
     1
 62
     5
420
      255
176
     1
290
     0
176
     1
 90
       50
176
     1
 90
       50
176
     1
 90
       50
176
     1
290
     0
176
     1
 90
       50
176
     1
 62
   256
176
     0
 40
1.0
176
     0
 90
        2
176
     1
  1
strokes_ogs.tif
176
     1
290
     0
176
     1
 40
1.0
176
     1
 40
1.0
176
     1
  0
VISUALSTYLE
  5
35
102
{ACAD_REACTORS
330
2A
102
}
330
2A
100
AcDbVisualStyle
  2
Dim
 70
    11
177
     3
291
     1
 70
    58
 90
        2
176
     1
 90
        2
176
     1
 90
        0
176
     1
 90
        0
176
     1
 40
0.6
176
     1
 40
30.0
176
     1
 62
     7
420
 16777215
176
     1
 90
        1
176
     1
 90
        4
176
     1
 62
     7
176
     1
 62
   257
176
     1
 90
        1
176
     1
 90
        1
176
     1
 40
1.0
176
     1
 90
        8
176
     1
 62
     7
176
     1
 40
1.0
176
     1
 90
        1
176
     1
 90
        6
176
     1
 90
        2
176
     1
 62
     7
176
     1
 90
        5
176
     1
 90
        0
176
     1
 90
        0
176
     1
290
     0
176
     1
 90
        1
176
     1
 40
-50.0
176
     1
 90
        0
176
     1
290
     0
176
     1
290
     1
176
     1
290
     1
176
     1
290
     0
176
     1
290
     0
176
     1
290
     0
176
     1
290
     0
176
     1
290
     0
176
     1
290
     0
176
     1
 90
       50
176
     1
 40
0.0
176
     1
 40
1.0
176
     1
 90
        0
176
     1
 62
    18
420
        0
176
     1
 90
       50
176
     1
 90
        3
176
     1
 62
     5
420
      255
176
     1
290
     0
176
     1
 90
       50
176
     1
 90
       50
176
     1
 90
       50
176
     1
290
     0
176
     1
 90
       50
176
     1
 62
   256
176
     0
 40
1.0
176
     0
 90
        2
176
     1
  1
strokes_ogs.tif
176
     1
290
     0
176
     1
 40
1.0
176
     1
 40
1.0
176
     1
  0
VISUALSTYLE
  5
3D
102
{ACAD_REACTORS
330
2A
102
}
330
2A
100
AcDbVisualStyle
  2
EdgeColorOff
 70
    22
177
     3
291
     1
 70
    58
 90
        2
176
     0
 90
        2
176
     0
 90
        0
176
     0
 90
        0
176
     0
 40
0.6
176
     0
 40
30.0
176
     0
 62
     7
420
 16777215
176
     0
 90
        1
176
     0
 90
        4
176
     0
 62
     7
176
     0
 62
   257
176
     0
 90
        1
176
     0
 90
        1
176
     0
 40
1.0
176
     0
 90
        8
176
     2
 62
     7
176
     0
 40
1.0
176
     0
 90
        1
176
     0
 90
        6
176
     0
 90
        2
176
     0
 62
     7
176
     0
 90
        5
176
     0
 90
        0
176
     0
 90
        0
176
     0
290
     0
176
     0
 90
        1
176
     0
 40
0.0
176
     0
 90
        0
176
     0
290
     0
176
     0
290
     1
176
     0
290
     1
176
     0
290
     0
176
     0
290
     0
176
     0
290
     0
176
     0
290
     0
176
     0
290
     0
176
     0
290
     0
176
     0
 90
       50
176
     0
 40
0.0
176
     0
 40
1.0
176
     0
 90
        0
176
     0
 62
    18
420
        0
176
     0
 90
       50
176
     0
 90
        3
176
     0
 62
     5
420
      255
176
     0
290
     0
176
     0
 90
       50
176
     0
 90
       50
176
     0
 90
       50
176
     0
290
     0
176
     0
 90
       50
176
     0
 62
   256
176
     0
 40
1.0
176
     0
 90
        2
176
     0
  1
strokes_ogs.tif
176
     0
290
     0
176
     0
 40
1.0
176
     0
 40
1.0
176
     0
  0
VISUALSTYLE
  5
39
102
{ACAD_REACTORS
330
2A
102
}
330
2A
100
AcDbVisualStyle
  2
Facepattern
 70
    15
177
     3
291
     1
 70
    58
 90
        2
176
     1
 90
        2
176
     1
 90
        0
176
     1
 90
        0
176
     1
 40
0.6
176
     1
 40
30.0
176
     1
 62
     7
420
 16777215
176
     1
 90
        1
176
     1
 90
        4
176
     1
 62
     7
176
     1
 62
   257
176
     1
 90
        1
176
     1
 90
        1
176
     1
 40
1.0
176
     1
 90
        8
176
     1
 62
     7
176
     1
 40
1.0
176
     1
 90
        1
176
     1
 90
        6
176
     1
 90
        2
176
     1
 62
     7
176
     1
 90
        5
176
     1
 90
        0
176
     1
 90
        0
176
     1
290
     0
176
     1
 90
        1
176
     1
 40
0.0
176
     1
 90
        0
176
     1
290
     0
176
     1
290
     1
176
     1
290
     1
176
     1
290
     0
176
     1
290
     0
176
     1
290
     0
176
     1
290
     0
176
     1
290
     0
176
     1
290
     0
176
     1
 90
       50
176
     1
 40
0.0
176
     1
 40
1.0
176
     1
 90
        0
176
     1
 62
    18
420
        0
176
     1
 90
       50
176
     1
 90
        3
176
     1
 62
     5
420
      255
176
     1
290
     0
176
     1
 90
       50
176
     1
 90
       50
176
     1
 90
       50
176
     1
290
     0
176
     1
 90
       50
176
     1
 62
   256
176
     0
 40
1.0
176
     0
 90
        2
176
     1
  1
strokes_ogs.tif
176
     1
290
     0
176
     1
 40
1.0
176
     1
 40
1.0
176
     1
  0
VISUALSTYLE
  5
2B
102
{ACAD_REACTORS
330
2A
102
}
330
2A
100
AcDbVisualStyle
  2
Flat
 70
     0
177
     3
291
     1
 70
    58
 90
        2
176
     1
 90
        1
176
     1
 90
        1
176
     1
 90
        2
176
     1
 40
0.6
176
     1
 40
30.0
176
     1
 62
     7
420
 16777215
176
     1
 90
        0
176
     1
 90
        0
176
     1
 62
     7
176
     1
 62
   257
176
     1
 90
        1
176
     1
 90
        1
176
     1
 40
1.0
176
     1
 90
        8
176
     1
 62
     7
176
     1
 40
1.0
176
     1
 90
        1
176
     1
 90
        6
176
     1
 90
        2
176
     1
 62
     7
176
     1
 90
        5
176
     1
 90
        0
176
     1
 90
        0
176
     1
290
     0
176
     1
 90
       13
176
     1
 40
0.0
176
     1
 90
        0
176
     1
290
     0
176
     1
290
     1
176
     1
290
     1
176
     1
290
     0
176
     1
290
     0
176
     1
290
     0
176
     1
290
     0
176
     1
290
     0
176
     1
290
     0
176
     1
 90
       50
176
     1
 40
0.0
176
     1
 40
1.0
176
     1
 90
        0
176
     1
 62
    18
420
        0
176
     1
 90
       50
176
     1
 90
        3
176
     1
 62
     5
420
      255
176
     1
290
     0
176
     1
 90
       50
176
     1
 90
       50
176
     1
 90
       50
176
     1
290
     0
176
     1
 90
       50
176
     1
 62
   256
176
     0
 40
1.0
176
     0
 90
        2
176
     1
  1
strokes_ogs.tif
176
     1
290
     0
176
     1
 40
1.0
176
     1
 40
1.0
176
     1
  0
VISUALSTYLE
  5
2C
102
{ACAD_REACTORS
330
2A
102
}
330
2A
100
AcDbVisualStyle
  2
FlatWithEdges
 70
     1
177
     3
291
     1
 70
    58
 90
        2
176
     1
 90
        1
176
     1
 90
        1
176
     1
 90
        2
176
     1
 40
0.6
176
     1
 40
30.0
176
     1
 62
     7
420
 16777215
176
     1
 90
        1
176
     1
 90
        0
176
     1
 62
     7
176
     1
 62
   257
176
     1
 90
        1
176
     1
 90
        1
176
     1
 40
1.0
176
     1
 90
        0
176
     1
 62
   257
176
     1
 40
1.0
176
     1
 90
        1
176
     1
 90
        6
176
     1
 90
        2
176
     1
 62
     7
176
     1
 90
        5
176
     1
 90
        0
176
     1
 90
        0
176
     1
290
     0
176
     1
 90
       13
176
     1
 40
0.0
176
     1
 90
        0
176
     1
290
     0
176
     1
290
     1
176
     1
290
     1
176
     1
290
     0
176
     1
290
     0
176
     1
290
     0
176
     1
290
     0
176
     1
290
     0
176
     1
290
     0
176
     1
 90
       50
176
     1
 40
0.0
176
     1
 40
1.0
176
     1
 90
        0
176
     1
 62
    18
420
        0
176
     1
 90
       50
176
     1
 90
        3
176
     1
 62
     5
420
      255
176
     1
290
     0
176
     1
 90
       50
176
     1
 90
       50
176
     1
 90
       50
176
     1
290
     0
176
     1
 90
       50
176
     1
 62
   256
176
     0
 40
1.0
176
     0
 90
        2
176
     1
  1
strokes_ogs.tif
176
     1
290
     0
176
     1
 40
1.0
176
     1
 40
1.0
176
     1
  0
VISUALSTYLE
  5
2D
102
{ACAD_REACTORS
330
2A
102
}
330
2A
100
AcDbVisualStyle
  2
Gouraud
 70
     2
177
     3
291
     1
 70
    58
 90
        2
176
     1
 90
        2
176
     1
 90
        1
176
     1
 90
        2
176
     1
 40
0.6
176
     1
 40
30.0
176
     1
 62
     7
420
 16777215
176
     1
 90
        0
176
     1
 90
        0
176
     1
 62
     7
176
     1
 62
   257
176
     1
 90
        1
176
     1
 90
        1
176
     1
 40
1.0
176
     1
 90
        0
176
     1
 62
     7
176
     1
 40
1.0
176
     1
 90
        1
176
     1
 90
        6
176
     1
 90
        2
176
     1
 62
     7
176
     1
 90
        5
176
     1
 90
        0
176
     1
 90
        0
176
     1
290
     0
176
     1
 90
       13
176
     1
 40
0.0
176
     1
 90
        0
176
     1
290
     0
176
     1
290
     1
176
     1
290
     1
176
     1
290
     0
176
     1
290
     0
176
     1
290
     0
176
     1
290
     0
176
     1
290
     0
176
     1
290
     0
176
     1
 90
       50
176
     1
 40
0.0
176
     1
 40
1.0
176
     1
 90
        0
176
     1
 62
    18
420
        0
176
     1
 90
       50
176
     1
 90
        3
176
     1
 62
     5
420
      255
176
     1
290
     0
176
     1
 90
       50
176
     1
 90
       50
176
     1
 90
       50
176
     1
290
     0
176
     1
 90
       50
176
     1
 62
   256
176
     0
 40
1.0
176
     0
 90
        2
176
     1
  1
strokes_ogs.tif
176
     1
290
     0
176
     1
 40
1.0
176
     1
 40
1.0
176
     1
  0
VISUALSTYLE
  5
2E
102
{ACAD_REACTORS
330
2A
102
}
330
2A
100
AcDbVisualStyle
  2
GouraudWithEdges
 70
     3
177
     3
291
     1
 70
    58
 90
        2
176
     1
 90
        2
176
     1
 90
        1
176
     1
 90
        2
176
     1
 40
0.6
176
     1
 40
30.0
176
     1
 62
     7
420
 16777215
176
     1
 90
        1
176
     1
 90
        0
176
     1
 62
     7
176
     1
 62
   257
176
     1
 90
        1
176
     1
 90
        1
176
     1
 40
1.0
176
     1
 90
        0
176
     1
 62
   257
176
     1
 40
1.0
176
     1
 90
        1
176
     1
 90
        6
176
     1
 90
        2
176
     1
 62
     7
176
     1
 90
        5
176
     1
 90
        0
176
     1
 90
        0
176
     1
290
     0
176
     1
 90
       13
176
     1
 40
0.0
176
     1
 90
        0
176
     1
290
     0
176
     1
290
     1
176
     1
290
     1
176
     1
290
     0
176
     1
290
     0
176
     1
290
     0
176
     1
290
     0
176
     1
290
     0
176
     1
290
     0
176
     1
 90
       50
176
     1
 40
0.0
176
     1
 40
1.0
176
     1
 90
        0
176
     1
 62
    18
420
        0
176
     1
 90
       50
176
     1
 90
        3
176
     1
 62
     5
420
      255
176
     1
290
     0
176
     1
 90
       50
176
     1
 90
       50
176
     1
 90
       50
176
     1
290
     0
176
     1
 90
       50
176
     1
 62
   256
176
     0
 40
1.0
176
     0
 90
        2
176
     1
  1
strokes_ogs.tif
176
     1
290
     0
176
     1
 40
1.0
176
     1
 40
1.0
176
     1
  0
VISUALSTYLE
  5
31
102
{ACAD_REACTORS
330
2A
102
}
330
2A
100
AcDbVisualStyle
  2
Hidden
 70
     6
177
     3
291
     0
 70
    58
 90
        1
176
     1
 90
        2
176
     1
 90
        2
176
     1
 90
        0
176
     1
 40
0.6
176
     1
 40
30.0
176
     1
 62
     7
420
 16777215
176
     1
 90
        2
176
     1
 90
        2
176
     1
 62
     7
176
     1
 62
   257
176
     1
 90
        2
176
     1
 90
        1
176
     1
 40
40.0
176
     1
 90
        0
176
     1
 62
   257
176
     1
 40
1.0
176
     1
 90
        1
176
     1
 90
        6
176
     1
 90
        2
176
     1
 62
     7
176
     1
 90
        3
176
     1
 90
        0
176
     1
 90
        0
176
     1
290
     0
176
     1
 90
        1
176
     1
 40
0.0
176
     1
 90
        0
176
     1
290
     0
176
     1
290
     1
176
     1
290
     1
176
     1
290
     0
176
     1
290
     0
176
     1
290
     0
176
     1
290
     0
176
     1
290
     0
176
     1
290
     0
176
     1
 90
       50
176
     1
 40
0.0
176
     1
 40
1.0
176
     1
 90
        0
176
     1
 62
    18
420
        0
176
     1
 90
       50
176
     1
 90
        3
176
     1
 62
     5
420
      255
176
     1
290
     0
176
     1
 90
       50
176
     1
 90
       50
176
     1
 90
       50
176
     1
290
     0
176
     1
 90
       50
176
     1
 62
   256
176
     0
 40
1.0
176
     0
 90
        2
176
     1
  1
strokes_ogs.tif
176
     1
290
     0
176
     1
 40
1.0
176
     1
 40
1.0
176
     1
  0
VISUALSTYLE
  5
3B
102
{ACAD_REACTORS
330
2A
102
}
330
2A
100
AcDbVisualStyle
  2
JitterOff
 70
    20
177
     3
291
     1
 70
    58
 90
        2
176
     0
 90
        2
176
     0
 90
        0
176
     0
 90
        0
176
     0
 40
0.6
176
     0
 40
30.0
176
     0
 62
     7
420
 16777215
176
     0
 90
        1
176
     0
 90
        4
176
     0
 62
     7
176
     0
 62
   257
176
     0
 90
        1
176
     0
 90
        1
176
     0
 40
1.0
176
     0
 90
       10
176
     2
 62
     7
176
     0
 40
1.0
176
     0
 90
        1
176
     0
 90
        6
176
     0
 90
        2
176
     0
 62
     7
176
     0
 90
        5
176
     0
 90
        0
176
     0
 90
        0
176
     0
290
     0
176
     0
 90
        1
176
     0
 40
0.0
176
     0
 90
        0
176
     0
290
     0
176
     0
290
     1
176
     0
290
     1
176
     0
290
     0
176
     0
290
     0
176
     0
290
     0
176
     0
290
     0
176
     0
290
     0
176
     0
290
     0
176
     0
 90
       50
176
     0
 40
0.0
176
     0
 40
1.0
176
     0
 90
        0
176
     0
 62
    18
420
        0
176
     0
 90
       50
176
     0
 90
        3
176
     0
 62
     5
420
      255
176
     0
290
     0
176
     0
 90
       50
176
     0
 90
       50
176
     0
 90
       50
176
     0
290
     0
176
     0
 90
       50
176
     0
 62
   256
176
     0
 40
1.0
176
     0
 90
        2
176
     0
  1
strokes_ogs.tif
176
     0
290
     0
176
     0
 40
1.0
176
     0
 40
1.0
176
     0
  0
VISUALSTYLE
  5
38
102
{ACAD_REACTORS
330
2A
102
}
330
2A
100
AcDbVisualStyle
  2
Linepattern
 70
    14
177
     3
291
     1
 70
    58
 90
        2
176
     1
 90
        2
176
     1
 90
        0
176
     1
 90
        0
176
     1
 40
0.6
176
     1
 40
30.0
176
     1
 62
     7
420
 16777215
176
     1
 90
        1
176
     1
 90
        4
176
     1
 62
     7
176
     1
 62
   257
176
     1
 90
        7
176
     1
 90
        7
176
     1
 40
1.0
176
     1
 90
        8
176
     1
 62
     7
176
     1
 40
1.0
176
     1
 90
        1
176
     1
 90
        6
176
     1
 90
        2
176
     1
 62
     7
176
     1
 90
        5
176
     1
 90
        0
176
     1
 90
        0
176
     1
290
     0
176
     1
 90
        1
176
     1
 40
0.0
176
     1
 90
        0
176
     1
290
     0
176
     1
290
     1
176
     1
290
     1
176
     1
290
     0
176
     1
290
     0
176
     1
290
     0
176
     1
290
     0
176
     1
290
     0
176
     1
290
     0
176
     1
 90
       50
176
     1
 40
0.0
176
     1
 40
1.0
176
     1
 90
        0
176
     1
 62
    18
420
        0
176
     1
 90
       50
176
     1
 90
        3
176
     1
 62
     5
420
      255
176
     1
290
     0
176
     1
 90
       50
176
     1
 90
       50
176
     1
 90
       50
176
     1
290
     0
176
     1
 90
       50
176
     1
 62
   256
176
     0
 40
1.0
176
     0
 90
        2
176
     1
  1
strokes_ogs.tif
176
     1
290
     0
176
     1
 40
1.0
176
     1
 40
1.0
176
     1
  0
VISUALSTYLE
  5
3C
102
{ACAD_REACTORS
330
2A
102
}
330
2A
100
AcDbVisualStyle
  2
OverhangOff
 70
    21
177
     3
291
     1
 70
    58
 90
        2
176
     0
 90
        2
176
     0
 90
        0
176
     0
 90
        0
176
     0
 40
0.6
176
     0
 40
30.0
176
     0
 62
     7
420
 16777215
176
     0
 90
        1
176
     0
 90
        4
176
     0
 62
     7
176
     0
 62
   257
176
     0
 90
        1
176
     0
 90
        1
176
     0
 40
1.0
176
     0
 90
        9
176
     2
 62
     7
176
     0
 40
1.0
176
     0
 90
        1
176
     0
 90
        6
176
     0
 90
        2
176
     0
 62
     7
176
     0
 90
        5
176
     0
 90
        0
176
     0
 90
        0
176
     0
290
     0
176
     0
 90
        1
176
     0
 40
0.0
176
     0
 90
        0
176
     0
290
     0
176
     0
290
     1
176
     0
290
     1
176
     0
290
     0
176
     0
290
     0
176
     0
290
     0
176
     0
290
     0
176
     0
290
     0
176
     0
290
     0
176
     0
 90
       50
176
     0
 40
0.0
176
     0
 40
1.0
176
     0
 90
        0
176
     0
 62
    18
420
        0
176
     0
 90
       50
176
     0
 90
        3
176
     0
 62
     5
420
      255
176
     0
290
     0
176
     0
 90
       50
176
     0
 90
       50
176
     0
 90
       50
176
     0
290
     0
176
     0
 90
       50
176
     0
 62
   256
176
     0
 40
1.0
176
     0
 90
        2
176
     0
  1
strokes_ogs.tif
176
     0
290
     0
176
     0
 40
1.0
176
     0
 40
1.0
176
     0
  0
VISUALSTYLE
  5
33
102
{ACAD_REACTORS
330
2A
102
}
330
2A
100
AcDbVisualStyle
  2
Realistic
 70
     8
177
     3
291
     0
 70
    58
 90
        2
176
     1
 90
        3
176
     1
 90
        0
176
     1
 90
        2
176
     1
 40
0.6
176
     1
 40
30.0
176
     1
 62
     7
420
 16777215
176
     1
 90
        0
176
     1
 90
        0
176
     1
 62
     7
176
     1
 62
   257
176
     1
 90
        1
176
     1
 90
        1
176
     1
 40
1.0
176
     1
 90
        8
176
     1
 62
   257
176
     1
 40
1.0
176
     1
 90
        1
176
     1
 90
        6
176
     1
 90
        2
176
     1
 62
     7
176
     1
 90
        3
176
     1
 90
        0
176
     1
 90
        0
176
     1
290
     0
176
     1
 90
       13
176
     1
 40
0.0
176
     1
 90
        0
176
     1
290
     0
176
     1
290
     1
176
     1
290
     1
176
     1
290
     0
176
     1
290
     0
176
     1
290
     0
176
     1
290
     0
176
     1
290
     0
176
     1
290
     0
176
     1
 90
       50
176
     1
 40
0.0
176
     1
 40
1.0
176
     1
 90
        0
176
     1
 62
    18
420
        0
176
     1
 90
       50
176
     1
 90
        3
176
     1
 62
     5
420
      255
176
     1
290
     0
176
     1
 90
       50
176
     1
 90
       50
176
     1
 90
       50
176
     1
290
     0
176
     1
 90
       50
176
     1
 62
   256
176
     0
 40
1.0
176
     0
 90
        2
176
     1
  1
strokes_ogs.tif
176
     1
290
     0
176
     1
 40
1.0
176
     1
 40
1.0
176
     1
  0
VISUALSTYLE
  5
42
102
{ACAD_REACTORS
330
2A
102
}
330
2A
100
AcDbVisualStyle
  2
Shaded
 70
    27
177
     3
291
     0
 70
    58
 90
        2
176
     1
 90
        2
176
     1
 90
        1
176
     1
 90
        2
176
     1
 40
0.6
176
     1
 40
30.0
176
     1
 62
     7
420
 16777215
176
     1
 90
        0
176
     1
 90
        4
176
     1
 62
     7
176
     1
 62
   257
176
     1
 90
        1
176
     1
 90
        1
176
     1
 40
1.0
176
     1
 90
        8
176
     1
 62
   257
176
     1
 40
1.0
176
     1
 90
        1
176
     1
 90
        6
176
     1
 90
        2
176
     1
 62
     8
420
  7895160
176
     1
 90
        3
176
     1
 90
        0
176
     1
 90
        0
176
     1
290
     0
176
     1
 90
        5
176
     1
 40
0.0
176
     1
 90
        0
176
     1
290
     0
176
     1
290
     1
176
     1
290
     1
176
     1
290
     0
176
     1
290
     0
176
     1
290
     0
176
     1
290
     0
176
     1
290
     0
176
     1
290
     0
176
     1
 90
       50
176
     1
 40
0.0
176
     1
 40
1.0
176
     1
 90
        0
176
     1
 62
    18
420
        0
176
     1
 90
       50
176
     1
 90
        3
176
     1
 62
     5
420
      255
176
     1
290
     0
176
     1
 90
       50
176
     1
 90
       50
176
     1
 90
       50
176
     1
290
     0
176
     1
 90
       50
176
     1
 62
   256
176
     0
 40
1.0
176
     0
 90
        2
176
     1
  1
strokes_ogs.tif
176
     1
290
     0
176
     1
 40
1.0
176
     1
 40
1.0
176
     1
  0
VISUALSTYLE
  5
41
102
{ACAD_REACTORS
330
2A
102
}
330
2A
100
AcDbVisualStyle
  2
Shaded with edges
 70
    26
177
     3
291
     0
 70
    58
 90
        2
176
     1
 90
        2
176
     1
 90
        1
176
     1
 90
        2
176
     1
 40
0.6
176
     1
 40
30.0
176
     1
 62
     7
420
 16777215
176
     1
 90
        1
176
     1
 90
       10
176
     1
 62
     7
176
     1
 62
   257
176
     1
 90
        2
176
     1
 90
        1
176
     1
 40
1.0
176
     1
 90
        8
176
     1
 62
   257
176
     1
 40
1.0
176
     1
 90
        1
176
     1
 90
        6
176
     1
 90
        2
176
     1
 62
     7
176
     1
 90
        3
176
     1
 90
        0
176
     1
 90
        0
176
     1
290
     0
176
     1
 90
        5
176
     1
 40
0.0
176
     1
 90
        0
176
     1
290
     0
176
     1
290
     1
176
     1
290
     1
176
     1
290
     0
176
     1
290
     0
176
     1
290
     0
176
     1
290
     0
176
     1
290
     0
176
     1
290
     0
176
     1
 90
       50
176
     1
 40
0.0
176
     1
 40
1.0
176
     1
 90
        0
176
     1
 62
    18
420
        0
176
     1
 90
       50
176
     1
 90
        3
176
     1
 62
     5
420
      255
176
     1
290
     0
176
     1
 90
       50
176
     1
 90
       50
176
     1
 90
       50
176
     1
290
     0
176
     1
 90
       50
176
     1
 62
   256
176
     0
 40
1.0
176
     0
 90
        2
176
     1
  1
strokes_ogs.tif
176
     1
290
     0
176
     1
 40
1.0
176
     1
 40
1.0
176
     1
  0
VISUALSTYLE
  5
3E
102
{ACAD_REACTORS
330
2A
102
}
330
2A
100
AcDbVisualStyle
  2
Shades of Gray
 70
    23
177
     3
291
     0
 70
    58
 90
        2
176
     1
 90
        2
176
     1
 90
        3
176
     1
 90
        0
176
     1
 40
0.6
176
     1
 40
30.0
176
     1
 62
     7
420
 16777215
176
     1
 90
        2
176
     1
 90
        2
176
     1
 62
     7
176
     1
 62
     7
176
     1
 90
        1
176
     1
 90
        1
176
     1
 40
40.0
176
     1
 90
        8
176
     1
 62
     7
176
     1
 40
1.0
176
     1
 90
        1
176
     1
 90
        6
176
     1
 90
        2
176
     1
 62
     7
176
     1
 90
        3
176
     1
 90
        0
176
     1
 90
        0
176
     1
290
     0
176
     1
 90
        1
176
     1
 40
0.0
176
     1
 90
        0
176
     1
290
     0
176
     1
290
     1
176
     1
290
     1
176
     1
290
     0
176
     1
290
     0
176
     1
290
     0
176
     1
290
     0
176
     1
290
     0
176
     1
290
     0
176
     1
 90
       50
176
     1
 40
0.0
176
     1
 40
1.0
176
     1
 90
        0
176
     1
 62
    18
420
        0
176
     1
 90
       50
176
     1
 90
        3
176
     1
 62
     5
420
      255
176
     1
290
     0
176
     1
 90
       50
176
     1
 90
       50
176
     1
 90
       50
176
     1
290
     0
176
     1
 90
       50
176
     1
 62
   256
176
     0
 40
1.0
176
     0
 90
        2
176
     1
  1
strokes_ogs.tif
176
     1
290
     0
176
     1
 40
1.0
176
     1
 40
1.0
176
     1
  0
VISUALSTYLE
  5
3F
102
{ACAD_REACTORS
330
2A
102
}
330
2A
100
AcDbVisualStyle
  2
Sketchy
 70
    24
177
     3
291
     0
 70
    58
 90
        1
176
     1
 90
        2
176
     1
 90
        2
176
     1
 90
        0
176
     1
 40
0.6
176
     1
 40
30.0
176
     1
 62
     7
420
 16777215
176
     1
 90
        2
176
     1
 90
        2
176
     1
 62
     7
176
     1
 62
     7
176
     1
 90
        1
176
     1
 90
        1
176
     1
 40
40.0
176
     1
 90
       11
176
     1
 62
     7
176
     1
 40
1.0
176
     1
 90
        1
176
     1
 90
        6
176
     1
 90
        2
176
     1
 62
     7
176
     1
 90
        6
176
     1
 90
        0
176
     1
 90
        0
176
     1
290
     0
176
     1
 90
        1
176
     1
 40
0.0
176
     1
 90
        0
176
     1
290
     0
176
     1
290
     1
176
     1
290
     1
176
     1
290
     0
176
     1
290
     0
176
     1
290
     0
176
     1
290
     0
176
     1
290
     0
176
     1
290
     0
176
     1
 90
       50
176
     1
 40
0.0
176
     1
 40
1.0
176
     1
 90
        0
176
     1
 62
    18
420
        0
176
     1
 90
       50
176
     1
 90
        3
176
     1
 62
     5
420
      255
176
     1
290
     0
176
     1
 90
       50
176
     1
 90
       50
176
     1
 90
       50
176
     1
290
     0
176
     1
 90
       50
176
     1
 62
   256
176
     0
 40
1.0
176
     0
 90
        2
176
     1
  1
strokes_ogs.tif
176
     1
290
     0
176
     1
 40
1.0
176
     1
 40
1.0
176
     1
  0
VISUALSTYLE
  5
37
102
{ACAD_REACTORS
330
2A
102
}
330
2A
100
AcDbVisualStyle
  2
Thicken
 70
    13
177
     3
291
     1
 70
    58
 90
        2
176
     1
 90
        2
176
     1
 90
        0
176
     1
 90
        0
176
     1
 40
0.6
176
     1
 40
30.0
176
     1
 62
     7
420
 16777215
176
     1
 90
        1
176
     1
 90
        4
176
     1
 62
     7
176
     1
 62
   257
176
     1
 90
        1
176
     1
 90
        1
176
     1
 40
1.0
176
     1
 90
       12
176
     1
 62
     7
176
     1
 40
1.0
176
     1
 90
        1
176
     1
 90
        6
176
     1
 90
        2
176
     1
 62
     7
176
     1
 90
        5
176
     1
 90
        0
176
     1
 90
        0
176
     1
290
     0
176
     1
 90
        1
176
     1
 40
0.0
176
     1
 90
        0
176
     1
290
     0
176
     1
290
     1
176
     1
290
     1
176
     1
290
     0
176
     1
290
     0
176
     1
290
     0
176
     1
290
     0
176
     1
290
     0
176
     1
290
     0
176
     1
 90
       50
176
     1
 40
0.0
176
     1
 40
1.0
176
     1
 90
        0
176
     1
 62
    18
420
        0
176
     1
 90
       50
176
     1
 90
        3
176
     1
 62
     5
420
      255
176
     1
290
     0
176
     1
 90
       50
176
     1
 90
       50
176
     1
 90
       50
176
     1
290
     0
176
     1
 90
       50
176
     1
 62
   256
176
     0
 40
1.0
176
     0
 90
        2
176
     1
  1
strokes_ogs.tif
176
     1
290
     0
176
     1
 40
1.0
176
     1
 40
1.0
176
     1
  0
VISUALSTYLE
  5
30
102
{ACAD_REACTORS
330
2A
102
}
330
2A
100
AcDbVisualStyle
  2
Wireframe
 70
     5
177
     3
291
     0
 70
    58
 90
        0
176
     1
 90
        2
176
     1
 90
        0
176
     1
 90
        0
176
     1
 40
0.6
176
     1
 40
30.0
176
     1
 62
     7
420
 16777215
176
     1
 90
        1
176
     1
 90
        4
176
     1
 62
     7
176
     1
 62
   257
176
     1
 90
        1
176
     1
 90
        1
176
     1
 40
1.0
176
     1
 90
        0
176
     1
 62
   257
176
     1
 40
1.0
176
     1
 90
        1
176
     1
 90
        6
176
     1
 90
        2
176
     1
 62
     7
176
     1
 90
        3
176
     1
 90
        0
176
     1
 90
        0
176
     1
290
     0
176
     1
 90
        1
176
     1
 40
0.0
176
     1
 90
        0
176
     1
290
     0
176
     1
290
     1
176
     1
290
     1
176
     1
290
     0
176
     1
290
     0
176
     1
290
     0
176
     1
290
     0
176
     1
290
     0
176
     1
290
     0
176
     1
 90
       50
176
     1
 40
0.0
176
     1
 40
1.0
176
     1
 90
        0
176
     1
 62
    18
420
        0
176
     1
 90
       50
176
     1
 90
        3
176
     1
 62
     5
420
      255
176
     1
290
     0
176
     1
 90
       50
176
     1
 90
       50
176
     1
 90
       50
176
     1
290
     0
176
     1
 90
       50
176
     1
 62
   256
176
     0
 40
1.0
176
     0
 90
        2
176
     1
  1
strokes_ogs.tif
176
     1
290
     0
176
     1
 40
1.0
176
     1
 40
1.0
176
     1
  0
VISUALSTYLE
  5
40
102
{ACAD_REACTORS
330
2A
102
}
330
2A
100
AcDbVisualStyle
  2
X-Ray
 70
    25
177
     3
291
     0
 70
    58
 90
        2
176
     1
 90
        2
176
     1
 90
        1
176
     1
 90
        1
176
     1
 40
0.5
176
     1
 40
30.0
176
     1
 62
     7
420
 16777215
176
     1
 90
        1
176
     1
 90
        0
176
     1
 62
     7
176
     1
 62
   257
176
     1
 90
        1
176
     1
 90
        1
176
     1
 40
1.0
176
     1
 90
        8
176
     1
 62
     7
176
     1
 40
1.0
176
     1
 90
        1
176
     1
 90
        6
176
     1
 90
        2
176
     1
 62
     7
176
     1
 90
        3
176
     1
 90
        0
176
     1
 90
        0
176
     1
290
     0
176
     1
 90
       13
176
     1
 40
0.0
176
     1
 90
        0
176
     1
290
     0
176
     1
290
     1
176
     1
290
     1
176
     1
290
     0
176
     1
290
     0
176
     1
290
     0
176
     1
290
     0
176
     1
290
     0
176
     1
290
     0
176
     1
 90
       50
176
     1
 40
0.0
176
     1
 40
1.0
176
     1
 90
        0
176
     1
 62
    18
420
        0
176
     1
 90
       50
176
     1
 90
        3
176
     1
 62
     5
420
      255
176
     1
290
     0
176
     1
 90
       50
176
     1
 90
       50
176
     1
 90
       50
176
     1
290
     0
176
     1
 90
       50
176
     1
 62
   256
176
     0
 40
1.0
176
     0
 90
        2
176
     1
  1
strokes_ogs.tif
176
     1
290
     0
176
     1
 40
1.0
176
     1
 40
1.0
176
     1
  0
DICTIONARYVAR
  5
8A
102
{ACAD_REACTORS
330
89
102
}
330
89
100
DictionaryVariables
280
     0
  1
1:1
  0
DICTIONARYVAR
  5
8F
102
{ACAD_REACTORS
330
89
102
}
330
89
100
DictionaryVariables
280
     0
  1
Standard
  0
DICTIONARYVAR
  5
8E
102
{ACAD_REACTORS
330
89
102
}
330
89
100
DictionaryVariables
280
     0
  1
Standard
  0
DICTIONARY
  5
8B
330
5A
100
AcDbDictionary
280
     1
281
     1
  3
ACAD_ROUNDTRIP_2008_TABLESTYLE_CELLSTYLEMAP
360
8C
  0
CELLSTYLEMAP
  5
8C
102
{ACAD_REACTORS
330
8B
102
}
330
8B
100
AcDbCellStyleMap
 90
        3
300
CELLSTYLE
  1
TABLEFORMAT_BEGIN
 90
        5
170
     1
 91
        0
 92
    32768
 62
   257
 93
        1
300
CONTENTFORMAT
  1
CONTENTFORMAT_BEGIN
 90
        0
 91
        0
 92
        4
 93
        0
300

 40
0.0
140
1.0
 94
        5
 62
     0
340
11
144
0.25
309
CONTENTFORMAT_END
171
     1
301
MARGIN
  1
CELLMARGIN_BEGIN
 40
0.06
 40
0.06
 40
0.06
 40
0.06
 40
0.06
 40
0.06
309
CELLMARGIN_END
 94
        6
 95
        1
302
GRIDFORMAT
  1
GRIDFORMAT_BEGIN
 90
        0
 91
        1
 62
     0
 92
       -2
340
14
 93
        0
 40
0.045
309
GRIDFORMAT_END
 95
        2
302
GRIDFORMAT
  1
GRIDFORMAT_BEGIN
 90
        0
 91
        1
 62
     0
 92
       -2
340
14
 93
        0
 40
0.045
309
GRIDFORMAT_END
 95
        4
302
GRIDFORMAT
  1
GRIDFORMAT_BEGIN
 90
        0
 91
        1
 62
     0
 92
       -2
340
14
 93
        0
 40
0.045
309
GRIDFORMAT_END
 95
        8
302
GRIDFORMAT
  1
GRIDFORMAT_BEGIN
 90
        0
 91
        1
 62
     0
 92
       -2
340
14
 93
        0
 40
0.045
309
GRIDFORMAT_END
 95
       16
302
GRIDFORMAT
  1
GRIDFORMAT_BEGIN
 90
        0
 91
        1
 62
     0
 92
       -2
340
14
 93
        0
 40
0.045
309
GRIDFORMAT_END
 95
       32
302
GRIDFORMAT
  1
GRIDFORMAT_BEGIN
 90
        0
 91
        1
 62
     0
 92
       -2
340
14
 93
        0
 40
0.045
309
GRIDFORMAT_END
309
TABLEFORMAT_END
  1
CELLSTYLE_BEGIN
 90
        1
 91
        1
300
_TITLE
309
CELLSTYLE_END
300
CELLSTYLE
  1
TABLEFORMAT_BEGIN
 90
        5
170
     1
 91
        0
 92
        0
 62
   257
 93
        1
300
CONTENTFORMAT
  1
CONTENTFORMAT_BEGIN
 90
        0
 91
        0
 92
        4
 93
        0
300

 40
0.0
140
1.0
 94
        5
 62
     0
340
11
144
0.18
309
CONTENTFORMAT_END
171
     1
301
MARGIN
  1
CELLMARGIN_BEGIN
 40
0.06
 40
0.06
 40
0.06
 40
0.06
 40
0.06
 40
0.06
309
CELLMARGIN_END
 94
        6
 95
        1
302
GRIDFORMAT
  1
GRIDFORMAT_BEGIN
 90
        0
 91
        1
 62
     0
 92
       -2
340
14
 93
        0
 40
0.045
309
GRIDFORMAT_END
 95
        2
302
GRIDFORMAT
  1
GRIDFORMAT_BEGIN
 90
        0
 91
        1
 62
     0
 92
       -2
340
14
 93
        0
 40
0.045
309
GRIDFORMAT_END
 95
        4
302
GRIDFORMAT
  1
GRIDFORMAT_BEGIN
 90
        0
 91
        1
 62
     0
 92
       -2
340
14
 93
        0
 40
0.045
309
GRIDFORMAT_END
 95
        8
302
GRIDFORMAT
  1
GRIDFORMAT_BEGIN
 90
        0
 91
        1
 62
     0
 92
       -2
340
14
 93
        0
 40
0.045
309
GRIDFORMAT_END
 95
       16
302
GRIDFORMAT
  1
GRIDFORMAT_BEGIN
 90
        0
 91
        1
 62
     0
 92
       -2
340
14
 93
        0
 40
0.045
309
GRIDFORMAT_END
 95
       32
302
GRIDFORMAT
  1
GRIDFORMAT_BEGIN
 90
        0
 91
        1
 62
     0
 92
       -2
340
14
 93
        0
 40
0.045
309
GRIDFORMAT_END
309
TABLEFORMAT_END
  1
CELLSTYLE_BEGIN
 90
        2
 91
        1
300
_HEADER
309
CELLSTYLE_END
300
CELLSTYLE
  1
TABLEFORMAT_BEGIN
 90
        5
170
     1
 91
        0
 92
        0
 62
   257
 93
        1
300
CONTENTFORMAT
  1
CONTENTFORMAT_BEGIN
 90
        0
 91
        0
 92
        4
 93
        0
300

 40
0.0
140
1.0
 94
        2
 62
     0
340
11
144
0.18
309
CONTENTFORMAT_END
171
     1
301
MARGIN
  1
CELLMARGIN_BEGIN
 40
0.06
 40
0.06
 40
0.06
 40
0.06
 40
0.06
 40
0.06
309
CELLMARGIN_END
 94
        6
 95
        1
302
GRIDFORMAT
  1
GRIDFORMAT_BEGIN
 90
        0
 91
        1
 62
     0
 92
       -2
340
14
 93
        0
 40
0.045
309
GRIDFORMAT_END
 95
        2
302
GRIDFORMAT
  1
GRIDFORMAT_BEGIN
 90
        0
 91
        1
 62
     0
 92
       -2
340
14
 93
        0
 40
0.045
309
GRIDFORMAT_END
 95
        4
302
GRIDFORMAT
  1
GRIDFORMAT_BEGIN
 90
        0
 91
        1
 62
     0
 92
       -2
340
14
 93
        0
 40
0.045
309
GRIDFORMAT_END
 95
        8
302
GRIDFORMAT
  1
GRIDFORMAT_BEGIN
 90
        0
 91
        1
 62
     0
 92
       -2
340
14
 93
        0
 40
0.045
309
GRIDFORMAT_END
 95
       16
302
GRIDFORMAT
  1
GRIDFORMAT_BEGIN
 90
        0
 91
        1
 62
     0
 92
       -2
340
14
 93
        0
 40
0.045
309
GRIDFORMAT_END
 95
       32
302
GRIDFORMAT
  1
GRIDFORMAT_BEGIN
 90
        0
 91
        1
 62
     0
 92
       -2
340
14
 93
        0
 40
0.045
309
GRIDFORMAT_END
309
TABLEFORMAT_END
  1
CELLSTYLE_BEGIN
 90
        3
 91
        2
300
_DATA
309
CELLSTYLE_END
  0
ENDSEC
  0
EOF
