  0
SECTION
  2
HEADER
  9
$ACADVER
  1
AC1027
  9
$ACADMAINTVER
 70
   105
  9
$DWGCODEPAGE
  3
ANSI_1252
  9
$LASTSAVEDBY
  1
Office Desk
  9
$REQUIREDVERSIONS
160
                 0
  9
$INSBASE
 10
0.0
 20
0.0
 30
0.0
  9
$EXTMIN
 10
197.557
 20
-226.3021
 30
0.0
  9
$EXTMAX
 10
824.2527
 20
285.7354
 30
0.0
  9
$LIMMIN
 10
0.0
 20
0.0
  9
$LIMMAX
 10
12.0
 20
9.0
  9
$ORTHOMODE
 70
     0
  9
$REGENMODE
 70
     1
  9
$FILLMODE
 70
     1
  9
$QTEXTMODE
 70
     0
  9
$MIRRTEXT
 70
     1
  9
$LTSCALE
 40
1.0
  9
$ATTMODE
 70
     1
  9
$TEXTSIZE
 40
0.2
  9
$TRACEWID
 40
0.05
  9
$TEXTSTYLE
  7
Standard
  9
$CLAYER
  8
0
  9
$CELTYPE
  6
ByLayer
  9
$CECOLOR
 62
   256
  9
$CELTSCALE
 40
1.0
  9
$DISPSILH
 70
     0
  9
$DIMSCALE
 40
1.0
  9
$DIMASZ
 40
0.18
  9
$DIMEXO
 40
0.0625
  9
$DIMDLI
 40
0.38
  9
$DIMRND
 40
0.0
  9
$DIMDLE
 40
0.0
  9
$DIMEXE
 40
0.18
  9
$DIMTP
 40
0.0
  9
$DIMTM
 40
0.0
  9
$DIMTXT
 40
0.18
  9
$DIMCEN
 40
0.09
  9
$DIMTSZ
 40
0.0
  9
$DIMTOL
 70
     0
  9
$DIMLIM
 70
     0
  9
$DIMTIH
 70
     1
  9
$DIMTOH
 70
     1
  9
$DIMSE1
 70
     0
  9
$DIMSE2
 70
     0
  9
$DIMTAD
 70
     0
  9
$DIMZIN
 70
     0
  9
$DIMBLK
  1

  9
$DIMASO
 70
     1
  9
$DIMSHO
 70
     1
  9
$DIMPOST
  1

  9
$DIMAPOST
  1

  9
$DIMALT
 70
     0
  9
$DIMALTD
 70
     2
  9
$DIMALTF
 40
25.4
  9
$DIMLFAC
 40
1.0
  9
$DIMTOFL
 70
     0
  9
$DIMTVP
 40
0.0
  9
$DIMTIX
 70
     0
  9
$DIMSOXD
 70
     0
  9
$DIMSAH
 70
     0
  9
$DIMBLK1
  1

  9
$DIMBLK2
  1

  9
$DIMSTYLE
  2
Standard
  9
$DIMCLRD
 70
     0
  9
$DIMCLRE
 70
     0
  9
$DIMCLRT
 70
     0
  9
$DIMTFAC
 40
1.0
  9
$DIMGAP
 40
0.09
  9
$DIMJUST
 70
     0
  9
$DIMSD1
 70
     0
  9
$DIMSD2
 70
     0
  9
$DIMTOLJ
 70
     1
  9
$DIMTZIN
 70
     0
  9
$DIMALTZ
 70
     0
  9
$DIMALTTZ
 70
     0
  9
$DIMUPT
 70
     0
  9
$DIMDEC
 70
     4
  9
$DIMTDEC
 70
     4
  9
$DIMALTU
 70
     2
  9
$DIMALTTD
 70
     2
  9
$DIMTXSTY
  7
Standard
  9
$DIMAUNIT
 70
     0
  9
$DIMADEC
 70
     0
  9
$DIMALTRND
 40
0.0
  9
$DIMAZIN
 70
     0
  9
$DIMDSEP
 70
    46
  9
$DIMATFIT
 70
     3
  9
$DIMFRAC
 70
     0
  9
$DIMLDRBLK
  1

  9
$DIMLUNIT
 70
     2
  9
$DIMLWD
 70
    -2
  9
$DIMLWE
 70
    -2
  9
$DIMTMOVE
 70
     0
  9
$DIMFXL
 40
1.0
  9
$DIMFXLON
 70
     0
  9
$DIMJOGANG
 40
0.7853981633974483
  9
$DIMTFILL
 70
     0
  9
$DIMTFILLCLR
 70
     0
  9
$DIMARCSYM
 70
     0
  9
$DIMLTYPE
  6

  9
$DIMLTEX1
  6

  9
$DIMLTEX2
  6

  9
$DIMTXTDIRECTION
 70
     0
  9
$LUNITS
 70
     2
  9
$LUPREC
 70
     4
  9
$SKETCHINC
 40
0.1
  9
$FILLETRAD
 40
0.0
  9
$AUNITS
 70
     0
  9
$AUPREC
 70
     0
  9
$MENU
  1
.
  9
$ELEVATION
 40
0.0
  9
$PELEVATION
 40
0.0
  9
$THICKNESS
 40
0.0
  9
$LIMCHECK
 70
     0
  9
$CHAMFERA
 40
0.0
  9
$CHAMFERB
 40
0.0
  9
$CHAMFERC
 40
0.0
  9
$CHAMFERD
 40
0.0
  9
$SKPOLY
 70
     0
  9
$TDCREATE
 40
2461013.67311235
  9
$TDUCREATE
 40
2461013.443945683
  9
$TDUPDATE
 40
2461013.673112431
  9
$TDUUPDATE
 40
2461013.443945764
  9
$TDINDWG
 40
0.0000000116
  9
$TDUSRTIMER
 40
0.0000000116
  9
$USRTIMER
 70
     1
  9
$ANGBASE
 50
0.0
  9
$ANGDIR
 70
     0
  9
$PDMODE
 70
     0
  9
$PDSIZE
 40
0.0
  9
$PLINEWID
 40
0.0
  9
$SPLFRAME
 70
     0
  9
$SPLINETYPE
 70
     6
  9
$SPLINESEGS
 70
     8
  9
$HANDSEED
  5
94
  9
$SURFTAB1
 70
     6
  9
$SURFTAB2
 70
     6
  9
$SURFTYPE
 70
     6
  9
$SURFU
 70
     6
  9
$SURFV
 70
     6
  9
$UCSBASE
  2

  9
$UCSNAME
  2

  9
$UCSORG
 10
0.0
 20
0.0
 30
0.0
  9
$UCSXDIR
 10
1.0
 20
0.0
 30
0.0
  9
$UCSYDIR
 10
0.0
 20
1.0
 30
0.0
  9
$UCSORTHOREF
  2

  9
$UCSORTHOVIEW
 70
     0
  9
$UCSORGTOP
 10
0.0
 20
0.0
 30
0.0
  9
$UCSORGBOTTOM
 10
0.0
 20
0.0
 30
0.0
  9
$UCSORGLEFT
 10
0.0
 20
0.0
 30
0.0
  9
$UCSORGRIGHT
 10
0.0
 20
0.0
 30
0.0
  9
$UCSORGFRONT
 10
0.0
 20
0.0
 30
0.0
  9
$UCSORGBACK
 10
0.0
 20
0.0
 30
0.0
  9
$PUCSBASE
  2

  9
$PUCSNAME
  2

  9
$PUCSORG
 10
0.0
 20
0.0
 30
0.0
  9
$PUCSXDIR
 10
1.0
 20
0.0
 30
0.0
  9
$PUCSYDIR
 10
0.0
 20
1.0
 30
0.0
  9
$PUCSORTHOREF
  2

  9
$PUCSORTHOVIEW
 70
     0
  9
$PUCSORGTOP
 10
0.0
 20
0.0
 30
0.0
  9
$PUCSORGBOTTOM
 10
0.0
 20
0.0
 30
0.0
  9
$PUCSORGLEFT
 10
0.0
 20
0.0
 30
0.0
  9
$PUCSORGRIGHT
 10
0.0
 20
0.0
 30
0.0
  9
$PUCSORGFRONT
 10
0.0
 20
0.0
 30
0.0
  9
$PUCSORGBACK
 10
0.0
 20
0.0
 30
0.0
  9
$USERI1
 70
     0
  9
$USERI2
 70
     0
  9
$USERI3
 70
     0
  9
$USERI4
 70
     0
  9
$USERI5
 70
     0
  9
$USERR1
 40
0.0
  9
$USERR2
 40
0.0
  9
$USERR3
 40
0.0
  9
$USERR4
 40
0.0
  9
$USERR5
 40
0.0
  9
$WORLDVIEW
 70
     1
  9
$SHADEDGE
 70
     3
  9
$SHADEDIF
 70
    70
  9
$TILEMODE
 70
     1
  9
$MAXACTVP
 70
    64
  9
$PINSBASE
 10
0.0
 20
0.0
 30
0.0
  9
$PLIMCHECK
 70
     0
  9
$PEXTMIN
 10
1.000000000000000E+20
 20
1.000000000000000E+20
 30
1.000000000000000E+20
  9
$PEXTMAX
 10
-1.000000000000000E+20
 20
-1.000000000000000E+20
 30
-1.000000000000000E+20
  9
$PLIMMIN
 10
0.0
 20
0.0
  9
$PLIMMAX
 10
12.0
 20
9.0
  9
$UNITMODE
 70
     0
  9
$VISRETAIN
 70
     1
  9
$PLINEGEN
 70
     0
  9
$PSLTSCALE
 70
     1
  9
$TREEDEPTH
 70
  3020
  9
$CMLSTYLE
  2
Standard
  9
$CMLJUST
 70
     0
  9
$CMLSCALE
 40
1.0
  9
$PROXYGRAPHICS
 70
     1
  9
$MEASUREMENT
 70
     0
  9
$CELWEIGHT
370
    -1
  9
$ENDCAPS
280
     0
  9
$JOINSTYLE
280
     0
  9
$LWDISPLAY
290
     0
  9
$INSUNITS
 70
     4
  9
$HYPERLINKBASE
  1

  9
$STYLESHEET
  1

  9
$XEDIT
290
     1
  9
$CEPSNTYPE
380
     0
  9
$PSTYLEMODE
290
     1
  9
$FINGERPRINTGUID
  2
{ed55e4d8-4018-498b-b56a-c6627bfd6bda}
  9
$VERSIONGUID
  2
{FAEB1C32-E019-11D5-929B-00C0DF256EC4}
  9
$EXTNAMES
290
     1
  9
$PSVPSCALE
 40
0.0
  9
$OLESTARTUP
290
     0
  9
$SORTENTS
280
   127
  9
$INDEXCTL
280
     0
  9
$HIDETEXT
280
     1
  9
$XCLIPFRAME
280
     2
  9
$HALOGAP
280
     0
  9
$OBSCOLOR
 70
   257
  9
$OBSLTYPE
280
     0
  9
$INTERSECTIONDISPLAY
280
     0
  9
$INTERSECTIONCOLOR
 70
   257
  9
$DIMASSOC
280
     2
  9
$PROJECTNAME
  1

  9
$CAMERADISPLAY
290
     0
  9
$LENSLENGTH
 40
50.0
  9
$CAMERAHEIGHT
 40
0.0
  9
$STEPSPERSEC
 40
2.0
  9
$STEPSIZE
 40
6.0
  9
$3DDWFPREC
 40
2.0
  9
$PSOLWIDTH
 40
0.25
  9
$PSOLHEIGHT
 40
4.0
  9
$LOFTANG1
 40
1.570796326794897
  9
$LOFTANG2
 40
1.570796326794897
  9
$LOFTMAG1
 40
0.0
  9
$LOFTMAG2
 40
0.0
  9
$LOFTPARAM
 70
     7
  9
$LOFTNORMALS
280
     1
  9
$LATITUDE
 40
37.795
  9
$LONGITUDE
 40
-122.394
  9
$NORTHDIRECTION
 40
0.0
  9
$TIMEZONE
 70
 -8000
  9
$LIGHTGLYPHDISPLAY
280
     1
  9
$TILEMODELIGHTSYNCH
280
     1
  9
$CMATERIAL
347
44
  9
$SOLIDHIST
280
     0
  9
$SHOWHIST
280
     1
  9
$DWFFRAME
280
     2
  9
$DGNFRAME
280
     2
  9
$REALWORLDSCALE
290
     1
  9
$INTERFERECOLOR
 62
   256
  9
$CSHADOW
280
     0
  9
$SHADOWPLANELOCATION
 40
0.0
  0
ENDSEC
  0
SECTION
  2
CLASSES
  0
CLASS
  1
ACDBDICTIONARYWDFLT
  2
AcDbDictionaryWithDefault
  3
ObjectDBX Classes
 90
        0
 91
        3
280
     0
281
     0
  0
CLASS
  1
VISUALSTYLE
  2
AcDbVisualStyle
  3
ObjectDBX Classes
 90
     4095
 91
        3
280
     0
281
     0
  0
CLASS
  1
MATERIAL
  2
AcDbMaterial
  3
ObjectDBX Classes
 90
     1153
 91
        3
280
     0
281
     0
  0
CLASS
  1
SCALE
  2
AcDbScale
  3
ObjectDBX Classes
 90
     1153
 91
        3
280
     0
281
     0
  0
CLASS
  1
TABLESTYLE
  2
AcDbTableStyle
  3
ObjectDBX Classes
 90
     4095
 91
        3
280
     0
281
     0
  0
CLASS
  1
MLEADERSTYLE
  2
AcDbMLeaderStyle
  3
ACDB_MLEADERSTYLE_CLASS
 90
     4095
 91
        3
280
     0
281
     0
  0
CLASS
  1
SUN
  2
AcDbSun
  3
SCENEOE
 90
     1153
 91
        3
280
     0
281
     0
  0
CLASS
  1
DICTIONARYVAR
  2
AcDbDictionaryVar
  3
ObjectDBX Classes
 90
        0
 91
        3
280
     0
281
     0
  0
CLASS
  1
CELLSTYLEMAP
  2
AcDbCellStyleMap
  3
ObjectDBX Classes
 90
     1152
 91
        3
280
     0
281
     0
  0
ENDSEC
  0
SECTION
  2
TABLES
  0
TABLE
  2
VPORT
  5
8
330
0
100
AcDbSymbolTable
 70
     1
  0
VPORT
  5
29
330
8
100
AcDbSymbolTableRecord
100
AcDbViewportTableRecord
  2
*Active
 70
     0
 10
0.0
 20
0.0
 11
1.0
 21
1.0
 12
10.42990654205607
 22
4.5
 13
0.0
 23
0.0
 14
0.5
 24
0.5
 15
0.5
 25
0.5
 16
0.0
 26
0.0
 36
1.0
 17
0.0
 27
0.0
 37
0.0
 40
9.0
 41
1.972972972850329
 42
50.0
 43
0.0
 44
0.0
 50
0.0
 51
0.0
 71
     0
 72
   100
 73
     1
 74
     3
 75
     0
 76
     0
 77
     0
 78
     0
281
     0
 65
     1
110
0.0
120
0.0
130
0.0
111
1.0
121
0.0
131
0.0
112
0.0
122
1.0
132
0.0
 79
     0
146
0.0
348
2F
 60
     3
 61
     5
292
     1
282
     1
141
0.0
142
0.0
 63
   250
361
5D
  0
ENDTAB
  0
TABLE
  2
LTYPE
  5
5
330
0
100
AcDbSymbolTable
 70
     1
  0
LTYPE
  5
14
330
5
100
AcDbSymbolTableRecord
100
AcDbLinetypeTableRecord
  2
ByBlock
 70
     0
  3

 72
    65
 73
     0
 40
0.0
  0
LTYPE
  5
15
330
5
100
AcDbSymbolTableRecord
100
AcDbLinetypeTableRecord
  2
ByLayer
 70
     0
  3

 72
    65
 73
     0
 40
0.0
  0
LTYPE
  5
16
330
5
100
AcDbSymbolTableRecord
100
AcDbLinetypeTableRecord
  2
Continuous
 70
     0
  3
Solid line
 72
    65
 73
     0
 40
0.0
  0
ENDTAB
  0
TABLE
  2
LAYER
  5
2
330
0
100
AcDbSymbolTable
 70
     2
  0
LAYER
  5
10
330
2
100
AcDbSymbolTableRecord
100
AcDbLayerTableRecord
  2
0
 70
     0
 62
     7
  6
Continuous
370
    -3
390
F
347
46
348
0
  0
LAYER
  5
5F
330
2
100
AcDbSymbolTableRecord
100
AcDbLayerTableRecord
  2
Layer 1
 70
     0
 62
     7
  6
Continuous
370
    -3
390
F
347
46
348
0
  0
ENDTAB
  0
TABLE
  2
STYLE
  5
3
330
0
100
AcDbSymbolTable
 70
     1
  0
STYLE
  5
11
330
3
100
AcDbSymbolTableRecord
100
AcDbTextStyleTableRecord
  2
Standard
 70
     0
 40
0.0
 41
1.0
 50
0.0
 71
     0
 42
0.2
  3
txt
  4

  0
ENDTAB
  0
TABLE
  2
VIEW
  5
6
330
0
100
AcDbSymbolTable
 70
     0
  0
ENDTAB
  0
TABLE
  2
UCS
  5
7
330
0
100
AcDbSymbolTable
 70
     0
  0
ENDTAB
  0
TABLE
  2
APPID
  5
9
330
0
100
AcDbSymbolTable
 70
     2
  0
APPID
  5
12
330
9
100
AcDbSymbolTableRecord
100
AcDbRegAppTableRecord
  2
ACAD
 70
     0
  0
APPID
  5
5E
330
9
100
AcDbSymbolTableRecord
100
AcDbRegAppTableRecord
  2
ODA
 70
     0
  0
ENDTAB
  0
TABLE
  2
DIMSTYLE
  5
A
330
0
100
AcDbSymbolTable
 70
     1
100
AcDbDimStyleTable
  0
DIMSTYLE
105
27
330
A
100
AcDbSymbolTableRecord
100
AcDbDimStyleTableRecord
  2
Standard
 70
     0
178
     0
340
11
  0
ENDTAB
  0
TABLE
  2
BLOCK_RECORD
  5
1
330
0
100
AcDbSymbolTable
 70
     1
  0
BLOCK_RECORD
  5
1F
330
1
100
AcDbSymbolTableRecord
100
AcDbBlockTableRecord
  2
*Model_Space
340
22
 70
     0
280
     1
281
     0
  0
BLOCK_RECORD
  5
1B
330
1
100
AcDbSymbolTableRecord
100
AcDbBlockTableRecord
  2
*Paper_Space
340
1E
 70
     0
280
     1
281
     0
  0
BLOCK_RECORD
  5
23
330
1
100
AcDbSymbolTableRecord
100
AcDbBlockTableRecord
  2
*Paper_Space0
340
26
 70
     0
280
     1
281
     0
  0
ENDTAB
  0
ENDSEC
  0
SECTION
  2
BLOCKS
  0
BLOCK
  5
20
330
1F
100
AcDbEntity
  8
0
100
AcDbBlockBegin
  2
*Model_Space
 70
     0
 10
0.0
 20
0.0
 30
0.0
  3
*Model_Space
  1

  0
ENDBLK
  5
21
330
1F
100
AcDbEntity
  8
0
100
AcDbBlockEnd
  0
BLOCK
  5
1C
330
1B
100
AcDbEntity
 67
     1
  8
0
100
AcDbBlockBegin
  2
*Paper_Space
 70
     0
 10
0.0
 20
0.0
 30
0.0
  3
*Paper_Space
  1

  0
ENDBLK
  5
1D
330
1B
100
AcDbEntity
 67
     1
  8
0
100
AcDbBlockEnd
  0
BLOCK
  5
24
330
23
100
AcDbEntity
  8
0
100
AcDbBlockBegin
  2
*Paper_Space0
 70
     0
 10
0.0
 20
0.0
 30
0.0
  3
*Paper_Space0
  1

  0
ENDBLK
  5
25
330
23
100
AcDbEntity
  8
0
100
AcDbBlockEnd
  0
ENDSEC
  0
SECTION
  2
ENTITIES
  0
LWPOLYLINE
  5
60
330
1F
100
AcDbEntity
  8
Layer 1
 62
   250
370
    18
100
AcDbPolyline
 90
        5
 70
     1
 43
0.0
 10
197.6452
 20
-226.2138
 10
824.1644
 20
-226.2138
 10
824.1644
 20
285.6472
 10
197.6452
 20
285.6472
 10
197.6452
 20
-226.2138
  0
LWPOLYLINE
  5
61
330
1F
100
AcDbEntity
  8
Layer 1
 62
     7
370
    53
100
AcDbPolyline
 90
       42
 70
     1
 43
0.0
 10
359.343
 20
59.3222
 10
359.7141
 20
59.2844
 10
360.0592
 20
59.1761
 10
360.3712
 20
59.005
 10
360.6432
 20
58.7785
 10
360.8682
 20
58.5044
 10
361.0393
 20
58.1903
 10
361.1495
 20
57.8437
 10
361.1918
 20
57.4723
 10
361.0661
 20
51.3101
 10
360.4781
 20
45.4757
 10
359.4182
 20
39.953
 10
357.8765
 20
34.726
 10
355.8431
 20
29.7785
 10
353.3083
 20
25.0944
 10
350.2623
 20
20.6576
 10
346.6952
 20
16.4521
 10
342.1154
 20
15.2892
 10
332.0752
 20
14.4586
 10
318.395
 20
13.9602
 10
302.8946
 20
13.7941
 10
287.3942
 20
13.9602
 10
273.714
 20
14.4586
 10
263.6739
 20
15.2892
 10
259.0942
 20
16.4521
 10
255.5275
 20
20.6576
 10
252.4816
 20
25.0944
 10
249.9466
 20
29.7785
 10
247.913
 20
34.726
 10
246.3709
 20
39.953
 10
245.3106
 20
45.4757
 10
244.7224
 20
51.3101
 10
244.5966
 20
57.4723
 10
244.6394
 20
57.8437
 10
244.75
 20
58.1903
 10
244.9214
 20
58.5044
 10
245.1468
 20
58.7785
 10
245.4191
 20
59.005
 10
245.7314
 20
59.1761
 10
246.0767
 20
59.2844
 10
246.448
 20
59.3222
 10
359.343
 20
59.3222
  0
LWPOLYLINE
  5
62
330
1F
100
AcDbEntity
  8
Layer 1
 62
     7
370
    40
100
AcDbPolyline
 90
        2
 70
     0
 43
0.0
 10
229.6516
 20
58.6772
 10
219.0409
 20
58.6772
  0
LWPOLYLINE
  5
63
330
1F
100
AcDbEntity
  8
Layer 1
 62
     7
370
    40
100
AcDbPolyline
 90
        2
 70
     0
 43
0.0
 10
224.8704
 20
59.3433
 10
224.8704
 20
26.0436
  0
LWPOLYLINE
  5
64
330
1F
100
AcDbEntity
  8
Layer 1
 62
     7
370
    40
100
AcDbPolyline
 90
        2
 70
     0
 43
0.0
 10
224.8704
 20
13.8117
 10
224.8704
 20
27.4409
  0
LWPOLYLINE
  5
65
330
1F
100
AcDbEntity
  8
Layer 1
 62
     7
370
    40
100
AcDbPolyline
 90
        2
 70
     0
 43
0.0
 10
229.6516
 20
13.8117
 10
219.0409
 20
13.8117
  0
LWPOLYLINE
  5
66
330
1F
100
AcDbEntity
  8
Layer 1
 62
     7
370
    35
100
AcDbPolyline
 90
       49
 70
     1
 43
0.0
 10
516.4847
 20
168.1292
 10
539.2875
 20
173.0437
 10
562.0903
 20
176.5545
 10
584.8932
 20
178.6614
 10
607.696
 20
179.3642
 10
630.4988
 20
178.6625
 10
653.3017
 20
176.5563
 10
676.1045
 20
173.0453
 10
698.9073
 20
168.1292
 10
722.2631
 20
159.7838
 10
741.2474
 20
147.5325
 10
756.2476
 20
131.5751
 10
767.6515
 20
112.1113
 10
775.8464
 20
89.3408
 10
781.2201
 20
63.4634
 10
784.1601
 20
34.6787
 10
785.054
 20
3.1865
 10
784.1618
 20
-28.3059
 10
781.2257
 20
-57.1275
 10
775.8569
 20
-83.0603
 10
767.6663
 20
-105.8863
 10
756.265
 20
-125.3876
 10
741.2641
 20
-141.3463
 10
722.2745
 20
-153.5444
 10
698.9073
 20
-161.7639
 10
676.1045
 20
-166.581
 10
653.3017
 20
-170.0777
 10
630.4988
 20
-172.226
 10
607.696
 20
-172.998
 10
584.8932
 20
-172.3657
 10
562.0903
 20
-170.3013
 10
539.2875
 20
-166.7766
 10
516.4847
 20
-161.7639
 10
493.1405
 20
-153.2963
 10
474.1619
 20
-140.9929
 10
459.1628
 20
-125.0356
 10
447.7568
 20
-105.6067
 10
439.5579
 20
-82.8879
 10
434.1797
 20
-57.0615
 10
431.236
 20
-28.3093
 10
430.3406
 20
3.1865
 10
431.2344
 20
34.6794
 10
434.1741
 20
63.4657
 10
439.5474
 20
89.3451
 10
447.7419
 20
112.1174
 10
459.1452
 20
131.5822
 10
474.1451
 20
147.5393
 10
493.129
 20
159.7884
 10
516.4847
 20
168.1292
  0
LWPOLYLINE
  5
67
330
1F
100
AcDbEntity
  8
Layer 1
 62
     7
370
    35
100
AcDbPolyline
 90
       33
 70
     1
 43
0.0
 10
607.6971
 20
40.4752
 10
614.9047
 20
39.7175
 10
621.6171
 20
37.5444
 10
627.6907
 20
34.1059
 10
632.9819
 20
29.5523
 10
637.3472
 20
24.0334
 10
640.643
 20
17.6994
 10
642.7257
 20
10.7004
 10
643.4519
 20
3.1865
 10
642.7257
 20
-4.3301
 10
640.643
 20
-11.3304
 10
637.3472
 20
-17.6646
 10
632.9819
 20
-23.1831
 10
627.6907
 20
-27.7359
 10
621.6171
 20
-31.1734
 10
614.9047
 20
-33.3457
 10
607.6971
 20
-34.1031
 10
600.4913
 20
-33.3457
 10
593.7795
 20
-31.1734
 10
587.7057
 20
-27.7359
 10
582.4137
 20
-23.1831
 10
578.0472
 20
-17.6646
 10
574.7503
 20
-11.3304
 10
572.6666
 20
-4.3301
 10
571.9401
 20
3.1865
 10
572.6666
 20
10.7004
 10
574.7503
 20
17.6994
 10
578.0472
 20
24.0334
 10
582.4137
 20
29.5523
 10
587.7057
 20
34.1059
 10
593.7795
 20
37.5444
 10
600.4913
 20
39.7175
 10
607.6971
 20
40.4752
  0
LWPOLYLINE
  5
68
330
1F
100
AcDbEntity
  8
Layer 1
 62
     7
370
    35
100
AcDbPolyline
 90
       33
 70
     1
 43
0.0
 10
607.6971
 20
21.7322
 10
611.2824
 20
21.3553
 10
614.622
 20
20.2742
 10
617.6443
 20
18.5638
 10
620.2777
 20
16.2988
 10
622.4506
 20
13.5538
 10
624.0913
 20
10.4036
 10
625.1282
 20
6.923
 10
625.4898
 20
3.1865
 10
625.1282
 20
-0.5531
 10
624.0913
 20
-4.0361
 10
622.4506
 20
-7.1881
 10
620.2777
 20
-9.9343
 10
617.6443
 20
-12.2001
 10
614.622
 20
-13.9109
 10
611.2824
 20
-14.9921
 10
607.6971
 20
-15.3691
 10
604.1115
 20
-14.9921
 10
600.7724
 20
-13.9109
 10
597.7511
 20
-12.2001
 10
595.1192
 20
-9.9343
 10
592.9478
 20
-7.1881
 10
591.3084
 20
-4.0361
 10
590.2725
 20
-0.5531
 10
589.9113
 20
3.1865
 10
590.2725
 20
6.923
 10
591.3084
 20
10.4036
 10
592.9478
 20
13.5538
 10
595.1192
 20
16.2988
 10
597.7511
 20
18.5638
 10
600.7724
 20
20.2742
 10
604.1115
 20
21.3553
 10
607.6971
 20
21.7322
  0
LWPOLYLINE
  5
69
330
1F
100
AcDbEntity
  8
Layer 1
 62
     7
370
    35
100
AcDbPolyline
 90
        2
 70
     0
 43
0.0
 10
404.0004
 20
179.3667
 10
375.053
 20
179.3667
  0
LWPOLYLINE
  5
6A
330
1F
100
AcDbEntity
  8
Layer 1
 62
     7
370
    35
100
AcDbPolyline
 90
        2
 70
     0
 43
0.0
 10
404.0004
 20
-172.9938
 10
375.053
 20
-172.9938
  0
LWPOLYLINE
  5
6B
330
1F
100
AcDbEntity
  8
Layer 1
 62
     7
370
    35
100
AcDbPolyline
 90
        2
 70
     0
 43
0.0
 10
390.956
 20
56.4084
 10
390.956
 20
179.3667
  0
LWPOLYLINE
  5
6C
330
1F
100
AcDbEntity
  8
Layer 1
 62
     7
370
    35
100
AcDbPolyline
 90
        2
 70
     0
 43
0.0
 10
390.9581
 20
-173.001
 10
390.9581
 20
-51.8713
  0
LWPOLYLINE
  5
6D
330
1F
100
AcDbEntity
  8
Layer 1
 62
     7
370
    35
100
AcDbPolyline
 90
        2
 70
     0
 43
0.0
 10
776.6449
 20
206.8089
 10
776.6449
 20
236.9988
  0
LWPOLYLINE
  5
6E
330
1F
100
AcDbEntity
  8
Layer 1
 62
     7
370
    35
100
AcDbPolyline
 90
        2
 70
     0
 43
0.0
 10
438.7558
 20
206.8089
 10
438.7558
 20
236.9988
  0
LWPOLYLINE
  5
6F
330
1F
100
AcDbEntity
  8
Layer 1
 62
     7
370
    35
100
AcDbPolyline
 90
        2
 70
     0
 43
0.0
 10
658.4592
 20
220.4055
 10
776.6449
 20
220.4055
  0
LWPOLYLINE
  5
70
330
1F
100
AcDbEntity
  8
Layer 1
 62
     7
370
    35
100
AcDbPolyline
 90
        2
 70
     0
 43
0.0
 10
438.7558
 20
220.4055
 10
554.6677
 20
220.4055
  0
LWPOLYLINE
  5
71
330
1F
100
AcDbEntity
  8
Layer 1
 62
     7
370
    35
100
AcDbPolyline
 90
        2
 70
     0
 43
0.0
 10
679.3482
 20
3.1865
 10
625.4898
 20
3.1865
  0
LWPOLYLINE
  5
72
330
1F
100
AcDbEntity
  8
Layer 1
 62
     7
370
    35
100
AcDbPolyline
 90
        2
 70
     0
 43
0.0
 10
518.0817
 20
3.1865
 10
571.9401
 20
3.1865
  0
LWPOLYLINE
  5
73
330
1F
100
AcDbEntity
  8
Layer 1
 62
     7
370
    35
100
AcDbPolyline
 90
       49
 70
     1
 43
0.0
 10
516.529
 20
162.2716
 10
538.8052
 20
167.0718
 10
561.0818
 20
170.5016
 10
583.3586
 20
172.5605
 10
605.6357
 20
173.248
 10
627.9131
 20
172.5634
 10
650.1906
 20
170.5061
 10
672.4682
 20
167.0757
 10
694.7459
 20
162.2716
 10
717.5603
 20
154.1193
 10
736.1049
 20
142.1513
 10
750.7583
 20
126.5626
 10
761.8988
 20
107.5481
 10
769.9049
 20
85.3028
 10
775.155
 20
60.0218
 10
778.0276
 20
31.8999
 10
778.901
 20
1.1323
 10
778.0292
 20
-29.6313
 10
775.1606
 20
-57.7861
 10
769.9153
 20
-83.1192
 10
761.9137
 20
-105.4176
 10
750.7757
 20
-124.4683
 10
736.1216
 20
-140.0583
 10
717.5716
 20
-151.9746
 10
694.7459
 20
-160.0043
 10
672.4682
 20
-164.7087
 10
650.1906
 20
-168.1242
 10
627.9131
 20
-170.2233
 10
605.6357
 20
-170.9783
 10
583.3586
 20
-170.3616
 10
561.0818
 20
-168.3454
 10
538.8052
 20
-164.9022
 10
516.529
 20
-160.0043
 10
493.7233
 20
-151.7334
 10
475.1825
 20
-139.7149
 10
460.5293
 20
-124.1268
 10
449.3863
 20
-105.1469
 10
441.3764
 20
-82.9531
 10
436.1221
 20
-57.7234
 10
433.2462
 20
-29.6357
 10
432.3714
 20
1.1323
 10
433.2446
 20
31.9006
 10
436.1165
 20
60.024
 10
441.3659
 20
85.3071
 10
449.3715
 20
107.5541
 10
460.5119
 20
126.5696
 10
475.1658
 20
142.1581
 10
493.712
 20
154.1239
 10
516.529
 20
162.2716
  0
LWPOLYLINE
  5
74
330
1F
100
AcDbEntity
  8
Layer 1
 62
     7
370
    18
100
AcDbPolyline
 90
        9
 70
     1
 43
0.0
 10
389.9419
 20
-17.4977
 10
388.4936
 20
-17.4977
 10
375.5663
 20
-6.7174
 10
375.5663
 20
-4.3929
 10
388.4936
 20
-15.0865
 10
388.1596
 20
-16.2194
 10
388.1596
 20
0.1388
 10
389.9419
 20
0.1388
 10
389.9419
 20
-17.4977
  0
LWPOLYLINE
  5
75
330
1F
100
AcDbEntity
  8
Layer 1
 62
     7
370
    18
100
AcDbPolyline
 90
        7
 70
     1
 43
0.0
 10
395.0696
 20
-6.0207
 10
389.9419
 20
-6.0207
 10
388.1596
 20
-5.9621
 10
383.6459
 20
-5.9621
 10
383.6459
 20
-3.9285
 10
395.0696
 20
-3.9285
 10
395.0696
 20
-6.0207
  0
LWPOLYLINE
  5
76
330
1F
100
AcDbEntity
  8
Layer 1
 62
     7
370
    18
100
AcDbPolyline
 90
        8
 70
     1
 43
0.0
 10
395.0696
 20
4.8757
 10
376.4018
 20
4.8757
 10
377.3487
 20
5.8058
 10
377.3487
 20
0.0813
 10
375.5663
 20
0.0813
 10
375.5663
 20
6.968
 10
395.0696
 20
6.968
 10
395.0696
 20
4.8757
  0
LWPOLYLINE
  5
77
330
1F
100
AcDbEntity
  8
Layer 1
 62
     7
370
    18
100
AcDbPolyline
 90
       97
 70
     1
 43
0.0
 10
395.2372
 20
19.9275
 10
395.2187
 20
19.3472
 10
395.1632
 20
18.7831
 10
395.0706
 20
18.2354
 10
394.941
 20
17.7041
 10
394.7744
 20
17.1892
 10
394.5707
 20
16.6906
 10
394.3299
 20
16.2085
 10
394.052
 20
15.7429
 10
393.7398
 20
15.2974
 10
393.3954
 20
14.8764
 10
393.0188
 20
14.4801
 10
392.61
 20
14.1083
 10
392.1689
 20
13.761
 10
391.6956
 20
13.4382
 10
391.1902
 20
13.1399
 10
390.6526
 20
12.866
 10
390.0848
 20
12.6211
 10
389.4887
 20
12.4087
 10
388.8644
 20
12.2289
 10
388.2117
 20
12.0817
 10
387.5308
 20
11.9672
 10
386.8215
 20
11.8854
 10
386.0839
 20
11.8363
 10
385.318
 20
11.8199
 10
384.552
 20
11.8363
 10
383.8141
 20
11.8854
 10
383.1045
 20
11.9672
 10
382.4231
 20
12.0817
 10
381.7701
 20
12.2289
 10
381.1453
 20
12.4087
 10
380.549
 20
12.6211
 10
379.9811
 20
12.866
 10
379.4435
 20
13.1399
 10
378.9382
 20
13.4382
 10
378.4652
 20
13.761
 10
378.0243
 20
14.1083
 10
377.6157
 20
14.4801
 10
377.2393
 20
14.8764
 10
376.895
 20
15.2974
 10
376.5829
 20
15.7429
 10
376.3054
 20
16.2085
 10
376.0649
 20
16.6906
 10
375.8613
 20
17.1892
 10
375.6948
 20
17.7041
 10
375.5653
 20
18.2354
 10
375.4728
 20
18.7831
 10
375.4173
 20
19.3472
 10
375.3988
 20
19.9275
 10
375.4173
 20
20.5074
 10
375.4728
 20
21.0711
 10
375.5653
 20
21.6186
 10
375.6948
 20
22.1498
 10
375.8613
 20
22.6646
 10
376.0649
 20
23.1631
 10
376.3054
 20
23.6452
 10
376.5829
 20
24.1108
 10
376.895
 20
24.5565
 10
377.2393
 20
24.9781
 10
377.6157
 20
25.3756
 10
378.0243
 20
25.7489
 10
378.4652
 20
26.0982
 10
378.9382
 20
26.4234
 10
379.4435
 20
26.7246
 10
379.9811
 20
27.0018
 10
380.549
 20
27.2505
 10
381.1453
 20
27.466
 10
381.7701
 20
27.6484
 10
382.4231
 20
27.7977
 10
383.1045
 20
27.9138
 10
383.8141
 20
27.9968
 10
384.552
 20
28.0466
 10
385.318
 20
28.0632
 10
386.0839
 20
28.0466
 10
386.8215
 20
27.9968
 10
387.5308
 20
27.9138
 10
388.2117
 20
27.7977
 10
388.8644
 20
27.6484
 10
389.4887
 20
27.466
 10
390.0848
 20
27.2505
 10
390.6526
 20
27.0018
 10
391.1902
 20
26.7246
 10
391.6956
 20
26.4234
 10
392.1689
 20
26.0982
 10
392.61
 20
25.7489
 10
393.0188
 20
25.3756
 10
393.3954
 20
24.9781
 10
393.7398
 20
24.5565
 10
394.052
 20
24.1108
 10
394.3299
 20
23.6452
 10
394.5707
 20
23.1631
 10
394.7744
 20
22.6646
 10
394.941
 20
22.1498
 10
395.0706
 20
21.6186
 10
395.1632
 20
21.0711
 10
395.2187
 20
20.5074
 10
395.2372
 20
19.9275
  0
LWPOLYLINE
  5
78
330
1F
100
AcDbEntity
  8
Layer 1
 62
     7
370
    18
100
AcDbPolyline
 90
       97
 70
     1
 43
0.0
 10
393.3975
 20
19.9275
 10
393.3829
 20
20.3705
 10
393.3391
 20
20.799
 10
393.2661
 20
21.2129
 10
393.164
 20
21.6122
 10
393.0328
 20
21.997
 10
392.8724
 20
22.3674
 10
392.6828
 20
22.7233
 10
392.4642
 20
23.0647
 10
392.2171
 20
23.3899
 10
391.9432
 20
23.6969
 10
391.6423
 20
23.9857
 10
391.3145
 20
24.2564
 10
390.9598
 20
24.5089
 10
390.5781
 20
24.7431
 10
390.1695
 20
24.9592
 10
389.7339
 20
25.157
 10
389.2716
 20
25.3339
 10
388.7836
 20
25.4872
 10
388.2701
 20
25.617
 10
387.7309
 20
25.7233
 10
387.1661
 20
25.8059
 10
386.5757
 20
25.8649
 10
385.9596
 20
25.9004
 10
385.318
 20
25.9122
 10
384.6759
 20
25.9004
 10
384.0595
 20
25.8649
 10
383.4687
 20
25.8059
 10
382.9037
 20
25.7233
 10
382.3643
 20
25.617
 10
381.8508
 20
25.4872
 10
381.363
 20
25.3339
 10
380.901
 20
25.157
 10
380.4653
 20
24.9592
 10
380.0566
 20
24.7431
 10
379.6748
 20
24.5089
 10
379.3199
 20
24.2564
 10
378.9921
 20
23.9857
 10
378.6912
 20
23.6969
 10
378.4174
 20
23.3899
 10
378.1707
 20
23.0647
 10
377.952
 20
22.7233
 10
377.7625
 20
22.3674
 10
377.6021
 20
21.997
 10
377.4708
 20
21.6122
 10
377.3687
 20
21.2129
 10
377.2957
 20
20.799
 10
377.2519
 20
20.3705
 10
377.2373
 20
19.9275
 10
377.2519
 20
19.4975
 10
377.2957
 20
19.0793
 10
377.3687
 20
18.673
 10
377.4708
 20
18.2784
 10
377.6021
 20
17.8956
 10
377.7625
 20
17.5247
 10
377.952
 20
17.1656
 10
378.1707
 20
16.8184
 10
378.4174
 20
16.4862
 10
378.6912
 20
16.1732
 10
378.9921
 20
15.8793
 10
379.3199
 20
15.6045
 10
379.6748
 20
15.3489
 10
380.0566
 20
15.1124
 10
380.4653
 20
14.895
 10
380.901
 20
14.6968
 10
381.363
 20
14.5199
 10
381.8508
 20
14.3665
 10
382.3643
 20
14.2367
 10
382.9037
 20
14.1305
 10
383.4687
 20
14.0478
 10
384.0595
 20
13.9888
 10
384.6759
 20
13.9533
 10
385.318
 20
13.9415
 10
385.9596
 20
13.9533
 10
386.5757
 20
13.9888
 10
387.1661
 20
14.0478
 10
387.7309
 20
14.1305
 10
388.2701
 20
14.2367
 10
388.7836
 20
14.3665
 10
389.2716
 20
14.5199
 10
389.7339
 20
14.6968
 10
390.1695
 20
14.895
 10
390.5781
 20
15.1124
 10
390.9598
 20
15.3489
 10
391.3145
 20
15.6045
 10
391.6423
 20
15.8793
 10
391.9432
 20
16.1732
 10
392.2171
 20
16.4862
 10
392.4642
 20
16.8184
 10
392.6828
 20
17.1656
 10
392.8724
 20
17.5247
 10
393.0328
 20
17.8956
 10
393.164
 20
18.2784
 10
393.2661
 20
18.673
 10
393.3391
 20
19.0793
 10
393.3829
 20
19.4975
 10
393.3975
 20
19.9275
  0
LWPOLYLINE
  5
79
330
1F
100
AcDbEntity
  8
Layer 1
 62
     7
370
    18
100
AcDbPolyline
 90
       12
 70
     1
 43
0.0
 10
546.3338
 20
14.1256
 10
554.7214
 20
33.4709
 10
555.332
 20
32.5444
 10
543.3078
 20
32.5444
 10
544.3344
 20
33.5577
 10
544.3344
 20
28.7504
 10
542.3632
 20
28.7504
 10
542.3632
 20
34.3974
 10
556.6364
 20
34.3974
 10
556.6364
 20
32.9209
 10
548.4996
 20
14.1256
 10
546.3338
 20
14.1256
  0
LWPOLYLINE
  5
7A
330
1F
100
AcDbEntity
  8
Layer 1
 62
     7
370
    18
100
AcDbPolyline
 90
      131
 70
     1
 43
0.0
 10
564.8846
 20
13.952
 10
564.3673
 20
13.9631
 10
563.8559
 20
13.9964
 10
563.3505
 20
14.0519
 10
562.8511
 20
14.1295
 10
562.3577
 20
14.2293
 10
561.8702
 20
14.3513
 10
561.3886
 20
14.4954
 10
560.9129
 20
14.6616
 10
560.4532
 20
14.8463
 10
560.0177
 20
15.046
 10
559.6064
 20
15.2606
 10
559.2194
 20
15.4902
 10
558.8567
 20
15.7347
 10
558.5182
 20
15.9942
 10
558.2039
 20
16.2686
 10
557.9139
 20
16.558
 10
558.8866
 20
18.2093
 10
559.1262
 20
17.9614
 10
559.3871
 20
17.7243
 10
559.6693
 20
17.498
 10
559.9727
 20
17.2825
 10
560.2974
 20
17.078
 10
560.6433
 20
16.8843
 10
561.0104
 20
16.7016
 10
561.3987
 20
16.5299
 10
561.8025
 20
16.3737
 10
562.2144
 20
16.2383
 10
562.6345
 20
16.1238
 10
563.0627
 20
16.0301
 10
563.4989
 20
15.9573
 10
563.9433
 20
15.9053
 10
564.3959
 20
15.8741
 10
564.8565
 20
15.8637
 10
565.4562
 20
15.8816
 10
566.0189
 20
15.9352
 10
566.5446
 20
16.0245
 10
567.0334
 20
16.1496
 10
567.4852
 20
16.3104
 10
567.9001
 20
16.5069
 10
568.2781
 20
16.7392
 10
568.6191
 20
17.0072
 10
568.9219
 20
17.3042
 10
569.1844
 20
17.6233
 10
569.4064
 20
17.9647
 10
569.5881
 20
18.3283
 10
569.7294
 20
18.7142
 10
569.8304
 20
19.1222
 10
569.8909
 20
19.5524
 10
569.9111
 20
20.0049
 10
569.9018
 20
20.3247
 10
569.8738
 20
20.6333
 10
569.8271
 20
20.9307
 10
569.7618
 20
21.2168
 10
569.6779
 20
21.4916
 10
569.5752
 20
21.7552
 10
569.454
 20
22.0075
 10
569.314
 20
22.2484
 10
569.1519
 20
22.4772
 10
568.9642
 20
22.6928
 10
568.7509
 20
22.8954
 10
568.512
 20
23.0848
 10
568.2474
 20
23.2611
 10
567.9573
 20
23.4242
 10
567.6415
 20
23.5741
 10
567.3001
 20
23.7109
 10
566.9298
 20
23.8333
 10
566.5265
 20
23.9394
 10
566.0901
 20
24.0291
 10
565.6208
 20
24.1025
 10
565.1184
 20
24.1595
 10
564.5829
 20
24.2002
 10
564.0143
 20
24.2247
 10
563.4127
 20
24.2328
 10
559.2745
 20
24.2328
 10
560.2742
 20
34.3974
 10
570.9108
 20
34.3974
 10
570.9108
 20
32.5444
 10
561.0793
 20
32.5444
 10
562.1083
 20
33.5577
 10
561.2458
 20
25.0432
 10
560.2191
 20
26.0858
 10
563.858
 20
26.0858
 10
564.5756
 20
26.074
 10
565.2567
 20
26.0387
 10
565.9014
 20
25.9799
 10
566.5095
 20
25.8976
 10
567.0812
 20
25.7917
 10
567.6165
 20
25.6623
 10
568.1152
 20
25.5094
 10
568.5775
 20
25.3329
 10
569.0065
 20
25.1354
 10
569.4047
 20
24.9193
 10
569.7719
 20
24.6846
 10
570.1084
 20
24.4315
 10
570.414
 20
24.1597
 10
570.6887
 20
23.8695
 10
570.9327
 20
23.5608
 10
571.1458
 20
23.2336
 10
571.3316
 20
22.8897
 10
571.4925
 20
22.5319
 10
571.6286
 20
22.1601
 10
571.7399
 20
21.7743
 10
571.8264
 20
21.3746
 10
571.8881
 20
20.9609
 10
571.9252
 20
20.5332
 10
571.9375
 20
20.0916
 10
571.9254
 20
19.669
 10
571.889
 20
19.256
 10
571.8283
 20
18.8525
 10
571.7434
 20
18.4587
 10
571.6342
 20
18.0743
 10
571.5006
 20
17.6994
 10
571.3427
 20
17.334
 10
571.1605
 20
16.9779
 10
570.9539
 20
16.6362
 10
570.723
 20
16.3129
 10
570.4678
 20
16.0082
 10
570.1884
 20
15.722
 10
569.8846
 20
15.4542
 10
569.5567
 20
15.2051
 10
569.2046
 20
14.9745
 10
568.8283
 20
14.7624
 10
568.4265
 20
14.5724
 10
567.9986
 20
14.4077
 10
567.5447
 20
14.2684
 10
567.0648
 20
14.1545
 10
566.5588
 20
14.0659
 10
566.0268
 20
14.0026
 10
565.4687
 20
13.9646
 10
564.8846
 20
13.952
  0
LWPOLYLINE
  5
7B
330
1F
100
AcDbEntity
  8
Layer 1
 62
     7
370
    18
100
AcDbPolyline
 90
        9
 70
     1
 43
0.0
 10
590.1724
 20
217.9851
 10
590.1724
 20
219.4909
 10
600.475
 20
232.9277
 10
602.6959
 20
232.9277
 10
592.4765
 20
219.4909
 10
591.3936
 20
219.8381
 10
607.0286
 20
219.8381
 10
607.0286
 20
217.9851
 10
590.1724
 20
217.9851
  0
LWPOLYLINE
  5
7C
330
1F
100
AcDbEntity
  8
Layer 1
 62
     7
370
    18
100
AcDbPolyline
 90
        7
 70
     1
 43
0.0
 10
601.1407
 20
212.6559
 10
601.1407
 20
217.9851
 10
601.1969
 20
219.8381
 10
601.1969
 20
224.5293
 10
603.1401
 20
224.5293
 10
603.1401
 20
212.6559
 10
601.1407
 20
212.6559
  0
LWPOLYLINE
  5
7D
330
1F
100
AcDbEntity
  8
Layer 1
 62
     7
370
    18
100
AcDbPolyline
 90
        8
 70
     1
 43
0.0
 10
611.5558
 20
212.6559
 10
611.5558
 20
232.0587
 10
612.4442
 20
231.0747
 10
606.9735
 20
231.0747
 10
606.9735
 20
232.9277
 10
613.5541
 20
232.9277
 10
613.5541
 20
212.6559
 10
611.5558
 20
212.6559
  0
LWPOLYLINE
  5
7E
330
1F
100
AcDbEntity
  8
Layer 1
 62
     7
370
    18
100
AcDbPolyline
 90
       97
 70
     1
 43
0.0
 10
625.9393
 20
212.4823
 10
625.385
 20
212.5015
 10
624.8463
 20
212.5593
 10
624.3232
 20
212.6554
 10
623.8157
 20
212.79
 10
623.3238
 20
212.9631
 10
622.8475
 20
213.1745
 10
622.3868
 20
213.4244
 10
621.9417
 20
213.7126
 10
621.5158
 20
214.0372
 10
621.1135
 20
214.3952
 10
620.7347
 20
214.7866
 10
620.3794
 20
215.2115
 10
620.0475
 20
215.6699
 10
619.7391
 20
216.1619
 10
619.454
 20
216.6873
 10
619.1923
 20
217.2462
 10
618.9579
 20
217.8366
 10
618.7548
 20
218.4563
 10
618.583
 20
219.1055
 10
618.4424
 20
219.784
 10
618.3331
 20
220.4919
 10
618.255
 20
221.2293
 10
618.2082
 20
221.9961
 10
618.1926
 20
222.7924
 10
618.2082
 20
223.5883
 10
618.255
 20
224.3549
 10
618.3331
 20
225.0922
 10
618.4424
 20
225.8001
 10
618.583
 20
226.4787
 10
618.7548
 20
227.1277
 10
618.9579
 20
227.7473
 10
619.1923
 20
228.3374
 10
619.454
 20
228.8963
 10
619.7391
 20
229.4217
 10
620.0475
 20
229.9136
 10
620.3794
 20
230.372
 10
620.7347
 20
230.7969
 10
621.1135
 20
231.1884
 10
621.5158
 20
231.5464
 10
621.9417
 20
231.871
 10
622.3868
 20
232.1592
 10
622.8475
 20
232.4091
 10
623.3238
 20
232.6205
 10
623.8157
 20
232.7936
 10
624.3232
 20
232.9282
 10
624.8463
 20
233.0244
 10
625.385
 20
233.0821
 10
625.9393
 20
233.1013
 10
626.494
 20
233.0821
 10
627.0331
 20
233.0244
 10
627.5566
 20
232.9282
 10
628.0645
 20
232.7936
 10
628.5566
 20
232.6205
 10
629.0331
 20
232.4091
 10
629.494
 20
232.1592
 10
629.9391
 20
231.871
 10
630.3649
 20
231.5464
 10
630.7677
 20
231.1884
 10
631.1476
 20
230.7969
 10
631.5044
 20
230.372
 10
631.8383
 20
229.9136
 10
632.1492
 20
229.4217
 10
632.4371
 20
228.8963
 10
632.702
 20
228.3374
 10
632.9396
 20
227.7473
 10
633.1454
 20
227.1277
 10
633.3196
 20
226.4787
 10
633.462
 20
225.8001
 10
633.5728
 20
225.0922
 10
633.6519
 20
224.3549
 10
633.6994
 20
223.5883
 10
633.7152
 20
222.7924
 10
633.6994
 20
221.9961
 10
633.6519
 20
221.2293
 10
633.5728
 20
220.4919
 10
633.462
 20
219.784
 10
633.3196
 20
219.1055
 10
633.1454
 20
218.4563
 10
632.9396
 20
217.8366
 10
632.702
 20
217.2462
 10
632.4371
 20
216.6873
 10
632.1492
 20
216.1619
 10
631.8383
 20
215.6699
 10
631.5044
 20
215.2115
 10
631.1476
 20
214.7866
 10
630.7677
 20
214.3952
 10
630.3649
 20
214.0372
 10
629.9391
 20
213.7126
 10
629.494
 20
213.4244
 10
629.0331
 20
213.1745
 10
628.5566
 20
212.9631
 10
628.0645
 20
212.79
 10
627.5566
 20
212.6554
 10
627.0331
 20
212.5593
 10
626.494
 20
212.5015
 10
625.9393
 20
212.4823
  0
LWPOLYLINE
  5
7F
330
1F
100
AcDbEntity
  8
Layer 1
 62
     7
370
    18
100
AcDbPolyline
 90
       97
 70
     1
 43
0.0
 10
625.9393
 20
214.394
 10
626.3629
 20
214.4091
 10
626.7727
 20
214.4545
 10
627.1686
 20
214.5302
 10
627.5507
 20
214.6362
 10
627.9188
 20
214.7725
 10
628.273
 20
214.9392
 10
628.6132
 20
215.1364
 10
628.9394
 20
215.3639
 10
629.25
 20
215.6203
 10
629.5433
 20
215.9048
 10
629.8192
 20
216.2175
 10
630.0779
 20
216.5582
 10
630.3191
 20
216.9271
 10
630.5431
 20
217.324
 10
630.7496
 20
217.749
 10
630.9388
 20
218.202
 10
631.108
 20
218.6824
 10
631.2546
 20
219.1894
 10
631.3787
 20
219.7231
 10
631.4802
 20
220.2835
 10
631.5592
 20
220.8705
 10
631.6156
 20
221.4844
 10
631.6494
 20
222.125
 10
631.6607
 20
222.7924
 10
631.6494
 20
223.4595
 10
631.6156
 20
224.0999
 10
631.5592
 20
224.7136
 10
631.4802
 20
225.3007
 10
631.3787
 20
225.861
 10
631.2546
 20
226.3947
 10
631.108
 20
226.9015
 10
630.9388
 20
227.3815
 10
630.7496
 20
227.8345
 10
630.5431
 20
228.2595
 10
630.3191
 20
228.6565
 10
630.0779
 20
229.0253
 10
629.8192
 20
229.3661
 10
629.5433
 20
229.6788
 10
629.25
 20
229.9633
 10
628.9394
 20
230.2197
 10
628.6132
 20
230.4473
 10
628.273
 20
230.6446
 10
627.9188
 20
230.8115
 10
627.5507
 20
230.948
 10
627.1686
 20
231.0542
 10
626.7727
 20
231.1301
 10
626.3629
 20
231.1756
 10
625.9393
 20
231.1908
 10
625.5287
 20
231.1756
 10
625.1292
 20
231.1301
 10
624.741
 20
231.0542
 10
624.364
 20
230.948
 10
623.9982
 20
230.8115
 10
623.6437
 20
230.6446
 10
623.3004
 20
230.4473
 10
622.9684
 20
230.2197
 10
622.6515
 20
229.9633
 10
622.3527
 20
229.6788
 10
622.0721
 20
229.3661
 10
621.8097
 20
229.0253
 10
621.5655
 20
228.6565
 10
621.3394
 20
228.2595
 10
621.1316
 20
227.8345
 10
620.942
 20
227.3815
 10
620.7728
 20
226.9015
 10
620.6262
 20
226.3947
 10
620.5021
 20
225.861
 10
620.4006
 20
225.3007
 10
620.3216
 20
224.7136
 10
620.2652
 20
224.0999
 10
620.2314
 20
223.4595
 10
620.2201
 20
222.7924
 10
620.2314
 20
222.125
 10
620.2652
 20
221.4844
 10
620.3216
 20
220.8705
 10
620.4006
 20
220.2835
 10
620.5021
 20
219.7231
 10
620.6262
 20
219.1894
 10
620.7728
 20
218.6824
 10
620.942
 20
218.202
 10
621.1316
 20
217.749
 10
621.3394
 20
217.324
 10
621.5655
 20
216.9271
 10
621.8097
 20
216.5582
 10
622.0721
 20
216.2175
 10
622.3527
 20
215.9048
 10
622.6515
 20
215.6203
 10
622.9684
 20
215.3639
 10
623.3004
 20
215.1364
 10
623.6437
 20
214.9392
 10
623.9982
 20
214.7725
 10
624.364
 20
214.6362
 10
624.741
 20
214.5302
 10
625.1292
 20
214.4545
 10
625.5287
 20
214.4091
 10
625.9393
 20
214.394
  0
LWPOLYLINE
  5
80
330
1F
100
AcDbEntity
  8
Layer 1
 62
     7
370
    18
100
AcDbPolyline
 90
        8
 70
     1
 43
0.0
 10
216.9295
 20
31.7161
 10
211.4957
 20
31.7161
 10
211.7713
 20
31.9757
 10
211.7713
 20
30.378
 10
211.2525
 20
30.378
 10
211.2525
 20
32.3001
 10
216.9295
 20
32.3001
 10
216.9295
 20
31.7161
  0
LWPOLYLINE
  5
81
330
1F
100
AcDbEntity
  8
Layer 1
 62
     7
370
    18
100
AcDbPolyline
 90
      131
 70
     1
 43
0.0
 10
216.9783
 20
35.4466
 10
216.9752
 20
35.2954
 10
216.9658
 20
35.146
 10
216.9503
 20
34.9983
 10
216.9285
 20
34.8525
 10
216.9006
 20
34.7084
 10
216.8664
 20
34.5661
 10
216.8261
 20
34.4256
 10
216.7796
 20
34.2869
 10
216.7278
 20
34.1526
 10
216.6718
 20
34.0254
 10
216.6117
 20
33.9052
 10
216.5473
 20
33.7922
 10
216.4788
 20
33.6863
 10
216.4061
 20
33.5874
 10
216.3291
 20
33.4957
 10
216.248
 20
33.411
 10
215.7859
 20
33.6948
 10
215.8553
 20
33.7648
 10
215.9217
 20
33.841
 10
215.9851
 20
33.9234
 10
216.0454
 20
34.0121
 10
216.1027
 20
34.1069
 10
216.1569
 20
34.208
 10
216.2081
 20
34.3152
 10
216.2562
 20
34.4286
 10
216.3
 20
34.5464
 10
216.338
 20
34.6666
 10
216.3701
 20
34.7892
 10
216.3964
 20
34.9142
 10
216.4168
 20
35.0416
 10
216.4314
 20
35.1715
 10
216.4402
 20
35.3037
 10
216.4431
 20
35.4384
 10
216.4381
 20
35.6134
 10
216.423
 20
35.7777
 10
216.3979
 20
35.9312
 10
216.3628
 20
36.0739
 10
216.3177
 20
36.2059
 10
216.2625
 20
36.3271
 10
216.1974
 20
36.4375
 10
216.1224
 20
36.5372
 10
216.0391
 20
36.6256
 10
215.9497
 20
36.7022
 10
215.8541
 20
36.767
 10
215.7523
 20
36.82
 10
215.6443
 20
36.8612
 10
215.5301
 20
36.8906
 10
215.4097
 20
36.9083
 10
215.2831
 20
36.9142
 10
215.1934
 20
36.9115
 10
215.1069
 20
36.9033
 10
215.0235
 20
36.8897
 10
214.9434
 20
36.8706
 10
214.8664
 20
36.846
 10
214.7926
 20
36.8161
 10
214.7221
 20
36.7807
 10
214.6547
 20
36.7398
 10
214.5906
 20
36.6925
 10
214.5302
 20
36.6377
 10
214.4735
 20
36.5754
 10
214.4204
 20
36.5056
 10
214.3711
 20
36.4284
 10
214.3253
 20
36.3437
 10
214.2833
 20
36.2515
 10
214.2449
 20
36.1519
 10
214.2107
 20
36.0437
 10
214.1811
 20
35.9259
 10
214.1561
 20
35.7984
 10
214.1356
 20
35.6613
 10
214.1197
 20
35.5145
 10
214.1083
 20
35.3581
 10
214.1015
 20
35.1921
 10
214.0992
 20
35.0165
 10
214.0992
 20
33.8083
 10
211.2525
 20
34.1003
 10
211.2525
 20
37.2062
 10
211.7713
 20
37.2062
 10
211.7713
 20
34.3353
 10
211.4875
 20
34.6355
 10
213.8721
 20
34.3841
 10
213.5801
 20
34.0839
 10
213.5801
 20
35.1464
 10
213.5834
 20
35.356
 10
213.5933
 20
35.5549
 10
213.6098
 20
35.7432
 10
213.6329
 20
35.9209
 10
213.6625
 20
36.0879
 10
213.6987
 20
36.2443
 10
213.7415
 20
36.39
 10
213.7909
 20
36.5251
 10
213.8462
 20
36.6503
 10
213.9068
 20
36.7666
 10
213.9725
 20
36.8738
 10
214.0433
 20
36.9721
 10
214.1194
 20
37.0613
 10
214.2006
 20
37.1415
 10
214.2871
 20
37.2128
 10
214.3787
 20
37.275
 10
214.4749
 20
37.3292
 10
214.5751
 20
37.3761
 10
214.6792
 20
37.4158
 10
214.7872
 20
37.4483
 10
214.8992
 20
37.4735
 10
215.0151
 20
37.4916
 10
215.1349
 20
37.5024
 10
215.2586
 20
37.506
 10
215.3769
 20
37.5025
 10
215.4926
 20
37.4918
 10
215.6056
 20
37.4741
 10
215.7159
 20
37.4493
 10
215.8236
 20
37.4174
 10
215.9286
 20
37.3784
 10
216.0309
 20
37.3324
 10
216.1305
 20
37.2792
 10
216.2263
 20
37.2189
 10
216.3169
 20
37.1514
 10
216.4023
 20
37.0769
 10
216.4825
 20
36.9954
 10
216.5574
 20
36.9067
 10
216.6271
 20
36.8109
 10
216.6917
 20
36.7081
 10
216.7511
 20
36.5981
 10
216.8043
 20
36.4807
 10
216.8504
 20
36.3558
 10
216.8895
 20
36.2232
 10
216.9214
 20
36.0831
 10
216.9463
 20
35.9353
 10
216.9641
 20
35.78
 10
216.9747
 20
35.6171
 10
216.9783
 20
35.4466
  0
LWPOLYLINE
  5
82
330
1F
100
AcDbEntity
  8
Layer 1
 62
     7
370
    18
100
AcDbPolyline
 90
       97
 70
     1
 43
0.0
 10
216.9783
 20
40.5069
 10
216.9729
 20
40.3449
 10
216.9568
 20
40.1875
 10
216.9298
 20
40.0346
 10
216.8921
 20
39.8864
 10
216.8437
 20
39.7426
 10
216.7844
 20
39.6035
 10
216.7144
 20
39.469
 10
216.6336
 20
39.339
 10
216.5427
 20
39.2147
 10
216.4425
 20
39.0972
 10
216.3328
 20
38.9866
 10
216.2137
 20
38.8828
 10
216.0853
 20
38.7859
 10
215.9475
 20
38.6958
 10
215.8003
 20
38.6126
 10
215.6438
 20
38.5361
 10
215.4785
 20
38.4677
 10
215.3051
 20
38.4085
 10
215.1233
 20
38.3583
 10
214.9334
 20
38.3172
 10
214.7351
 20
38.2852
 10
214.5287
 20
38.2624
 10
214.314
 20
38.2487
 10
214.091
 20
38.2441
 10
213.868
 20
38.2487
 10
213.6533
 20
38.2624
 10
213.4467
 20
38.2852
 10
213.2484
 20
38.3172
 10
213.0583
 20
38.3583
 10
212.8765
 20
38.4085
 10
212.7029
 20
38.4677
 10
212.5376
 20
38.5361
 10
212.3811
 20
38.6126
 10
212.234
 20
38.6958
 10
212.0963
 20
38.7859
 10
211.968
 20
38.8828
 10
211.849
 20
38.9866
 10
211.7395
 20
39.0972
 10
211.6393
 20
39.2147
 10
211.5484
 20
39.339
 10
211.4676
 20
39.469
 10
211.3977
 20
39.6035
 10
211.3384
 20
39.7426
 10
211.29
 20
39.8864
 10
211.2523
 20
40.0346
 10
211.2253
 20
40.1875
 10
211.2092
 20
40.3449
 10
211.2038
 20
40.5069
 10
211.2092
 20
40.6687
 10
211.2253
 20
40.8261
 10
211.2523
 20
40.9789
 10
211.29
 20
41.1271
 10
211.3384
 20
41.2708
 10
211.3977
 20
41.4099
 10
211.4676
 20
41.5445
 10
211.5484
 20
41.6744
 10
211.6393
 20
41.7988
 10
211.7395
 20
41.9165
 10
211.849
 20
42.0274
 10
211.968
 20
42.1316
 10
212.0963
 20
42.2291
 10
212.234
 20
42.3199
 10
212.3811
 20
42.4039
 10
212.5376
 20
42.4813
 10
212.7029
 20
42.5507
 10
212.8765
 20
42.6108
 10
213.0583
 20
42.6617
 10
213.2484
 20
42.7034
 10
213.4467
 20
42.7358
 10
213.6533
 20
42.759
 10
213.868
 20
42.7729
 10
214.091
 20
42.7775
 10
214.314
 20
42.7729
 10
214.5287
 20
42.759
 10
214.7351
 20
42.7358
 10
214.9334
 20
42.7034
 10
215.1233
 20
42.6617
 10
215.3051
 20
42.6108
 10
215.4785
 20
42.5507
 10
215.6438
 20
42.4813
 10
215.8003
 20
42.4039
 10
215.9475
 20
42.3199
 10
216.0853
 20
42.2291
 10
216.2137
 20
42.1316
 10
216.3328
 20
42.0274
 10
216.4425
 20
41.9165
 10
216.5427
 20
41.7988
 10
216.6336
 20
41.6744
 10
216.7144
 20
41.5445
 10
216.7844
 20
41.4099
 10
216.8437
 20
41.2708
 10
216.8921
 20
41.1271
 10
216.9298
 20
40.9789
 10
216.9568
 20
40.8261
 10
216.9729
 20
40.6687
 10
216.9783
 20
40.5069
  0
LWPOLYLINE
  5
83
330
1F
100
AcDbEntity
  8
Layer 1
 62
     7
370
    18
100
AcDbPolyline
 90
       97
 70
     1
 43
0.0
 10
216.4431
 20
40.5069
 10
216.4388
 20
40.6306
 10
216.4261
 20
40.7501
 10
216.4048
 20
40.8656
 10
216.375
 20
40.9771
 10
216.3367
 20
41.0845
 10
216.29
 20
41.1879
 10
216.2348
 20
41.2872
 10
216.1711
 20
41.3825
 10
216.0992
 20
41.4732
 10
216.0195
 20
41.5589
 10
215.9319
 20
41.6395
 10
215.8365
 20
41.7151
 10
215.7332
 20
41.7855
 10
215.6221
 20
41.8509
 10
215.5032
 20
41.9112
 10
215.3764
 20
41.9664
 10
215.2418
 20
42.0158
 10
215.0998
 20
42.0586
 10
214.9503
 20
42.0948
 10
214.7934
 20
42.1245
 10
214.629
 20
42.1475
 10
214.4571
 20
42.164
 10
214.2778
 20
42.1739
 10
214.091
 20
42.1772
 10
213.9041
 20
42.1739
 10
213.7247
 20
42.164
 10
213.5528
 20
42.1475
 10
213.3884
 20
42.1245
 10
213.2314
 20
42.0948
 10
213.0819
 20
42.0586
 10
212.9399
 20
42.0158
 10
212.8053
 20
41.9664
 10
212.6785
 20
41.9112
 10
212.5595
 20
41.8509
 10
212.4484
 20
41.7855
 10
212.3451
 20
41.7151
 10
212.2497
 20
41.6395
 10
212.1621
 20
41.5589
 10
212.0824
 20
41.4732
 10
212.0106
 20
41.3825
 10
211.947
 20
41.2872
 10
211.8918
 20
41.1879
 10
211.8451
 20
41.0845
 10
211.8069
 20
40.9771
 10
211.7771
 20
40.8656
 10
211.7559
 20
40.7501
 10
211.7432
 20
40.6306
 10
211.7389
 20
40.5069
 10
211.7432
 20
40.3869
 10
211.7559
 20
40.2702
 10
211.7771
 20
40.1568
 10
211.8069
 20
40.0467
 10
211.8451
 20
39.9398
 10
211.8918
 20
39.8363
 10
211.947
 20
39.7361
 10
212.0106
 20
39.6392
 10
212.0824
 20
39.5465
 10
212.1621
 20
39.4591
 10
212.2497
 20
39.3771
 10
212.3451
 20
39.3004
 10
212.4484
 20
39.229
 10
212.5595
 20
39.163
 10
212.6785
 20
39.1024
 10
212.8053
 20
39.047
 10
212.9399
 20
38.9976
 10
213.0819
 20
38.9548
 10
213.2314
 20
38.9186
 10
213.3884
 20
38.889
 10
213.5528
 20
38.8659
 10
213.7247
 20
38.8495
 10
213.9041
 20
38.8396
 10
214.091
 20
38.8363
 10
214.2778
 20
38.8396
 10
214.4571
 20
38.8495
 10
214.629
 20
38.8659
 10
214.7934
 20
38.889
 10
214.9503
 20
38.9186
 10
215.0998
 20
38.9548
 10
215.2418
 20
38.9976
 10
215.3764
 20
39.047
 10
215.5032
 20
39.1024
 10
215.6221
 20
39.163
 10
215.7332
 20
39.229
 10
215.8365
 20
39.3004
 10
215.9319
 20
39.3771
 10
216.0195
 20
39.4591
 10
216.0992
 20
39.5465
 10
216.1711
 20
39.6392
 10
216.2348
 20
39.7361
 10
216.29
 20
39.8363
 10
216.3367
 20
39.9398
 10
216.375
 20
40.0467
 10
216.4048
 20
40.1568
 10
216.4261
 20
40.2702
 10
216.4388
 20
40.3869
 10
216.4431
 20
40.5069
  0
LWPOLYLINE
  5
84
330
1F
100
AcDbEntity
  8
Layer 1
 62
     7
370
    18
100
AcDbPolyline
 90
        9
 70
     1
 43
0.0
 10
674.2736
 20
22.4513
 10
674.2736
 20
23.9572
 10
684.5763
 20
37.3939
 10
686.7983
 20
37.3939
 10
676.5788
 20
23.9572
 10
675.4959
 20
24.3043
 10
691.1298
 20
24.3043
 10
691.1298
 20
22.4513
 10
674.2736
 20
22.4513
  0
LWPOLYLINE
  5
85
330
1F
100
AcDbEntity
  8
Layer 1
 62
     7
370
    18
100
AcDbPolyline
 90
        7
 70
     1
 43
0.0
 10
685.242
 20
17.1221
 10
685.242
 20
22.4513
 10
685.2982
 20
24.3043
 10
685.2982
 20
28.9955
 10
687.2424
 20
28.9955
 10
687.2424
 20
17.1221
 10
685.242
 20
17.1221
  0
LWPOLYLINE
  5
86
330
1F
100
AcDbEntity
  8
Layer 1
 62
     7
370
    18
100
AcDbPolyline
 90
      131
 70
     1
 43
0.0
 10
699.0452
 20
16.9485
 10
698.5278
 20
16.9596
 10
698.0163
 20
16.9929
 10
697.5108
 20
17.0484
 10
697.0112
 20
17.126
 10
696.5177
 20
17.2258
 10
696.0302
 20
17.3478
 10
695.5488
 20
17.4919
 10
695.0734
 20
17.6581
 10
694.6137
 20
17.8428
 10
694.1782
 20
18.0425
 10
693.7669
 20
18.2571
 10
693.38
 20
18.4867
 10
693.0172
 20
18.7312
 10
692.6787
 20
18.9907
 10
692.3644
 20
19.2651
 10
692.0744
 20
19.5545
 10
693.0471
 20
21.2058
 10
693.2867
 20
20.9579
 10
693.5476
 20
20.7208
 10
693.8298
 20
20.4945
 10
694.1332
 20
20.279
 10
694.4579
 20
20.0745
 10
694.8038
 20
19.8808
 10
695.1709
 20
19.6981
 10
695.5592
 20
19.5264
 10
695.9627
 20
19.3702
 10
696.3745
 20
19.2348
 10
696.7945
 20
19.1203
 10
697.2228
 20
19.0266
 10
697.6592
 20
18.9538
 10
698.1038
 20
18.9018
 10
698.5564
 20
18.8706
 10
699.0171
 20
18.8602
 10
699.6168
 20
18.8781
 10
700.1795
 20
18.9317
 10
700.7052
 20
19.021
 10
701.194
 20
19.1461
 10
701.6458
 20
19.3069
 10
702.0606
 20
19.5034
 10
702.4386
 20
19.7357
 10
702.7796
 20
20.0037
 10
703.0824
 20
20.3007
 10
703.3449
 20
20.6198
 10
703.567
 20
20.9612
 10
703.7487
 20
21.3248
 10
703.89
 20
21.7107
 10
703.9909
 20
22.1187
 10
704.0515
 20
22.5489
 10
704.0717
 20
23.0014
 10
704.0624
 20
23.3212
 10
704.0344
 20
23.6298
 10
703.9877
 20
23.9272
 10
703.9224
 20
24.2133
 10
703.8384
 20
24.4881
 10
703.7358
 20
24.7517
 10
703.6145
 20
25.004
 10
703.4746
 20
25.2449
 10
703.3125
 20
25.4737
 10
703.1248
 20
25.6893
 10
702.9115
 20
25.8919
 10
702.6725
 20
26.0813
 10
702.408
 20
26.2576
 10
702.1178
 20
26.4207
 10
701.802
 20
26.5706
 10
701.4606
 20
26.7074
 10
701.0903
 20
26.8298
 10
700.687
 20
26.9359
 10
700.2506
 20
27.0256
 10
699.7813
 20
27.099
 10
699.2789
 20
27.156
 10
698.7434
 20
27.1967
 10
698.1748
 20
27.2212
 10
697.5732
 20
27.2293
 10
693.4351
 20
27.2293
 10
694.4347
 20
37.3939
 10
705.0714
 20
37.3939
 10
705.0714
 20
35.5409
 10
695.2399
 20
35.5409
 10
696.2677
 20
36.5542
 10
695.4063
 20
28.0397
 10
694.3796
 20
29.0823
 10
698.0185
 20
29.0823
 10
698.7361
 20
29.0705
 10
699.4173
 20
29.0352
 10
700.0619
 20
28.9764
 10
700.6701
 20
28.8941
 10
701.2418
 20
28.7882
 10
701.777
 20
28.6588
 10
702.2757
 20
28.5059
 10
702.738
 20
28.3294
 10
703.167
 20
28.1319
 10
703.5652
 20
27.9158
 10
703.9324
 20
27.6811
 10
704.2689
 20
27.428
 10
704.5745
 20
27.1562
 10
704.8493
 20
26.866
 10
705.0932
 20
26.5573
 10
705.3064
 20
26.2301
 10
705.4922
 20
25.8862
 10
705.653
 20
25.5284
 10
705.7891
 20
25.1566
 10
705.9004
 20
24.7708
 10
705.9869
 20
24.3711
 10
706.0486
 20
23.9574
 10
706.0857
 20
23.5297
 10
706.098
 20
23.0881
 10
706.0859
 20
22.6655
 10
706.0495
 20
22.2525
 10
705.9888
 20
21.849
 10
705.9039
 20
21.4552
 10
705.7947
 20
21.0708
 10
705.6611
 20
20.6959
 10
705.5032
 20
20.3305
 10
705.321
 20
19.9744
 10
705.1144
 20
19.6327
 10
704.8835
 20
19.3094
 10
704.6283
 20
19.0047
 10
704.3489
 20
18.7185
 10
704.0452
 20
18.4507
 10
703.7172
 20
18.2016
 10
703.3651
 20
17.971
 10
702.9888
 20
17.7589
 10
702.587
 20
17.5689
 10
702.1591
 20
17.4042
 10
701.7052
 20
17.2649
 10
701.2253
 20
17.151
 10
700.7193
 20
17.0624
 10
700.1873
 20
16.9991
 10
699.6293
 20
16.9611
 10
699.0452
 20
16.9485
  0
LWPOLYLINE
  5
87
330
1F
100
AcDbEntity
  8
Layer 1
 62
     7
370
    35
100
AcDbPolyline
 90
       33
 70
     1
 43
0.0
 10
521.0408
 20
35.1857
 10
523.0411
 20
34.9754
 10
524.9042
 20
34.3723
 10
526.5901
 20
33.4179
 10
528.0591
 20
32.154
 10
529.2711
 20
30.6221
 10
530.1862
 20
28.8639
 10
530.7645
 20
26.9211
 10
530.9662
 20
24.8351
 10
530.7645
 20
22.7491
 10
530.1862
 20
20.8063
 10
529.2711
 20
19.0481
 10
528.0591
 20
17.5162
 10
526.5901
 20
16.2523
 10
524.9042
 20
15.2979
 10
523.0411
 20
14.6948
 10
521.0408
 20
14.4845
 10
519.0406
 20
14.6948
 10
517.1775
 20
15.2979
 10
515.4916
 20
16.2523
 10
514.0226
 20
17.5162
 10
512.8106
 20
19.0481
 10
511.8955
 20
20.8063
 10
511.3172
 20
22.7491
 10
511.1155
 20
24.8351
 10
511.3172
 20
26.9211
 10
511.8955
 20
28.8639
 10
512.8106
 20
30.6221
 10
514.0226
 20
32.154
 10
515.4916
 20
33.4179
 10
517.1775
 20
34.3723
 10
519.0406
 20
34.9754
 10
521.0408
 20
35.1857
  0
LWPOLYLINE
  5
88
330
1F
100
AcDbEntity
  8
Layer 1
 62
     7
370
    35
100
AcDbPolyline
 90
        2
 70
     0
 43
0.0
 10
524.2778
 20
41.5702
 10
517.7532
 20
6.7764
  0
LWPOLYLINE
  5
89
330
1F
100
AcDbEntity
  8
Layer 1
 62
     7
370
    35
100
AcDbPolyline
 90
       33
 70
     1
 43
0.0
 10
652.4188
 20
35.7812
 10
654.419
 20
35.5709
 10
656.2821
 20
34.9678
 10
657.968
 20
34.0134
 10
659.437
 20
32.7495
 10
660.649
 20
31.2176
 10
661.5641
 20
29.4594
 10
662.1424
 20
27.5166
 10
662.3441
 20
25.4306
 10
662.1424
 20
23.3446
 10
661.5641
 20
21.4018
 10
660.649
 20
19.6436
 10
659.437
 20
18.1117
 10
657.968
 20
16.8478
 10
656.2821
 20
15.8934
 10
654.419
 20
15.2903
 10
652.4188
 20
15.08
 10
650.4186
 20
15.2903
 10
648.5555
 20
15.8934
 10
646.8696
 20
16.8478
 10
645.4006
 20
18.1117
 10
644.1886
 20
19.6436
 10
643.2735
 20
21.4018
 10
642.6952
 20
23.3446
 10
642.4935
 20
25.4306
 10
642.6952
 20
27.5166
 10
643.2735
 20
29.4594
 10
644.1886
 20
31.2176
 10
645.4006
 20
32.7495
 10
646.8696
 20
34.0134
 10
648.5555
 20
34.9678
 10
650.4186
 20
35.5709
 10
652.4188
 20
35.7812
  0
LWPOLYLINE
  5
8A
330
1F
100
AcDbEntity
  8
Layer 1
 62
     7
370
    35
100
AcDbPolyline
 90
        2
 70
     0
 43
0.0
 10
655.6557
 20
42.1656
 10
649.1312
 20
7.3719
  0
ENDSEC
  0
SECTION
  2
OBJECTS
  0
DICTIONARY
  5
C
330
0
100
AcDbDictionary
281
     1
  3
ACAD_DETAILVIEWSTYLE
350
92
  3
ACAD_GROUP
350
D
  3
ACAD_LAYOUT
350
1A
  3
ACAD_MATERIAL
350
43
  3
ACAD_MLEADERSTYLE
350
5B
  3
ACAD_MLINESTYLE
350
17
  3
ACAD_PLOTSETTINGS
350
19
  3
ACAD_PLOTSTYLENAME
350
E
  3
ACAD_SCALELIST
350
47
  3
ACAD_SECTIONVIEWSTYLE
350
93
  3
ACAD_TABLESTYLE
350
59
  3
ACAD_VISUALSTYLE
350
2A
  3
ACDB_RECOMPOSE_DATA
350
8F
  3
AcDbVariableDictionary
350
8B
  0
SUN
  5
5D
330
29
100
AcDbSun
 90
        1
290
     0
 63
     7
421
 16777215
 40
1.0
291
     1
 91
  2455826
 92
 54000000
292
     0
 70
     2
 71
   256
280
     1
  0
DICTIONARY
  5
92
102
{ACAD_REACTORS
330
C
102
}
330
C
100
AcDbDictionary
281
     1
  0
DICTIONARY
  5
D
102
{ACAD_REACTORS
330
C
102
}
330
C
100
AcDbDictionary
281
     1
  0
DICTIONARY
  5
1A
102
{ACAD_REACTORS
330
C
102
}
330
C
100
AcDbDictionary
281
     1
  3
Layout1
350
1E
  3
Layout2
350
26
  3
Model
350
22
  0
DICTIONARY
  5
43
102
{ACAD_REACTORS
330
C
102
}
330
C
100
AcDbDictionary
281
     1
  3
ByBlock
350
45
  3
ByLayer
350
44
  3
Global
350
46
  0
DICTIONARY
  5
5B
102
{ACAD_REACTORS
330
C
102
}
330
C
100
AcDbDictionary
281
     1
  3
Standard
350
5C
  0
DICTIONARY
  5
17
102
{ACAD_REACTORS
330
C
102
}
330
C
100
AcDbDictionary
281
     1
  3
Standard
350
18
  0
DICTIONARY
  5
19
102
{ACAD_REACTORS
330
C
102
}
330
C
100
AcDbDictionary
281
     1
  0
ACDBDICTIONARYWDFLT
  5
E
102
{ACAD_REACTORS
330
C
102
}
330
C
100
AcDbDictionary
281
     1
  3
Normal
350
F
100
AcDbDictionaryWithDefault
340
F
  0
DICTIONARY
  5
47
102
{ACAD_REACTORS
330
C
102
}
330
C
100
AcDbDictionary
281
     1
  3
A0
350
48
  3
A1
350
49
  3
A2
350
4A
  3
A3
350
4B
  3
A4
350
4C
  3
A5
350
4D
  3
A6
350
4E
  3
A7
350
4F
  3
A8
350
50
  3
A9
350
51
  3
B1
350
52
  3
B2
350
53
  3
B3
350
54
  3
B4
350
55
  3
B5
350
56
  3
B6
350
57
  3
B7
350
58
  0
DICTIONARY
  5
93
102
{ACAD_REACTORS
330
C
102
}
330
C
100
AcDbDictionary
281
     1
  0
DICTIONARY
  5
59
102
{ACAD_REACTORS
330
C
102
}
330
C
100
AcDbDictionary
281
     1
  3
Standard
350
5A
  0
DICTIONARY
  5
2A
102
{ACAD_REACTORS
330
C
102
}
330
C
100
AcDbDictionary
281
     1
  3
2dWireframe
350
2F
  3
Basic
350
32
  3
Brighten
350
36
  3
ColorChange
350
3A
  3
Conceptual
350
34
  3
Dim
350
35
  3
EdgeColorOff
350
3D
  3
Facepattern
350
39
  3
Flat
350
2B
  3
FlatWithEdges
350
2C
  3
Gouraud
350
2D
  3
GouraudWithEdges
350
2E
  3
Hidden
350
31
  3
JitterOff
350
3B
  3
Linepattern
350
38
  3
OverhangOff
350
3C
  3
Realistic
350
33
  3
Shaded
350
42
  3
Shaded with edges
350
41
  3
Shades of Gray
350
3E
  3
Sketchy
350
3F
  3
Thicken
350
37
  3
Wireframe
350
30
  3
X-Ray
350
40
  0
XRECORD
  5
8F
102
{ACAD_REACTORS
330
C
102
}
330
C
100
AcDbXrecord
280
     1
 90
        1
330
5A
  0
DICTIONARY
  5
8B
102
{ACAD_REACTORS
330
C
102
}
330
C
100
AcDbDictionary
281
     1
  3
CANNOSCALE
350
8C
  3
CMLEADERSTYLE
350
91
  3
CTABLESTYLE
350
90
  0
LAYOUT
  5
1E
102
{ACAD_REACTORS
330
1A
102
}
330
1A
100
AcDbPlotSettings
  1

  2
none_device
  4

  6

 40
0.0
 41
0.0
 42
0.0
 43
0.0
 44
0.0
 45
0.0
 46
0.0
 47
0.0
 48
0.0
 49
0.0
140
0.0
141
0.0
142
1.0
143
1.0
 70
   688
 72
     0
 73
     0
 74
     5
  7

 75
    16
 76
     0
 77
     2
 78
   300
147
1.0
148
0.0
149
0.0
100
AcDbLayout
  1
Layout1
 70
     1
 71
     1
 10
0.0
 20
0.0
 11
12.0
 21
9.0
 12
0.0
 22
0.0
 32
0.0
 14
1.000000000000000E+20
 24
1.000000000000000E+20
 34
1.000000000000000E+20
 15
-1.000000000000000E+20
 25
-1.000000000000000E+20
 35
-1.000000000000000E+20
146
0.0
 13
0.0
 23
0.0
 33
0.0
 16
1.0
 26
0.0
 36
0.0
 17
0.0
 27
1.0
 37
0.0
 76
     0
330
1B
  0
LAYOUT
  5
26
102
{ACAD_REACTORS
330
1A
102
}
330
1A
100
AcDbPlotSettings
  1

  2
none_device
  4

  6

 40
0.0
 41
0.0
 42
0.0
 43
0.0
 44
0.0
 45
0.0
 46
0.0
 47
0.0
 48
0.0
 49
0.0
140
0.0
141
0.0
142
1.0
143
1.0
 70
   688
 72
     0
 73
     0
 74
     5
  7

 75
    16
 76
     0
 77
     2
 78
   300
147
1.0
148
0.0
149
0.0
100
AcDbLayout
  1
Layout2
 70
     1
 71
     2
 10
0.0
 20
0.0
 11
0.0
 21
0.0
 12
0.0
 22
0.0
 32
0.0
 14
0.0
 24
0.0
 34
0.0
 15
0.0
 25
0.0
 35
0.0
146
0.0
 13
0.0
 23
0.0
 33
0.0
 16
1.0
 26
0.0
 36
0.0
 17
0.0
 27
1.0
 37
0.0
 76
     0
330
23
  0
LAYOUT
  5
22
102
{ACAD_REACTORS
330
1A
102
}
330
1A
100
AcDbPlotSettings
  1

  2
none_device
  4
Letter_(8.50_x_11.00_Inches)
  6

 40
6.35
 41
6.35
 42
6.35000508
 43
6.35000508
 44
215.9
 45
279.4
 46
0.0
 47
0.0
 48
0.0
 49
0.0
140
0.0
141
0.0
142
1.0
143
1.0
 70
  1712
 72
     0
 73
     0
 74
     0
  7

 75
     0
 76
     0
 77
     2
 78
   300
147
1.0
148
0.0
149
0.0
100
AcDbLayout
  1
Model
 70
     1
 71
     0
 10
0.0
 20
0.0
 11
12.0
 21
9.0
 12
0.0
 22
0.0
 32
0.0
 14
197.557
 24
-226.3021
 34
0.0
 15
824.2527
 25
285.7354
 35
0.0
146
0.0
 13
0.0
 23
0.0
 33
0.0
 16
1.0
 26
0.0
 36
0.0
 17
0.0
 27
1.0
 37
0.0
 76
     0
330
1F
331
29
  0
MATERIAL
  5
45
102
{ACAD_REACTORS
330
43
102
}
330
43
100
AcDbMaterial
  1
ByBlock
 72
     1
 94
      127
  0
MATERIAL
  5
44
102
{ACAD_REACTORS
330
43
102
}
330
43
100
AcDbMaterial
  1
ByLayer
 72
     1
 94
      127
  0
MATERIAL
  5
46
102
{ACAD_REACTORS
330
43
102
}
330
43
100
AcDbMaterial
  1
Global
 72
     1
 94
      127
  0
MLEADERSTYLE
  5
5C
102
{ACAD_REACTORS
330
5B
102
}
330
5B
100
AcDbMLeaderStyle
179
     2
170
     2
171
     1
172
     0
 90
        2
 40
0.0
 41
0.0
173
     1
 91
-1056964608
340
14
 92
       -2
290
     1
 42
0.09
291
     1
 43
0.36
  3
Standard
341
0
 44
0.18
300

342
11
174
     1
178
     6
175
     1
176
     0
 93
-1056964608
 45
0.18
292
     0
297
     0
 46
0.18
343
0
 94
-1056964608
 47
1.0
 49
1.0
140
1.0
293
     1
141
0.0
294
     1
177
     0
142
1.0
295
     0
296
     0
143
0.125
271
     0
272
     9
273
     9
298
     0
  0
MLINESTYLE
  5
18
102
{ACAD_REACTORS
330
17
102
}
330
17
100
AcDbMlineStyle
  2
Standard
 70
     0
  3

 62
   256
 51
90.0
 52
90.0
 71
     2
 49
0.5
 62
   256
  6
BYLAYER
 49
-0.5
 62
   256
  6
BYLAYER
  0
ACDBPLACEHOLDER
  5
F
102
{ACAD_REACTORS
330
E
102
}
330
E
  0
SCALE
  5
48
102
{ACAD_REACTORS
330
47
102
}
330
47
100
AcDbScale
 70
     0
300
1:1
140
1.0
141
1.0
290
     1
  0
SCALE
  5
49
102
{ACAD_REACTORS
330
47
102
}
330
47
100
AcDbScale
 70
     0
300
1/128" = 1'-0"
140
0.0078125
141
12.0
290
     0
  0
SCALE
  5
4A
102
{ACAD_REACTORS
330
47
102
}
330
47
100
AcDbScale
 70
     0
300
1/64" = 1'-0"
140
0.015625
141
12.0
290
     0
  0
SCALE
  5
4B
102
{ACAD_REACTORS
330
47
102
}
330
47
100
AcDbScale
 70
     0
300
1/32" = 1'-0"
140
0.03125
141
12.0
290
     0
  0
SCALE
  5
4C
102
{ACAD_REACTORS
330
47
102
}
330
47
100
AcDbScale
 70
     0
300
1/16" = 1'-0"
140
0.0625
141
12.0
290
     0
  0
SCALE
  5
4D
102
{ACAD_REACTORS
330
47
102
}
330
47
100
AcDbScale
 70
     0
300
3/32" = 1'-0"
140
0.09375
141
12.0
290
     0
  0
SCALE
  5
4E
102
{ACAD_REACTORS
330
47
102
}
330
47
100
AcDbScale
 70
     0
300
1/8" = 1'-0"
140
0.125
141
12.0
290
     0
  0
SCALE
  5
4F
102
{ACAD_REACTORS
330
47
102
}
330
47
100
AcDbScale
 70
     0
300
3/16" = 1'-0"
140
0.1875
141
12.0
290
     0
  0
SCALE
  5
50
102
{ACAD_REACTORS
330
47
102
}
330
47
100
AcDbScale
 70
     0
300
1/4" = 1'-0"
140
0.25
141
12.0
290
     0
  0
SCALE
  5
51
102
{ACAD_REACTORS
330
47
102
}
330
47
100
AcDbScale
 70
     0
300
3/8" = 1'-0"
140
0.375
141
12.0
290
     0
  0
SCALE
  5
52
102
{ACAD_REACTORS
330
47
102
}
330
47
100
AcDbScale
 70
     0
300
1/2" = 1'-0"
140
0.5
141
12.0
290
     0
  0
SCALE
  5
53
102
{ACAD_REACTORS
330
47
102
}
330
47
100
AcDbScale
 70
     0
300
3/4" = 1'-0"
140
0.75
141
12.0
290
     0
  0
SCALE
  5
54
102
{ACAD_REACTORS
330
47
102
}
330
47
100
AcDbScale
 70
     0
300
1" = 1'-0"
140
1.0
141
12.0
290
     0
  0
SCALE
  5
55
102
{ACAD_REACTORS
330
47
102
}
330
47
100
AcDbScale
 70
     0
300
1-1/2" = 1'-0"
140
1.5
141
12.0
290
     0
  0
SCALE
  5
56
102
{ACAD_REACTORS
330
47
102
}
330
47
100
AcDbScale
 70
     0
300
3" = 1'-0"
140
3.0
141
12.0
290
     0
  0
SCALE
  5
57
102
{ACAD_REACTORS
330
47
102
}
330
47
100
AcDbScale
 70
     0
300
6" = 1'-0"
140
6.0
141
12.0
290
     0
  0
SCALE
  5
58
102
{ACAD_REACTORS
330
47
102
}
330
47
100
AcDbScale
 70
     0
300
1'-0" = 1'-0"
140
12.0
141
12.0
290
     0
  0
TABLESTYLE
  5
5A
102
{ACAD_REACTORS
330
59
102
}
102
{ACAD_XDICTIONARY
360
8D
102
}
330
59
100
AcDbTableStyle
  3
Standard
 70
     0
 71
     0
 40
0.06
 41
0.06
280
     0
281
     0
  7
Standard
140
0.18
170
     2
 62
     0
 63
   257
283
     0
 90
        4
 91
        0
  1

274
    -2
284
     1
 64
     0
275
    -2
285
     1
 65
     0
276
    -2
286
     1
 66
     0
277
    -2
287
     1
 67
     0
278
    -2
288
     1
 68
     0
279
    -2
289
     1
 69
     0
  7
Standard
140
0.25
170
     5
 62
     0
 63
   257
283
     0
 90
        4
 91
        0
  1

274
    -2
284
     1
 64
     0
275
    -2
285
     1
 65
     0
276
    -2
286
     1
 66
     0
277
    -2
287
     1
 67
     0
278
    -2
288
     1
 68
     0
279
    -2
289
     1
 69
     0
  7
Standard
140
0.18
170
     5
 62
     0
 63
   257
283
     0
 90
        4
 91
        0
  1

274
    -2
284
     1
 64
     0
275
    -2
285
     1
 65
     0
276
    -2
286
     1
 66
     0
277
    -2
287
     1
 67
     0
278
    -2
288
     1
 68
     0
279
    -2
289
     1
 69
     0
  0
VISUALSTYLE
  5
2F
102
{ACAD_REACTORS
330
2A
102
}
330
2A
100
AcDbVisualStyle
  2
2dWireframe
 70
     4
177
     3
291
     0
 70
    58
 90
        0
176
     1
 90
        2
176
     1
 90
        0
176
     1
 90
        0
176
     1
 40
0.6
176
     1
 40
30.0
176
     1
 62
     7
420
 16777215
176
     1
 90
        1
176
     1
 90
        4
176
     1
 62
     7
176
     1
 62
   257
176
     1
 90
        1
176
     1
 90
        1
176
     1
 40
1.0
176
     1
 90
        0
176
     1
 62
   257
176
     1
 40
1.0
176
     1
 90
        1
176
     1
 90
        6
176
     1
 90
        2
176
     1
 62
     7
176
     1
 90
        5
176
     1
 90
        0
176
     1
 90
        0
176
     1
290
     0
176
     1
 90
        1
176
     1
 40
0.0
176
     1
 90
        0
176
     1
290
     1
176
     1
290
     1
176
     1
290
     0
176
     1
290
     0
176
     1
290
     0
176
     1
290
     0
176
     1
290
     0
176
     1
290
     0
176
     1
290
     0
176
     1
 90
       50
176
     1
 40
0.0
176
     1
 40
1.0
176
     1
 90
        0
176
     1
 62
    18
420
        0
176
     1
 90
       50
176
     1
 90
        3
176
     1
 62
     5
420
      255
176
     1
290
     0
176
     1
 90
       50
176
     1
 90
       50
176
     1
 90
       50
176
     1
290
     0
176
     1
 90
       50
176
     1
 62
   256
176
     0
 40
1.0
176
     0
 90
        2
176
     1
  1
strokes_ogs.tif
176
     1
290
     0
176
     1
 40
1.0
176
     1
 40
1.0
176
     1
  0
VISUALSTYLE
  5
32
102
{ACAD_REACTORS
330
2A
102
}
330
2A
100
AcDbVisualStyle
  2
Basic
 70
     7
177
     3
291
     1
 70
    58
 90
        1
176
     1
 90
        0
176
     1
 90
        1
176
     1
 90
        0
176
     1
 40
0.6
176
     1
 40
30.0
176
     1
 62
     7
420
 16777215
176
     1
 90
        0
176
     1
 90
        4
176
     1
 62
     7
176
     1
 62
   257
176
     1
 90
        1
176
     1
 90
        1
176
     1
 40
1.0
176
     1
 90
        8
176
     1
 62
     7
176
     1
 40
1.0
176
     1
 90
        1
176
     1
 90
        6
176
     1
 90
        2
176
     1
 62
     7
176
     1
 90
        5
176
     1
 90
        0
176
     1
 90
        0
176
     1
290
     0
176
     1
 90
        1
176
     1
 40
0.0
176
     1
 90
        0
176
     1
290
     0
176
     1
290
     1
176
     1
290
     1
176
     1
290
     0
176
     1
290
     0
176
     1
290
     0
176
     1
290
     0
176
     1
290
     0
176
     1
290
     0
176
     1
 90
       50
176
     1
 40
0.0
176
     1
 40
1.0
176
     1
 90
        0
176
     1
 62
    18
420
        0
176
     1
 90
       50
176
     1
 90
        3
176
     1
 62
     5
420
      255
176
     1
290
     0
176
     1
 90
       50
176
     1
 90
       50
176
     1
 90
       50
176
     1
290
     0
176
     1
 90
       50
176
     1
 62
   256
176
     0
 40
1.0
176
     0
 90
        2
176
     1
  1
strokes_ogs.tif
176
     1
290
     0
176
     1
 40
1.0
176
     1
 40
1.0
176
     1
  0
VISUALSTYLE
  5
36
102
{ACAD_REACTORS
330
2A
102
}
330
2A
100
AcDbVisualStyle
  2
Brighten
 70
    12
177
     3
291
     1
 70
    58
 90
        2
176
     1
 90
        2
176
     1
 90
        0
176
     1
 90
        0
176
     1
 40
0.6
176
     1
 40
30.0
176
     1
 62
     7
420
 16777215
176
     1
 90
        1
176
     1
 90
        4
176
     1
 62
     7
176
     1
 62
   257
176
     1
 90
        1
176
     1
 90
        1
176
     1
 40
1.0
176
     1
 90
        8
176
     1
 62
     7
176
     1
 40
1.0
176
     1
 90
        1
176
     1
 90
        6
176
     1
 90
        2
176
     1
 62
     7
176
     1
 90
        5
176
     1
 90
        0
176
     1
 90
        0
176
     1
290
     0
176
     1
 90
        1
176
     1
 40
50.0
176
     1
 90
        0
176
     1
290
     0
176
     1
290
     1
176
     1
290
     1
176
     1
290
     0
176
     1
290
     0
176
     1
290
     0
176
     1
290
     0
176
     1
290
     0
176
     1
290
     0
176
     1
 90
       50
176
     1
 40
0.0
176
     1
 40
1.0
176
     1
 90
        0
176
     1
 62
    18
420
        0
176
     1
 90
       50
176
     1
 90
        3
176
     1
 62
     5
420
      255
176
     1
290
     0
176
     1
 90
       50
176
     1
 90
       50
176
     1
 90
       50
176
     1
290
     0
176
     1
 90
       50
176
     1
 62
   256
176
     0
 40
1.0
176
     0
 90
        2
176
     1
  1
strokes_ogs.tif
176
     1
290
     0
176
     1
 40
1.0
176
     1
 40
1.0
176
     1
  0
VISUALSTYLE
  5
3A
102
{ACAD_REACTORS
330
2A
102
}
330
2A
100
AcDbVisualStyle
  2
ColorChange
 70
    16
177
     3
291
     1
 70
    58
 90
        2
176
     1
 90
        2
176
     1
 90
        3
176
     1
 90
        0
176
     1
 40
0.6
176
     1
 40
30.0
176
     1
 62
     8
420
  8421504
176
     1
 90
        1
176
     1
 90
        4
176
     1
 62
     7
176
     1
 62
   257
176
     1
 90
        1
176
     1
 90
        1
176
     1
 40
1.0
176
     1
 90
        8
176
     1
 62
     8
420
  8421504
176
     1
 40
1.0
176
     1
 90
        1
176
     1
 90
        6
176
     1
 90
        2
176
     1
 62
     7
176
     1
 90
        5
176
     1
 90
        0
176
     1
 90
        0
176
     1
290
     0
176
     1
 90
        1
176
     1
 40
0.0
176
     1
 90
        0
176
     1
290
     0
176
     1
290
     1
176
     1
290
     1
176
     1
290
     0
176
     1
290
     0
176
     1
290
     0
176
     1
290
     0
176
     1
290
     0
176
     1
290
     0
176
     1
 90
       50
176
     1
 40
0.0
176
     1
 40
1.0
176
     1
 90
        0
176
     1
 62
    18
420
        0
176
     1
 90
       50
176
     1
 90
        3
176
     1
 62
     5
420
      255
176
     1
290
     0
176
     1
 90
       50
176
     1
 90
       50
176
     1
 90
       50
176
     1
290
     0
176
     1
 90
       50
176
     1
 62
   256
176
     0
 40
1.0
176
     0
 90
        2
176
     1
  1
strokes_ogs.tif
176
     1
290
     0
176
     1
 40
1.0
176
     1
 40
1.0
176
     1
  0
VISUALSTYLE
  5
34
102
{ACAD_REACTORS
330
2A
102
}
330
2A
100
AcDbVisualStyle
  2
Conceptual
 70
     9
177
     3
291
     0
 70
    58
 90
        3
176
     1
 90
        2
176
     1
 90
        0
176
     1
 90
        0
176
     1
 40
0.6
176
     1
 40
30.0
176
     1
 62
     7
420
 16777215
176
     1
 90
        2
176
     1
 90
        2
176
     1
 62
     7
176
     1
 62
   257
176
     1
 90
        1
176
     1
 90
        1
176
     1
 40
179.0
176
     1
 90
        8
176
     1
 62
     7
176
     1
 40
1.0
176
     1
 90
        1
176
     1
 90
        6
176
     1
 90
        2
176
     1
 62
     7
176
     1
 90
        3
176
     1
 90
        0
176
     1
 90
        0
176
     1
290
     0
176
     1
 90
        1
176
     1
 40
0.0
176
     1
 90
        0
176
     1
290
     0
176
     1
290
     1
176
     1
290
     1
176
     1
290
     0
176
     1
290
     0
176
     1
290
     0
176
     1
290
     0
176
     1
290
     0
176
     1
290
     0
176
     1
 90
       50
176
     1
 40
0.0
176
     1
 40
1.0
176
     1
 90
        0
176
     1
 62
    18
420
        0
176
     1
 90
       50
176
     1
 90
        3
176
     1
 62
     5
420
      255
176
     1
290
     0
176
     1
 90
       50
176
     1
 90
       50
176
     1
 90
       50
176
     1
290
     0
176
     1
 90
       50
176
     1
 62
   256
176
     0
 40
1.0
176
     0
 90
        2
176
     1
  1
strokes_ogs.tif
176
     1
290
     0
176
     1
 40
1.0
176
     1
 40
1.0
176
     1
  0
VISUALSTYLE
  5
35
102
{ACAD_REACTORS
330
2A
102
}
330
2A
100
AcDbVisualStyle
  2
Dim
 70
    11
177
     3
291
     1
 70
    58
 90
        2
176
     1
 90
        2
176
     1
 90
        0
176
     1
 90
        0
176
     1
 40
0.6
176
     1
 40
30.0
176
     1
 62
     7
420
 16777215
176
     1
 90
        1
176
     1
 90
        4
176
     1
 62
     7
176
     1
 62
   257
176
     1
 90
        1
176
     1
 90
        1
176
     1
 40
1.0
176
     1
 90
        8
176
     1
 62
     7
176
     1
 40
1.0
176
     1
 90
        1
176
     1
 90
        6
176
     1
 90
        2
176
     1
 62
     7
176
     1
 90
        5
176
     1
 90
        0
176
     1
 90
        0
176
     1
290
     0
176
     1
 90
        1
176
     1
 40
-50.0
176
     1
 90
        0
176
     1
290
     0
176
     1
290
     1
176
     1
290
     1
176
     1
290
     0
176
     1
290
     0
176
     1
290
     0
176
     1
290
     0
176
     1
290
     0
176
     1
290
     0
176
     1
 90
       50
176
     1
 40
0.0
176
     1
 40
1.0
176
     1
 90
        0
176
     1
 62
    18
420
        0
176
     1
 90
       50
176
     1
 90
        3
176
     1
 62
     5
420
      255
176
     1
290
     0
176
     1
 90
       50
176
     1
 90
       50
176
     1
 90
       50
176
     1
290
     0
176
     1
 90
       50
176
     1
 62
   256
176
     0
 40
1.0
176
     0
 90
        2
176
     1
  1
strokes_ogs.tif
176
     1
290
     0
176
     1
 40
1.0
176
     1
 40
1.0
176
     1
  0
VISUALSTYLE
  5
3D
102
{ACAD_REACTORS
330
2A
102
}
330
2A
100
AcDbVisualStyle
  2
EdgeColorOff
 70
    22
177
     3
291
     1
 70
    58
 90
        2
176
     0
 90
        2
176
     0
 90
        0
176
     0
 90
        0
176
     0
 40
0.6
176
     0
 40
30.0
176
     0
 62
     7
420
 16777215
176
     0
 90
        1
176
     0
 90
        4
176
     0
 62
     7
176
     0
 62
   257
176
     0
 90
        1
176
     0
 90
        1
176
     0
 40
1.0
176
     0
 90
        8
176
     2
 62
     7
176
     0
 40
1.0
176
     0
 90
        1
176
     0
 90
        6
176
     0
 90
        2
176
     0
 62
     7
176
     0
 90
        5
176
     0
 90
        0
176
     0
 90
        0
176
     0
290
     0
176
     0
 90
        1
176
     0
 40
0.0
176
     0
 90
        0
176
     0
290
     0
176
     0
290
     1
176
     0
290
     1
176
     0
290
     0
176
     0
290
     0
176
     0
290
     0
176
     0
290
     0
176
     0
290
     0
176
     0
290
     0
176
     0
 90
       50
176
     0
 40
0.0
176
     0
 40
1.0
176
     0
 90
        0
176
     0
 62
    18
420
        0
176
     0
 90
       50
176
     0
 90
        3
176
     0
 62
     5
420
      255
176
     0
290
     0
176
     0
 90
       50
176
     0
 90
       50
176
     0
 90
       50
176
     0
290
     0
176
     0
 90
       50
176
     0
 62
   256
176
     0
 40
1.0
176
     0
 90
        2
176
     0
  1
strokes_ogs.tif
176
     0
290
     0
176
     0
 40
1.0
176
     0
 40
1.0
176
     0
  0
VISUALSTYLE
  5
39
102
{ACAD_REACTORS
330
2A
102
}
330
2A
100
AcDbVisualStyle
  2
Facepattern
 70
    15
177
     3
291
     1
 70
    58
 90
        2
176
     1
 90
        2
176
     1
 90
        0
176
     1
 90
        0
176
     1
 40
0.6
176
     1
 40
30.0
176
     1
 62
     7
420
 16777215
176
     1
 90
        1
176
     1
 90
        4
176
     1
 62
     7
176
     1
 62
   257
176
     1
 90
        1
176
     1
 90
        1
176
     1
 40
1.0
176
     1
 90
        8
176
     1
 62
     7
176
     1
 40
1.0
176
     1
 90
        1
176
     1
 90
        6
176
     1
 90
        2
176
     1
 62
     7
176
     1
 90
        5
176
     1
 90
        0
176
     1
 90
        0
176
     1
290
     0
176
     1
 90
        1
176
     1
 40
0.0
176
     1
 90
        0
176
     1
290
     0
176
     1
290
     1
176
     1
290
     1
176
     1
290
     0
176
     1
290
     0
176
     1
290
     0
176
     1
290
     0
176
     1
290
     0
176
     1
290
     0
176
     1
 90
       50
176
     1
 40
0.0
176
     1
 40
1.0
176
     1
 90
        0
176
     1
 62
    18
420
        0
176
     1
 90
       50
176
     1
 90
        3
176
     1
 62
     5
420
      255
176
     1
290
     0
176
     1
 90
       50
176
     1
 90
       50
176
     1
 90
       50
176
     1
290
     0
176
     1
 90
       50
176
     1
 62
   256
176
     0
 40
1.0
176
     0
 90
        2
176
     1
  1
strokes_ogs.tif
176
     1
290
     0
176
     1
 40
1.0
176
     1
 40
1.0
176
     1
  0
VISUALSTYLE
  5
2B
102
{ACAD_REACTORS
330
2A
102
}
330
2A
100
AcDbVisualStyle
  2
Flat
 70
     0
177
     3
291
     1
 70
    58
 90
        2
176
     1
 90
        1
176
     1
 90
        1
176
     1
 90
        2
176
     1
 40
0.6
176
     1
 40
30.0
176
     1
 62
     7
420
 16777215
176
     1
 90
        0
176
     1
 90
        0
176
     1
 62
     7
176
     1
 62
   257
176
     1
 90
        1
176
     1
 90
        1
176
     1
 40
1.0
176
     1
 90
        8
176
     1
 62
     7
176
     1
 40
1.0
176
     1
 90
        1
176
     1
 90
        6
176
     1
 90
        2
176
     1
 62
     7
176
     1
 90
        5
176
     1
 90
        0
176
     1
 90
        0
176
     1
290
     0
176
     1
 90
       13
176
     1
 40
0.0
176
     1
 90
        0
176
     1
290
     0
176
     1
290
     1
176
     1
290
     1
176
     1
290
     0
176
     1
290
     0
176
     1
290
     0
176
     1
290
     0
176
     1
290
     0
176
     1
290
     0
176
     1
 90
       50
176
     1
 40
0.0
176
     1
 40
1.0
176
     1
 90
        0
176
     1
 62
    18
420
        0
176
     1
 90
       50
176
     1
 90
        3
176
     1
 62
     5
420
      255
176
     1
290
     0
176
     1
 90
       50
176
     1
 90
       50
176
     1
 90
       50
176
     1
290
     0
176
     1
 90
       50
176
     1
 62
   256
176
     0
 40
1.0
176
     0
 90
        2
176
     1
  1
strokes_ogs.tif
176
     1
290
     0
176
     1
 40
1.0
176
     1
 40
1.0
176
     1
  0
VISUALSTYLE
  5
2C
102
{ACAD_REACTORS
330
2A
102
}
330
2A
100
AcDbVisualStyle
  2
FlatWithEdges
 70
     1
177
     3
291
     1
 70
    58
 90
        2
176
     1
 90
        1
176
     1
 90
        1
176
     1
 90
        2
176
     1
 40
0.6
176
     1
 40
30.0
176
     1
 62
     7
420
 16777215
176
     1
 90
        1
176
     1
 90
        0
176
     1
 62
     7
176
     1
 62
   257
176
     1
 90
        1
176
     1
 90
        1
176
     1
 40
1.0
176
     1
 90
        0
176
     1
 62
   257
176
     1
 40
1.0
176
     1
 90
        1
176
     1
 90
        6
176
     1
 90
        2
176
     1
 62
     7
176
     1
 90
        5
176
     1
 90
        0
176
     1
 90
        0
176
     1
290
     0
176
     1
 90
       13
176
     1
 40
0.0
176
     1
 90
        0
176
     1
290
     0
176
     1
290
     1
176
     1
290
     1
176
     1
290
     0
176
     1
290
     0
176
     1
290
     0
176
     1
290
     0
176
     1
290
     0
176
     1
290
     0
176
     1
 90
       50
176
     1
 40
0.0
176
     1
 40
1.0
176
     1
 90
        0
176
     1
 62
    18
420
        0
176
     1
 90
       50
176
     1
 90
        3
176
     1
 62
     5
420
      255
176
     1
290
     0
176
     1
 90
       50
176
     1
 90
       50
176
     1
 90
       50
176
     1
290
     0
176
     1
 90
       50
176
     1
 62
   256
176
     0
 40
1.0
176
     0
 90
        2
176
     1
  1
strokes_ogs.tif
176
     1
290
     0
176
     1
 40
1.0
176
     1
 40
1.0
176
     1
  0
VISUALSTYLE
  5
2D
102
{ACAD_REACTORS
330
2A
102
}
330
2A
100
AcDbVisualStyle
  2
Gouraud
 70
     2
177
     3
291
     1
 70
    58
 90
        2
176
     1
 90
        2
176
     1
 90
        1
176
     1
 90
        2
176
     1
 40
0.6
176
     1
 40
30.0
176
     1
 62
     7
420
 16777215
176
     1
 90
        0
176
     1
 90
        0
176
     1
 62
     7
176
     1
 62
   257
176
     1
 90
        1
176
     1
 90
        1
176
     1
 40
1.0
176
     1
 90
        0
176
     1
 62
     7
176
     1
 40
1.0
176
     1
 90
        1
176
     1
 90
        6
176
     1
 90
        2
176
     1
 62
     7
176
     1
 90
        5
176
     1
 90
        0
176
     1
 90
        0
176
     1
290
     0
176
     1
 90
       13
176
     1
 40
0.0
176
     1
 90
        0
176
     1
290
     0
176
     1
290
     1
176
     1
290
     1
176
     1
290
     0
176
     1
290
     0
176
     1
290
     0
176
     1
290
     0
176
     1
290
     0
176
     1
290
     0
176
     1
 90
       50
176
     1
 40
0.0
176
     1
 40
1.0
176
     1
 90
        0
176
     1
 62
    18
420
        0
176
     1
 90
       50
176
     1
 90
        3
176
     1
 62
     5
420
      255
176
     1
290
     0
176
     1
 90
       50
176
     1
 90
       50
176
     1
 90
       50
176
     1
290
     0
176
     1
 90
       50
176
     1
 62
   256
176
     0
 40
1.0
176
     0
 90
        2
176
     1
  1
strokes_ogs.tif
176
     1
290
     0
176
     1
 40
1.0
176
     1
 40
1.0
176
     1
  0
VISUALSTYLE
  5
2E
102
{ACAD_REACTORS
330
2A
102
}
330
2A
100
AcDbVisualStyle
  2
GouraudWithEdges
 70
     3
177
     3
291
     1
 70
    58
 90
        2
176
     1
 90
        2
176
     1
 90
        1
176
     1
 90
        2
176
     1
 40
0.6
176
     1
 40
30.0
176
     1
 62
     7
420
 16777215
176
     1
 90
        1
176
     1
 90
        0
176
     1
 62
     7
176
     1
 62
   257
176
     1
 90
        1
176
     1
 90
        1
176
     1
 40
1.0
176
     1
 90
        0
176
     1
 62
   257
176
     1
 40
1.0
176
     1
 90
        1
176
     1
 90
        6
176
     1
 90
        2
176
     1
 62
     7
176
     1
 90
        5
176
     1
 90
        0
176
     1
 90
        0
176
     1
290
     0
176
     1
 90
       13
176
     1
 40
0.0
176
     1
 90
        0
176
     1
290
     0
176
     1
290
     1
176
     1
290
     1
176
     1
290
     0
176
     1
290
     0
176
     1
290
     0
176
     1
290
     0
176
     1
290
     0
176
     1
290
     0
176
     1
 90
       50
176
     1
 40
0.0
176
     1
 40
1.0
176
     1
 90
        0
176
     1
 62
    18
420
        0
176
     1
 90
       50
176
     1
 90
        3
176
     1
 62
     5
420
      255
176
     1
290
     0
176
     1
 90
       50
176
     1
 90
       50
176
     1
 90
       50
176
     1
290
     0
176
     1
 90
       50
176
     1
 62
   256
176
     0
 40
1.0
176
     0
 90
        2
176
     1
  1
strokes_ogs.tif
176
     1
290
     0
176
     1
 40
1.0
176
     1
 40
1.0
176
     1
  0
VISUALSTYLE
  5
31
102
{ACAD_REACTORS
330
2A
102
}
330
2A
100
AcDbVisualStyle
  2
Hidden
 70
     6
177
     3
291
     0
 70
    58
 90
        1
176
     1
 90
        2
176
     1
 90
        2
176
     1
 90
        0
176
     1
 40
0.6
176
     1
 40
30.0
176
     1
 62
     7
420
 16777215
176
     1
 90
        2
176
     1
 90
        2
176
     1
 62
     7
176
     1
 62
   257
176
     1
 90
        2
176
     1
 90
        1
176
     1
 40
40.0
176
     1
 90
        0
176
     1
 62
   257
176
     1
 40
1.0
176
     1
 90
        1
176
     1
 90
        6
176
     1
 90
        2
176
     1
 62
     7
176
     1
 90
        3
176
     1
 90
        0
176
     1
 90
        0
176
     1
290
     0
176
     1
 90
        1
176
     1
 40
0.0
176
     1
 90
        0
176
     1
290
     0
176
     1
290
     1
176
     1
290
     1
176
     1
290
     0
176
     1
290
     0
176
     1
290
     0
176
     1
290
     0
176
     1
290
     0
176
     1
290
     0
176
     1
 90
       50
176
     1
 40
0.0
176
     1
 40
1.0
176
     1
 90
        0
176
     1
 62
    18
420
        0
176
     1
 90
       50
176
     1
 90
        3
176
     1
 62
     5
420
      255
176
     1
290
     0
176
     1
 90
       50
176
     1
 90
       50
176
     1
 90
       50
176
     1
290
     0
176
     1
 90
       50
176
     1
 62
   256
176
     0
 40
1.0
176
     0
 90
        2
176
     1
  1
strokes_ogs.tif
176
     1
290
     0
176
     1
 40
1.0
176
     1
 40
1.0
176
     1
  0
VISUALSTYLE
  5
3B
102
{ACAD_REACTORS
330
2A
102
}
330
2A
100
AcDbVisualStyle
  2
JitterOff
 70
    20
177
     3
291
     1
 70
    58
 90
        2
176
     0
 90
        2
176
     0
 90
        0
176
     0
 90
        0
176
     0
 40
0.6
176
     0
 40
30.0
176
     0
 62
     7
420
 16777215
176
     0
 90
        1
176
     0
 90
        4
176
     0
 62
     7
176
     0
 62
   257
176
     0
 90
        1
176
     0
 90
        1
176
     0
 40
1.0
176
     0
 90
       10
176
     2
 62
     7
176
     0
 40
1.0
176
     0
 90
        1
176
     0
 90
        6
176
     0
 90
        2
176
     0
 62
     7
176
     0
 90
        5
176
     0
 90
        0
176
     0
 90
        0
176
     0
290
     0
176
     0
 90
        1
176
     0
 40
0.0
176
     0
 90
        0
176
     0
290
     0
176
     0
290
     1
176
     0
290
     1
176
     0
290
     0
176
     0
290
     0
176
     0
290
     0
176
     0
290
     0
176
     0
290
     0
176
     0
290
     0
176
     0
 90
       50
176
     0
 40
0.0
176
     0
 40
1.0
176
     0
 90
        0
176
     0
 62
    18
420
        0
176
     0
 90
       50
176
     0
 90
        3
176
     0
 62
     5
420
      255
176
     0
290
     0
176
     0
 90
       50
176
     0
 90
       50
176
     0
 90
       50
176
     0
290
     0
176
     0
 90
       50
176
     0
 62
   256
176
     0
 40
1.0
176
     0
 90
        2
176
     0
  1
strokes_ogs.tif
176
     0
290
     0
176
     0
 40
1.0
176
     0
 40
1.0
176
     0
  0
VISUALSTYLE
  5
38
102
{ACAD_REACTORS
330
2A
102
}
330
2A
100
AcDbVisualStyle
  2
Linepattern
 70
    14
177
     3
291
     1
 70
    58
 90
        2
176
     1
 90
        2
176
     1
 90
        0
176
     1
 90
        0
176
     1
 40
0.6
176
     1
 40
30.0
176
     1
 62
     7
420
 16777215
176
     1
 90
        1
176
     1
 90
        4
176
     1
 62
     7
176
     1
 62
   257
176
     1
 90
        7
176
     1
 90
        7
176
     1
 40
1.0
176
     1
 90
        8
176
     1
 62
     7
176
     1
 40
1.0
176
     1
 90
        1
176
     1
 90
        6
176
     1
 90
        2
176
     1
 62
     7
176
     1
 90
        5
176
     1
 90
        0
176
     1
 90
        0
176
     1
290
     0
176
     1
 90
        1
176
     1
 40
0.0
176
     1
 90
        0
176
     1
290
     0
176
     1
290
     1
176
     1
290
     1
176
     1
290
     0
176
     1
290
     0
176
     1
290
     0
176
     1
290
     0
176
     1
290
     0
176
     1
290
     0
176
     1
 90
       50
176
     1
 40
0.0
176
     1
 40
1.0
176
     1
 90
        0
176
     1
 62
    18
420
        0
176
     1
 90
       50
176
     1
 90
        3
176
     1
 62
     5
420
      255
176
     1
290
     0
176
     1
 90
       50
176
     1
 90
       50
176
     1
 90
       50
176
     1
290
     0
176
     1
 90
       50
176
     1
 62
   256
176
     0
 40
1.0
176
     0
 90
        2
176
     1
  1
strokes_ogs.tif
176
     1
290
     0
176
     1
 40
1.0
176
     1
 40
1.0
176
     1
  0
VISUALSTYLE
  5
3C
102
{ACAD_REACTORS
330
2A
102
}
330
2A
100
AcDbVisualStyle
  2
OverhangOff
 70
    21
177
     3
291
     1
 70
    58
 90
        2
176
     0
 90
        2
176
     0
 90
        0
176
     0
 90
        0
176
     0
 40
0.6
176
     0
 40
30.0
176
     0
 62
     7
420
 16777215
176
     0
 90
        1
176
     0
 90
        4
176
     0
 62
     7
176
     0
 62
   257
176
     0
 90
        1
176
     0
 90
        1
176
     0
 40
1.0
176
     0
 90
        9
176
     2
 62
     7
176
     0
 40
1.0
176
     0
 90
        1
176
     0
 90
        6
176
     0
 90
        2
176
     0
 62
     7
176
     0
 90
        5
176
     0
 90
        0
176
     0
 90
        0
176
     0
290
     0
176
     0
 90
        1
176
     0
 40
0.0
176
     0
 90
        0
176
     0
290
     0
176
     0
290
     1
176
     0
290
     1
176
     0
290
     0
176
     0
290
     0
176
     0
290
     0
176
     0
290
     0
176
     0
290
     0
176
     0
290
     0
176
     0
 90
       50
176
     0
 40
0.0
176
     0
 40
1.0
176
     0
 90
        0
176
     0
 62
    18
420
        0
176
     0
 90
       50
176
     0
 90
        3
176
     0
 62
     5
420
      255
176
     0
290
     0
176
     0
 90
       50
176
     0
 90
       50
176
     0
 90
       50
176
     0
290
     0
176
     0
 90
       50
176
     0
 62
   256
176
     0
 40
1.0
176
     0
 90
        2
176
     0
  1
strokes_ogs.tif
176
     0
290
     0
176
     0
 40
1.0
176
     0
 40
1.0
176
     0
  0
VISUALSTYLE
  5
33
102
{ACAD_REACTORS
330
2A
102
}
330
2A
100
AcDbVisualStyle
  2
Realistic
 70
     8
177
     3
291
     0
 70
    58
 90
        2
176
     1
 90
        3
176
     1
 90
        0
176
     1
 90
        2
176
     1
 40
0.6
176
     1
 40
30.0
176
     1
 62
     7
420
 16777215
176
     1
 90
        0
176
     1
 90
        0
176
     1
 62
     7
176
     1
 62
   257
176
     1
 90
        1
176
     1
 90
        1
176
     1
 40
1.0
176
     1
 90
        8
176
     1
 62
   257
176
     1
 40
1.0
176
     1
 90
        1
176
     1
 90
        6
176
     1
 90
        2
176
     1
 62
     7
176
     1
 90
        3
176
     1
 90
        0
176
     1
 90
        0
176
     1
290
     0
176
     1
 90
       13
176
     1
 40
0.0
176
     1
 90
        0
176
     1
290
     0
176
     1
290
     1
176
     1
290
     1
176
     1
290
     0
176
     1
290
     0
176
     1
290
     0
176
     1
290
     0
176
     1
290
     0
176
     1
290
     0
176
     1
 90
       50
176
     1
 40
0.0
176
     1
 40
1.0
176
     1
 90
        0
176
     1
 62
    18
420
        0
176
     1
 90
       50
176
     1
 90
        3
176
     1
 62
     5
420
      255
176
     1
290
     0
176
     1
 90
       50
176
     1
 90
       50
176
     1
 90
       50
176
     1
290
     0
176
     1
 90
       50
176
     1
 62
   256
176
     0
 40
1.0
176
     0
 90
        2
176
     1
  1
strokes_ogs.tif
176
     1
290
     0
176
     1
 40
1.0
176
     1
 40
1.0
176
     1
  0
VISUALSTYLE
  5
42
102
{ACAD_REACTORS
330
2A
102
}
330
2A
100
AcDbVisualStyle
  2
Shaded
 70
    27
177
     3
291
     0
 70
    58
 90
        2
176
     1
 90
        2
176
     1
 90
        1
176
     1
 90
        2
176
     1
 40
0.6
176
     1
 40
30.0
176
     1
 62
     7
420
 16777215
176
     1
 90
        0
176
     1
 90
        4
176
     1
 62
     7
176
     1
 62
   257
176
     1
 90
        1
176
     1
 90
        1
176
     1
 40
1.0
176
     1
 90
        8
176
     1
 62
   257
176
     1
 40
1.0
176
     1
 90
        1
176
     1
 90
        6
176
     1
 90
        2
176
     1
 62
     8
420
  7895160
176
     1
 90
        3
176
     1
 90
        0
176
     1
 90
        0
176
     1
290
     0
176
     1
 90
        5
176
     1
 40
0.0
176
     1
 90
        0
176
     1
290
     0
176
     1
290
     1
176
     1
290
     1
176
     1
290
     0
176
     1
290
     0
176
     1
290
     0
176
     1
290
     0
176
     1
290
     0
176
     1
290
     0
176
     1
 90
       50
176
     1
 40
0.0
176
     1
 40
1.0
176
     1
 90
        0
176
     1
 62
    18
420
        0
176
     1
 90
       50
176
     1
 90
        3
176
     1
 62
     5
420
      255
176
     1
290
     0
176
     1
 90
       50
176
     1
 90
       50
176
     1
 90
       50
176
     1
290
     0
176
     1
 90
       50
176
     1
 62
   256
176
     0
 40
1.0
176
     0
 90
        2
176
     1
  1
strokes_ogs.tif
176
     1
290
     0
176
     1
 40
1.0
176
     1
 40
1.0
176
     1
  0
VISUALSTYLE
  5
41
102
{ACAD_REACTORS
330
2A
102
}
330
2A
100
AcDbVisualStyle
  2
Shaded with edges
 70
    26
177
     3
291
     0
 70
    58
 90
        2
176
     1
 90
        2
176
     1
 90
        1
176
     1
 90
        2
176
     1
 40
0.6
176
     1
 40
30.0
176
     1
 62
     7
420
 16777215
176
     1
 90
        1
176
     1
 90
       10
176
     1
 62
     7
176
     1
 62
   257
176
     1
 90
        2
176
     1
 90
        1
176
     1
 40
1.0
176
     1
 90
        8
176
     1
 62
   257
176
     1
 40
1.0
176
     1
 90
        1
176
     1
 90
        6
176
     1
 90
        2
176
     1
 62
     7
176
     1
 90
        3
176
     1
 90
        0
176
     1
 90
        0
176
     1
290
     0
176
     1
 90
        5
176
     1
 40
0.0
176
     1
 90
        0
176
     1
290
     0
176
     1
290
     1
176
     1
290
     1
176
     1
290
     0
176
     1
290
     0
176
     1
290
     0
176
     1
290
     0
176
     1
290
     0
176
     1
290
     0
176
     1
 90
       50
176
     1
 40
0.0
176
     1
 40
1.0
176
     1
 90
        0
176
     1
 62
    18
420
        0
176
     1
 90
       50
176
     1
 90
        3
176
     1
 62
     5
420
      255
176
     1
290
     0
176
     1
 90
       50
176
     1
 90
       50
176
     1
 90
       50
176
     1
290
     0
176
     1
 90
       50
176
     1
 62
   256
176
     0
 40
1.0
176
     0
 90
        2
176
     1
  1
strokes_ogs.tif
176
     1
290
     0
176
     1
 40
1.0
176
     1
 40
1.0
176
     1
  0
VISUALSTYLE
  5
3E
102
{ACAD_REACTORS
330
2A
102
}
330
2A
100
AcDbVisualStyle
  2
Shades of Gray
 70
    23
177
     3
291
     0
 70
    58
 90
        2
176
     1
 90
        2
176
     1
 90
        3
176
     1
 90
        0
176
     1
 40
0.6
176
     1
 40
30.0
176
     1
 62
     7
420
 16777215
176
     1
 90
        2
176
     1
 90
        2
176
     1
 62
     7
176
     1
 62
     7
176
     1
 90
        1
176
     1
 90
        1
176
     1
 40
40.0
176
     1
 90
        8
176
     1
 62
     7
176
     1
 40
1.0
176
     1
 90
        1
176
     1
 90
        6
176
     1
 90
        2
176
     1
 62
     7
176
     1
 90
        3
176
     1
 90
        0
176
     1
 90
        0
176
     1
290
     0
176
     1
 90
        1
176
     1
 40
0.0
176
     1
 90
        0
176
     1
290
     0
176
     1
290
     1
176
     1
290
     1
176
     1
290
     0
176
     1
290
     0
176
     1
290
     0
176
     1
290
     0
176
     1
290
     0
176
     1
290
     0
176
     1
 90
       50
176
     1
 40
0.0
176
     1
 40
1.0
176
     1
 90
        0
176
     1
 62
    18
420
        0
176
     1
 90
       50
176
     1
 90
        3
176
     1
 62
     5
420
      255
176
     1
290
     0
176
     1
 90
       50
176
     1
 90
       50
176
     1
 90
       50
176
     1
290
     0
176
     1
 90
       50
176
     1
 62
   256
176
     0
 40
1.0
176
     0
 90
        2
176
     1
  1
strokes_ogs.tif
176
     1
290
     0
176
     1
 40
1.0
176
     1
 40
1.0
176
     1
  0
VISUALSTYLE
  5
3F
102
{ACAD_REACTORS
330
2A
102
}
330
2A
100
AcDbVisualStyle
  2
Sketchy
 70
    24
177
     3
291
     0
 70
    58
 90
        1
176
     1
 90
        2
176
     1
 90
        2
176
     1
 90
        0
176
     1
 40
0.6
176
     1
 40
30.0
176
     1
 62
     7
420
 16777215
176
     1
 90
        2
176
     1
 90
        2
176
     1
 62
     7
176
     1
 62
     7
176
     1
 90
        1
176
     1
 90
        1
176
     1
 40
40.0
176
     1
 90
       11
176
     1
 62
     7
176
     1
 40
1.0
176
     1
 90
        1
176
     1
 90
        6
176
     1
 90
        2
176
     1
 62
     7
176
     1
 90
        6
176
     1
 90
        0
176
     1
 90
        0
176
     1
290
     0
176
     1
 90
        1
176
     1
 40
0.0
176
     1
 90
        0
176
     1
290
     0
176
     1
290
     1
176
     1
290
     1
176
     1
290
     0
176
     1
290
     0
176
     1
290
     0
176
     1
290
     0
176
     1
290
     0
176
     1
290
     0
176
     1
 90
       50
176
     1
 40
0.0
176
     1
 40
1.0
176
     1
 90
        0
176
     1
 62
    18
420
        0
176
     1
 90
       50
176
     1
 90
        3
176
     1
 62
     5
420
      255
176
     1
290
     0
176
     1
 90
       50
176
     1
 90
       50
176
     1
 90
       50
176
     1
290
     0
176
     1
 90
       50
176
     1
 62
   256
176
     0
 40
1.0
176
     0
 90
        2
176
     1
  1
strokes_ogs.tif
176
     1
290
     0
176
     1
 40
1.0
176
     1
 40
1.0
176
     1
  0
VISUALSTYLE
  5
37
102
{ACAD_REACTORS
330
2A
102
}
330
2A
100
AcDbVisualStyle
  2
Thicken
 70
    13
177
     3
291
     1
 70
    58
 90
        2
176
     1
 90
        2
176
     1
 90
        0
176
     1
 90
        0
176
     1
 40
0.6
176
     1
 40
30.0
176
     1
 62
     7
420
 16777215
176
     1
 90
        1
176
     1
 90
        4
176
     1
 62
     7
176
     1
 62
   257
176
     1
 90
        1
176
     1
 90
        1
176
     1
 40
1.0
176
     1
 90
       12
176
     1
 62
     7
176
     1
 40
1.0
176
     1
 90
        1
176
     1
 90
        6
176
     1
 90
        2
176
     1
 62
     7
176
     1
 90
        5
176
     1
 90
        0
176
     1
 90
        0
176
     1
290
     0
176
     1
 90
        1
176
     1
 40
0.0
176
     1
 90
        0
176
     1
290
     0
176
     1
290
     1
176
     1
290
     1
176
     1
290
     0
176
     1
290
     0
176
     1
290
     0
176
     1
290
     0
176
     1
290
     0
176
     1
290
     0
176
     1
 90
       50
176
     1
 40
0.0
176
     1
 40
1.0
176
     1
 90
        0
176
     1
 62
    18
420
        0
176
     1
 90
       50
176
     1
 90
        3
176
     1
 62
     5
420
      255
176
     1
290
     0
176
     1
 90
       50
176
     1
 90
       50
176
     1
 90
       50
176
     1
290
     0
176
     1
 90
       50
176
     1
 62
   256
176
     0
 40
1.0
176
     0
 90
        2
176
     1
  1
strokes_ogs.tif
176
     1
290
     0
176
     1
 40
1.0
176
     1
 40
1.0
176
     1
  0
VISUALSTYLE
  5
30
102
{ACAD_REACTORS
330
2A
102
}
330
2A
100
AcDbVisualStyle
  2
Wireframe
 70
     5
177
     3
291
     0
 70
    58
 90
        0
176
     1
 90
        2
176
     1
 90
        0
176
     1
 90
        0
176
     1
 40
0.6
176
     1
 40
30.0
176
     1
 62
     7
420
 16777215
176
     1
 90
        1
176
     1
 90
        4
176
     1
 62
     7
176
     1
 62
   257
176
     1
 90
        1
176
     1
 90
        1
176
     1
 40
1.0
176
     1
 90
        0
176
     1
 62
   257
176
     1
 40
1.0
176
     1
 90
        1
176
     1
 90
        6
176
     1
 90
        2
176
     1
 62
     7
176
     1
 90
        3
176
     1
 90
        0
176
     1
 90
        0
176
     1
290
     0
176
     1
 90
        1
176
     1
 40
0.0
176
     1
 90
        0
176
     1
290
     0
176
     1
290
     1
176
     1
290
     1
176
     1
290
     0
176
     1
290
     0
176
     1
290
     0
176
     1
290
     0
176
     1
290
     0
176
     1
290
     0
176
     1
 90
       50
176
     1
 40
0.0
176
     1
 40
1.0
176
     1
 90
        0
176
     1
 62
    18
420
        0
176
     1
 90
       50
176
     1
 90
        3
176
     1
 62
     5
420
      255
176
     1
290
     0
176
     1
 90
       50
176
     1
 90
       50
176
     1
 90
       50
176
     1
290
     0
176
     1
 90
       50
176
     1
 62
   256
176
     0
 40
1.0
176
     0
 90
        2
176
     1
  1
strokes_ogs.tif
176
     1
290
     0
176
     1
 40
1.0
176
     1
 40
1.0
176
     1
  0
VISUALSTYLE
  5
40
102
{ACAD_REACTORS
330
2A
102
}
330
2A
100
AcDbVisualStyle
  2
X-Ray
 70
    25
177
     3
291
     0
 70
    58
 90
        2
176
     1
 90
        2
176
     1
 90
        1
176
     1
 90
        1
176
     1
 40
0.5
176
     1
 40
30.0
176
     1
 62
     7
420
 16777215
176
     1
 90
        1
176
     1
 90
        0
176
     1
 62
     7
176
     1
 62
   257
176
     1
 90
        1
176
     1
 90
        1
176
     1
 40
1.0
176
     1
 90
        8
176
     1
 62
     7
176
     1
 40
1.0
176
     1
 90
        1
176
     1
 90
        6
176
     1
 90
        2
176
     1
 62
     7
176
     1
 90
        3
176
     1
 90
        0
176
     1
 90
        0
176
     1
290
     0
176
     1
 90
       13
176
     1
 40
0.0
176
     1
 90
        0
176
     1
290
     0
176
     1
290
     1
176
     1
290
     1
176
     1
290
     0
176
     1
290
     0
176
     1
290
     0
176
     1
290
     0
176
     1
290
     0
176
     1
290
     0
176
     1
 90
       50
176
     1
 40
0.0
176
     1
 40
1.0
176
     1
 90
        0
176
     1
 62
    18
420
        0
176
     1
 90
       50
176
     1
 90
        3
176
     1
 62
     5
420
      255
176
     1
290
     0
176
     1
 90
       50
176
     1
 90
       50
176
     1
 90
       50
176
     1
290
     0
176
     1
 90
       50
176
     1
 62
   256
176
     0
 40
1.0
176
     0
 90
        2
176
     1
  1
strokes_ogs.tif
176
     1
290
     0
176
     1
 40
1.0
176
     1
 40
1.0
176
     1
  0
DICTIONARYVAR
  5
8C
102
{ACAD_REACTORS
330
8B
102
}
330
8B
100
DictionaryVariables
280
     0
  1
1:1
  0
DICTIONARYVAR
  5
91
102
{ACAD_REACTORS
330
8B
102
}
330
8B
100
DictionaryVariables
280
     0
  1
Standard
  0
DICTIONARYVAR
  5
90
102
{ACAD_REACTORS
330
8B
102
}
330
8B
100
DictionaryVariables
280
     0
  1
Standard
  0
DICTIONARY
  5
8D
330
5A
100
AcDbDictionary
280
     1
281
     1
  3
ACAD_ROUNDTRIP_2008_TABLESTYLE_CELLSTYLEMAP
360
8E
  0
CELLSTYLEMAP
  5
8E
102
{ACAD_REACTORS
330
8D
102
}
330
8D
100
AcDbCellStyleMap
 90
        3
300
CELLSTYLE
  1
TABLEFORMAT_BEGIN
 90
        5
170
     1
 91
        0
 92
    32768
 62
   257
 93
        1
300
CONTENTFORMAT
  1
CONTENTFORMAT_BEGIN
 90
        0
 91
        0
 92
        4
 93
        0
300

 40
0.0
140
1.0
 94
        5
 62
     0
340
11
144
0.25
309
CONTENTFORMAT_END
171
     1
301
MARGIN
  1
CELLMARGIN_BEGIN
 40
0.06
 40
0.06
 40
0.06
 40
0.06
 40
0.06
 40
0.06
309
CELLMARGIN_END
 94
        6
 95
        1
302
GRIDFORMAT
  1
GRIDFORMAT_BEGIN
 90
        0
 91
        1
 62
     0
 92
       -2
340
14
 93
        0
 40
0.045
309
GRIDFORMAT_END
 95
        2
302
GRIDFORMAT
  1
GRIDFORMAT_BEGIN
 90
        0
 91
        1
 62
     0
 92
       -2
340
14
 93
        0
 40
0.045
309
GRIDFORMAT_END
 95
        4
302
GRIDFORMAT
  1
GRIDFORMAT_BEGIN
 90
        0
 91
        1
 62
     0
 92
       -2
340
14
 93
        0
 40
0.045
309
GRIDFORMAT_END
 95
        8
302
GRIDFORMAT
  1
GRIDFORMAT_BEGIN
 90
        0
 91
        1
 62
     0
 92
       -2
340
14
 93
        0
 40
0.045
309
GRIDFORMAT_END
 95
       16
302
GRIDFORMAT
  1
GRIDFORMAT_BEGIN
 90
        0
 91
        1
 62
     0
 92
       -2
340
14
 93
        0
 40
0.045
309
GRIDFORMAT_END
 95
       32
302
GRIDFORMAT
  1
GRIDFORMAT_BEGIN
 90
        0
 91
        1
 62
     0
 92
       -2
340
14
 93
        0
 40
0.045
309
GRIDFORMAT_END
309
TABLEFORMAT_END
  1
CELLSTYLE_BEGIN
 90
        1
 91
        1
300
_TITLE
309
CELLSTYLE_END
300
CELLSTYLE
  1
TABLEFORMAT_BEGIN
 90
        5
170
     1
 91
        0
 92
        0
 62
   257
 93
        1
300
CONTENTFORMAT
  1
CONTENTFORMAT_BEGIN
 90
        0
 91
        0
 92
        4
 93
        0
300

 40
0.0
140
1.0
 94
        5
 62
     0
340
11
144
0.18
309
CONTENTFORMAT_END
171
     1
301
MARGIN
  1
CELLMARGIN_BEGIN
 40
0.06
 40
0.06
 40
0.06
 40
0.06
 40
0.06
 40
0.06
309
CELLMARGIN_END
 94
        6
 95
        1
302
GRIDFORMAT
  1
GRIDFORMAT_BEGIN
 90
        0
 91
        1
 62
     0
 92
       -2
340
14
 93
        0
 40
0.045
309
GRIDFORMAT_END
 95
        2
302
GRIDFORMAT
  1
GRIDFORMAT_BEGIN
 90
        0
 91
        1
 62
     0
 92
       -2
340
14
 93
        0
 40
0.045
309
GRIDFORMAT_END
 95
        4
302
GRIDFORMAT
  1
GRIDFORMAT_BEGIN
 90
        0
 91
        1
 62
     0
 92
       -2
340
14
 93
        0
 40
0.045
309
GRIDFORMAT_END
 95
        8
302
GRIDFORMAT
  1
GRIDFORMAT_BEGIN
 90
        0
 91
        1
 62
     0
 92
       -2
340
14
 93
        0
 40
0.045
309
GRIDFORMAT_END
 95
       16
302
GRIDFORMAT
  1
GRIDFORMAT_BEGIN
 90
        0
 91
        1
 62
     0
 92
       -2
340
14
 93
        0
 40
0.045
309
GRIDFORMAT_END
 95
       32
302
GRIDFORMAT
  1
GRIDFORMAT_BEGIN
 90
        0
 91
        1
 62
     0
 92
       -2
340
14
 93
        0
 40
0.045
309
GRIDFORMAT_END
309
TABLEFORMAT_END
  1
CELLSTYLE_BEGIN
 90
        2
 91
        1
300
_HEADER
309
CELLSTYLE_END
300
CELLSTYLE
  1
TABLEFORMAT_BEGIN
 90
        5
170
     1
 91
        0
 92
        0
 62
   257
 93
        1
300
CONTENTFORMAT
  1
CONTENTFORMAT_BEGIN
 90
        0
 91
        0
 92
        4
 93
        0
300

 40
0.0
140
1.0
 94
        2
 62
     0
340
11
144
0.18
309
CONTENTFORMAT_END
171
     1
301
MARGIN
  1
CELLMARGIN_BEGIN
 40
0.06
 40
0.06
 40
0.06
 40
0.06
 40
0.06
 40
0.06
309
CELLMARGIN_END
 94
        6
 95
        1
302
GRIDFORMAT
  1
GRIDFORMAT_BEGIN
 90
        0
 91
        1
 62
     0
 92
       -2
340
14
 93
        0
 40
0.045
309
GRIDFORMAT_END
 95
        2
302
GRIDFORMAT
  1
GRIDFORMAT_BEGIN
 90
        0
 91
        1
 62
     0
 92
       -2
340
14
 93
        0
 40
0.045
309
GRIDFORMAT_END
 95
        4
302
GRIDFORMAT
  1
GRIDFORMAT_BEGIN
 90
        0
 91
        1
 62
     0
 92
       -2
340
14
 93
        0
 40
0.045
309
GRIDFORMAT_END
 95
        8
302
GRIDFORMAT
  1
GRIDFORMAT_BEGIN
 90
        0
 91
        1
 62
     0
 92
       -2
340
14
 93
        0
 40
0.045
309
GRIDFORMAT_END
 95
       16
302
GRIDFORMAT
  1
GRIDFORMAT_BEGIN
 90
        0
 91
        1
 62
     0
 92
       -2
340
14
 93
        0
 40
0.045
309
GRIDFORMAT_END
 95
       32
302
GRIDFORMAT
  1
GRIDFORMAT_BEGIN
 90
        0
 91
        1
 62
     0
 92
       -2
340
14
 93
        0
 40
0.045
309
GRIDFORMAT_END
309
TABLEFORMAT_END
  1
CELLSTYLE_BEGIN
 90
        3
 91
        2
300
_DATA
309
CELLSTYLE_END
  0
ENDSEC
  0
EOF
