  0
SECTION
  2
HEADER
  9
$ACADVER
  1
AC1027
  9
$ACADMAINTVER
 70
   105
  9
$DWGCODEPAGE
  3
ANSI_1252
  9
$LASTSAVEDBY
  1
Office Desk
  9
$REQUIREDVERSIONS
160
                 0
  9
$INSBASE
 10
0.0
 20
0.0
 30
0.0
  9
$EXTMIN
 10
-1113.2608
 20
-219.9002
 30
0.0
  9
$EXTMAX
 10
-282.6987
 20
277.7073
 30
0.0
  9
$LIMMIN
 10
0.0
 20
0.0
  9
$LIMMAX
 10
12.0
 20
9.0
  9
$ORTHOMODE
 70
     0
  9
$REGENMODE
 70
     1
  9
$FILLMODE
 70
     1
  9
$QTEXTMODE
 70
     0
  9
$MIRRTEXT
 70
     1
  9
$LTSCALE
 40
1.0
  9
$ATTMODE
 70
     1
  9
$TEXTSIZE
 40
0.2
  9
$TRACEWID
 40
0.05
  9
$TEXTSTYLE
  7
Standard
  9
$CLAYER
  8
0
  9
$CELTYPE
  6
ByLayer
  9
$CECOLOR
 62
   256
  9
$CELTSCALE
 40
1.0
  9
$DISPSILH
 70
     0
  9
$DIMSCALE
 40
1.0
  9
$DIMASZ
 40
0.18
  9
$DIMEXO
 40
0.0625
  9
$DIMDLI
 40
0.38
  9
$DIMRND
 40
0.0
  9
$DIMDLE
 40
0.0
  9
$DIMEXE
 40
0.18
  9
$DIMTP
 40
0.0
  9
$DIMTM
 40
0.0
  9
$DIMTXT
 40
0.18
  9
$DIMCEN
 40
0.09
  9
$DIMTSZ
 40
0.0
  9
$DIMTOL
 70
     0
  9
$DIMLIM
 70
     0
  9
$DIMTIH
 70
     1
  9
$DIMTOH
 70
     1
  9
$DIMSE1
 70
     0
  9
$DIMSE2
 70
     0
  9
$DIMTAD
 70
     0
  9
$DIMZIN
 70
     0
  9
$DIMBLK
  1

  9
$DIMASO
 70
     1
  9
$DIMSHO
 70
     1
  9
$DIMPOST
  1

  9
$DIMAPOST
  1

  9
$DIMALT
 70
     0
  9
$DIMALTD
 70
     2
  9
$DIMALTF
 40
25.4
  9
$DIMLFAC
 40
1.0
  9
$DIMTOFL
 70
     0
  9
$DIMTVP
 40
0.0
  9
$DIMTIX
 70
     0
  9
$DIMSOXD
 70
     0
  9
$DIMSAH
 70
     0
  9
$DIMBLK1
  1

  9
$DIMBLK2
  1

  9
$DIMSTYLE
  2
Standard
  9
$DIMCLRD
 70
     0
  9
$DIMCLRE
 70
     0
  9
$DIMCLRT
 70
     0
  9
$DIMTFAC
 40
1.0
  9
$DIMGAP
 40
0.09
  9
$DIMJUST
 70
     0
  9
$DIMSD1
 70
     0
  9
$DIMSD2
 70
     0
  9
$DIMTOLJ
 70
     1
  9
$DIMTZIN
 70
     0
  9
$DIMALTZ
 70
     0
  9
$DIMALTTZ
 70
     0
  9
$DIMUPT
 70
     0
  9
$DIMDEC
 70
     4
  9
$DIMTDEC
 70
     4
  9
$DIMALTU
 70
     2
  9
$DIMALTTD
 70
     2
  9
$DIMTXSTY
  7
Standard
  9
$DIMAUNIT
 70
     0
  9
$DIMADEC
 70
     0
  9
$DIMALTRND
 40
0.0
  9
$DIMAZIN
 70
     0
  9
$DIMDSEP
 70
    46
  9
$DIMATFIT
 70
     3
  9
$DIMFRAC
 70
     0
  9
$DIMLDRBLK
  1

  9
$DIMLUNIT
 70
     2
  9
$DIMLWD
 70
    -2
  9
$DIMLWE
 70
    -2
  9
$DIMTMOVE
 70
     0
  9
$DIMFXL
 40
1.0
  9
$DIMFXLON
 70
     0
  9
$DIMJOGANG
 40
0.7853981633974483
  9
$DIMTFILL
 70
     0
  9
$DIMTFILLCLR
 70
     0
  9
$DIMARCSYM
 70
     0
  9
$DIMLTYPE
  6

  9
$DIMLTEX1
  6

  9
$DIMLTEX2
  6

  9
$DIMTXTDIRECTION
 70
     0
  9
$LUNITS
 70
     2
  9
$LUPREC
 70
     4
  9
$SKETCHINC
 40
0.1
  9
$FILLETRAD
 40
0.0
  9
$AUNITS
 70
     0
  9
$AUPREC
 70
     0
  9
$MENU
  1
.
  9
$ELEVATION
 40
0.0
  9
$PELEVATION
 40
0.0
  9
$THICKNESS
 40
0.0
  9
$LIMCHECK
 70
     0
  9
$CHAMFERA
 40
0.0
  9
$CHAMFERB
 40
0.0
  9
$CHAMFERC
 40
0.0
  9
$CHAMFERD
 40
0.0
  9
$SKPOLY
 70
     0
  9
$TDCREATE
 40
2461013.678422396
  9
$TDUCREATE
 40
2461013.449255729
  9
$TDUPDATE
 40
2461013.678422396
  9
$TDUUPDATE
 40
2461013.449255729
  9
$TDINDWG
 40
0.0000000116
  9
$TDUSRTIMER
 40
0.0000000116
  9
$USRTIMER
 70
     1
  9
$ANGBASE
 50
0.0
  9
$ANGDIR
 70
     0
  9
$PDMODE
 70
     0
  9
$PDSIZE
 40
0.0
  9
$PLINEWID
 40
0.0
  9
$SPLFRAME
 70
     0
  9
$SPLINETYPE
 70
     6
  9
$SPLINESEGS
 70
     8
  9
$HANDSEED
  5
94
  9
$SURFTAB1
 70
     6
  9
$SURFTAB2
 70
     6
  9
$SURFTYPE
 70
     6
  9
$SURFU
 70
     6
  9
$SURFV
 70
     6
  9
$UCSBASE
  2

  9
$UCSNAME
  2

  9
$UCSORG
 10
0.0
 20
0.0
 30
0.0
  9
$UCSXDIR
 10
1.0
 20
0.0
 30
0.0
  9
$UCSYDIR
 10
0.0
 20
1.0
 30
0.0
  9
$UCSORTHOREF
  2

  9
$UCSORTHOVIEW
 70
     0
  9
$UCSORGTOP
 10
0.0
 20
0.0
 30
0.0
  9
$UCSORGBOTTOM
 10
0.0
 20
0.0
 30
0.0
  9
$UCSORGLEFT
 10
0.0
 20
0.0
 30
0.0
  9
$UCSORGRIGHT
 10
0.0
 20
0.0
 30
0.0
  9
$UCSORGFRONT
 10
0.0
 20
0.0
 30
0.0
  9
$UCSORGBACK
 10
0.0
 20
0.0
 30
0.0
  9
$PUCSBASE
  2

  9
$PUCSNAME
  2

  9
$PUCSORG
 10
0.0
 20
0.0
 30
0.0
  9
$PUCSXDIR
 10
1.0
 20
0.0
 30
0.0
  9
$PUCSYDIR
 10
0.0
 20
1.0
 30
0.0
  9
$PUCSORTHOREF
  2

  9
$PUCSORTHOVIEW
 70
     0
  9
$PUCSORGTOP
 10
0.0
 20
0.0
 30
0.0
  9
$PUCSORGBOTTOM
 10
0.0
 20
0.0
 30
0.0
  9
$PUCSORGLEFT
 10
0.0
 20
0.0
 30
0.0
  9
$PUCSORGRIGHT
 10
0.0
 20
0.0
 30
0.0
  9
$PUCSORGFRONT
 10
0.0
 20
0.0
 30
0.0
  9
$PUCSORGBACK
 10
0.0
 20
0.0
 30
0.0
  9
$USERI1
 70
     0
  9
$USERI2
 70
     0
  9
$USERI3
 70
     0
  9
$USERI4
 70
     0
  9
$USERI5
 70
     0
  9
$USERR1
 40
0.0
  9
$USERR2
 40
0.0
  9
$USERR3
 40
0.0
  9
$USERR4
 40
0.0
  9
$USERR5
 40
0.0
  9
$WORLDVIEW
 70
     1
  9
$SHADEDGE
 70
     3
  9
$SHADEDIF
 70
    70
  9
$TILEMODE
 70
     1
  9
$MAXACTVP
 70
    64
  9
$PINSBASE
 10
0.0
 20
0.0
 30
0.0
  9
$PLIMCHECK
 70
     0
  9
$PEXTMIN
 10
1.000000000000000E+20
 20
1.000000000000000E+20
 30
1.000000000000000E+20
  9
$PEXTMAX
 10
-1.000000000000000E+20
 20
-1.000000000000000E+20
 30
-1.000000000000000E+20
  9
$PLIMMIN
 10
0.0
 20
0.0
  9
$PLIMMAX
 10
12.0
 20
9.0
  9
$UNITMODE
 70
     0
  9
$VISRETAIN
 70
     1
  9
$PLINEGEN
 70
     0
  9
$PSLTSCALE
 70
     1
  9
$TREEDEPTH
 70
  3020
  9
$CMLSTYLE
  2
Standard
  9
$CMLJUST
 70
     0
  9
$CMLSCALE
 40
1.0
  9
$PROXYGRAPHICS
 70
     1
  9
$MEASUREMENT
 70
     0
  9
$CELWEIGHT
370
    -1
  9
$ENDCAPS
280
     0
  9
$JOINSTYLE
280
     0
  9
$LWDISPLAY
290
     0
  9
$INSUNITS
 70
     4
  9
$HYPERLINKBASE
  1

  9
$STYLESHEET
  1

  9
$XEDIT
290
     1
  9
$CEPSNTYPE
380
     0
  9
$PSTYLEMODE
290
     1
  9
$FINGERPRINTGUID
  2
{ec9567d7-3451-4f95-9733-9124033a5394}
  9
$VERSIONGUID
  2
{FAEB1C32-E019-11D5-929B-00C0DF256EC4}
  9
$EXTNAMES
290
     1
  9
$PSVPSCALE
 40
0.0
  9
$OLESTARTUP
290
     0
  9
$SORTENTS
280
   127
  9
$INDEXCTL
280
     0
  9
$HIDETEXT
280
     1
  9
$XCLIPFRAME
280
     2
  9
$HALOGAP
280
     0
  9
$OBSCOLOR
 70
   257
  9
$OBSLTYPE
280
     0
  9
$INTERSECTIONDISPLAY
280
     0
  9
$INTERSECTIONCOLOR
 70
   257
  9
$DIMASSOC
280
     2
  9
$PROJECTNAME
  1

  9
$CAMERADISPLAY
290
     0
  9
$LENSLENGTH
 40
50.0
  9
$CAMERAHEIGHT
 40
0.0
  9
$STEPSPERSEC
 40
2.0
  9
$STEPSIZE
 40
6.0
  9
$3DDWFPREC
 40
2.0
  9
$PSOLWIDTH
 40
0.25
  9
$PSOLHEIGHT
 40
4.0
  9
$LOFTANG1
 40
1.570796326794897
  9
$LOFTANG2
 40
1.570796326794897
  9
$LOFTMAG1
 40
0.0
  9
$LOFTMAG2
 40
0.0
  9
$LOFTPARAM
 70
     7
  9
$LOFTNORMALS
280
     1
  9
$LATITUDE
 40
37.795
  9
$LONGITUDE
 40
-122.394
  9
$NORTHDIRECTION
 40
0.0
  9
$TIMEZONE
 70
 -8000
  9
$LIGHTGLYPHDISPLAY
280
     1
  9
$TILEMODELIGHTSYNCH
280
     1
  9
$CMATERIAL
347
44
  9
$SOLIDHIST
280
     0
  9
$SHOWHIST
280
     1
  9
$DWFFRAME
280
     2
  9
$DGNFRAME
280
     2
  9
$REALWORLDSCALE
290
     1
  9
$INTERFERECOLOR
 62
   256
  9
$CSHADOW
280
     0
  9
$SHADOWPLANELOCATION
 40
0.0
  0
ENDSEC
  0
SECTION
  2
CLASSES
  0
CLASS
  1
ACDBDICTIONARYWDFLT
  2
AcDbDictionaryWithDefault
  3
ObjectDBX Classes
 90
        0
 91
        3
280
     0
281
     0
  0
CLASS
  1
VISUALSTYLE
  2
AcDbVisualStyle
  3
ObjectDBX Classes
 90
     4095
 91
        3
280
     0
281
     0
  0
CLASS
  1
MATERIAL
  2
AcDbMaterial
  3
ObjectDBX Classes
 90
     1153
 91
        3
280
     0
281
     0
  0
CLASS
  1
SCALE
  2
AcDbScale
  3
ObjectDBX Classes
 90
     1153
 91
        3
280
     0
281
     0
  0
CLASS
  1
TABLESTYLE
  2
AcDbTableStyle
  3
ObjectDBX Classes
 90
     4095
 91
        3
280
     0
281
     0
  0
CLASS
  1
MLEADERSTYLE
  2
AcDbMLeaderStyle
  3
ACDB_MLEADERSTYLE_CLASS
 90
     4095
 91
        3
280
     0
281
     0
  0
CLASS
  1
SUN
  2
AcDbSun
  3
SCENEOE
 90
     1153
 91
        3
280
     0
281
     0
  0
CLASS
  1
DICTIONARYVAR
  2
AcDbDictionaryVar
  3
ObjectDBX Classes
 90
        0
 91
        3
280
     0
281
     0
  0
CLASS
  1
CELLSTYLEMAP
  2
AcDbCellStyleMap
  3
ObjectDBX Classes
 90
     1152
 91
        3
280
     0
281
     0
  0
ENDSEC
  0
SECTION
  2
TABLES
  0
TABLE
  2
VPORT
  5
8
330
0
100
AcDbSymbolTable
 70
     1
  0
VPORT
  5
29
330
8
100
AcDbSymbolTableRecord
100
AcDbViewportTableRecord
  2
*Active
 70
     0
 10
0.0
 20
0.0
 11
1.0
 21
1.0
 12
10.42990654205607
 22
4.5
 13
0.0
 23
0.0
 14
0.5
 24
0.5
 15
0.5
 25
0.5
 16
0.0
 26
0.0
 36
1.0
 17
0.0
 27
0.0
 37
0.0
 40
9.0
 41
1.972972972850329
 42
50.0
 43
0.0
 44
0.0
 50
0.0
 51
0.0
 71
     0
 72
   100
 73
     1
 74
     3
 75
     0
 76
     0
 77
     0
 78
     0
281
     0
 65
     1
110
0.0
120
0.0
130
0.0
111
1.0
121
0.0
131
0.0
112
0.0
122
1.0
132
0.0
 79
     0
146
0.0
348
2F
 60
     3
 61
     5
292
     1
282
     1
141
0.0
142
0.0
 63
   250
361
5D
  0
ENDTAB
  0
TABLE
  2
LTYPE
  5
5
330
0
100
AcDbSymbolTable
 70
     1
  0
LTYPE
  5
14
330
5
100
AcDbSymbolTableRecord
100
AcDbLinetypeTableRecord
  2
ByBlock
 70
     0
  3

 72
    65
 73
     0
 40
0.0
  0
LTYPE
  5
15
330
5
100
AcDbSymbolTableRecord
100
AcDbLinetypeTableRecord
  2
ByLayer
 70
     0
  3

 72
    65
 73
     0
 40
0.0
  0
LTYPE
  5
16
330
5
100
AcDbSymbolTableRecord
100
AcDbLinetypeTableRecord
  2
Continuous
 70
     0
  3
Solid line
 72
    65
 73
     0
 40
0.0
  0
ENDTAB
  0
TABLE
  2
LAYER
  5
2
330
0
100
AcDbSymbolTable
 70
     2
  0
LAYER
  5
10
330
2
100
AcDbSymbolTableRecord
100
AcDbLayerTableRecord
  2
0
 70
     0
 62
     7
  6
Continuous
370
    -3
390
F
347
46
348
0
  0
LAYER
  5
5F
330
2
100
AcDbSymbolTableRecord
100
AcDbLayerTableRecord
  2
Layer 1
 70
     0
 62
     7
  6
Continuous
370
    -3
390
F
347
46
348
0
  0
ENDTAB
  0
TABLE
  2
STYLE
  5
3
330
0
100
AcDbSymbolTable
 70
     1
  0
STYLE
  5
11
330
3
100
AcDbSymbolTableRecord
100
AcDbTextStyleTableRecord
  2
Standard
 70
     0
 40
0.0
 41
1.0
 50
0.0
 71
     0
 42
0.2
  3
txt
  4

  0
ENDTAB
  0
TABLE
  2
VIEW
  5
6
330
0
100
AcDbSymbolTable
 70
     0
  0
ENDTAB
  0
TABLE
  2
UCS
  5
7
330
0
100
AcDbSymbolTable
 70
     0
  0
ENDTAB
  0
TABLE
  2
APPID
  5
9
330
0
100
AcDbSymbolTable
 70
     2
  0
APPID
  5
12
330
9
100
AcDbSymbolTableRecord
100
AcDbRegAppTableRecord
  2
ACAD
 70
     0
  0
APPID
  5
5E
330
9
100
AcDbSymbolTableRecord
100
AcDbRegAppTableRecord
  2
ODA
 70
     0
  0
ENDTAB
  0
TABLE
  2
DIMSTYLE
  5
A
330
0
100
AcDbSymbolTable
 70
     1
100
AcDbDimStyleTable
  0
DIMSTYLE
105
27
330
A
100
AcDbSymbolTableRecord
100
AcDbDimStyleTableRecord
  2
Standard
 70
     0
178
     0
340
11
  0
ENDTAB
  0
TABLE
  2
BLOCK_RECORD
  5
1
330
0
100
AcDbSymbolTable
 70
     1
  0
BLOCK_RECORD
  5
1F
330
1
100
AcDbSymbolTableRecord
100
AcDbBlockTableRecord
  2
*Model_Space
340
22
 70
     0
280
     1
281
     0
  0
BLOCK_RECORD
  5
1B
330
1
100
AcDbSymbolTableRecord
100
AcDbBlockTableRecord
  2
*Paper_Space
340
1E
 70
     0
280
     1
281
     0
  0
BLOCK_RECORD
  5
23
330
1
100
AcDbSymbolTableRecord
100
AcDbBlockTableRecord
  2
*Paper_Space0
340
26
 70
     0
280
     1
281
     0
  0
ENDTAB
  0
ENDSEC
  0
SECTION
  2
BLOCKS
  0
BLOCK
  5
20
330
1F
100
AcDbEntity
  8
0
100
AcDbBlockBegin
  2
*Model_Space
 70
     0
 10
0.0
 20
0.0
 30
0.0
  3
*Model_Space
  1

  0
ENDBLK
  5
21
330
1F
100
AcDbEntity
  8
0
100
AcDbBlockEnd
  0
BLOCK
  5
1C
330
1B
100
AcDbEntity
 67
     1
  8
0
100
AcDbBlockBegin
  2
*Paper_Space
 70
     0
 10
0.0
 20
0.0
 30
0.0
  3
*Paper_Space
  1

  0
ENDBLK
  5
1D
330
1B
100
AcDbEntity
 67
     1
  8
0
100
AcDbBlockEnd
  0
BLOCK
  5
24
330
23
100
AcDbEntity
  8
0
100
AcDbBlockBegin
  2
*Paper_Space0
 70
     0
 10
0.0
 20
0.0
 30
0.0
  3
*Paper_Space0
  1

  0
ENDBLK
  5
25
330
23
100
AcDbEntity
  8
0
100
AcDbBlockEnd
  0
ENDSEC
  0
SECTION
  2
ENTITIES
  0
LWPOLYLINE
  5
60
330
1F
100
AcDbEntity
  8
Layer 1
 62
   250
370
    18
100
AcDbPolyline
 90
        5
 70
     1
 43
0.0
 10
-1113.1726
 20
-219.8119
 10
-282.787
 20
-219.8119
 10
-282.787
 20
277.6191
 10
-1113.1726
 20
277.6191
 10
-1113.1726
 20
-219.8119
  0
LWPOLYLINE
  5
61
330
1F
100
AcDbEntity
  8
Layer 1
 62
     7
370
    40
100
AcDbPolyline
 90
       58
 70
     1
 43
0.0
 10
-862.0866
 20
37.7799
 10
-860.8139
 20
35.7471
 10
-859.6949
 20
33.7403
 10
-858.7346
 20
31.662
 10
-857.9379
 20
29.4144
 10
-857.3097
 20
26.8999
 10
-856.8548
 20
24.0209
 10
-856.5784
 20
20.6799
 10
-856.4851
 20
16.779
 10
-857.0108
 20
11.7664
 10
-858.537
 20
6.4998
 10
-860.9875
 20
1.1254
 10
-864.286
 20
-4.2106
 10
-868.3564
 20
-9.362
 10
-873.1224
 20
-14.1826
 10
-878.5077
 20
-18.5263
 10
-884.4361
 20
-22.2467
 10
-893.0236
 20
-23.7511
 10
-901.6111
 20
-24.8121
 10
-910.1987
 20
-25.4365
 10
-918.7863
 20
-25.631
 10
-927.3739
 20
-25.4026
 10
-935.9615
 20
-24.7579
 10
-944.549
 20
-23.7036
 10
-953.1365
 20
-22.2467
 10
-959.0093
 20
-18.5263
 10
-964.2475
 20
-14.1826
 10
-968.8052
 20
-9.362
 10
-972.6368
 20
-4.2106
 10
-975.6965
 20
1.1254
 10
-977.9387
 20
6.4998
 10
-979.3175
 20
11.7664
 10
-979.7873
 20
16.779
 10
-979.694
 20
20.6799
 10
-979.4176
 20
24.0209
 10
-978.9628
 20
26.8999
 10
-978.3347
 20
29.4144
 10
-977.5381
 20
31.662
 10
-976.578
 20
33.7403
 10
-975.4593
 20
35.7471
 10
-974.187
 20
37.7799
 10
-973.7556
 20
38.3656
 10
-973.2701
 20
38.8805
 10
-972.7344
 20
39.3221
 10
-972.1526
 20
39.6885
 10
-971.5287
 20
39.9772
 10
-970.8668
 20
40.1862
 10
-970.171
 20
40.3133
 10
-969.4452
 20
40.3561
 10
-866.8275
 20
40.3561
 10
-866.1014
 20
40.3133
 10
-865.4054
 20
40.1862
 10
-864.7435
 20
39.9772
 10
-864.1197
 20
39.6885
 10
-863.5381
 20
39.3221
 10
-863.0027
 20
38.8805
 10
-862.5175
 20
38.3656
 10
-862.0866
 20
37.7799
  0
LWPOLYLINE
  5
62
330
1F
100
AcDbEntity
  8
Layer 1
 62
     7
370
    40
100
AcDbPolyline
 90
        2
 70
     0
 43
0.0
 10
-993.8926
 20
40.3454
 10
-1009.0755
 20
40.3454
  0
LWPOLYLINE
  5
63
330
1F
100
AcDbEntity
  8
Layer 1
 62
     7
370
    40
100
AcDbPolyline
 90
        2
 70
     0
 43
0.0
 10
-993.8926
 20
-25.639
 10
-1009.0755
 20
-25.639
  0
LWPOLYLINE
  5
64
330
1F
100
AcDbEntity
  8
Layer 1
 62
     7
370
    40
100
AcDbPolyline
 90
        2
 70
     0
 43
0.0
 10
-1000.7347
 20
7.6895
 10
-1000.7347
 20
40.3454
  0
LWPOLYLINE
  5
65
330
1F
100
AcDbEntity
  8
Layer 1
 62
     7
370
    40
100
AcDbPolyline
 90
        2
 70
     0
 43
0.0
 10
-1000.7347
 20
-25.639
 10
-1000.7347
 20
7.6895
  0
LWPOLYLINE
  5
66
330
1F
100
AcDbEntity
  8
Layer 1
 62
     7
370
    18
100
AcDbPolyline
 90
        8
 70
     1
 43
0.0
 10
-1008.2003
 20
0.0974
 10
-1016.0626
 20
0.0974
 10
-1015.6634
 20
0.4728
 10
-1015.6634
 20
-1.8389
 10
-1016.4148
 20
-1.8389
 10
-1016.4148
 20
0.942
 10
-1008.2003
 20
0.942
 10
-1008.2003
 20
0.0974
  0
LWPOLYLINE
  5
67
330
1F
100
AcDbEntity
  8
Layer 1
 62
     7
370
    18
100
AcDbPolyline
 90
      162
 70
     1
 43
0.0
 10
-1008.1301
 20
6.2692
 10
-1008.1377
 20
6.0016
 10
-1008.1605
 20
5.7447
 10
-1008.1985
 20
5.4985
 10
-1008.2517
 20
5.2629
 10
-1008.3202
 20
5.038
 10
-1008.4039
 20
4.8237
 10
-1008.5028
 20
4.62
 10
-1008.6169
 20
4.427
 10
-1008.7454
 20
4.2449
 10
-1008.8875
 20
4.0742
 10
-1009.0432
 20
3.9148
 10
-1009.2124
 20
3.7668
 10
-1009.3952
 20
3.6302
 10
-1009.5916
 20
3.505
 10
-1009.8016
 20
3.3912
 10
-1010.0252
 20
3.2887
 10
-1010.2612
 20
3.1979
 10
-1010.5088
 20
3.1193
 10
-1010.7679
 20
3.0527
 10
-1011.0386
 20
2.9983
 10
-1011.3208
 20
2.9559
 10
-1011.6146
 20
2.9257
 10
-1011.92
 20
2.9075
 10
-1012.2369
 20
2.9015
 10
-1012.5791
 20
2.9089
 10
-1012.9071
 20
2.9312
 10
-1013.2209
 20
2.9683
 10
-1013.5206
 20
3.0203
 10
-1013.8062
 20
3.0872
 10
-1014.0777
 20
3.1689
 10
-1014.335
 20
3.2655
 10
-1014.5783
 20
3.3769
 10
-1014.8071
 20
3.5014
 10
-1015.0215
 20
3.6375
 10
-1015.2215
 20
3.7852
 10
-1015.4069
 20
3.9444
 10
-1015.5779
 20
4.1152
 10
-1015.7345
 20
4.2975
 10
-1015.8765
 20
4.4914
 10
-1016.0041
 20
4.6969
 10
-1016.1168
 20
4.9123
 10
-1016.2146
 20
5.1361
 10
-1016.2972
 20
5.3683
 10
-1016.3649
 20
5.6091
 10
-1016.4175
 20
5.8582
 10
-1016.455
 20
6.1159
 10
-1016.4776
 20
6.3819
 10
-1016.4851
 20
6.6564
 10
-1016.4785
 20
6.9292
 10
-1016.4587
 20
7.1961
 10
-1016.4257
 20
7.4572
 10
-1016.3796
 20
7.7124
 10
-1016.3188
 20
7.9573
 10
-1016.2418
 20
8.1876
 10
-1016.1972
 20
8.2972
 10
-1016.1486
 20
8.4032
 10
-1016.096
 20
8.5055
 10
-1016.0394
 20
8.6041
 10
-1015.3585
 20
8.2639
 10
-1015.4564
 20
8.0995
 10
-1015.5389
 20
7.9235
 10
-1015.6059
 20
7.7358
 10
-1015.6575
 20
7.5363
 10
-1015.6961
 20
7.3281
 10
-1015.7238
 20
7.1139
 10
-1015.7404
 20
6.8939
 10
-1015.746
 20
6.6681
 10
-1015.7328
 20
6.345
 10
-1015.6931
 20
6.0385
 10
-1015.6271
 20
5.7488
 10
-1015.5346
 20
5.4757
 10
-1015.4157
 20
5.2193
 10
-1015.2705
 20
4.9796
 10
-1015.0988
 20
4.7565
 10
-1014.9008
 20
4.5502
 10
-1014.6765
 20
4.3646
 10
-1014.4263
 20
4.2037
 10
-1014.1499
 20
4.0676
 10
-1013.8476
 20
3.9562
 10
-1013.5192
 20
3.8696
 10
-1013.1647
 20
3.8077
 10
-1012.7842
 20
3.7706
 10
-1012.3777
 20
3.7582
 10
-1011.7383
 20
3.7876
 10
-1011.5481
 20
3.807
 10
-1011.3585
 20
3.8359
 10
-1011.1697
 20
3.8744
 10
-1010.9815
 20
3.9225
 10
-1011.2044
 20
3.6291
 10
-1011.3541
 20
3.6652
 10
-1011.498
 20
3.709
 10
-1011.6364
 20
3.7605
 10
-1011.769
 20
3.8197
 10
-1011.896
 20
3.8866
 10
-1012.0173
 20
3.9612
 10
-1012.1329
 20
4.0436
 10
-1012.2427
 20
4.1336
 10
-1012.3466
 20
4.2304
 10
-1012.4441
 20
4.3331
 10
-1012.5352
 20
4.4417
 10
-1012.6199
 20
4.5561
 10
-1012.6981
 20
4.6763
 10
-1012.7699
 20
4.8025
 10
-1012.8353
 20
4.9345
 10
-1012.8942
 20
5.0723
 10
-1012.9465
 20
5.2147
 10
-1012.9919
 20
5.3605
 10
-1013.0303
 20
5.5095
 10
-1013.0616
 20
5.6619
 10
-1013.086
 20
5.8176
 10
-1013.1035
 20
5.9766
 10
-1013.1139
 20
6.1389
 10
-1013.1174
 20
6.3045
 10
-1013.1126
 20
6.5067
 10
-1013.0983
 20
6.7026
 10
-1013.0745
 20
6.8924
 10
-1013.0411
 20
7.0759
 10
-1012.9982
 20
7.2531
 10
-1012.9457
 20
7.4242
 10
-1012.8837
 20
7.5891
 10
-1012.8122
 20
7.7477
 10
-1012.732
 20
7.8989
 10
-1012.6441
 20
8.0417
 10
-1012.5485
 20
8.176
 10
-1012.4453
 20
8.302
 10
-1012.3343
 20
8.4195
 10
-1012.2157
 20
8.5286
 10
-1012.0894
 20
8.6292
 10
-1011.9555
 20
8.7214
 10
-1011.8145
 20
8.8039
 10
-1011.6673
 20
8.8754
 10
-1011.5138
 20
8.9359
 10
-1011.3541
 20
8.9855
 10
-1011.1881
 20
9.024
 10
-1011.0159
 20
9.0516
 10
-1010.8375
 20
9.0681
 10
-1010.6528
 20
9.0736
 10
-1010.4652
 20
9.0679
 10
-1010.2837
 20
9.0508
 10
-1010.1081
 20
9.0224
 10
-1009.9386
 20
8.9826
 10
-1009.7752
 20
8.9314
 10
-1009.6177
 20
8.8688
 10
-1009.4663
 20
8.7949
 10
-1009.321
 20
8.7096
 10
-1009.1828
 20
8.6144
 10
-1009.0526
 20
8.5106
 10
-1008.9305
 20
8.3981
 10
-1008.8164
 20
8.277
 10
-1008.7104
 20
8.1473
 10
-1008.6125
 20
8.009
 10
-1008.5226
 20
7.862
 10
-1008.4408
 20
7.7065
 10
-1008.3679
 20
7.5441
 10
-1008.3048
 20
7.3768
 10
-1008.2514
 20
7.2045
 10
-1008.2077
 20
7.0273
 10
-1008.1737
 20
6.8452
 10
-1008.1495
 20
6.6581
 10
-1008.1349
 20
6.4661
 10
-1008.1301
 20
6.2692
  0
LWPOLYLINE
  5
68
330
1F
100
AcDbEntity
  8
Layer 1
 62
     7
370
    18
100
AcDbPolyline
 90
       89
 70
     1
 43
0.0
 10
-1008.8456
 20
6.2339
 10
-1008.849
 20
6.3785
 10
-1008.8592
 20
6.5188
 10
-1008.8762
 20
6.655
 10
-1008.8999
 20
6.7869
 10
-1008.9304
 20
6.9145
 10
-1008.9677
 20
7.038
 10
-1009.0118
 20
7.1572
 10
-1009.0626
 20
7.2723
 10
-1009.1198
 20
7.3822
 10
-1009.1829
 20
7.4861
 10
-1009.2519
 20
7.5839
 10
-1009.3268
 20
7.6757
 10
-1009.4075
 20
7.7614
 10
-1009.4941
 20
7.8411
 10
-1009.5866
 20
7.9147
 10
-1009.685
 20
7.9823
 10
-1009.7883
 20
8.0428
 10
-1009.8958
 20
8.0952
 10
-1010.0076
 20
8.1396
 10
-1010.1236
 20
8.1759
 10
-1010.2437
 20
8.2041
 10
-1010.3681
 20
8.2243
 10
-1010.4968
 20
8.2364
 10
-1010.6296
 20
8.2404
 10
-1010.8268
 20
8.2317
 10
-1011.0138
 20
8.2056
 10
-1011.1905
 20
8.162
 10
-1011.357
 20
8.1011
 10
-1011.5132
 20
8.0227
 10
-1011.6592
 20
7.9269
 10
-1011.7948
 20
7.8137
 10
-1011.9202
 20
7.683
 10
-1012.0329
 20
7.5376
 10
-1012.1307
 20
7.3798
 10
-1012.2133
 20
7.2098
 10
-1012.281
 20
7.0275
 10
-1012.3336
 20
6.8329
 10
-1012.3711
 20
6.626
 10
-1012.3937
 20
6.4068
 10
-1012.4012
 20
6.1754
 10
-1012.3975
 20
6.0195
 10
-1012.3865
 20
5.8688
 10
-1012.3682
 20
5.7232
 10
-1012.3425
 20
5.5828
 10
-1012.3095
 20
5.4474
 10
-1012.2692
 20
5.3173
 10
-1012.2216
 20
5.1922
 10
-1012.1666
 20
5.0723
 10
-1012.1052
 20
4.9581
 10
-1012.0386
 20
4.8501
 10
-1011.9666
 20
4.7483
 10
-1011.8894
 20
4.6528
 10
-1011.8068
 20
4.5636
 10
-1011.7189
 20
4.4805
 10
-1011.6257
 20
4.4037
 10
-1011.5272
 20
4.3332
 10
-1011.4242
 20
4.2699
 10
-1011.3178
 20
4.215
 10
-1011.2079
 20
4.1687
 10
-1011.0945
 20
4.1307
 10
-1010.9776
 20
4.1012
 10
-1010.8573
 20
4.0801
 10
-1010.7334
 20
4.0675
 10
-1010.6061
 20
4.0633
 10
-1010.4952
 20
4.0671
 10
-1010.3857
 20
4.0787
 10
-1010.2774
 20
4.0979
 10
-1010.1704
 20
4.1249
 10
-1010.0647
 20
4.1595
 10
-1009.9603
 20
4.2019
 10
-1009.8572
 20
4.2519
 10
-1009.7553
 20
4.3097
 10
-1009.6564
 20
4.375
 10
-1009.5623
 20
4.4478
 10
-1009.473
 20
4.5282
 10
-1009.3884
 20
4.6161
 10
-1009.3087
 20
4.7115
 10
-1009.2337
 20
4.8145
 10
-1009.1634
 20
4.9249
 10
-1009.0979
 20
5.0429
 10
-1009.0388
 20
5.1681
 10
-1008.9876
 20
5.3
 10
-1008.9442
 20
5.4387
 10
-1008.9087
 20
5.5842
 10
-1008.8811
 20
5.7365
 10
-1008.8614
 20
5.8955
 10
-1008.8495
 20
6.0613
 10
-1008.8456
 20
6.2339
  0
LWPOLYLINE
  5
69
330
1F
100
AcDbEntity
  8
Layer 1
 62
     7
370
    18
100
AcDbPolyline
 90
       97
 70
     1
 43
0.0
 10
-1008.1301
 20
13.3212
 10
-1008.1379
 20
13.0868
 10
-1008.1613
 20
12.8591
 10
-1008.2002
 20
12.6379
 10
-1008.2548
 20
12.4234
 10
-1008.3249
 20
12.2155
 10
-1008.4106
 20
12.0142
 10
-1008.5118
 20
11.8195
 10
-1008.6287
 20
11.6313
 10
-1008.7601
 20
11.4515
 10
-1008.9052
 20
11.2816
 10
-1009.0637
 20
11.1215
 10
-1009.2359
 20
10.9714
 10
-1009.4217
 20
10.8311
 10
-1009.621
 20
10.7008
 10
-1009.8339
 20
10.5803
 10
-1010.0604
 20
10.4697
 10
-1010.2995
 20
10.3707
 10
-1010.5506
 20
10.2849
 10
-1010.8136
 20
10.2123
 10
-1011.0885
 20
10.1529
 10
-1011.3753
 20
10.1067
 10
-1011.6741
 20
10.0737
 10
-1011.9848
 20
10.0539
 10
-1012.3074
 20
10.0473
 10
-1012.6301
 20
10.0539
 10
-1012.9409
 20
10.0737
 10
-1013.2397
 20
10.1067
 10
-1013.5266
 20
10.1529
 10
-1013.8015
 20
10.2123
 10
-1014.0645
 20
10.2849
 10
-1014.3156
 20
10.3707
 10
-1014.5547
 20
10.4697
 10
-1014.7811
 20
10.5803
 10
-1014.994
 20
10.7008
 10
-1015.1933
 20
10.8311
 10
-1015.379
 20
10.9714
 10
-1015.5512
 20
11.1215
 10
-1015.7099
 20
11.2816
 10
-1015.855
 20
11.4515
 10
-1015.9865
 20
11.6313
 10
-1016.1034
 20
11.8195
 10
-1016.2046
 20
12.0142
 10
-1016.2903
 20
12.2155
 10
-1016.3605
 20
12.4234
 10
-1016.415
 20
12.6379
 10
-1016.4539
 20
12.8591
 10
-1016.4773
 20
13.0868
 10
-1016.4851
 20
13.3212
 10
-1016.4773
 20
13.5555
 10
-1016.4539
 20
13.7831
 10
-1016.415
 20
14.0042
 10
-1016.3605
 20
14.2187
 10
-1016.2903
 20
14.4265
 10
-1016.2046
 20
14.6279
 10
-1016.1034
 20
14.8226
 10
-1015.9865
 20
15.0108
 10
-1015.855
 20
15.1907
 10
-1015.7099
 20
15.3609
 10
-1015.5512
 20
15.5214
 10
-1015.379
 20
15.6721
 10
-1015.1933
 20
15.8132
 10
-1014.994
 20
15.9446
 10
-1014.7811
 20
16.0662
 10
-1014.5547
 20
16.1782
 10
-1014.3156
 20
16.2785
 10
-1014.0645
 20
16.3655
 10
-1013.8015
 20
16.4392
 10
-1013.5266
 20
16.4994
 10
-1013.2397
 20
16.5463
 10
-1012.9409
 20
16.5798
 10
-1012.6301
 20
16.5999
 10
-1012.3074
 20
16.6066
 10
-1011.9848
 20
16.5999
 10
-1011.6741
 20
16.5798
 10
-1011.3753
 20
16.5463
 10
-1011.0885
 20
16.4994
 10
-1010.8136
 20
16.4392
 10
-1010.5506
 20
16.3655
 10
-1010.2995
 20
16.2785
 10
-1010.0604
 20
16.1782
 10
-1009.8339
 20
16.0662
 10
-1009.621
 20
15.9446
 10
-1009.4217
 20
15.8132
 10
-1009.2359
 20
15.6721
 10
-1009.0637
 20
15.5214
 10
-1008.9052
 20
15.3609
 10
-1008.7601
 20
15.1907
 10
-1008.6287
 20
15.0108
 10
-1008.5118
 20
14.8226
 10
-1008.4106
 20
14.6279
 10
-1008.3249
 20
14.4265
 10
-1008.2548
 20
14.2187
 10
-1008.2002
 20
14.0042
 10
-1008.1613
 20
13.7831
 10
-1008.1379
 20
13.5555
 10
-1008.1301
 20
13.3212
  0
LWPOLYLINE
  5
6A
330
1F
100
AcDbEntity
  8
Layer 1
 62
     7
370
    18
100
AcDbPolyline
 90
       97
 70
     1
 43
0.0
 10
-1008.9044
 20
13.3212
 10
-1008.9105
 20
13.5001
 10
-1008.929
 20
13.6732
 10
-1008.9597
 20
13.8403
 10
-1009.0027
 20
14.0016
 10
-1009.0579
 20
14.1571
 10
-1009.1255
 20
14.3066
 10
-1009.2054
 20
14.4504
 10
-1009.2975
 20
14.5883
 10
-1009.4015
 20
14.7196
 10
-1009.5169
 20
14.8435
 10
-1009.6436
 20
14.9601
 10
-1009.7817
 20
15.0694
 10
-1009.9311
 20
15.1713
 10
-1010.0919
 20
15.2659
 10
-1010.2641
 20
15.3532
 10
-1010.4476
 20
15.4332
 10
-1010.6422
 20
15.5047
 10
-1010.8476
 20
15.5667
 10
-1011.0639
 20
15.6191
 10
-1011.291
 20
15.6619
 10
-1011.5288
 20
15.6953
 10
-1011.7775
 20
15.7191
 10
-1012.0371
 20
15.7333
 10
-1012.3074
 20
15.7381
 10
-1012.5779
 20
15.7333
 10
-1012.8375
 20
15.7191
 10
-1013.0863
 20
15.6953
 10
-1013.3242
 20
15.6619
 10
-1013.5513
 20
15.6191
 10
-1013.7675
 20
15.5667
 10
-1013.9729
 20
15.5047
 10
-1014.1675
 20
15.4332
 10
-1014.351
 20
15.3532
 10
-1014.5231
 20
15.2659
 10
-1014.6839
 20
15.1713
 10
-1014.8333
 20
15.0694
 10
-1014.9713
 20
14.9601
 10
-1015.098
 20
14.8435
 10
-1015.2133
 20
14.7196
 10
-1015.3173
 20
14.5883
 10
-1015.4095
 20
14.4504
 10
-1015.4893
 20
14.3066
 10
-1015.5569
 20
14.1571
 10
-1015.6122
 20
14.0016
 10
-1015.6552
 20
13.8403
 10
-1015.6859
 20
13.6732
 10
-1015.7043
 20
13.5001
 10
-1015.7104
 20
13.3212
 10
-1015.7043
 20
13.1475
 10
-1015.6859
 20
12.9786
 10
-1015.6552
 20
12.8145
 10
-1015.6122
 20
12.6552
 10
-1015.5569
 20
12.5006
 10
-1015.4893
 20
12.3508
 10
-1015.4095
 20
12.2058
 10
-1015.3173
 20
12.0655
 10
-1015.2133
 20
11.9315
 10
-1015.098
 20
11.8052
 10
-1014.9713
 20
11.6866
 10
-1014.8333
 20
11.5757
 10
-1014.6839
 20
11.4725
 10
-1014.5231
 20
11.377
 10
-1014.351
 20
11.2892
 10
-1014.1675
 20
11.2091
 10
-1013.9729
 20
11.1375
 10
-1013.7675
 20
11.0755
 10
-1013.5513
 20
11.0231
 10
-1013.3242
 20
10.9802
 10
-1013.0863
 20
10.9469
 10
-1012.8375
 20
10.923
 10
-1012.5779
 20
10.9088
 10
-1012.3074
 20
10.904
 10
-1012.0371
 20
10.9088
 10
-1011.7775
 20
10.923
 10
-1011.5288
 20
10.9469
 10
-1011.291
 20
10.9802
 10
-1011.0639
 20
11.0231
 10
-1010.8476
 20
11.0755
 10
-1010.6422
 20
11.1375
 10
-1010.4476
 20
11.2091
 10
-1010.2641
 20
11.2892
 10
-1010.0919
 20
11.377
 10
-1009.9311
 20
11.4725
 10
-1009.7817
 20
11.5757
 10
-1009.6436
 20
11.6866
 10
-1009.5169
 20
11.8052
 10
-1009.4015
 20
11.9315
 10
-1009.2975
 20
12.0655
 10
-1009.2054
 20
12.2058
 10
-1009.1255
 20
12.3508
 10
-1009.0579
 20
12.5006
 10
-1009.0027
 20
12.6552
 10
-1008.9597
 20
12.8145
 10
-1008.929
 20
12.9786
 10
-1008.9105
 20
13.1475
 10
-1008.9044
 20
13.3212
  0
LWPOLYLINE
  5
6B
330
1F
100
AcDbEntity
  8
Layer 1
 62
     7
370
    40
100
AcDbPolyline
 90
       33
 70
     1
 43
0.0
 10
-546.7864
 20
124.9565
 10
-509.5627
 20
122.2089
 10
-474.8926
 20
114.3286
 10
-443.5187
 20
101.8595
 10
-416.1837
 20
85.3454
 10
-393.6303
 20
65.33
 10
-376.6012
 20
42.3573
 10
-365.8391
 20
16.9709
 10
-362.0867
 20
-10.2853
 10
-365.8391
 20
-37.5413
 10
-376.6012
 20
-62.9277
 10
-393.6303
 20
-85.9006
 10
-416.1837
 20
-105.9162
 10
-443.5187
 20
-122.4306
 10
-474.8926
 20
-134.9
 10
-509.5627
 20
-142.7804
 10
-546.7864
 20
-145.5281
 10
-584.01
 20
-142.7804
 10
-618.6802
 20
-134.9
 10
-650.0543
 20
-122.4306
 10
-677.3896
 20
-105.9162
 10
-699.9432
 20
-85.9006
 10
-716.9725
 20
-62.9277
 10
-727.7348
 20
-37.5413
 10
-731.4873
 20
-10.2853
 10
-727.7348
 20
16.9709
 10
-716.9725
 20
42.3573
 10
-699.9432
 20
65.33
 10
-677.3896
 20
85.3454
 10
-650.0543
 20
101.8595
 10
-618.6802
 20
114.3286
 10
-584.01
 20
122.2089
 10
-546.7864
 20
124.9565
  0
LWPOLYLINE
  5
6C
330
1F
100
AcDbEntity
  8
Layer 1
 62
     7
370
    40
100
AcDbPolyline
 90
       33
 70
     1
 43
0.0
 10
-546.7913
 20
111.1721
 10
-512.3367
 20
108.704
 10
-480.2458
 20
101.6255
 10
-451.2062
 20
90.4249
 10
-425.9051
 20
75.5908
 10
-405.0299
 20
57.6117
 10
-389.268
 20
36.976
 10
-379.3068
 20
14.1723
 10
-375.8337
 20
-10.3111
 10
-379.3068
 20
-34.7951
 10
-389.268
 20
-57.5996
 10
-405.0299
 20
-78.2359
 10
-425.9051
 20
-96.2157
 10
-451.2062
 20
-111.0503
 10
-480.2458
 20
-122.2513
 10
-512.3367
 20
-129.3301
 10
-546.7913
 20
-131.7983
 10
-581.2459
 20
-129.3301
 10
-613.3368
 20
-122.2513
 10
-642.3767
 20
-111.0503
 10
-667.6781
 20
-96.2157
 10
-688.5535
 20
-78.2359
 10
-704.3157
 20
-57.5996
 10
-714.2771
 20
-34.7951
 10
-717.7503
 20
-10.3111
 10
-714.2771
 20
14.1723
 10
-704.3157
 20
36.976
 10
-688.5535
 20
57.6117
 10
-667.6781
 20
75.5908
 10
-642.3767
 20
90.4249
 10
-613.3368
 20
101.6255
 10
-581.2459
 20
108.704
 10
-546.7913
 20
111.1721
  0
LWPOLYLINE
  5
6D
330
1F
100
AcDbEntity
  8
Layer 1
 62
     7
370
    18
100
AcDbPolyline
 90
       33
 70
     1
 43
0.0
 10
-546.7936
 20
8.2667
 10
-543.0558
 20
7.8895
 10
-539.5744
 20
6.8078
 10
-536.424
 20
5.0961
 10
-533.6791
 20
2.8291
 10
-531.4143
 20
0.0815
 10
-529.7042
 20
-3.072
 10
-528.6235
 20
-6.5569
 10
-528.2467
 20
-10.2984
 10
-528.6235
 20
-14.0402
 10
-529.7042
 20
-17.5253
 10
-531.4143
 20
-20.6789
 10
-533.6791
 20
-23.4265
 10
-536.424
 20
-25.6935
 10
-539.5744
 20
-27.4051
 10
-543.0558
 20
-28.4868
 10
-546.7936
 20
-28.864
 10
-550.5314
 20
-28.4868
 10
-554.0129
 20
-27.4051
 10
-557.1636
 20
-25.6935
 10
-559.9088
 20
-23.4265
 10
-562.1738
 20
-20.6789
 10
-563.884
 20
-17.5253
 10
-564.9649
 20
-14.0402
 10
-565.3418
 20
-10.2984
 10
-564.9649
 20
-6.5569
 10
-563.884
 20
-3.072
 10
-562.1738
 20
0.0815
 10
-559.9088
 20
2.8291
 10
-557.1636
 20
5.0961
 10
-554.0129
 20
6.8078
 10
-550.5314
 20
7.8895
 10
-546.7936
 20
8.2667
  0
LWPOLYLINE
  5
6E
330
1F
100
AcDbEntity
  8
Layer 1
 62
     7
370
    40
100
AcDbPolyline
 90
       33
 70
     1
 43
0.0
 10
-546.7882
 20
23.4519
 10
-539.9946
 20
22.7665
 10
-533.667
 20
20.8007
 10
-527.9409
 20
17.6901
 10
-522.952
 20
13.5703
 10
-518.8358
 20
8.5769
 10
-515.7278
 20
2.8455
 10
-513.7636
 20
-3.4883
 10
-513.0787
 20
-10.2889
 10
-513.7636
 20
-17.0893
 10
-515.7278
 20
-23.4232
 10
-518.8358
 20
-29.1549
 10
-522.952
 20
-34.1489
 10
-527.9409
 20
-38.2692
 10
-533.667
 20
-41.3804
 10
-539.9946
 20
-43.3465
 10
-546.7882
 20
-44.0321
 10
-553.5819
 20
-43.3465
 10
-559.9093
 20
-41.3804
 10
-565.6349
 20
-38.2692
 10
-570.6233
 20
-34.1489
 10
-574.7389
 20
-29.1549
 10
-577.8464
 20
-23.4232
 10
-579.8102
 20
-17.0893
 10
-580.4949
 20
-10.2889
 10
-579.8102
 20
-3.4883
 10
-577.8464
 20
2.8455
 10
-574.7389
 20
8.5769
 10
-570.6233
 20
13.5703
 10
-565.6349
 20
17.6901
 10
-559.9093
 20
20.8007
 10
-553.5819
 20
22.7665
 10
-546.7882
 20
23.4519
  0
LWPOLYLINE
  5
6F
330
1F
100
AcDbEntity
  8
Layer 1
 62
     7
370
    40
100
AcDbPolyline
 90
        2
 70
     0
 43
0.0
 10
-362.089
 20
151.7018
 10
-362.089
 20
174.4726
  0
LWPOLYLINE
  5
70
330
1F
100
AcDbEntity
  8
Layer 1
 62
     7
370
    40
100
AcDbPolyline
 90
        2
 70
     0
 43
0.0
 10
-731.4864
 20
151.7018
 10
-731.4864
 20
174.4726
  0
LWPOLYLINE
  5
71
330
1F
100
AcDbEntity
  8
Layer 1
 62
     7
370
    40
100
AcDbPolyline
 90
        2
 70
     0
 43
0.0
 10
-516.5725
 20
161.9632
 10
-362.089
 20
161.9632
  0
LWPOLYLINE
  5
72
330
1F
100
AcDbEntity
  8
Layer 1
 62
     7
370
    40
100
AcDbPolyline
 90
        2
 70
     0
 43
0.0
 10
-731.4864
 20
161.9632
 10
-577.4748
 20
161.9632
  0
LWPOLYLINE
  5
73
330
1F
100
AcDbEntity
  8
Layer 1
 62
     7
370
    40
100
AcDbPolyline
 90
        2
 70
     0
 43
0.0
 10
-759.3378
 20
124.9619
 10
-782.086
 20
124.9619
  0
LWPOLYLINE
  5
74
330
1F
100
AcDbEntity
  8
Layer 1
 62
     7
370
    40
100
AcDbPolyline
 90
        2
 70
     0
 43
0.0
 10
-759.3378
 20
-145.5213
 10
-782.086
 20
-145.5213
  0
LWPOLYLINE
  5
75
330
1F
100
AcDbEntity
  8
Layer 1
 62
     7
370
    40
100
AcDbPolyline
 90
        2
 70
     0
 43
0.0
 10
-769.5915
 20
20.4964
 10
-769.5915
 20
124.9619
  0
LWPOLYLINE
  5
76
330
1F
100
AcDbEntity
  8
Layer 1
 62
     7
370
    40
100
AcDbPolyline
 90
        2
 70
     0
 43
0.0
 10
-769.5915
 20
-145.5213
 10
-769.5915
 20
-39.512
  0
LWPOLYLINE
  5
77
330
1F
100
AcDbEntity
  8
Layer 1
 62
     7
370
    40
100
AcDbPolyline
 90
        2
 70
     0
 43
0.0
 10
-485.9236
 20
-10.2826
 10
-528.2481
 20
-10.2826
  0
LWPOLYLINE
  5
78
330
1F
100
AcDbEntity
  8
Layer 1
 62
     7
370
    40
100
AcDbPolyline
 90
        2
 70
     0
 43
0.0
 10
-622.8243
 20
-10.2826
 10
-580.5017
 20
-10.2826
  0
LWPOLYLINE
  5
79
330
1F
100
AcDbEntity
  8
Layer 1
 62
     7
370
    18
100
AcDbPolyline
 90
      117
 70
     1
 43
0.0
 10
-761.7346
 20
-23.2491
 10
-761.7432
 20
-23.6696
 10
-761.7689
 20
-24.0842
 10
-761.8116
 20
-24.4928
 10
-761.8714
 20
-24.8954
 10
-761.9483
 20
-25.2922
 10
-762.0421
 20
-25.683
 10
-762.1528
 20
-26.0679
 10
-762.2805
 20
-26.4469
 10
-762.4227
 20
-26.8135
 10
-762.5763
 20
-27.1617
 10
-762.7414
 20
-27.4915
 10
-762.9179
 20
-27.803
 10
-763.1058
 20
-28.0959
 10
-763.3051
 20
-28.3704
 10
-763.5159
 20
-28.6264
 10
-763.7381
 20
-28.8638
 10
-765.0066
 20
-28.0839
 10
-764.816
 20
-27.8864
 10
-764.6338
 20
-27.6725
 10
-764.4599
 20
-27.4422
 10
-764.2944
 20
-27.1956
 10
-764.1373
 20
-26.9327
 10
-763.9885
 20
-26.6533
 10
-763.8481
 20
-26.3576
 10
-763.716
 20
-26.0454
 10
-763.5961
 20
-25.7214
 10
-763.4922
 20
-25.3901
 10
-763.4043
 20
-25.0516
 10
-763.3324
 20
-24.7057
 10
-763.2764
 20
-24.3525
 10
-763.2365
 20
-23.992
 10
-763.2125
 20
-23.6242
 10
-763.2045
 20
-23.2491
 10
-763.2177
 20
-22.7787
 10
-763.2573
 20
-22.3365
 10
-763.3234
 20
-21.9224
 10
-763.4159
 20
-21.5366
 10
-763.5347
 20
-21.1789
 10
-763.68
 20
-20.8494
 10
-763.8518
 20
-20.5482
 10
-764.0499
 20
-20.2751
 10
-764.2703
 20
-20.0323
 10
-764.5089
 20
-19.8218
 10
-764.7655
 20
-19.6436
 10
-765.0403
 20
-19.4978
 10
-765.3331
 20
-19.3844
 10
-765.6441
 20
-19.3034
 10
-765.9731
 20
-19.2548
 10
-766.3202
 20
-19.2386
 10
-766.6672
 20
-19.2545
 10
-766.9961
 20
-19.3021
 10
-767.307
 20
-19.3814
 10
-767.5997
 20
-19.4924
 10
-767.8744
 20
-19.6351
 10
-768.1311
 20
-19.8094
 10
-768.3697
 20
-20.0154
 10
-768.5904
 20
-20.253
 10
-768.7885
 20
-20.5246
 10
-768.9603
 20
-20.8328
 10
-769.1056
 20
-21.1776
 10
-769.2245
 20
-21.5589
 10
-769.3169
 20
-21.9768
 10
-769.383
 20
-22.4313
 10
-769.4226
 20
-22.9223
 10
-769.4358
 20
-23.4499
 10
-769.4358
 20
-24.5642
 10
-770.616
 20
-24.5642
 10
-776.6476
 20
-19.7515
 10
-776.0239
 20
-19.5287
 10
-776.0239
 20
-28.2183
 10
-777.4488
 20
-28.2183
 10
-777.4488
 20
-18.1915
 10
-776.3137
 20
-18.1915
 10
-770.2812
 20
-23.0042
 10
-770.7944
 20
-23.7842
 10
-770.7944
 20
-23.1828
 10
-770.7749
 20
-22.5029
 10
-770.7164
 20
-21.8672
 10
-770.6189
 20
-21.2758
 10
-770.4825
 20
-20.7287
 10
-770.307
 20
-20.2259
 10
-770.0927
 20
-19.7673
 10
-769.8393
 20
-19.353
 10
-769.5471
 20
-18.983
 10
-769.2243
 20
-18.6566
 10
-768.8792
 20
-18.3737
 10
-768.512
 20
-18.1343
 10
-768.1226
 20
-17.9384
 10
-767.7109
 20
-17.7861
 10
-767.2769
 20
-17.6773
 10
-766.8207
 20
-17.612
 10
-766.3422
 20
-17.5902
 10
-766.0181
 20
-17.5999
 10
-765.7024
 20
-17.6292
 10
-765.395
 20
-17.6779
 10
-765.0959
 20
-17.7462
 10
-764.8052
 20
-17.8339
 10
-764.5227
 20
-17.9412
 10
-764.2486
 20
-18.0681
 10
-763.9828
 20
-18.2145
 10
-763.7284
 20
-18.3803
 10
-763.4879
 20
-18.5659
 10
-763.2612
 20
-18.7714
 10
-763.0485
 20
-18.9966
 10
-762.8496
 20
-19.2418
 10
-762.6646
 20
-19.5068
 10
-762.4935
 20
-19.7916
 10
-762.3362
 20
-20.0964
 10
-762.1954
 20
-20.4211
 10
-762.0734
 20
-20.7656
 10
-761.97
 20
-21.13
 10
-761.8853
 20
-21.5143
 10
-761.8194
 20
-21.9183
 10
-761.7723
 20
-22.3422
 10
-761.744
 20
-22.7858
 10
-761.7346
 20
-23.2491
  0
LWPOLYLINE
  5
7A
330
1F
100
AcDbEntity
  8
Layer 1
 62
     7
370
    18
100
AcDbPolyline
 90
      125
 70
     1
 43
0.0
 10
-761.8689
 20
-15.741
 10
-763.004
 20
-15.741
 10
-769.3466
 20
-9.2579
 10
-769.5603
 20
-9.042
 10
-769.7673
 20
-8.84
 10
-769.9678
 20
-8.652
 10
-770.1617
 20
-8.4779
 10
-770.3491
 20
-8.3177
 10
-770.5299
 20
-8.1714
 10
-770.7042
 20
-8.0391
 10
-770.8721
 20
-7.9207
 10
-771.0349
 20
-7.8138
 10
-771.1954
 20
-7.7161
 10
-771.3535
 20
-7.6274
 10
-771.5091
 20
-7.5478
 10
-771.6624
 20
-7.4772
 10
-771.8131
 20
-7.4156
 10
-771.9614
 20
-7.363
 10
-772.1071
 20
-7.3194
 10
-772.3923
 20
-7.2514
 10
-772.6691
 20
-7.2027
 10
-772.9376
 20
-7.1735
 10
-773.198
 20
-7.1637
 10
-773.5282
 20
-7.1781
 10
-773.8405
 20
-7.2214
 10
-774.1347
 20
-7.2936
 10
-774.4108
 20
-7.3947
 10
-774.6688
 20
-7.5246
 10
-774.9087
 20
-7.6835
 10
-775.1305
 20
-7.8712
 10
-775.334
 20
-8.0879
 10
-775.5166
 20
-8.3328
 10
-775.6749
 20
-8.6053
 10
-775.8088
 20
-8.9052
 10
-775.9183
 20
-9.2327
 10
-776.0035
 20
-9.5877
 10
-776.0644
 20
-9.9703
 10
-776.1009
 20
-10.3803
 10
-776.1131
 20
-10.8179
 10
-776.1065
 20
-11.1581
 10
-776.0867
 20
-11.4881
 10
-776.0538
 20
-11.8081
 10
-776.0076
 20
-12.118
 10
-775.9481
 20
-12.4178
 10
-775.8754
 20
-12.7075
 10
-775.7893
 20
-12.9872
 10
-775.69
 20
-13.2569
 10
-775.577
 20
-13.5169
 10
-775.4495
 20
-13.7674
 10
-775.3073
 20
-14.0086
 10
-775.1506
 20
-14.2404
 10
-774.9792
 20
-14.4628
 10
-774.7932
 20
-14.6757
 10
-774.5926
 20
-14.8792
 10
-774.3773
 20
-15.0733
 10
-775.357
 20
-16.2097
 10
-775.6163
 20
-15.9732
 10
-775.8604
 20
-15.7207
 10
-776.0891
 20
-15.4522
 10
-776.3025
 20
-15.1677
 10
-776.5007
 20
-14.8672
 10
-776.6836
 20
-14.5507
 10
-776.8512
 20
-14.2182
 10
-777.0036
 20
-13.8697
 10
-777.1393
 20
-13.508
 10
-777.2569
 20
-13.1358
 10
-777.3563
 20
-12.7532
 10
-777.4377
 20
-12.3602
 10
-777.5009
 20
-11.9567
 10
-777.5461
 20
-11.5427
 10
-777.5732
 20
-11.1183
 10
-777.5822
 20
-10.6834
 10
-777.5744
 20
-10.2947
 10
-777.5509
 20
-9.9192
 10
-777.5118
 20
-9.5569
 10
-777.457
 20
-9.2078
 10
-777.3865
 20
-8.8719
 10
-777.3004
 20
-8.5493
 10
-777.1987
 20
-8.2399
 10
-777.0813
 20
-7.9437
 10
-776.949
 20
-7.6621
 10
-776.8024
 20
-7.3968
 10
-776.6415
 20
-7.148
 10
-776.4665
 20
-6.9156
 10
-776.2771
 20
-6.6995
 10
-776.0736
 20
-6.4998
 10
-775.8558
 20
-6.3164
 10
-775.6237
 20
-6.1494
 10
-775.3793
 20
-6.0008
 10
-775.1244
 20
-5.8719
 10
-774.859
 20
-5.7627
 10
-774.5832
 20
-5.6734
 10
-774.2969
 20
-5.6039
 10
-774.0002
 20
-5.5542
 10
-773.6931
 20
-5.5243
 10
-773.3756
 20
-5.5144
 10
-773.1868
 20
-5.5177
 10
-772.9988
 20
-5.5277
 10
-772.8114
 20
-5.5443
 10
-772.6247
 20
-5.5675
 10
-772.4387
 20
-5.5973
 10
-772.2534
 20
-5.6338
 10
-772.0686
 20
-5.677
 10
-771.8845
 20
-5.7267
 10
-771.6997
 20
-5.7847
 10
-771.5125
 20
-5.8532
 10
-771.3227
 20
-5.9322
 10
-771.1305
 20
-6.0216
 10
-770.9358
 20
-6.1215
 10
-770.7386
 20
-6.2318
 10
-770.539
 20
-6.3526
 10
-770.3368
 20
-6.4837
 10
-770.1304
 20
-6.6281
 10
-769.9174
 20
-6.7881
 10
-769.6978
 20
-6.9638
 10
-769.4717
 20
-7.1551
 10
-769.2389
 20
-7.3621
 10
-768.9995
 20
-7.5848
 10
-768.7536
 20
-7.8232
 10
-768.5012
 20
-8.0773
 10
-762.6701
 20
-14.0254
 10
-763.2929
 20
-14.4711
 10
-763.2929
 20
-4.8017
 10
-761.8689
 20
-4.8017
 10
-761.8689
 20
-15.741
  0
LWPOLYLINE
  5
7B
330
1F
100
AcDbEntity
  8
Layer 1
 62
     7
370
    18
100
AcDbPolyline
 90
       97
 70
     1
 43
0.0
 10
-761.7346
 20
3.375
 10
-761.7494
 20
2.9302
 10
-761.7939
 20
2.4979
 10
-761.8679
 20
2.078
 10
-761.9716
 20
1.6706
 10
-762.1048
 20
1.2758
 10
-762.2676
 20
0.8935
 10
-762.4598
 20
0.5238
 10
-762.6816
 20
0.1666
 10
-762.9307
 20
-0.1748
 10
-763.2056
 20
-0.4975
 10
-763.5063
 20
-0.8013
 10
-763.8328
 20
-1.0864
 10
-764.1851
 20
-1.3527
 10
-764.5631
 20
-1.6002
 10
-764.9668
 20
-1.829
 10
-765.3962
 20
-2.039
 10
-765.85
 20
-2.2271
 10
-766.3264
 20
-2.39
 10
-766.8253
 20
-2.5279
 10
-767.3467
 20
-2.6407
 10
-767.8908
 20
-2.7284
 10
-768.4574
 20
-2.791
 10
-769.0466
 20
-2.8286
 10
-769.6584
 20
-2.8411
 10
-770.2705
 20
-2.8286
 10
-770.8599
 20
-2.791
 10
-771.4267
 20
-2.7284
 10
-771.9708
 20
-2.6407
 10
-772.4923
 20
-2.5279
 10
-772.9913
 20
-2.39
 10
-773.4677
 20
-2.2271
 10
-773.9215
 20
-2.039
 10
-774.3509
 20
-1.829
 10
-774.7545
 20
-1.6002
 10
-775.1324
 20
-1.3527
 10
-775.4845
 20
-1.0864
 10
-775.811
 20
-0.8013
 10
-776.1117
 20
-0.4975
 10
-776.3867
 20
-0.1748
 10
-776.6361
 20
0.1666
 10
-776.8578
 20
0.5238
 10
-777.05
 20
0.8935
 10
-777.2126
 20
1.2758
 10
-777.3457
 20
1.6706
 10
-777.4491
 20
2.078
 10
-777.5231
 20
2.4979
 10
-777.5674
 20
2.9302
 10
-777.5822
 20
3.375
 10
-777.5674
 20
3.8201
 10
-777.5231
 20
4.2525
 10
-777.4491
 20
4.6724
 10
-777.3457
 20
5.0797
 10
-777.2126
 20
5.4744
 10
-777.05
 20
5.8566
 10
-776.8578
 20
6.2263
 10
-776.6361
 20
6.5834
 10
-776.3867
 20
6.9251
 10
-776.1117
 20
7.2483
 10
-775.811
 20
7.5532
 10
-775.4845
 20
7.8396
 10
-775.1324
 20
8.1075
 10
-774.7545
 20
8.357
 10
-774.3509
 20
8.588
 10
-773.9215
 20
8.8005
 10
-773.4677
 20
8.9911
 10
-772.9913
 20
9.1563
 10
-772.4923
 20
9.2962
 10
-771.9708
 20
9.4106
 10
-771.4267
 20
9.4996
 10
-770.8599
 20
9.5632
 10
-770.2705
 20
9.6014
 10
-769.6584
 20
9.6141
 10
-769.0466
 20
9.6014
 10
-768.4574
 20
9.5632
 10
-767.8908
 20
9.4996
 10
-767.3467
 20
9.4106
 10
-766.8253
 20
9.2962
 10
-766.3264
 20
9.1563
 10
-765.85
 20
8.9911
 10
-765.3962
 20
8.8005
 10
-764.9668
 20
8.588
 10
-764.5631
 20
8.357
 10
-764.1851
 20
8.1075
 10
-763.8328
 20
7.8396
 10
-763.5063
 20
7.5532
 10
-763.2056
 20
7.2483
 10
-762.9307
 20
6.9251
 10
-762.6816
 20
6.5834
 10
-762.4598
 20
6.2263
 10
-762.2676
 20
5.8566
 10
-762.1048
 20
5.4744
 10
-761.9716
 20
5.0797
 10
-761.8679
 20
4.6724
 10
-761.7939
 20
4.2525
 10
-761.7494
 20
3.8201
 10
-761.7346
 20
3.375
  0
LWPOLYLINE
  5
7C
330
1F
100
AcDbEntity
  8
Layer 1
 62
     7
370
    18
100
AcDbPolyline
 90
       97
 70
     1
 43
0.0
 10
-763.2045
 20
3.375
 10
-763.2161
 20
3.715
 10
-763.2511
 20
4.0437
 10
-763.3093
 20
4.3613
 10
-763.3908
 20
4.6677
 10
-763.4956
 20
4.9629
 10
-763.6238
 20
5.2469
 10
-763.7753
 20
5.5197
 10
-763.9501
 20
5.7813
 10
-764.1471
 20
6.0307
 10
-764.3656
 20
6.266
 10
-764.6058
 20
6.4874
 10
-764.8677
 20
6.6949
 10
-765.1511
 20
6.8884
 10
-765.4561
 20
7.068
 10
-765.7828
 20
7.2337
 10
-766.1311
 20
7.3855
 10
-766.5001
 20
7.5214
 10
-766.8897
 20
7.6391
 10
-767.2998
 20
7.7386
 10
-767.7305
 20
7.8201
 10
-768.1816
 20
7.8834
 10
-768.6534
 20
7.9286
 10
-769.1456
 20
7.9558
 10
-769.6584
 20
7.9648
 10
-770.1715
 20
7.9558
 10
-770.664
 20
7.9286
 10
-771.1358
 20
7.8834
 10
-771.5871
 20
7.8201
 10
-772.0178
 20
7.7386
 10
-772.4279
 20
7.6391
 10
-772.8175
 20
7.5214
 10
-773.1865
 20
7.3855
 10
-773.5345
 20
7.2337
 10
-773.861
 20
7.068
 10
-774.1659
 20
6.8884
 10
-774.4493
 20
6.6949
 10
-774.7112
 20
6.4874
 10
-774.9515
 20
6.266
 10
-775.1703
 20
6.0307
 10
-775.3676
 20
5.7813
 10
-775.5424
 20
5.5197
 10
-775.6939
 20
5.2469
 10
-775.822
 20
4.9629
 10
-775.9268
 20
4.6677
 10
-776.0083
 20
4.3613
 10
-776.0665
 20
4.0437
 10
-776.1015
 20
3.715
 10
-776.1131
 20
3.375
 10
-776.1015
 20
3.0453
 10
-776.0665
 20
2.7247
 10
-776.0083
 20
2.4131
 10
-775.9268
 20
2.1106
 10
-775.822
 20
1.8172
 10
-775.6939
 20
1.5327
 10
-775.5424
 20
1.2573
 10
-775.3676
 20
0.9908
 10
-775.1703
 20
0.7365
 10
-774.9515
 20
0.4967
 10
-774.7112
 20
0.2715
 10
-774.4493
 20
0.061
 10
-774.1659
 20
-0.135
 10
-773.861
 20
-0.3165
 10
-773.5345
 20
-0.4833
 10
-773.1865
 20
-0.6355
 10
-772.8175
 20
-0.7711
 10
-772.4279
 20
-0.8887
 10
-772.0178
 20
-0.9882
 10
-771.5871
 20
-1.0697
 10
-771.1358
 20
-1.1331
 10
-770.664
 20
-1.1784
 10
-770.1715
 20
-1.2056
 10
-769.6584
 20
-1.2147
 10
-769.1456
 20
-1.2056
 10
-768.6534
 20
-1.1784
 10
-768.1816
 20
-1.1331
 10
-767.7305
 20
-1.0697
 10
-767.2998
 20
-0.9882
 10
-766.8897
 20
-0.8887
 10
-766.5001
 20
-0.7711
 10
-766.1311
 20
-0.6355
 10
-765.7828
 20
-0.4833
 10
-765.4561
 20
-0.3165
 10
-765.1511
 20
-0.135
 10
-764.8677
 20
0.061
 10
-764.6058
 20
0.2715
 10
-764.3656
 20
0.4967
 10
-764.1471
 20
0.7365
 10
-763.9501
 20
0.9908
 10
-763.7753
 20
1.2573
 10
-763.6238
 20
1.5327
 10
-763.4956
 20
1.8172
 10
-763.3908
 20
2.1106
 10
-763.3093
 20
2.4131
 10
-763.2511
 20
2.7247
 10
-763.2161
 20
3.0453
 10
-763.2045
 20
3.375
  0
LWPOLYLINE
  5
7D
330
1F
100
AcDbEntity
  8
Layer 1
 62
     7
370
    18
100
AcDbPolyline
 90
       12
 70
     1
 43
0.0
 10
-607.311
 20
1.028
 10
-600.5886
 20
15.9115
 10
-600.0993
 20
15.1978
 10
-609.7368
 20
15.1978
 10
-608.9135
 20
15.9778
 10
-608.9135
 20
12.2795
 10
-610.4938
 20
12.2795
 10
-610.4938
 20
16.6243
 10
-599.0533
 20
16.6243
 10
-599.0533
 20
15.4879
 10
-605.5752
 20
1.028
 10
-607.311
 20
1.028
  0
LWPOLYLINE
  5
7E
330
1F
100
AcDbEntity
  8
Layer 1
 62
     7
370
    18
100
AcDbPolyline
 90
      131
 70
     1
 43
0.0
 10
-592.4422
 20
0.8944
 10
-592.8572
 20
0.9029
 10
-593.2673
 20
0.9285
 10
-593.6725
 20
0.9712
 10
-594.0728
 20
1.0309
 10
-594.4683
 20
1.1077
 10
-594.859
 20
1.2015
 10
-595.2449
 20
1.3123
 10
-595.6259
 20
1.4401
 10
-595.9945
 20
1.5824
 10
-596.3436
 20
1.7362
 10
-596.6732
 20
1.9014
 10
-596.9834
 20
2.0781
 10
-597.2741
 20
2.2662
 10
-597.5454
 20
2.4658
 10
-597.7972
 20
2.6768
 10
-598.0295
 20
2.8992
 10
-597.2504
 20
4.1692
 10
-597.0583
 20
3.9784
 10
-596.8492
 20
3.7959
 10
-596.6231
 20
3.6219
 10
-596.3799
 20
3.4562
 10
-596.1196
 20
3.2988
 10
-595.8422
 20
3.1499
 10
-595.5478
 20
3.0093
 10
-595.2363
 20
2.8771
 10
-594.9127
 20
2.7571
 10
-594.5827
 20
2.6531
 10
-594.2461
 20
2.5651
 10
-593.903
 20
2.4931
 10
-593.5533
 20
2.4371
 10
-593.1969
 20
2.3971
 10
-592.834
 20
2.3731
 10
-592.4643
 20
2.3651
 10
-591.9839
 20
2.3788
 10
-591.533
 20
2.42
 10
-591.1116
 20
2.4887
 10
-590.7199
 20
2.5849
 10
-590.3577
 20
2.7085
 10
-590.0251
 20
2.8598
 10
-589.722
 20
3.0386
 10
-589.4485
 20
3.245
 10
-589.206
 20
3.4734
 10
-588.9958
 20
3.7189
 10
-588.818
 20
3.9815
 10
-588.6726
 20
4.2611
 10
-588.5595
 20
4.5578
 10
-588.4787
 20
4.8716
 10
-588.4303
 20
5.2025
 10
-588.4141
 20
5.5505
 10
-588.4216
 20
5.7969
 10
-588.4439
 20
6.0345
 10
-588.4813
 20
6.2635
 10
-588.5336
 20
6.4837
 10
-588.6009
 20
6.6953
 10
-588.6832
 20
6.8981
 10
-588.7805
 20
7.0922
 10
-588.8929
 20
7.2776
 10
-589.0228
 20
7.4536
 10
-589.1731
 20
7.6195
 10
-589.344
 20
7.7753
 10
-589.5355
 20
7.921
 10
-589.7474
 20
8.0566
 10
-589.9797
 20
8.182
 10
-590.2326
 20
8.2973
 10
-590.5059
 20
8.4025
 10
-590.803
 20
8.4967
 10
-591.1264
 20
8.5783
 10
-591.4762
 20
8.6473
 10
-591.8524
 20
8.7038
 10
-592.255
 20
8.7476
 10
-592.684
 20
8.779
 10
-593.1395
 20
8.7977
 10
-593.6215
 20
8.804
 10
-596.9386
 20
8.804
 10
-596.1374
 20
16.6243
 10
-587.6129
 20
16.6243
 10
-587.6129
 20
15.1978
 10
-595.4925
 20
15.1978
 10
-594.6674
 20
15.9778
 10
-595.3582
 20
9.4275
 10
-596.1824
 20
10.2296
 10
-593.2655
 20
10.2296
 10
-592.6905
 20
10.2206
 10
-592.1446
 20
10.1934
 10
-591.6278
 20
10.1482
 10
-591.1403
 20
10.0849
 10
-590.6819
 20
10.0034
 10
-590.2528
 20
9.9039
 10
-589.8528
 20
9.7862
 10
-589.4821
 20
9.6503
 10
-589.1383
 20
9.4983
 10
-588.8193
 20
9.3321
 10
-588.5249
 20
9.1517
 10
-588.2552
 20
8.957
 10
-588.0103
 20
8.7481
 10
-587.7901
 20
8.5249
 10
-587.5946
 20
8.2873
 10
-587.4239
 20
8.0355
 10
-587.2751
 20
7.7708
 10
-587.1463
 20
7.4955
 10
-587.0372
 20
7.2093
 10
-586.9481
 20
6.9125
 10
-586.8787
 20
6.6049
 10
-586.8292
 20
6.2866
 10
-586.7995
 20
5.9575
 10
-586.7896
 20
5.6177
 10
-586.7993
 20
5.2927
 10
-586.8285
 20
4.975
 10
-586.8772
 20
4.6647
 10
-586.9453
 20
4.3616
 10
-587.0329
 20
4.0659
 10
-587.1399
 20
3.7776
 10
-587.2664
 20
3.4965
 10
-587.4124
 20
3.2229
 10
-587.5779
 20
2.9598
 10
-587.7629
 20
2.711
 10
-587.9673
 20
2.4765
 10
-588.1913
 20
2.2563
 10
-588.4347
 20
2.0504
 10
-588.6976
 20
1.8587
 10
-588.9799
 20
1.6812
 10
-589.2816
 20
1.5179
 10
-589.6037
 20
1.3718
 10
-589.9467
 20
1.2451
 10
-590.3106
 20
1.1379
 10
-590.6953
 20
1.0503
 10
-591.1008
 20
0.9821
 10
-591.5271
 20
0.9334
 10
-591.9743
 20
0.9041
 10
-592.4422
 20
0.8944
  0
LWPOLYLINE
  5
7F
330
1F
100
AcDbEntity
  8
Layer 1
 62
     7
370
    18
100
AcDbPolyline
 90
        9
 70
     1
 43
0.0
 10
-563.1499
 20
155.9354
 10
-563.1499
 20
157.0939
 10
-554.8922
 20
167.432
 10
-553.1122
 20
167.432
 10
-561.3028
 20
157.0939
 10
-562.1711
 20
157.361
 10
-549.6397
 20
157.361
 10
-549.6397
 20
155.9354
 10
-563.1499
 20
155.9354
  0
LWPOLYLINE
  5
80
330
1F
100
AcDbEntity
  8
Layer 1
 62
     7
370
    18
100
AcDbPolyline
 90
        7
 70
     1
 43
0.0
 10
-554.3586
 20
151.8356
 10
-554.3586
 20
155.9354
 10
-554.3136
 20
157.361
 10
-554.3136
 20
160.9709
 10
-552.7562
 20
160.9709
 10
-552.7562
 20
151.8356
 10
-554.3586
 20
151.8356
  0
LWPOLYLINE
  5
81
330
1F
100
AcDbEntity
  8
Layer 1
 62
     7
370
    18
100
AcDbPolyline
 90
      125
 70
     1
 43
0.0
 10
-548.5046
 20
151.8356
 10
-548.5046
 20
152.972
 10
-542.0278
 20
159.3216
 10
-541.8121
 20
159.5355
 10
-541.6104
 20
159.7428
 10
-541.4225
 20
159.9435
 10
-541.2486
 20
160.1376
 10
-541.0886
 20
160.325
 10
-540.9425
 20
160.5059
 10
-540.8104
 20
160.6802
 10
-540.6921
 20
160.848
 10
-540.5854
 20
161.011
 10
-540.4877
 20
161.1716
 10
-540.3991
 20
161.3298
 10
-540.3196
 20
161.4857
 10
-540.249
 20
161.6391
 10
-540.1875
 20
161.79
 10
-540.135
 20
161.9384
 10
-540.0914
 20
162.0843
 10
-540.0235
 20
162.3699
 10
-539.975
 20
162.647
 10
-539.9458
 20
162.9158
 10
-539.936
 20
163.1765
 10
-539.9504
 20
163.5071
 10
-539.9937
 20
163.8197
 10
-540.0657
 20
164.1142
 10
-540.1667
 20
164.3906
 10
-540.2965
 20
164.6489
 10
-540.4551
 20
164.889
 10
-540.6427
 20
165.111
 10
-540.8591
 20
165.3148
 10
-541.1037
 20
165.4976
 10
-541.3759
 20
165.6561
 10
-541.6755
 20
165.7901
 10
-542.0026
 20
165.8998
 10
-542.3572
 20
165.9851
 10
-542.7393
 20
166.0461
 10
-543.1489
 20
166.0826
 10
-543.586
 20
166.0948
 10
-543.9258
 20
166.0882
 10
-544.2555
 20
166.0684
 10
-544.5751
 20
166.0354
 10
-544.8847
 20
165.9891
 10
-545.1841
 20
165.9296
 10
-545.4736
 20
165.8568
 10
-545.7529
 20
165.7707
 10
-546.0223
 20
165.6712
 10
-546.2823
 20
165.5581
 10
-546.5328
 20
165.4304
 10
-546.7738
 20
165.2881
 10
-547.0055
 20
165.1312
 10
-547.2277
 20
164.9597
 10
-547.4404
 20
164.7735
 10
-547.6437
 20
164.5726
 10
-547.8376
 20
164.3571
 10
-548.9728
 20
165.3378
 10
-548.7365
 20
165.5974
 10
-548.4843
 20
165.8417
 10
-548.2161
 20
166.0707
 10
-547.9319
 20
166.2844
 10
-547.6318
 20
166.4828
 10
-547.3156
 20
166.6659
 10
-546.9835
 20
166.8337
 10
-546.6354
 20
166.9862
 10
-546.2738
 20
167.1221
 10
-545.9018
 20
167.2398
 10
-545.5195
 20
167.3393
 10
-545.1267
 20
167.4208
 10
-544.7236
 20
167.4841
 10
-544.3101
 20
167.5293
 10
-543.8861
 20
167.5565
 10
-543.4517
 20
167.5655
 10
-543.0634
 20
167.5577
 10
-542.6884
 20
167.5342
 10
-542.3265
 20
167.495
 10
-541.9778
 20
167.4402
 10
-541.6423
 20
167.3697
 10
-541.32
 20
167.2835
 10
-541.0109
 20
167.1816
 10
-540.7151
 20
167.0641
 10
-540.4338
 20
166.9316
 10
-540.1688
 20
166.7849
 10
-539.9203
 20
166.6238
 10
-539.6881
 20
166.4486
 10
-539.4722
 20
166.259
 10
-539.2727
 20
166.0553
 10
-539.0896
 20
165.8372
 10
-538.9227
 20
165.6049
 10
-538.7742
 20
165.3602
 10
-538.6455
 20
165.105
 10
-538.5365
 20
164.8393
 10
-538.4473
 20
164.5631
 10
-538.3778
 20
164.2765
 10
-538.3282
 20
163.9795
 10
-538.2984
 20
163.672
 10
-538.2885
 20
163.3542
 10
-538.2918
 20
163.1652
 10
-538.3017
 20
162.977
 10
-538.3183
 20
162.7894
 10
-538.3415
 20
162.6026
 10
-538.3713
 20
162.4164
 10
-538.4077
 20
162.2308
 10
-538.4508
 20
162.0458
 10
-538.5005
 20
161.8615
 10
-538.5584
 20
161.6765
 10
-538.6268
 20
161.4891
 10
-538.7057
 20
161.2991
 10
-538.7951
 20
161.1068
 10
-538.8949
 20
160.912
 10
-539.0051
 20
160.7147
 10
-539.1256
 20
160.5151
 10
-539.2566
 20
160.313
 10
-539.4009
 20
160.1064
 10
-539.5608
 20
159.8932
 10
-539.7362
 20
159.6733
 10
-539.9273
 20
159.4469
 10
-540.1341
 20
159.2138
 10
-540.3565
 20
158.9742
 10
-540.5947
 20
158.728
 10
-540.8485
 20
158.4753
 10
-546.7909
 20
152.6377
 10
-547.2361
 20
153.2612
 10
-537.5765
 20
153.2612
 10
-537.5765
 20
151.8356
 10
-548.5046
 20
151.8356
  0
LWPOLYLINE
  5
82
330
1F
100
AcDbEntity
  8
Layer 1
 62
     7
370
    18
100
AcDbPolyline
 90
       97
 70
     1
 43
0.0
 10
-529.408
 20
151.7021
 10
-529.8523
 20
151.7169
 10
-530.2842
 20
151.7613
 10
-530.7036
 20
151.8353
 10
-531.1105
 20
151.9389
 10
-531.5049
 20
152.0721
 10
-531.8868
 20
152.2348
 10
-532.2561
 20
152.4272
 10
-532.6129
 20
152.6492
 10
-532.954
 20
152.8986
 10
-533.2763
 20
153.1738
 10
-533.5798
 20
153.4749
 10
-533.8645
 20
153.8018
 10
-534.1305
 20
154.1544
 10
-534.3777
 20
154.5328
 10
-534.6062
 20
154.9369
 10
-534.816
 20
155.3668
 10
-535.0039
 20
155.8211
 10
-535.1666
 20
156.298
 10
-535.3043
 20
156.7975
 10
-535.417
 20
157.3196
 10
-535.5046
 20
157.8642
 10
-535.5672
 20
158.4314
 10
-535.6047
 20
159.0213
 10
-535.6172
 20
159.6338
 10
-535.6047
 20
160.2463
 10
-535.5672
 20
160.8361
 10
-535.5046
 20
161.4034
 10
-535.417
 20
161.948
 10
-535.3043
 20
162.4701
 10
-535.1666
 20
162.9696
 10
-535.0039
 20
163.4465
 10
-534.816
 20
163.9008
 10
-534.6062
 20
164.3306
 10
-534.3777
 20
164.7347
 10
-534.1305
 20
165.113
 10
-533.8645
 20
165.4655
 10
-533.5798
 20
165.7923
 10
-533.2763
 20
166.0934
 10
-532.954
 20
166.3687
 10
-532.6129
 20
166.6184
 10
-532.2561
 20
166.8404
 10
-531.8868
 20
167.0328
 10
-531.5049
 20
167.1955
 10
-531.1105
 20
167.3287
 10
-530.7036
 20
167.4323
 10
-530.2842
 20
167.5063
 10
-529.8523
 20
167.5507
 10
-529.408
 20
167.5655
 10
-528.9632
 20
167.5507
 10
-528.531
 20
167.5063
 10
-528.1114
 20
167.4323
 10
-527.7045
 20
167.3287
 10
-527.3101
 20
167.1955
 10
-526.9283
 20
167.0328
 10
-526.559
 20
166.8404
 10
-526.2023
 20
166.6184
 10
-525.861
 20
166.3687
 10
-525.5381
 20
166.0934
 10
-525.2337
 20
165.7923
 10
-524.9476
 20
165.4655
 10
-524.6799
 20
165.113
 10
-524.4307
 20
164.7347
 10
-524.2
 20
164.3306
 10
-523.9877
 20
163.9008
 10
-523.7973
 20
163.4465
 10
-523.6323
 20
162.9696
 10
-523.4926
 20
162.4701
 10
-523.3783
 20
161.948
 10
-523.2894
 20
161.4034
 10
-523.2258
 20
160.8361
 10
-523.1877
 20
160.2463
 10
-523.175
 20
159.6338
 10
-523.1877
 20
159.0213
 10
-523.2258
 20
158.4314
 10
-523.2894
 20
157.8642
 10
-523.3783
 20
157.3196
 10
-523.4926
 20
156.7975
 10
-523.6323
 20
156.298
 10
-523.7973
 20
155.8211
 10
-523.9877
 20
155.3668
 10
-524.2
 20
154.9369
 10
-524.4307
 20
154.5328
 10
-524.6799
 20
154.1544
 10
-524.9476
 20
153.8018
 10
-525.2337
 20
153.4749
 10
-525.5381
 20
153.1738
 10
-525.861
 20
152.8986
 10
-526.2023
 20
152.6492
 10
-526.559
 20
152.4272
 10
-526.9283
 20
152.2348
 10
-527.3101
 20
152.0721
 10
-527.7045
 20
151.9389
 10
-528.1114
 20
151.8353
 10
-528.531
 20
151.7613
 10
-528.9632
 20
151.7169
 10
-529.408
 20
151.7021
  0
LWPOLYLINE
  5
83
330
1F
100
AcDbEntity
  8
Layer 1
 62
     7
370
    18
100
AcDbPolyline
 90
       97
 70
     1
 43
0.0
 10
-529.408
 20
153.1727
 10
-529.0681
 20
153.1844
 10
-528.7395
 20
153.2193
 10
-528.4222
 20
153.2776
 10
-528.116
 20
153.3592
 10
-527.8211
 20
153.4642
 10
-527.5374
 20
153.5925
 10
-527.2648
 20
153.7441
 10
-527.0035
 20
153.9191
 10
-526.7544
 20
154.1163
 10
-526.5194
 20
154.3351
 10
-526.2982
 20
154.5756
 10
-526.091
 20
154.8378
 10
-525.8977
 20
155.1215
 10
-525.7183
 20
155.4269
 10
-525.5528
 20
155.7539
 10
-525.4011
 20
156.1026
 10
-525.2654
 20
156.472
 10
-525.1478
 20
156.862
 10
-525.0484
 20
157.2726
 10
-524.967
 20
157.7037
 10
-524.9038
 20
158.1554
 10
-524.8586
 20
158.6276
 10
-524.8315
 20
159.1204
 10
-524.8225
 20
159.6338
 10
-524.8315
 20
160.1472
 10
-524.8586
 20
160.64
 10
-524.9038
 20
161.1122
 10
-524.967
 20
161.5639
 10
-525.0484
 20
161.995
 10
-525.1478
 20
162.4055
 10
-525.2654
 20
162.7955
 10
-525.4011
 20
163.165
 10
-525.5528
 20
163.5134
 10
-525.7183
 20
163.8402
 10
-525.8977
 20
164.1454
 10
-526.091
 20
164.4291
 10
-526.2982
 20
164.6913
 10
-526.5194
 20
164.9319
 10
-526.7544
 20
165.1509
 10
-527.0035
 20
165.3484
 10
-527.2648
 20
165.5234
 10
-527.5374
 20
165.6751
 10
-527.8211
 20
165.8034
 10
-528.116
 20
165.9083
 10
-528.4222
 20
165.9899
 10
-528.7395
 20
166.0482
 10
-529.0681
 20
166.0831
 10
-529.408
 20
166.0948
 10
-529.7374
 20
166.0831
 10
-530.0576
 20
166.0482
 10
-530.3688
 20
165.9899
 10
-530.671
 20
165.9083
 10
-530.9641
 20
165.8034
 10
-531.2483
 20
165.6751
 10
-531.5234
 20
165.5234
 10
-531.7896
 20
165.3484
 10
-532.0437
 20
165.1509
 10
-532.2831
 20
164.9319
 10
-532.5081
 20
164.6913
 10
-532.7184
 20
164.4291
 10
-532.9142
 20
164.1454
 10
-533.0954
 20
163.8402
 10
-533.262
 20
163.5134
 10
-533.4141
 20
163.165
 10
-533.5495
 20
162.7955
 10
-533.667
 20
162.4055
 10
-533.7664
 20
161.995
 10
-533.8478
 20
161.5639
 10
-533.9112
 20
161.1122
 10
-533.9564
 20
160.64
 10
-533.9836
 20
160.1472
 10
-533.9927
 20
159.6338
 10
-533.9836
 20
159.1204
 10
-533.9564
 20
158.6276
 10
-533.9112
 20
158.1554
 10
-533.8478
 20
157.7037
 10
-533.7664
 20
157.2726
 10
-533.667
 20
156.862
 10
-533.5495
 20
156.472
 10
-533.4141
 20
156.1026
 10
-533.262
 20
155.7539
 10
-533.0954
 20
155.4269
 10
-532.9142
 20
155.1215
 10
-532.7184
 20
154.8378
 10
-532.5081
 20
154.5756
 10
-532.2831
 20
154.3351
 10
-532.0437
 20
154.1163
 10
-531.7896
 20
153.9191
 10
-531.5234
 20
153.7441
 10
-531.2483
 20
153.5925
 10
-530.9641
 20
153.4642
 10
-530.671
 20
153.3592
 10
-530.3688
 20
153.2776
 10
-530.0576
 20
153.2193
 10
-529.7374
 20
153.1844
 10
-529.408
 20
153.1727
  0
LWPOLYLINE
  5
84
330
1F
100
AcDbEntity
  8
Layer 1
 62
     7
370
    18
100
AcDbPolyline
 90
        9
 70
     1
 43
0.0
 10
-483.595
 20
5.1278
 10
-483.595
 20
6.2863
 10
-475.3373
 20
16.6243
 10
-473.5573
 20
16.6243
 10
-481.747
 20
6.2863
 10
-482.6162
 20
6.5534
 10
-470.0839
 20
6.5534
 10
-470.0839
 20
5.1278
 10
-483.595
 20
5.1278
  0
LWPOLYLINE
  5
85
330
1F
100
AcDbEntity
  8
Layer 1
 62
     7
370
    18
100
AcDbPolyline
 90
        7
 70
     1
 43
0.0
 10
-474.8037
 20
1.028
 10
-474.8037
 20
5.1278
 10
-474.7587
 20
6.5534
 10
-474.7587
 20
10.1633
 10
-473.2004
 20
10.1633
 10
-473.2004
 20
1.028
 10
-474.8037
 20
1.028
  0
LWPOLYLINE
  5
86
330
1F
100
AcDbEntity
  8
Layer 1
 62
     7
370
    18
100
AcDbPolyline
 90
      131
 70
     1
 43
0.0
 10
-463.7405
 20
0.8944
 10
-464.1557
 20
0.9029
 10
-464.566
 20
0.9285
 10
-464.9713
 20
0.9712
 10
-465.3717
 20
1.0309
 10
-465.7672
 20
1.1077
 10
-466.1577
 20
1.2015
 10
-466.5434
 20
1.3123
 10
-466.9241
 20
1.4401
 10
-467.2927
 20
1.5824
 10
-467.6418
 20
1.7362
 10
-467.9714
 20
1.9014
 10
-468.2816
 20
2.0781
 10
-468.5723
 20
2.2662
 10
-468.8436
 20
2.4658
 10
-469.0954
 20
2.6768
 10
-469.3278
 20
2.8992
 10
-468.5486
 20
4.1692
 10
-468.3565
 20
3.9784
 10
-468.1474
 20
3.7959
 10
-467.9213
 20
3.6219
 10
-467.6781
 20
3.4562
 10
-467.4178
 20
3.2988
 10
-467.1405
 20
3.1499
 10
-466.8461
 20
3.0093
 10
-466.5346
 20
2.8771
 10
-466.2113
 20
2.7571
 10
-465.8814
 20
2.6531
 10
-465.545
 20
2.5651
 10
-465.2019
 20
2.4931
 10
-464.8521
 20
2.4371
 10
-464.4957
 20
2.3971
 10
-464.1325
 20
2.3731
 10
-463.7626
 20
2.3651
 10
-463.2821
 20
2.3788
 10
-462.8312
 20
2.42
 10
-462.4099
 20
2.4887
 10
-462.0182
 20
2.5849
 10
-461.656
 20
2.7085
 10
-461.3233
 20
2.8598
 10
-461.0203
 20
3.0386
 10
-460.7468
 20
3.245
 10
-460.5042
 20
3.4734
 10
-460.2941
 20
3.7189
 10
-460.1163
 20
3.9815
 10
-459.9708
 20
4.2611
 10
-459.8577
 20
4.5578
 10
-459.7769
 20
4.8716
 10
-459.7285
 20
5.2025
 10
-459.7123
 20
5.5505
 10
-459.7198
 20
5.7969
 10
-459.7421
 20
6.0345
 10
-459.7795
 20
6.2635
 10
-459.8318
 20
6.4837
 10
-459.8991
 20
6.6953
 10
-459.9814
 20
6.8981
 10
-460.0787
 20
7.0922
 10
-460.1911
 20
7.2776
 10
-460.321
 20
7.4536
 10
-460.4713
 20
7.6195
 10
-460.6422
 20
7.7753
 10
-460.8337
 20
7.921
 10
-461.0456
 20
8.0566
 10
-461.2779
 20
8.182
 10
-461.5308
 20
8.2973
 10
-461.8041
 20
8.4025
 10
-462.1012
 20
8.4967
 10
-462.4246
 20
8.5783
 10
-462.7745
 20
8.6473
 10
-463.1507
 20
8.7038
 10
-463.5534
 20
8.7476
 10
-463.9826
 20
8.779
 10
-464.4384
 20
8.7977
 10
-464.9207
 20
8.804
 10
-468.2368
 20
8.804
 10
-467.4356
 20
16.6243
 10
-458.9111
 20
16.6243
 10
-458.9111
 20
15.1978
 10
-466.7907
 20
15.1978
 10
-465.9666
 20
15.9778
 10
-466.6565
 20
9.4275
 10
-467.4806
 20
10.2296
 10
-464.5638
 20
10.2296
 10
-463.9887
 20
10.2206
 10
-463.4428
 20
10.1934
 10
-462.9261
 20
10.1482
 10
-462.4385
 20
10.0849
 10
-461.9801
 20
10.0034
 10
-461.551
 20
9.9039
 10
-461.151
 20
9.7862
 10
-460.7803
 20
9.6503
 10
-460.4365
 20
9.4983
 10
-460.1175
 20
9.3321
 10
-459.8231
 20
9.1517
 10
-459.5534
 20
8.957
 10
-459.3085
 20
8.7481
 10
-459.0883
 20
8.5249
 10
-458.8928
 20
8.2873
 10
-458.7221
 20
8.0355
 10
-458.5734
 20
7.7708
 10
-458.4445
 20
7.4955
 10
-458.3355
 20
7.2093
 10
-458.2463
 20
6.9125
 10
-458.1769
 20
6.6049
 10
-458.1274
 20
6.2866
 10
-458.0977
 20
5.9575
 10
-458.0878
 20
5.6177
 10
-458.0975
 20
5.2927
 10
-458.1267
 20
4.975
 10
-458.1754
 20
4.6647
 10
-458.2435
 20
4.3616
 10
-458.3311
 20
4.0659
 10
-458.4381
 20
3.7776
 10
-458.5646
 20
3.4965
 10
-458.7106
 20
3.2229
 10
-458.8761
 20
2.9598
 10
-459.0611
 20
2.711
 10
-459.2655
 20
2.4765
 10
-459.4895
 20
2.2563
 10
-459.7329
 20
2.0504
 10
-459.9958
 20
1.8587
 10
-460.2781
 20
1.6812
 10
-460.5798
 20
1.5179
 10
-460.9019
 20
1.3718
 10
-461.2449
 20
1.2451
 10
-461.6088
 20
1.1379
 10
-461.9935
 20
1.0503
 10
-462.399
 20
0.9821
 10
-462.8254
 20
0.9334
 10
-463.2725
 20
0.9041
 10
-463.7405
 20
0.8944
  0
LWPOLYLINE
  5
87
330
1F
100
AcDbEntity
  8
Layer 1
 62
     7
370
    35
100
AcDbPolyline
 90
       33
 70
     1
 43
0.0
 10
-625.9845
 20
19.24
 10
-623.8879
 20
19.0284
 10
-621.9351
 20
18.4216
 10
-620.168
 20
17.4614
 10
-618.6283
 20
16.1898
 10
-617.358
 20
14.6486
 10
-616.3988
 20
12.8796
 10
-615.7926
 20
10.9249
 10
-615.5812
 20
8.8262
 10
-615.7926
 20
6.7275
 10
-616.3988
 20
4.7727
 10
-617.358
 20
3.0038
 10
-618.6283
 20
1.4625
 10
-620.168
 20
0.1909
 10
-621.9351
 20
-0.7693
 10
-623.8879
 20
-1.3761
 10
-625.9845
 20
-1.5877
 10
-628.0811
 20
-1.3761
 10
-630.0339
 20
-0.7693
 10
-631.8011
 20
0.1909
 10
-633.3408
 20
1.4625
 10
-634.6111
 20
3.0038
 10
-635.5703
 20
4.7727
 10
-636.1765
 20
6.7275
 10
-636.3879
 20
8.8262
 10
-636.1765
 20
10.9249
 10
-635.5703
 20
12.8796
 10
-634.6111
 20
14.6486
 10
-633.3408
 20
16.1898
 10
-631.8011
 20
17.4614
 10
-630.0339
 20
18.4216
 10
-628.0811
 20
19.0284
 10
-625.9845
 20
19.24
  0
LWPOLYLINE
  5
88
330
1F
100
AcDbEntity
  8
Layer 1
 62
     7
370
    35
100
AcDbPolyline
 90
        2
 70
     0
 43
0.0
 10
-622.5917
 20
25.6634
 10
-629.4305
 20
-9.3429
  0
LWPOLYLINE
  5
89
330
1F
100
AcDbEntity
  8
Layer 1
 62
     7
370
    35
100
AcDbPolyline
 90
       33
 70
     1
 43
0.0
 10
-498.4195
 20
19.24
 10
-496.3229
 20
19.0284
 10
-494.3701
 20
18.4216
 10
-492.603
 20
17.4614
 10
-491.0633
 20
16.1898
 10
-489.793
 20
14.6486
 10
-488.8338
 20
12.8796
 10
-488.2276
 20
10.9249
 10
-488.0162
 20
8.8262
 10
-488.2276
 20
6.7275
 10
-488.8338
 20
4.7727
 10
-489.793
 20
3.0038
 10
-491.0633
 20
1.4625
 10
-492.603
 20
0.1909
 10
-494.3701
 20
-0.7693
 10
-496.3229
 20
-1.3761
 10
-498.4195
 20
-1.5877
 10
-500.5161
 20
-1.3761
 10
-502.4689
 20
-0.7693
 10
-504.236
 20
0.1909
 10
-505.7757
 20
1.4625
 10
-507.046
 20
3.0038
 10
-508.0052
 20
4.7727
 10
-508.6114
 20
6.7275
 10
-508.8228
 20
8.8262
 10
-508.6114
 20
10.9249
 10
-508.0052
 20
12.8796
 10
-507.046
 20
14.6486
 10
-505.7757
 20
16.1898
 10
-504.236
 20
17.4614
 10
-502.4689
 20
18.4216
 10
-500.5161
 20
19.0284
 10
-498.4195
 20
19.24
  0
LWPOLYLINE
  5
8A
330
1F
100
AcDbEntity
  8
Layer 1
 62
     7
370
    35
100
AcDbPolyline
 90
        2
 70
     0
 43
0.0
 10
-495.0267
 20
25.6634
 10
-501.8655
 20
-9.3429
  0
ENDSEC
  0
SECTION
  2
OBJECTS
  0
DICTIONARY
  5
C
330
0
100
AcDbDictionary
281
     1
  3
ACAD_DETAILVIEWSTYLE
350
92
  3
ACAD_GROUP
350
D
  3
ACAD_LAYOUT
350
1A
  3
ACAD_MATERIAL
350
43
  3
ACAD_MLEADERSTYLE
350
5B
  3
ACAD_MLINESTYLE
350
17
  3
ACAD_PLOTSETTINGS
350
19
  3
ACAD_PLOTSTYLENAME
350
E
  3
ACAD_SCALELIST
350
47
  3
ACAD_SECTIONVIEWSTYLE
350
93
  3
ACAD_TABLESTYLE
350
59
  3
ACAD_VISUALSTYLE
350
2A
  3
ACDB_RECOMPOSE_DATA
350
8F
  3
AcDbVariableDictionary
350
8B
  0
SUN
  5
5D
330
29
100
AcDbSun
 90
        1
290
     0
 63
     7
421
 16777215
 40
1.0
291
     1
 91
  2455826
 92
 54000000
292
     0
 70
     2
 71
   256
280
     1
  0
DICTIONARY
  5
92
102
{ACAD_REACTORS
330
C
102
}
330
C
100
AcDbDictionary
281
     1
  0
DICTIONARY
  5
D
102
{ACAD_REACTORS
330
C
102
}
330
C
100
AcDbDictionary
281
     1
  0
DICTIONARY
  5
1A
102
{ACAD_REACTORS
330
C
102
}
330
C
100
AcDbDictionary
281
     1
  3
Layout1
350
1E
  3
Layout2
350
26
  3
Model
350
22
  0
DICTIONARY
  5
43
102
{ACAD_REACTORS
330
C
102
}
330
C
100
AcDbDictionary
281
     1
  3
ByBlock
350
45
  3
ByLayer
350
44
  3
Global
350
46
  0
DICTIONARY
  5
5B
102
{ACAD_REACTORS
330
C
102
}
330
C
100
AcDbDictionary
281
     1
  3
Standard
350
5C
  0
DICTIONARY
  5
17
102
{ACAD_REACTORS
330
C
102
}
330
C
100
AcDbDictionary
281
     1
  3
Standard
350
18
  0
DICTIONARY
  5
19
102
{ACAD_REACTORS
330
C
102
}
330
C
100
AcDbDictionary
281
     1
  0
ACDBDICTIONARYWDFLT
  5
E
102
{ACAD_REACTORS
330
C
102
}
330
C
100
AcDbDictionary
281
     1
  3
Normal
350
F
100
AcDbDictionaryWithDefault
340
F
  0
DICTIONARY
  5
47
102
{ACAD_REACTORS
330
C
102
}
330
C
100
AcDbDictionary
281
     1
  3
A0
350
48
  3
A1
350
49
  3
A2
350
4A
  3
A3
350
4B
  3
A4
350
4C
  3
A5
350
4D
  3
A6
350
4E
  3
A7
350
4F
  3
A8
350
50
  3
A9
350
51
  3
B1
350
52
  3
B2
350
53
  3
B3
350
54
  3
B4
350
55
  3
B5
350
56
  3
B6
350
57
  3
B7
350
58
  0
DICTIONARY
  5
93
102
{ACAD_REACTORS
330
C
102
}
330
C
100
AcDbDictionary
281
     1
  0
DICTIONARY
  5
59
102
{ACAD_REACTORS
330
C
102
}
330
C
100
AcDbDictionary
281
     1
  3
Standard
350
5A
  0
DICTIONARY
  5
2A
102
{ACAD_REACTORS
330
C
102
}
330
C
100
AcDbDictionary
281
     1
  3
2dWireframe
350
2F
  3
Basic
350
32
  3
Brighten
350
36
  3
ColorChange
350
3A
  3
Conceptual
350
34
  3
Dim
350
35
  3
EdgeColorOff
350
3D
  3
Facepattern
350
39
  3
Flat
350
2B
  3
FlatWithEdges
350
2C
  3
Gouraud
350
2D
  3
GouraudWithEdges
350
2E
  3
Hidden
350
31
  3
JitterOff
350
3B
  3
Linepattern
350
38
  3
OverhangOff
350
3C
  3
Realistic
350
33
  3
Shaded
350
42
  3
Shaded with edges
350
41
  3
Shades of Gray
350
3E
  3
Sketchy
350
3F
  3
Thicken
350
37
  3
Wireframe
350
30
  3
X-Ray
350
40
  0
XRECORD
  5
8F
102
{ACAD_REACTORS
330
C
102
}
330
C
100
AcDbXrecord
280
     1
 90
        1
330
5A
  0
DICTIONARY
  5
8B
102
{ACAD_REACTORS
330
C
102
}
330
C
100
AcDbDictionary
281
     1
  3
CANNOSCALE
350
8C
  3
CMLEADERSTYLE
350
91
  3
CTABLESTYLE
350
90
  0
LAYOUT
  5
1E
102
{ACAD_REACTORS
330
1A
102
}
330
1A
100
AcDbPlotSettings
  1

  2
none_device
  4

  6

 40
0.0
 41
0.0
 42
0.0
 43
0.0
 44
0.0
 45
0.0
 46
0.0
 47
0.0
 48
0.0
 49
0.0
140
0.0
141
0.0
142
1.0
143
1.0
 70
   688
 72
     0
 73
     0
 74
     5
  7

 75
    16
 76
     0
 77
     2
 78
   300
147
1.0
148
0.0
149
0.0
100
AcDbLayout
  1
Layout1
 70
     1
 71
     1
 10
0.0
 20
0.0
 11
12.0
 21
9.0
 12
0.0
 22
0.0
 32
0.0
 14
1.000000000000000E+20
 24
1.000000000000000E+20
 34
1.000000000000000E+20
 15
-1.000000000000000E+20
 25
-1.000000000000000E+20
 35
-1.000000000000000E+20
146
0.0
 13
0.0
 23
0.0
 33
0.0
 16
1.0
 26
0.0
 36
0.0
 17
0.0
 27
1.0
 37
0.0
 76
     0
330
1B
  0
LAYOUT
  5
26
102
{ACAD_REACTORS
330
1A
102
}
330
1A
100
AcDbPlotSettings
  1

  2
none_device
  4

  6

 40
0.0
 41
0.0
 42
0.0
 43
0.0
 44
0.0
 45
0.0
 46
0.0
 47
0.0
 48
0.0
 49
0.0
140
0.0
141
0.0
142
1.0
143
1.0
 70
   688
 72
     0
 73
     0
 74
     5
  7

 75
    16
 76
     0
 77
     2
 78
   300
147
1.0
148
0.0
149
0.0
100
AcDbLayout
  1
Layout2
 70
     1
 71
     2
 10
0.0
 20
0.0
 11
0.0
 21
0.0
 12
0.0
 22
0.0
 32
0.0
 14
0.0
 24
0.0
 34
0.0
 15
0.0
 25
0.0
 35
0.0
146
0.0
 13
0.0
 23
0.0
 33
0.0
 16
1.0
 26
0.0
 36
0.0
 17
0.0
 27
1.0
 37
0.0
 76
     0
330
23
  0
LAYOUT
  5
22
102
{ACAD_REACTORS
330
1A
102
}
330
1A
100
AcDbPlotSettings
  1

  2
none_device
  4
Letter_(8.50_x_11.00_Inches)
  6

 40
6.35
 41
6.35
 42
6.35000508
 43
6.35000508
 44
215.9
 45
279.4
 46
0.0
 47
0.0
 48
0.0
 49
0.0
140
0.0
141
0.0
142
1.0
143
1.0
 70
  1712
 72
     0
 73
     0
 74
     0
  7

 75
     0
 76
     0
 77
     2
 78
   300
147
1.0
148
0.0
149
0.0
100
AcDbLayout
  1
Model
 70
     1
 71
     0
 10
0.0
 20
0.0
 11
12.0
 21
9.0
 12
0.0
 22
0.0
 32
0.0
 14
-1113.2608
 24
-219.9002
 34
0.0
 15
-282.6987
 25
277.7073
 35
0.0
146
0.0
 13
0.0
 23
0.0
 33
0.0
 16
1.0
 26
0.0
 36
0.0
 17
0.0
 27
1.0
 37
0.0
 76
     0
330
1F
331
29
  0
MATERIAL
  5
45
102
{ACAD_REACTORS
330
43
102
}
330
43
100
AcDbMaterial
  1
ByBlock
 72
     1
 94
      127
  0
MATERIAL
  5
44
102
{ACAD_REACTORS
330
43
102
}
330
43
100
AcDbMaterial
  1
ByLayer
 72
     1
 94
      127
  0
MATERIAL
  5
46
102
{ACAD_REACTORS
330
43
102
}
330
43
100
AcDbMaterial
  1
Global
 72
     1
 94
      127
  0
MLEADERSTYLE
  5
5C
102
{ACAD_REACTORS
330
5B
102
}
330
5B
100
AcDbMLeaderStyle
179
     2
170
     2
171
     1
172
     0
 90
        2
 40
0.0
 41
0.0
173
     1
 91
-1056964608
340
14
 92
       -2
290
     1
 42
0.09
291
     1
 43
0.36
  3
Standard
341
0
 44
0.18
300

342
11
174
     1
178
     6
175
     1
176
     0
 93
-1056964608
 45
0.18
292
     0
297
     0
 46
0.18
343
0
 94
-1056964608
 47
1.0
 49
1.0
140
1.0
293
     1
141
0.0
294
     1
177
     0
142
1.0
295
     0
296
     0
143
0.125
271
     0
272
     9
273
     9
298
     0
  0
MLINESTYLE
  5
18
102
{ACAD_REACTORS
330
17
102
}
330
17
100
AcDbMlineStyle
  2
Standard
 70
     0
  3

 62
   256
 51
90.0
 52
90.0
 71
     2
 49
0.5
 62
   256
  6
BYLAYER
 49
-0.5
 62
   256
  6
BYLAYER
  0
ACDBPLACEHOLDER
  5
F
102
{ACAD_REACTORS
330
E
102
}
330
E
  0
SCALE
  5
48
102
{ACAD_REACTORS
330
47
102
}
330
47
100
AcDbScale
 70
     0
300
1:1
140
1.0
141
1.0
290
     1
  0
SCALE
  5
49
102
{ACAD_REACTORS
330
47
102
}
330
47
100
AcDbScale
 70
     0
300
1/128" = 1'-0"
140
0.0078125
141
12.0
290
     0
  0
SCALE
  5
4A
102
{ACAD_REACTORS
330
47
102
}
330
47
100
AcDbScale
 70
     0
300
1/64" = 1'-0"
140
0.015625
141
12.0
290
     0
  0
SCALE
  5
4B
102
{ACAD_REACTORS
330
47
102
}
330
47
100
AcDbScale
 70
     0
300
1/32" = 1'-0"
140
0.03125
141
12.0
290
     0
  0
SCALE
  5
4C
102
{ACAD_REACTORS
330
47
102
}
330
47
100
AcDbScale
 70
     0
300
1/16" = 1'-0"
140
0.0625
141
12.0
290
     0
  0
SCALE
  5
4D
102
{ACAD_REACTORS
330
47
102
}
330
47
100
AcDbScale
 70
     0
300
3/32" = 1'-0"
140
0.09375
141
12.0
290
     0
  0
SCALE
  5
4E
102
{ACAD_REACTORS
330
47
102
}
330
47
100
AcDbScale
 70
     0
300
1/8" = 1'-0"
140
0.125
141
12.0
290
     0
  0
SCALE
  5
4F
102
{ACAD_REACTORS
330
47
102
}
330
47
100
AcDbScale
 70
     0
300
3/16" = 1'-0"
140
0.1875
141
12.0
290
     0
  0
SCALE
  5
50
102
{ACAD_REACTORS
330
47
102
}
330
47
100
AcDbScale
 70
     0
300
1/4" = 1'-0"
140
0.25
141
12.0
290
     0
  0
SCALE
  5
51
102
{ACAD_REACTORS
330
47
102
}
330
47
100
AcDbScale
 70
     0
300
3/8" = 1'-0"
140
0.375
141
12.0
290
     0
  0
SCALE
  5
52
102
{ACAD_REACTORS
330
47
102
}
330
47
100
AcDbScale
 70
     0
300
1/2" = 1'-0"
140
0.5
141
12.0
290
     0
  0
SCALE
  5
53
102
{ACAD_REACTORS
330
47
102
}
330
47
100
AcDbScale
 70
     0
300
3/4" = 1'-0"
140
0.75
141
12.0
290
     0
  0
SCALE
  5
54
102
{ACAD_REACTORS
330
47
102
}
330
47
100
AcDbScale
 70
     0
300
1" = 1'-0"
140
1.0
141
12.0
290
     0
  0
SCALE
  5
55
102
{ACAD_REACTORS
330
47
102
}
330
47
100
AcDbScale
 70
     0
300
1-1/2" = 1'-0"
140
1.5
141
12.0
290
     0
  0
SCALE
  5
56
102
{ACAD_REACTORS
330
47
102
}
330
47
100
AcDbScale
 70
     0
300
3" = 1'-0"
140
3.0
141
12.0
290
     0
  0
SCALE
  5
57
102
{ACAD_REACTORS
330
47
102
}
330
47
100
AcDbScale
 70
     0
300
6" = 1'-0"
140
6.0
141
12.0
290
     0
  0
SCALE
  5
58
102
{ACAD_REACTORS
330
47
102
}
330
47
100
AcDbScale
 70
     0
300
1'-0" = 1'-0"
140
12.0
141
12.0
290
     0
  0
TABLESTYLE
  5
5A
102
{ACAD_REACTORS
330
59
102
}
102
{ACAD_XDICTIONARY
360
8D
102
}
330
59
100
AcDbTableStyle
  3
Standard
 70
     0
 71
     0
 40
0.06
 41
0.06
280
     0
281
     0
  7
Standard
140
0.18
170
     2
 62
     0
 63
   257
283
     0
 90
        4
 91
        0
  1

274
    -2
284
     1
 64
     0
275
    -2
285
     1
 65
     0
276
    -2
286
     1
 66
     0
277
    -2
287
     1
 67
     0
278
    -2
288
     1
 68
     0
279
    -2
289
     1
 69
     0
  7
Standard
140
0.25
170
     5
 62
     0
 63
   257
283
     0
 90
        4
 91
        0
  1

274
    -2
284
     1
 64
     0
275
    -2
285
     1
 65
     0
276
    -2
286
     1
 66
     0
277
    -2
287
     1
 67
     0
278
    -2
288
     1
 68
     0
279
    -2
289
     1
 69
     0
  7
Standard
140
0.18
170
     5
 62
     0
 63
   257
283
     0
 90
        4
 91
        0
  1

274
    -2
284
     1
 64
     0
275
    -2
285
     1
 65
     0
276
    -2
286
     1
 66
     0
277
    -2
287
     1
 67
     0
278
    -2
288
     1
 68
     0
279
    -2
289
     1
 69
     0
  0
VISUALSTYLE
  5
2F
102
{ACAD_REACTORS
330
2A
102
}
330
2A
100
AcDbVisualStyle
  2
2dWireframe
 70
     4
177
     3
291
     0
 70
    58
 90
        0
176
     1
 90
        2
176
     1
 90
        0
176
     1
 90
        0
176
     1
 40
0.6
176
     1
 40
30.0
176
     1
 62
     7
420
 16777215
176
     1
 90
        1
176
     1
 90
        4
176
     1
 62
     7
176
     1
 62
   257
176
     1
 90
        1
176
     1
 90
        1
176
     1
 40
1.0
176
     1
 90
        0
176
     1
 62
   257
176
     1
 40
1.0
176
     1
 90
        1
176
     1
 90
        6
176
     1
 90
        2
176
     1
 62
     7
176
     1
 90
        5
176
     1
 90
        0
176
     1
 90
        0
176
     1
290
     0
176
     1
 90
        1
176
     1
 40
0.0
176
     1
 90
        0
176
     1
290
     1
176
     1
290
     1
176
     1
290
     0
176
     1
290
     0
176
     1
290
     0
176
     1
290
     0
176
     1
290
     0
176
     1
290
     0
176
     1
290
     0
176
     1
 90
       50
176
     1
 40
0.0
176
     1
 40
1.0
176
     1
 90
        0
176
     1
 62
    18
420
        0
176
     1
 90
       50
176
     1
 90
        3
176
     1
 62
     5
420
      255
176
     1
290
     0
176
     1
 90
       50
176
     1
 90
       50
176
     1
 90
       50
176
     1
290
     0
176
     1
 90
       50
176
     1
 62
   256
176
     0
 40
1.0
176
     0
 90
        2
176
     1
  1
strokes_ogs.tif
176
     1
290
     0
176
     1
 40
1.0
176
     1
 40
1.0
176
     1
  0
VISUALSTYLE
  5
32
102
{ACAD_REACTORS
330
2A
102
}
330
2A
100
AcDbVisualStyle
  2
Basic
 70
     7
177
     3
291
     1
 70
    58
 90
        1
176
     1
 90
        0
176
     1
 90
        1
176
     1
 90
        0
176
     1
 40
0.6
176
     1
 40
30.0
176
     1
 62
     7
420
 16777215
176
     1
 90
        0
176
     1
 90
        4
176
     1
 62
     7
176
     1
 62
   257
176
     1
 90
        1
176
     1
 90
        1
176
     1
 40
1.0
176
     1
 90
        8
176
     1
 62
     7
176
     1
 40
1.0
176
     1
 90
        1
176
     1
 90
        6
176
     1
 90
        2
176
     1
 62
     7
176
     1
 90
        5
176
     1
 90
        0
176
     1
 90
        0
176
     1
290
     0
176
     1
 90
        1
176
     1
 40
0.0
176
     1
 90
        0
176
     1
290
     0
176
     1
290
     1
176
     1
290
     1
176
     1
290
     0
176
     1
290
     0
176
     1
290
     0
176
     1
290
     0
176
     1
290
     0
176
     1
290
     0
176
     1
 90
       50
176
     1
 40
0.0
176
     1
 40
1.0
176
     1
 90
        0
176
     1
 62
    18
420
        0
176
     1
 90
       50
176
     1
 90
        3
176
     1
 62
     5
420
      255
176
     1
290
     0
176
     1
 90
       50
176
     1
 90
       50
176
     1
 90
       50
176
     1
290
     0
176
     1
 90
       50
176
     1
 62
   256
176
     0
 40
1.0
176
     0
 90
        2
176
     1
  1
strokes_ogs.tif
176
     1
290
     0
176
     1
 40
1.0
176
     1
 40
1.0
176
     1
  0
VISUALSTYLE
  5
36
102
{ACAD_REACTORS
330
2A
102
}
330
2A
100
AcDbVisualStyle
  2
Brighten
 70
    12
177
     3
291
     1
 70
    58
 90
        2
176
     1
 90
        2
176
     1
 90
        0
176
     1
 90
        0
176
     1
 40
0.6
176
     1
 40
30.0
176
     1
 62
     7
420
 16777215
176
     1
 90
        1
176
     1
 90
        4
176
     1
 62
     7
176
     1
 62
   257
176
     1
 90
        1
176
     1
 90
        1
176
     1
 40
1.0
176
     1
 90
        8
176
     1
 62
     7
176
     1
 40
1.0
176
     1
 90
        1
176
     1
 90
        6
176
     1
 90
        2
176
     1
 62
     7
176
     1
 90
        5
176
     1
 90
        0
176
     1
 90
        0
176
     1
290
     0
176
     1
 90
        1
176
     1
 40
50.0
176
     1
 90
        0
176
     1
290
     0
176
     1
290
     1
176
     1
290
     1
176
     1
290
     0
176
     1
290
     0
176
     1
290
     0
176
     1
290
     0
176
     1
290
     0
176
     1
290
     0
176
     1
 90
       50
176
     1
 40
0.0
176
     1
 40
1.0
176
     1
 90
        0
176
     1
 62
    18
420
        0
176
     1
 90
       50
176
     1
 90
        3
176
     1
 62
     5
420
      255
176
     1
290
     0
176
     1
 90
       50
176
     1
 90
       50
176
     1
 90
       50
176
     1
290
     0
176
     1
 90
       50
176
     1
 62
   256
176
     0
 40
1.0
176
     0
 90
        2
176
     1
  1
strokes_ogs.tif
176
     1
290
     0
176
     1
 40
1.0
176
     1
 40
1.0
176
     1
  0
VISUALSTYLE
  5
3A
102
{ACAD_REACTORS
330
2A
102
}
330
2A
100
AcDbVisualStyle
  2
ColorChange
 70
    16
177
     3
291
     1
 70
    58
 90
        2
176
     1
 90
        2
176
     1
 90
        3
176
     1
 90
        0
176
     1
 40
0.6
176
     1
 40
30.0
176
     1
 62
     8
420
  8421504
176
     1
 90
        1
176
     1
 90
        4
176
     1
 62
     7
176
     1
 62
   257
176
     1
 90
        1
176
     1
 90
        1
176
     1
 40
1.0
176
     1
 90
        8
176
     1
 62
     8
420
  8421504
176
     1
 40
1.0
176
     1
 90
        1
176
     1
 90
        6
176
     1
 90
        2
176
     1
 62
     7
176
     1
 90
        5
176
     1
 90
        0
176
     1
 90
        0
176
     1
290
     0
176
     1
 90
        1
176
     1
 40
0.0
176
     1
 90
        0
176
     1
290
     0
176
     1
290
     1
176
     1
290
     1
176
     1
290
     0
176
     1
290
     0
176
     1
290
     0
176
     1
290
     0
176
     1
290
     0
176
     1
290
     0
176
     1
 90
       50
176
     1
 40
0.0
176
     1
 40
1.0
176
     1
 90
        0
176
     1
 62
    18
420
        0
176
     1
 90
       50
176
     1
 90
        3
176
     1
 62
     5
420
      255
176
     1
290
     0
176
     1
 90
       50
176
     1
 90
       50
176
     1
 90
       50
176
     1
290
     0
176
     1
 90
       50
176
     1
 62
   256
176
     0
 40
1.0
176
     0
 90
        2
176
     1
  1
strokes_ogs.tif
176
     1
290
     0
176
     1
 40
1.0
176
     1
 40
1.0
176
     1
  0
VISUALSTYLE
  5
34
102
{ACAD_REACTORS
330
2A
102
}
330
2A
100
AcDbVisualStyle
  2
Conceptual
 70
     9
177
     3
291
     0
 70
    58
 90
        3
176
     1
 90
        2
176
     1
 90
        0
176
     1
 90
        0
176
     1
 40
0.6
176
     1
 40
30.0
176
     1
 62
     7
420
 16777215
176
     1
 90
        2
176
     1
 90
        2
176
     1
 62
     7
176
     1
 62
   257
176
     1
 90
        1
176
     1
 90
        1
176
     1
 40
179.0
176
     1
 90
        8
176
     1
 62
     7
176
     1
 40
1.0
176
     1
 90
        1
176
     1
 90
        6
176
     1
 90
        2
176
     1
 62
     7
176
     1
 90
        3
176
     1
 90
        0
176
     1
 90
        0
176
     1
290
     0
176
     1
 90
        1
176
     1
 40
0.0
176
     1
 90
        0
176
     1
290
     0
176
     1
290
     1
176
     1
290
     1
176
     1
290
     0
176
     1
290
     0
176
     1
290
     0
176
     1
290
     0
176
     1
290
     0
176
     1
290
     0
176
     1
 90
       50
176
     1
 40
0.0
176
     1
 40
1.0
176
     1
 90
        0
176
     1
 62
    18
420
        0
176
     1
 90
       50
176
     1
 90
        3
176
     1
 62
     5
420
      255
176
     1
290
     0
176
     1
 90
       50
176
     1
 90
       50
176
     1
 90
       50
176
     1
290
     0
176
     1
 90
       50
176
     1
 62
   256
176
     0
 40
1.0
176
     0
 90
        2
176
     1
  1
strokes_ogs.tif
176
     1
290
     0
176
     1
 40
1.0
176
     1
 40
1.0
176
     1
  0
VISUALSTYLE
  5
35
102
{ACAD_REACTORS
330
2A
102
}
330
2A
100
AcDbVisualStyle
  2
Dim
 70
    11
177
     3
291
     1
 70
    58
 90
        2
176
     1
 90
        2
176
     1
 90
        0
176
     1
 90
        0
176
     1
 40
0.6
176
     1
 40
30.0
176
     1
 62
     7
420
 16777215
176
     1
 90
        1
176
     1
 90
        4
176
     1
 62
     7
176
     1
 62
   257
176
     1
 90
        1
176
     1
 90
        1
176
     1
 40
1.0
176
     1
 90
        8
176
     1
 62
     7
176
     1
 40
1.0
176
     1
 90
        1
176
     1
 90
        6
176
     1
 90
        2
176
     1
 62
     7
176
     1
 90
        5
176
     1
 90
        0
176
     1
 90
        0
176
     1
290
     0
176
     1
 90
        1
176
     1
 40
-50.0
176
     1
 90
        0
176
     1
290
     0
176
     1
290
     1
176
     1
290
     1
176
     1
290
     0
176
     1
290
     0
176
     1
290
     0
176
     1
290
     0
176
     1
290
     0
176
     1
290
     0
176
     1
 90
       50
176
     1
 40
0.0
176
     1
 40
1.0
176
     1
 90
        0
176
     1
 62
    18
420
        0
176
     1
 90
       50
176
     1
 90
        3
176
     1
 62
     5
420
      255
176
     1
290
     0
176
     1
 90
       50
176
     1
 90
       50
176
     1
 90
       50
176
     1
290
     0
176
     1
 90
       50
176
     1
 62
   256
176
     0
 40
1.0
176
     0
 90
        2
176
     1
  1
strokes_ogs.tif
176
     1
290
     0
176
     1
 40
1.0
176
     1
 40
1.0
176
     1
  0
VISUALSTYLE
  5
3D
102
{ACAD_REACTORS
330
2A
102
}
330
2A
100
AcDbVisualStyle
  2
EdgeColorOff
 70
    22
177
     3
291
     1
 70
    58
 90
        2
176
     0
 90
        2
176
     0
 90
        0
176
     0
 90
        0
176
     0
 40
0.6
176
     0
 40
30.0
176
     0
 62
     7
420
 16777215
176
     0
 90
        1
176
     0
 90
        4
176
     0
 62
     7
176
     0
 62
   257
176
     0
 90
        1
176
     0
 90
        1
176
     0
 40
1.0
176
     0
 90
        8
176
     2
 62
     7
176
     0
 40
1.0
176
     0
 90
        1
176
     0
 90
        6
176
     0
 90
        2
176
     0
 62
     7
176
     0
 90
        5
176
     0
 90
        0
176
     0
 90
        0
176
     0
290
     0
176
     0
 90
        1
176
     0
 40
0.0
176
     0
 90
        0
176
     0
290
     0
176
     0
290
     1
176
     0
290
     1
176
     0
290
     0
176
     0
290
     0
176
     0
290
     0
176
     0
290
     0
176
     0
290
     0
176
     0
290
     0
176
     0
 90
       50
176
     0
 40
0.0
176
     0
 40
1.0
176
     0
 90
        0
176
     0
 62
    18
420
        0
176
     0
 90
       50
176
     0
 90
        3
176
     0
 62
     5
420
      255
176
     0
290
     0
176
     0
 90
       50
176
     0
 90
       50
176
     0
 90
       50
176
     0
290
     0
176
     0
 90
       50
176
     0
 62
   256
176
     0
 40
1.0
176
     0
 90
        2
176
     0
  1
strokes_ogs.tif
176
     0
290
     0
176
     0
 40
1.0
176
     0
 40
1.0
176
     0
  0
VISUALSTYLE
  5
39
102
{ACAD_REACTORS
330
2A
102
}
330
2A
100
AcDbVisualStyle
  2
Facepattern
 70
    15
177
     3
291
     1
 70
    58
 90
        2
176
     1
 90
        2
176
     1
 90
        0
176
     1
 90
        0
176
     1
 40
0.6
176
     1
 40
30.0
176
     1
 62
     7
420
 16777215
176
     1
 90
        1
176
     1
 90
        4
176
     1
 62
     7
176
     1
 62
   257
176
     1
 90
        1
176
     1
 90
        1
176
     1
 40
1.0
176
     1
 90
        8
176
     1
 62
     7
176
     1
 40
1.0
176
     1
 90
        1
176
     1
 90
        6
176
     1
 90
        2
176
     1
 62
     7
176
     1
 90
        5
176
     1
 90
        0
176
     1
 90
        0
176
     1
290
     0
176
     1
 90
        1
176
     1
 40
0.0
176
     1
 90
        0
176
     1
290
     0
176
     1
290
     1
176
     1
290
     1
176
     1
290
     0
176
     1
290
     0
176
     1
290
     0
176
     1
290
     0
176
     1
290
     0
176
     1
290
     0
176
     1
 90
       50
176
     1
 40
0.0
176
     1
 40
1.0
176
     1
 90
        0
176
     1
 62
    18
420
        0
176
     1
 90
       50
176
     1
 90
        3
176
     1
 62
     5
420
      255
176
     1
290
     0
176
     1
 90
       50
176
     1
 90
       50
176
     1
 90
       50
176
     1
290
     0
176
     1
 90
       50
176
     1
 62
   256
176
     0
 40
1.0
176
     0
 90
        2
176
     1
  1
strokes_ogs.tif
176
     1
290
     0
176
     1
 40
1.0
176
     1
 40
1.0
176
     1
  0
VISUALSTYLE
  5
2B
102
{ACAD_REACTORS
330
2A
102
}
330
2A
100
AcDbVisualStyle
  2
Flat
 70
     0
177
     3
291
     1
 70
    58
 90
        2
176
     1
 90
        1
176
     1
 90
        1
176
     1
 90
        2
176
     1
 40
0.6
176
     1
 40
30.0
176
     1
 62
     7
420
 16777215
176
     1
 90
        0
176
     1
 90
        0
176
     1
 62
     7
176
     1
 62
   257
176
     1
 90
        1
176
     1
 90
        1
176
     1
 40
1.0
176
     1
 90
        8
176
     1
 62
     7
176
     1
 40
1.0
176
     1
 90
        1
176
     1
 90
        6
176
     1
 90
        2
176
     1
 62
     7
176
     1
 90
        5
176
     1
 90
        0
176
     1
 90
        0
176
     1
290
     0
176
     1
 90
       13
176
     1
 40
0.0
176
     1
 90
        0
176
     1
290
     0
176
     1
290
     1
176
     1
290
     1
176
     1
290
     0
176
     1
290
     0
176
     1
290
     0
176
     1
290
     0
176
     1
290
     0
176
     1
290
     0
176
     1
 90
       50
176
     1
 40
0.0
176
     1
 40
1.0
176
     1
 90
        0
176
     1
 62
    18
420
        0
176
     1
 90
       50
176
     1
 90
        3
176
     1
 62
     5
420
      255
176
     1
290
     0
176
     1
 90
       50
176
     1
 90
       50
176
     1
 90
       50
176
     1
290
     0
176
     1
 90
       50
176
     1
 62
   256
176
     0
 40
1.0
176
     0
 90
        2
176
     1
  1
strokes_ogs.tif
176
     1
290
     0
176
     1
 40
1.0
176
     1
 40
1.0
176
     1
  0
VISUALSTYLE
  5
2C
102
{ACAD_REACTORS
330
2A
102
}
330
2A
100
AcDbVisualStyle
  2
FlatWithEdges
 70
     1
177
     3
291
     1
 70
    58
 90
        2
176
     1
 90
        1
176
     1
 90
        1
176
     1
 90
        2
176
     1
 40
0.6
176
     1
 40
30.0
176
     1
 62
     7
420
 16777215
176
     1
 90
        1
176
     1
 90
        0
176
     1
 62
     7
176
     1
 62
   257
176
     1
 90
        1
176
     1
 90
        1
176
     1
 40
1.0
176
     1
 90
        0
176
     1
 62
   257
176
     1
 40
1.0
176
     1
 90
        1
176
     1
 90
        6
176
     1
 90
        2
176
     1
 62
     7
176
     1
 90
        5
176
     1
 90
        0
176
     1
 90
        0
176
     1
290
     0
176
     1
 90
       13
176
     1
 40
0.0
176
     1
 90
        0
176
     1
290
     0
176
     1
290
     1
176
     1
290
     1
176
     1
290
     0
176
     1
290
     0
176
     1
290
     0
176
     1
290
     0
176
     1
290
     0
176
     1
290
     0
176
     1
 90
       50
176
     1
 40
0.0
176
     1
 40
1.0
176
     1
 90
        0
176
     1
 62
    18
420
        0
176
     1
 90
       50
176
     1
 90
        3
176
     1
 62
     5
420
      255
176
     1
290
     0
176
     1
 90
       50
176
     1
 90
       50
176
     1
 90
       50
176
     1
290
     0
176
     1
 90
       50
176
     1
 62
   256
176
     0
 40
1.0
176
     0
 90
        2
176
     1
  1
strokes_ogs.tif
176
     1
290
     0
176
     1
 40
1.0
176
     1
 40
1.0
176
     1
  0
VISUALSTYLE
  5
2D
102
{ACAD_REACTORS
330
2A
102
}
330
2A
100
AcDbVisualStyle
  2
Gouraud
 70
     2
177
     3
291
     1
 70
    58
 90
        2
176
     1
 90
        2
176
     1
 90
        1
176
     1
 90
        2
176
     1
 40
0.6
176
     1
 40
30.0
176
     1
 62
     7
420
 16777215
176
     1
 90
        0
176
     1
 90
        0
176
     1
 62
     7
176
     1
 62
   257
176
     1
 90
        1
176
     1
 90
        1
176
     1
 40
1.0
176
     1
 90
        0
176
     1
 62
     7
176
     1
 40
1.0
176
     1
 90
        1
176
     1
 90
        6
176
     1
 90
        2
176
     1
 62
     7
176
     1
 90
        5
176
     1
 90
        0
176
     1
 90
        0
176
     1
290
     0
176
     1
 90
       13
176
     1
 40
0.0
176
     1
 90
        0
176
     1
290
     0
176
     1
290
     1
176
     1
290
     1
176
     1
290
     0
176
     1
290
     0
176
     1
290
     0
176
     1
290
     0
176
     1
290
     0
176
     1
290
     0
176
     1
 90
       50
176
     1
 40
0.0
176
     1
 40
1.0
176
     1
 90
        0
176
     1
 62
    18
420
        0
176
     1
 90
       50
176
     1
 90
        3
176
     1
 62
     5
420
      255
176
     1
290
     0
176
     1
 90
       50
176
     1
 90
       50
176
     1
 90
       50
176
     1
290
     0
176
     1
 90
       50
176
     1
 62
   256
176
     0
 40
1.0
176
     0
 90
        2
176
     1
  1
strokes_ogs.tif
176
     1
290
     0
176
     1
 40
1.0
176
     1
 40
1.0
176
     1
  0
VISUALSTYLE
  5
2E
102
{ACAD_REACTORS
330
2A
102
}
330
2A
100
AcDbVisualStyle
  2
GouraudWithEdges
 70
     3
177
     3
291
     1
 70
    58
 90
        2
176
     1
 90
        2
176
     1
 90
        1
176
     1
 90
        2
176
     1
 40
0.6
176
     1
 40
30.0
176
     1
 62
     7
420
 16777215
176
     1
 90
        1
176
     1
 90
        0
176
     1
 62
     7
176
     1
 62
   257
176
     1
 90
        1
176
     1
 90
        1
176
     1
 40
1.0
176
     1
 90
        0
176
     1
 62
   257
176
     1
 40
1.0
176
     1
 90
        1
176
     1
 90
        6
176
     1
 90
        2
176
     1
 62
     7
176
     1
 90
        5
176
     1
 90
        0
176
     1
 90
        0
176
     1
290
     0
176
     1
 90
       13
176
     1
 40
0.0
176
     1
 90
        0
176
     1
290
     0
176
     1
290
     1
176
     1
290
     1
176
     1
290
     0
176
     1
290
     0
176
     1
290
     0
176
     1
290
     0
176
     1
290
     0
176
     1
290
     0
176
     1
 90
       50
176
     1
 40
0.0
176
     1
 40
1.0
176
     1
 90
        0
176
     1
 62
    18
420
        0
176
     1
 90
       50
176
     1
 90
        3
176
     1
 62
     5
420
      255
176
     1
290
     0
176
     1
 90
       50
176
     1
 90
       50
176
     1
 90
       50
176
     1
290
     0
176
     1
 90
       50
176
     1
 62
   256
176
     0
 40
1.0
176
     0
 90
        2
176
     1
  1
strokes_ogs.tif
176
     1
290
     0
176
     1
 40
1.0
176
     1
 40
1.0
176
     1
  0
VISUALSTYLE
  5
31
102
{ACAD_REACTORS
330
2A
102
}
330
2A
100
AcDbVisualStyle
  2
Hidden
 70
     6
177
     3
291
     0
 70
    58
 90
        1
176
     1
 90
        2
176
     1
 90
        2
176
     1
 90
        0
176
     1
 40
0.6
176
     1
 40
30.0
176
     1
 62
     7
420
 16777215
176
     1
 90
        2
176
     1
 90
        2
176
     1
 62
     7
176
     1
 62
   257
176
     1
 90
        2
176
     1
 90
        1
176
     1
 40
40.0
176
     1
 90
        0
176
     1
 62
   257
176
     1
 40
1.0
176
     1
 90
        1
176
     1
 90
        6
176
     1
 90
        2
176
     1
 62
     7
176
     1
 90
        3
176
     1
 90
        0
176
     1
 90
        0
176
     1
290
     0
176
     1
 90
        1
176
     1
 40
0.0
176
     1
 90
        0
176
     1
290
     0
176
     1
290
     1
176
     1
290
     1
176
     1
290
     0
176
     1
290
     0
176
     1
290
     0
176
     1
290
     0
176
     1
290
     0
176
     1
290
     0
176
     1
 90
       50
176
     1
 40
0.0
176
     1
 40
1.0
176
     1
 90
        0
176
     1
 62
    18
420
        0
176
     1
 90
       50
176
     1
 90
        3
176
     1
 62
     5
420
      255
176
     1
290
     0
176
     1
 90
       50
176
     1
 90
       50
176
     1
 90
       50
176
     1
290
     0
176
     1
 90
       50
176
     1
 62
   256
176
     0
 40
1.0
176
     0
 90
        2
176
     1
  1
strokes_ogs.tif
176
     1
290
     0
176
     1
 40
1.0
176
     1
 40
1.0
176
     1
  0
VISUALSTYLE
  5
3B
102
{ACAD_REACTORS
330
2A
102
}
330
2A
100
AcDbVisualStyle
  2
JitterOff
 70
    20
177
     3
291
     1
 70
    58
 90
        2
176
     0
 90
        2
176
     0
 90
        0
176
     0
 90
        0
176
     0
 40
0.6
176
     0
 40
30.0
176
     0
 62
     7
420
 16777215
176
     0
 90
        1
176
     0
 90
        4
176
     0
 62
     7
176
     0
 62
   257
176
     0
 90
        1
176
     0
 90
        1
176
     0
 40
1.0
176
     0
 90
       10
176
     2
 62
     7
176
     0
 40
1.0
176
     0
 90
        1
176
     0
 90
        6
176
     0
 90
        2
176
     0
 62
     7
176
     0
 90
        5
176
     0
 90
        0
176
     0
 90
        0
176
     0
290
     0
176
     0
 90
        1
176
     0
 40
0.0
176
     0
 90
        0
176
     0
290
     0
176
     0
290
     1
176
     0
290
     1
176
     0
290
     0
176
     0
290
     0
176
     0
290
     0
176
     0
290
     0
176
     0
290
     0
176
     0
290
     0
176
     0
 90
       50
176
     0
 40
0.0
176
     0
 40
1.0
176
     0
 90
        0
176
     0
 62
    18
420
        0
176
     0
 90
       50
176
     0
 90
        3
176
     0
 62
     5
420
      255
176
     0
290
     0
176
     0
 90
       50
176
     0
 90
       50
176
     0
 90
       50
176
     0
290
     0
176
     0
 90
       50
176
     0
 62
   256
176
     0
 40
1.0
176
     0
 90
        2
176
     0
  1
strokes_ogs.tif
176
     0
290
     0
176
     0
 40
1.0
176
     0
 40
1.0
176
     0
  0
VISUALSTYLE
  5
38
102
{ACAD_REACTORS
330
2A
102
}
330
2A
100
AcDbVisualStyle
  2
Linepattern
 70
    14
177
     3
291
     1
 70
    58
 90
        2
176
     1
 90
        2
176
     1
 90
        0
176
     1
 90
        0
176
     1
 40
0.6
176
     1
 40
30.0
176
     1
 62
     7
420
 16777215
176
     1
 90
        1
176
     1
 90
        4
176
     1
 62
     7
176
     1
 62
   257
176
     1
 90
        7
176
     1
 90
        7
176
     1
 40
1.0
176
     1
 90
        8
176
     1
 62
     7
176
     1
 40
1.0
176
     1
 90
        1
176
     1
 90
        6
176
     1
 90
        2
176
     1
 62
     7
176
     1
 90
        5
176
     1
 90
        0
176
     1
 90
        0
176
     1
290
     0
176
     1
 90
        1
176
     1
 40
0.0
176
     1
 90
        0
176
     1
290
     0
176
     1
290
     1
176
     1
290
     1
176
     1
290
     0
176
     1
290
     0
176
     1
290
     0
176
     1
290
     0
176
     1
290
     0
176
     1
290
     0
176
     1
 90
       50
176
     1
 40
0.0
176
     1
 40
1.0
176
     1
 90
        0
176
     1
 62
    18
420
        0
176
     1
 90
       50
176
     1
 90
        3
176
     1
 62
     5
420
      255
176
     1
290
     0
176
     1
 90
       50
176
     1
 90
       50
176
     1
 90
       50
176
     1
290
     0
176
     1
 90
       50
176
     1
 62
   256
176
     0
 40
1.0
176
     0
 90
        2
176
     1
  1
strokes_ogs.tif
176
     1
290
     0
176
     1
 40
1.0
176
     1
 40
1.0
176
     1
  0
VISUALSTYLE
  5
3C
102
{ACAD_REACTORS
330
2A
102
}
330
2A
100
AcDbVisualStyle
  2
OverhangOff
 70
    21
177
     3
291
     1
 70
    58
 90
        2
176
     0
 90
        2
176
     0
 90
        0
176
     0
 90
        0
176
     0
 40
0.6
176
     0
 40
30.0
176
     0
 62
     7
420
 16777215
176
     0
 90
        1
176
     0
 90
        4
176
     0
 62
     7
176
     0
 62
   257
176
     0
 90
        1
176
     0
 90
        1
176
     0
 40
1.0
176
     0
 90
        9
176
     2
 62
     7
176
     0
 40
1.0
176
     0
 90
        1
176
     0
 90
        6
176
     0
 90
        2
176
     0
 62
     7
176
     0
 90
        5
176
     0
 90
        0
176
     0
 90
        0
176
     0
290
     0
176
     0
 90
        1
176
     0
 40
0.0
176
     0
 90
        0
176
     0
290
     0
176
     0
290
     1
176
     0
290
     1
176
     0
290
     0
176
     0
290
     0
176
     0
290
     0
176
     0
290
     0
176
     0
290
     0
176
     0
290
     0
176
     0
 90
       50
176
     0
 40
0.0
176
     0
 40
1.0
176
     0
 90
        0
176
     0
 62
    18
420
        0
176
     0
 90
       50
176
     0
 90
        3
176
     0
 62
     5
420
      255
176
     0
290
     0
176
     0
 90
       50
176
     0
 90
       50
176
     0
 90
       50
176
     0
290
     0
176
     0
 90
       50
176
     0
 62
   256
176
     0
 40
1.0
176
     0
 90
        2
176
     0
  1
strokes_ogs.tif
176
     0
290
     0
176
     0
 40
1.0
176
     0
 40
1.0
176
     0
  0
VISUALSTYLE
  5
33
102
{ACAD_REACTORS
330
2A
102
}
330
2A
100
AcDbVisualStyle
  2
Realistic
 70
     8
177
     3
291
     0
 70
    58
 90
        2
176
     1
 90
        3
176
     1
 90
        0
176
     1
 90
        2
176
     1
 40
0.6
176
     1
 40
30.0
176
     1
 62
     7
420
 16777215
176
     1
 90
        0
176
     1
 90
        0
176
     1
 62
     7
176
     1
 62
   257
176
     1
 90
        1
176
     1
 90
        1
176
     1
 40
1.0
176
     1
 90
        8
176
     1
 62
   257
176
     1
 40
1.0
176
     1
 90
        1
176
     1
 90
        6
176
     1
 90
        2
176
     1
 62
     7
176
     1
 90
        3
176
     1
 90
        0
176
     1
 90
        0
176
     1
290
     0
176
     1
 90
       13
176
     1
 40
0.0
176
     1
 90
        0
176
     1
290
     0
176
     1
290
     1
176
     1
290
     1
176
     1
290
     0
176
     1
290
     0
176
     1
290
     0
176
     1
290
     0
176
     1
290
     0
176
     1
290
     0
176
     1
 90
       50
176
     1
 40
0.0
176
     1
 40
1.0
176
     1
 90
        0
176
     1
 62
    18
420
        0
176
     1
 90
       50
176
     1
 90
        3
176
     1
 62
     5
420
      255
176
     1
290
     0
176
     1
 90
       50
176
     1
 90
       50
176
     1
 90
       50
176
     1
290
     0
176
     1
 90
       50
176
     1
 62
   256
176
     0
 40
1.0
176
     0
 90
        2
176
     1
  1
strokes_ogs.tif
176
     1
290
     0
176
     1
 40
1.0
176
     1
 40
1.0
176
     1
  0
VISUALSTYLE
  5
42
102
{ACAD_REACTORS
330
2A
102
}
330
2A
100
AcDbVisualStyle
  2
Shaded
 70
    27
177
     3
291
     0
 70
    58
 90
        2
176
     1
 90
        2
176
     1
 90
        1
176
     1
 90
        2
176
     1
 40
0.6
176
     1
 40
30.0
176
     1
 62
     7
420
 16777215
176
     1
 90
        0
176
     1
 90
        4
176
     1
 62
     7
176
     1
 62
   257
176
     1
 90
        1
176
     1
 90
        1
176
     1
 40
1.0
176
     1
 90
        8
176
     1
 62
   257
176
     1
 40
1.0
176
     1
 90
        1
176
     1
 90
        6
176
     1
 90
        2
176
     1
 62
     8
420
  7895160
176
     1
 90
        3
176
     1
 90
        0
176
     1
 90
        0
176
     1
290
     0
176
     1
 90
        5
176
     1
 40
0.0
176
     1
 90
        0
176
     1
290
     0
176
     1
290
     1
176
     1
290
     1
176
     1
290
     0
176
     1
290
     0
176
     1
290
     0
176
     1
290
     0
176
     1
290
     0
176
     1
290
     0
176
     1
 90
       50
176
     1
 40
0.0
176
     1
 40
1.0
176
     1
 90
        0
176
     1
 62
    18
420
        0
176
     1
 90
       50
176
     1
 90
        3
176
     1
 62
     5
420
      255
176
     1
290
     0
176
     1
 90
       50
176
     1
 90
       50
176
     1
 90
       50
176
     1
290
     0
176
     1
 90
       50
176
     1
 62
   256
176
     0
 40
1.0
176
     0
 90
        2
176
     1
  1
strokes_ogs.tif
176
     1
290
     0
176
     1
 40
1.0
176
     1
 40
1.0
176
     1
  0
VISUALSTYLE
  5
41
102
{ACAD_REACTORS
330
2A
102
}
330
2A
100
AcDbVisualStyle
  2
Shaded with edges
 70
    26
177
     3
291
     0
 70
    58
 90
        2
176
     1
 90
        2
176
     1
 90
        1
176
     1
 90
        2
176
     1
 40
0.6
176
     1
 40
30.0
176
     1
 62
     7
420
 16777215
176
     1
 90
        1
176
     1
 90
       10
176
     1
 62
     7
176
     1
 62
   257
176
     1
 90
        2
176
     1
 90
        1
176
     1
 40
1.0
176
     1
 90
        8
176
     1
 62
   257
176
     1
 40
1.0
176
     1
 90
        1
176
     1
 90
        6
176
     1
 90
        2
176
     1
 62
     7
176
     1
 90
        3
176
     1
 90
        0
176
     1
 90
        0
176
     1
290
     0
176
     1
 90
        5
176
     1
 40
0.0
176
     1
 90
        0
176
     1
290
     0
176
     1
290
     1
176
     1
290
     1
176
     1
290
     0
176
     1
290
     0
176
     1
290
     0
176
     1
290
     0
176
     1
290
     0
176
     1
290
     0
176
     1
 90
       50
176
     1
 40
0.0
176
     1
 40
1.0
176
     1
 90
        0
176
     1
 62
    18
420
        0
176
     1
 90
       50
176
     1
 90
        3
176
     1
 62
     5
420
      255
176
     1
290
     0
176
     1
 90
       50
176
     1
 90
       50
176
     1
 90
       50
176
     1
290
     0
176
     1
 90
       50
176
     1
 62
   256
176
     0
 40
1.0
176
     0
 90
        2
176
     1
  1
strokes_ogs.tif
176
     1
290
     0
176
     1
 40
1.0
176
     1
 40
1.0
176
     1
  0
VISUALSTYLE
  5
3E
102
{ACAD_REACTORS
330
2A
102
}
330
2A
100
AcDbVisualStyle
  2
Shades of Gray
 70
    23
177
     3
291
     0
 70
    58
 90
        2
176
     1
 90
        2
176
     1
 90
        3
176
     1
 90
        0
176
     1
 40
0.6
176
     1
 40
30.0
176
     1
 62
     7
420
 16777215
176
     1
 90
        2
176
     1
 90
        2
176
     1
 62
     7
176
     1
 62
     7
176
     1
 90
        1
176
     1
 90
        1
176
     1
 40
40.0
176
     1
 90
        8
176
     1
 62
     7
176
     1
 40
1.0
176
     1
 90
        1
176
     1
 90
        6
176
     1
 90
        2
176
     1
 62
     7
176
     1
 90
        3
176
     1
 90
        0
176
     1
 90
        0
176
     1
290
     0
176
     1
 90
        1
176
     1
 40
0.0
176
     1
 90
        0
176
     1
290
     0
176
     1
290
     1
176
     1
290
     1
176
     1
290
     0
176
     1
290
     0
176
     1
290
     0
176
     1
290
     0
176
     1
290
     0
176
     1
290
     0
176
     1
 90
       50
176
     1
 40
0.0
176
     1
 40
1.0
176
     1
 90
        0
176
     1
 62
    18
420
        0
176
     1
 90
       50
176
     1
 90
        3
176
     1
 62
     5
420
      255
176
     1
290
     0
176
     1
 90
       50
176
     1
 90
       50
176
     1
 90
       50
176
     1
290
     0
176
     1
 90
       50
176
     1
 62
   256
176
     0
 40
1.0
176
     0
 90
        2
176
     1
  1
strokes_ogs.tif
176
     1
290
     0
176
     1
 40
1.0
176
     1
 40
1.0
176
     1
  0
VISUALSTYLE
  5
3F
102
{ACAD_REACTORS
330
2A
102
}
330
2A
100
AcDbVisualStyle
  2
Sketchy
 70
    24
177
     3
291
     0
 70
    58
 90
        1
176
     1
 90
        2
176
     1
 90
        2
176
     1
 90
        0
176
     1
 40
0.6
176
     1
 40
30.0
176
     1
 62
     7
420
 16777215
176
     1
 90
        2
176
     1
 90
        2
176
     1
 62
     7
176
     1
 62
     7
176
     1
 90
        1
176
     1
 90
        1
176
     1
 40
40.0
176
     1
 90
       11
176
     1
 62
     7
176
     1
 40
1.0
176
     1
 90
        1
176
     1
 90
        6
176
     1
 90
        2
176
     1
 62
     7
176
     1
 90
        6
176
     1
 90
        0
176
     1
 90
        0
176
     1
290
     0
176
     1
 90
        1
176
     1
 40
0.0
176
     1
 90
        0
176
     1
290
     0
176
     1
290
     1
176
     1
290
     1
176
     1
290
     0
176
     1
290
     0
176
     1
290
     0
176
     1
290
     0
176
     1
290
     0
176
     1
290
     0
176
     1
 90
       50
176
     1
 40
0.0
176
     1
 40
1.0
176
     1
 90
        0
176
     1
 62
    18
420
        0
176
     1
 90
       50
176
     1
 90
        3
176
     1
 62
     5
420
      255
176
     1
290
     0
176
     1
 90
       50
176
     1
 90
       50
176
     1
 90
       50
176
     1
290
     0
176
     1
 90
       50
176
     1
 62
   256
176
     0
 40
1.0
176
     0
 90
        2
176
     1
  1
strokes_ogs.tif
176
     1
290
     0
176
     1
 40
1.0
176
     1
 40
1.0
176
     1
  0
VISUALSTYLE
  5
37
102
{ACAD_REACTORS
330
2A
102
}
330
2A
100
AcDbVisualStyle
  2
Thicken
 70
    13
177
     3
291
     1
 70
    58
 90
        2
176
     1
 90
        2
176
     1
 90
        0
176
     1
 90
        0
176
     1
 40
0.6
176
     1
 40
30.0
176
     1
 62
     7
420
 16777215
176
     1
 90
        1
176
     1
 90
        4
176
     1
 62
     7
176
     1
 62
   257
176
     1
 90
        1
176
     1
 90
        1
176
     1
 40
1.0
176
     1
 90
       12
176
     1
 62
     7
176
     1
 40
1.0
176
     1
 90
        1
176
     1
 90
        6
176
     1
 90
        2
176
     1
 62
     7
176
     1
 90
        5
176
     1
 90
        0
176
     1
 90
        0
176
     1
290
     0
176
     1
 90
        1
176
     1
 40
0.0
176
     1
 90
        0
176
     1
290
     0
176
     1
290
     1
176
     1
290
     1
176
     1
290
     0
176
     1
290
     0
176
     1
290
     0
176
     1
290
     0
176
     1
290
     0
176
     1
290
     0
176
     1
 90
       50
176
     1
 40
0.0
176
     1
 40
1.0
176
     1
 90
        0
176
     1
 62
    18
420
        0
176
     1
 90
       50
176
     1
 90
        3
176
     1
 62
     5
420
      255
176
     1
290
     0
176
     1
 90
       50
176
     1
 90
       50
176
     1
 90
       50
176
     1
290
     0
176
     1
 90
       50
176
     1
 62
   256
176
     0
 40
1.0
176
     0
 90
        2
176
     1
  1
strokes_ogs.tif
176
     1
290
     0
176
     1
 40
1.0
176
     1
 40
1.0
176
     1
  0
VISUALSTYLE
  5
30
102
{ACAD_REACTORS
330
2A
102
}
330
2A
100
AcDbVisualStyle
  2
Wireframe
 70
     5
177
     3
291
     0
 70
    58
 90
        0
176
     1
 90
        2
176
     1
 90
        0
176
     1
 90
        0
176
     1
 40
0.6
176
     1
 40
30.0
176
     1
 62
     7
420
 16777215
176
     1
 90
        1
176
     1
 90
        4
176
     1
 62
     7
176
     1
 62
   257
176
     1
 90
        1
176
     1
 90
        1
176
     1
 40
1.0
176
     1
 90
        0
176
     1
 62
   257
176
     1
 40
1.0
176
     1
 90
        1
176
     1
 90
        6
176
     1
 90
        2
176
     1
 62
     7
176
     1
 90
        3
176
     1
 90
        0
176
     1
 90
        0
176
     1
290
     0
176
     1
 90
        1
176
     1
 40
0.0
176
     1
 90
        0
176
     1
290
     0
176
     1
290
     1
176
     1
290
     1
176
     1
290
     0
176
     1
290
     0
176
     1
290
     0
176
     1
290
     0
176
     1
290
     0
176
     1
290
     0
176
     1
 90
       50
176
     1
 40
0.0
176
     1
 40
1.0
176
     1
 90
        0
176
     1
 62
    18
420
        0
176
     1
 90
       50
176
     1
 90
        3
176
     1
 62
     5
420
      255
176
     1
290
     0
176
     1
 90
       50
176
     1
 90
       50
176
     1
 90
       50
176
     1
290
     0
176
     1
 90
       50
176
     1
 62
   256
176
     0
 40
1.0
176
     0
 90
        2
176
     1
  1
strokes_ogs.tif
176
     1
290
     0
176
     1
 40
1.0
176
     1
 40
1.0
176
     1
  0
VISUALSTYLE
  5
40
102
{ACAD_REACTORS
330
2A
102
}
330
2A
100
AcDbVisualStyle
  2
X-Ray
 70
    25
177
     3
291
     0
 70
    58
 90
        2
176
     1
 90
        2
176
     1
 90
        1
176
     1
 90
        1
176
     1
 40
0.5
176
     1
 40
30.0
176
     1
 62
     7
420
 16777215
176
     1
 90
        1
176
     1
 90
        0
176
     1
 62
     7
176
     1
 62
   257
176
     1
 90
        1
176
     1
 90
        1
176
     1
 40
1.0
176
     1
 90
        8
176
     1
 62
     7
176
     1
 40
1.0
176
     1
 90
        1
176
     1
 90
        6
176
     1
 90
        2
176
     1
 62
     7
176
     1
 90
        3
176
     1
 90
        0
176
     1
 90
        0
176
     1
290
     0
176
     1
 90
       13
176
     1
 40
0.0
176
     1
 90
        0
176
     1
290
     0
176
     1
290
     1
176
     1
290
     1
176
     1
290
     0
176
     1
290
     0
176
     1
290
     0
176
     1
290
     0
176
     1
290
     0
176
     1
290
     0
176
     1
 90
       50
176
     1
 40
0.0
176
     1
 40
1.0
176
     1
 90
        0
176
     1
 62
    18
420
        0
176
     1
 90
       50
176
     1
 90
        3
176
     1
 62
     5
420
      255
176
     1
290
     0
176
     1
 90
       50
176
     1
 90
       50
176
     1
 90
       50
176
     1
290
     0
176
     1
 90
       50
176
     1
 62
   256
176
     0
 40
1.0
176
     0
 90
        2
176
     1
  1
strokes_ogs.tif
176
     1
290
     0
176
     1
 40
1.0
176
     1
 40
1.0
176
     1
  0
DICTIONARYVAR
  5
8C
102
{ACAD_REACTORS
330
8B
102
}
330
8B
100
DictionaryVariables
280
     0
  1
1:1
  0
DICTIONARYVAR
  5
91
102
{ACAD_REACTORS
330
8B
102
}
330
8B
100
DictionaryVariables
280
     0
  1
Standard
  0
DICTIONARYVAR
  5
90
102
{ACAD_REACTORS
330
8B
102
}
330
8B
100
DictionaryVariables
280
     0
  1
Standard
  0
DICTIONARY
  5
8D
330
5A
100
AcDbDictionary
280
     1
281
     1
  3
ACAD_ROUNDTRIP_2008_TABLESTYLE_CELLSTYLEMAP
360
8E
  0
CELLSTYLEMAP
  5
8E
102
{ACAD_REACTORS
330
8D
102
}
330
8D
100
AcDbCellStyleMap
 90
        3
300
CELLSTYLE
  1
TABLEFORMAT_BEGIN
 90
        5
170
     1
 91
        0
 92
    32768
 62
   257
 93
        1
300
CONTENTFORMAT
  1
CONTENTFORMAT_BEGIN
 90
        0
 91
        0
 92
        4
 93
        0
300

 40
0.0
140
1.0
 94
        5
 62
     0
340
11
144
0.25
309
CONTENTFORMAT_END
171
     1
301
MARGIN
  1
CELLMARGIN_BEGIN
 40
0.06
 40
0.06
 40
0.06
 40
0.06
 40
0.06
 40
0.06
309
CELLMARGIN_END
 94
        6
 95
        1
302
GRIDFORMAT
  1
GRIDFORMAT_BEGIN
 90
        0
 91
        1
 62
     0
 92
       -2
340
14
 93
        0
 40
0.045
309
GRIDFORMAT_END
 95
        2
302
GRIDFORMAT
  1
GRIDFORMAT_BEGIN
 90
        0
 91
        1
 62
     0
 92
       -2
340
14
 93
        0
 40
0.045
309
GRIDFORMAT_END
 95
        4
302
GRIDFORMAT
  1
GRIDFORMAT_BEGIN
 90
        0
 91
        1
 62
     0
 92
       -2
340
14
 93
        0
 40
0.045
309
GRIDFORMAT_END
 95
        8
302
GRIDFORMAT
  1
GRIDFORMAT_BEGIN
 90
        0
 91
        1
 62
     0
 92
       -2
340
14
 93
        0
 40
0.045
309
GRIDFORMAT_END
 95
       16
302
GRIDFORMAT
  1
GRIDFORMAT_BEGIN
 90
        0
 91
        1
 62
     0
 92
       -2
340
14
 93
        0
 40
0.045
309
GRIDFORMAT_END
 95
       32
302
GRIDFORMAT
  1
GRIDFORMAT_BEGIN
 90
        0
 91
        1
 62
     0
 92
       -2
340
14
 93
        0
 40
0.045
309
GRIDFORMAT_END
309
TABLEFORMAT_END
  1
CELLSTYLE_BEGIN
 90
        1
 91
        1
300
_TITLE
309
CELLSTYLE_END
300
CELLSTYLE
  1
TABLEFORMAT_BEGIN
 90
        5
170
     1
 91
        0
 92
        0
 62
   257
 93
        1
300
CONTENTFORMAT
  1
CONTENTFORMAT_BEGIN
 90
        0
 91
        0
 92
        4
 93
        0
300

 40
0.0
140
1.0
 94
        5
 62
     0
340
11
144
0.18
309
CONTENTFORMAT_END
171
     1
301
MARGIN
  1
CELLMARGIN_BEGIN
 40
0.06
 40
0.06
 40
0.06
 40
0.06
 40
0.06
 40
0.06
309
CELLMARGIN_END
 94
        6
 95
        1
302
GRIDFORMAT
  1
GRIDFORMAT_BEGIN
 90
        0
 91
        1
 62
     0
 92
       -2
340
14
 93
        0
 40
0.045
309
GRIDFORMAT_END
 95
        2
302
GRIDFORMAT
  1
GRIDFORMAT_BEGIN
 90
        0
 91
        1
 62
     0
 92
       -2
340
14
 93
        0
 40
0.045
309
GRIDFORMAT_END
 95
        4
302
GRIDFORMAT
  1
GRIDFORMAT_BEGIN
 90
        0
 91
        1
 62
     0
 92
       -2
340
14
 93
        0
 40
0.045
309
GRIDFORMAT_END
 95
        8
302
GRIDFORMAT
  1
GRIDFORMAT_BEGIN
 90
        0
 91
        1
 62
     0
 92
       -2
340
14
 93
        0
 40
0.045
309
GRIDFORMAT_END
 95
       16
302
GRIDFORMAT
  1
GRIDFORMAT_BEGIN
 90
        0
 91
        1
 62
     0
 92
       -2
340
14
 93
        0
 40
0.045
309
GRIDFORMAT_END
 95
       32
302
GRIDFORMAT
  1
GRIDFORMAT_BEGIN
 90
        0
 91
        1
 62
     0
 92
       -2
340
14
 93
        0
 40
0.045
309
GRIDFORMAT_END
309
TABLEFORMAT_END
  1
CELLSTYLE_BEGIN
 90
        2
 91
        1
300
_HEADER
309
CELLSTYLE_END
300
CELLSTYLE
  1
TABLEFORMAT_BEGIN
 90
        5
170
     1
 91
        0
 92
        0
 62
   257
 93
        1
300
CONTENTFORMAT
  1
CONTENTFORMAT_BEGIN
 90
        0
 91
        0
 92
        4
 93
        0
300

 40
0.0
140
1.0
 94
        2
 62
     0
340
11
144
0.18
309
CONTENTFORMAT_END
171
     1
301
MARGIN
  1
CELLMARGIN_BEGIN
 40
0.06
 40
0.06
 40
0.06
 40
0.06
 40
0.06
 40
0.06
309
CELLMARGIN_END
 94
        6
 95
        1
302
GRIDFORMAT
  1
GRIDFORMAT_BEGIN
 90
        0
 91
        1
 62
     0
 92
       -2
340
14
 93
        0
 40
0.045
309
GRIDFORMAT_END
 95
        2
302
GRIDFORMAT
  1
GRIDFORMAT_BEGIN
 90
        0
 91
        1
 62
     0
 92
       -2
340
14
 93
        0
 40
0.045
309
GRIDFORMAT_END
 95
        4
302
GRIDFORMAT
  1
GRIDFORMAT_BEGIN
 90
        0
 91
        1
 62
     0
 92
       -2
340
14
 93
        0
 40
0.045
309
GRIDFORMAT_END
 95
        8
302
GRIDFORMAT
  1
GRIDFORMAT_BEGIN
 90
        0
 91
        1
 62
     0
 92
       -2
340
14
 93
        0
 40
0.045
309
GRIDFORMAT_END
 95
       16
302
GRIDFORMAT
  1
GRIDFORMAT_BEGIN
 90
        0
 91
        1
 62
     0
 92
       -2
340
14
 93
        0
 40
0.045
309
GRIDFORMAT_END
 95
       32
302
GRIDFORMAT
  1
GRIDFORMAT_BEGIN
 90
        0
 91
        1
 62
     0
 92
       -2
340
14
 93
        0
 40
0.045
309
GRIDFORMAT_END
309
TABLEFORMAT_END
  1
CELLSTYLE_BEGIN
 90
        3
 91
        2
300
_DATA
309
CELLSTYLE_END
  0
ENDSEC
  0
EOF
