  0
SECTION
  2
HEADER
  9
$ACADVER
  1
AC1027
  9
$ACADMAINTVER
 70
   105
  9
$DWGCODEPAGE
  3
ANSI_1252
  9
$LASTSAVEDBY
  1
Office Desk
  9
$REQUIREDVERSIONS
160
                 0
  9
$INSBASE
 10
0.0
 20
0.0
 30
0.0
  9
$EXTMIN
 10
212.2009
 20
-224.5455
 30
0.0
  9
$EXTMAX
 10
888.1228
 20
273.062
 30
0.0
  9
$LIMMIN
 10
0.0
 20
0.0
  9
$LIMMAX
 10
12.0
 20
9.0
  9
$ORTHOMODE
 70
     0
  9
$REGENMODE
 70
     1
  9
$FILLMODE
 70
     1
  9
$QTEXTMODE
 70
     0
  9
$MIRRTEXT
 70
     1
  9
$LTSCALE
 40
1.0
  9
$ATTMODE
 70
     1
  9
$TEXTSIZE
 40
0.2
  9
$TRACEWID
 40
0.05
  9
$TEXTSTYLE
  7
Standard
  9
$CLAYER
  8
0
  9
$CELTYPE
  6
ByLayer
  9
$CECOLOR
 62
   256
  9
$CELTSCALE
 40
1.0
  9
$DISPSILH
 70
     0
  9
$DIMSCALE
 40
1.0
  9
$DIMASZ
 40
0.18
  9
$DIMEXO
 40
0.0625
  9
$DIMDLI
 40
0.38
  9
$DIMRND
 40
0.0
  9
$DIMDLE
 40
0.0
  9
$DIMEXE
 40
0.18
  9
$DIMTP
 40
0.0
  9
$DIMTM
 40
0.0
  9
$DIMTXT
 40
0.18
  9
$DIMCEN
 40
0.09
  9
$DIMTSZ
 40
0.0
  9
$DIMTOL
 70
     0
  9
$DIMLIM
 70
     0
  9
$DIMTIH
 70
     1
  9
$DIMTOH
 70
     1
  9
$DIMSE1
 70
     0
  9
$DIMSE2
 70
     0
  9
$DIMTAD
 70
     0
  9
$DIMZIN
 70
     0
  9
$DIMBLK
  1

  9
$DIMASO
 70
     1
  9
$DIMSHO
 70
     1
  9
$DIMPOST
  1

  9
$DIMAPOST
  1

  9
$DIMALT
 70
     0
  9
$DIMALTD
 70
     2
  9
$DIMALTF
 40
25.4
  9
$DIMLFAC
 40
1.0
  9
$DIMTOFL
 70
     0
  9
$DIMTVP
 40
0.0
  9
$DIMTIX
 70
     0
  9
$DIMSOXD
 70
     0
  9
$DIMSAH
 70
     0
  9
$DIMBLK1
  1

  9
$DIMBLK2
  1

  9
$DIMSTYLE
  2
Standard
  9
$DIMCLRD
 70
     0
  9
$DIMCLRE
 70
     0
  9
$DIMCLRT
 70
     0
  9
$DIMTFAC
 40
1.0
  9
$DIMGAP
 40
0.09
  9
$DIMJUST
 70
     0
  9
$DIMSD1
 70
     0
  9
$DIMSD2
 70
     0
  9
$DIMTOLJ
 70
     1
  9
$DIMTZIN
 70
     0
  9
$DIMALTZ
 70
     0
  9
$DIMALTTZ
 70
     0
  9
$DIMUPT
 70
     0
  9
$DIMDEC
 70
     4
  9
$DIMTDEC
 70
     4
  9
$DIMALTU
 70
     2
  9
$DIMALTTD
 70
     2
  9
$DIMTXSTY
  7
Standard
  9
$DIMAUNIT
 70
     0
  9
$DIMADEC
 70
     0
  9
$DIMALTRND
 40
0.0
  9
$DIMAZIN
 70
     0
  9
$DIMDSEP
 70
    46
  9
$DIMATFIT
 70
     3
  9
$DIMFRAC
 70
     0
  9
$DIMLDRBLK
  1

  9
$DIMLUNIT
 70
     2
  9
$DIMLWD
 70
    -2
  9
$DIMLWE
 70
    -2
  9
$DIMTMOVE
 70
     0
  9
$DIMFXL
 40
1.0
  9
$DIMFXLON
 70
     0
  9
$DIMJOGANG
 40
0.7853981633974483
  9
$DIMTFILL
 70
     0
  9
$DIMTFILLCLR
 70
     0
  9
$DIMARCSYM
 70
     0
  9
$DIMLTYPE
  6

  9
$DIMLTEX1
  6

  9
$DIMLTEX2
  6

  9
$DIMTXTDIRECTION
 70
     0
  9
$LUNITS
 70
     2
  9
$LUPREC
 70
     4
  9
$SKETCHINC
 40
0.1
  9
$FILLETRAD
 40
0.0
  9
$AUNITS
 70
     0
  9
$AUPREC
 70
     0
  9
$MENU
  1
.
  9
$ELEVATION
 40
0.0
  9
$PELEVATION
 40
0.0
  9
$THICKNESS
 40
0.0
  9
$LIMCHECK
 70
     0
  9
$CHAMFERA
 40
0.0
  9
$CHAMFERB
 40
0.0
  9
$CHAMFERC
 40
0.0
  9
$CHAMFERD
 40
0.0
  9
$SKPOLY
 70
     0
  9
$TDCREATE
 40
2461013.679912524
  9
$TDUCREATE
 40
2461013.450745857
  9
$TDUPDATE
 40
2461013.679912558
  9
$TDUUPDATE
 40
2461013.450745892
  9
$TDINDWG
 40
0.0000000116
  9
$TDUSRTIMER
 40
0.0000000116
  9
$USRTIMER
 70
     1
  9
$ANGBASE
 50
0.0
  9
$ANGDIR
 70
     0
  9
$PDMODE
 70
     0
  9
$PDSIZE
 40
0.0
  9
$PLINEWID
 40
0.0
  9
$SPLFRAME
 70
     0
  9
$SPLINETYPE
 70
     6
  9
$SPLINESEGS
 70
     8
  9
$HANDSEED
  5
94
  9
$SURFTAB1
 70
     6
  9
$SURFTAB2
 70
     6
  9
$SURFTYPE
 70
     6
  9
$SURFU
 70
     6
  9
$SURFV
 70
     6
  9
$UCSBASE
  2

  9
$UCSNAME
  2

  9
$UCSORG
 10
0.0
 20
0.0
 30
0.0
  9
$UCSXDIR
 10
1.0
 20
0.0
 30
0.0
  9
$UCSYDIR
 10
0.0
 20
1.0
 30
0.0
  9
$UCSORTHOREF
  2

  9
$UCSORTHOVIEW
 70
     0
  9
$UCSORGTOP
 10
0.0
 20
0.0
 30
0.0
  9
$UCSORGBOTTOM
 10
0.0
 20
0.0
 30
0.0
  9
$UCSORGLEFT
 10
0.0
 20
0.0
 30
0.0
  9
$UCSORGRIGHT
 10
0.0
 20
0.0
 30
0.0
  9
$UCSORGFRONT
 10
0.0
 20
0.0
 30
0.0
  9
$UCSORGBACK
 10
0.0
 20
0.0
 30
0.0
  9
$PUCSBASE
  2

  9
$PUCSNAME
  2

  9
$PUCSORG
 10
0.0
 20
0.0
 30
0.0
  9
$PUCSXDIR
 10
1.0
 20
0.0
 30
0.0
  9
$PUCSYDIR
 10
0.0
 20
1.0
 30
0.0
  9
$PUCSORTHOREF
  2

  9
$PUCSORTHOVIEW
 70
     0
  9
$PUCSORGTOP
 10
0.0
 20
0.0
 30
0.0
  9
$PUCSORGBOTTOM
 10
0.0
 20
0.0
 30
0.0
  9
$PUCSORGLEFT
 10
0.0
 20
0.0
 30
0.0
  9
$PUCSORGRIGHT
 10
0.0
 20
0.0
 30
0.0
  9
$PUCSORGFRONT
 10
0.0
 20
0.0
 30
0.0
  9
$PUCSORGBACK
 10
0.0
 20
0.0
 30
0.0
  9
$USERI1
 70
     0
  9
$USERI2
 70
     0
  9
$USERI3
 70
     0
  9
$USERI4
 70
     0
  9
$USERI5
 70
     0
  9
$USERR1
 40
0.0
  9
$USERR2
 40
0.0
  9
$USERR3
 40
0.0
  9
$USERR4
 40
0.0
  9
$USERR5
 40
0.0
  9
$WORLDVIEW
 70
     1
  9
$SHADEDGE
 70
     3
  9
$SHADEDIF
 70
    70
  9
$TILEMODE
 70
     1
  9
$MAXACTVP
 70
    64
  9
$PINSBASE
 10
0.0
 20
0.0
 30
0.0
  9
$PLIMCHECK
 70
     0
  9
$PEXTMIN
 10
1.000000000000000E+20
 20
1.000000000000000E+20
 30
1.000000000000000E+20
  9
$PEXTMAX
 10
-1.000000000000000E+20
 20
-1.000000000000000E+20
 30
-1.000000000000000E+20
  9
$PLIMMIN
 10
0.0
 20
0.0
  9
$PLIMMAX
 10
12.0
 20
9.0
  9
$UNITMODE
 70
     0
  9
$VISRETAIN
 70
     1
  9
$PLINEGEN
 70
     0
  9
$PSLTSCALE
 70
     1
  9
$TREEDEPTH
 70
  3020
  9
$CMLSTYLE
  2
Standard
  9
$CMLJUST
 70
     0
  9
$CMLSCALE
 40
1.0
  9
$PROXYGRAPHICS
 70
     1
  9
$MEASUREMENT
 70
     0
  9
$CELWEIGHT
370
    -1
  9
$ENDCAPS
280
     0
  9
$JOINSTYLE
280
     0
  9
$LWDISPLAY
290
     0
  9
$INSUNITS
 70
     4
  9
$HYPERLINKBASE
  1

  9
$STYLESHEET
  1

  9
$XEDIT
290
     1
  9
$CEPSNTYPE
380
     0
  9
$PSTYLEMODE
290
     1
  9
$FINGERPRINTGUID
  2
{bb24c2d6-46af-4cf9-9ad4-4096dd70b95b}
  9
$VERSIONGUID
  2
{FAEB1C32-E019-11D5-929B-00C0DF256EC4}
  9
$EXTNAMES
290
     1
  9
$PSVPSCALE
 40
0.0
  9
$OLESTARTUP
290
     0
  9
$SORTENTS
280
   127
  9
$INDEXCTL
280
     0
  9
$HIDETEXT
280
     1
  9
$XCLIPFRAME
280
     2
  9
$HALOGAP
280
     0
  9
$OBSCOLOR
 70
   257
  9
$OBSLTYPE
280
     0
  9
$INTERSECTIONDISPLAY
280
     0
  9
$INTERSECTIONCOLOR
 70
   257
  9
$DIMASSOC
280
     2
  9
$PROJECTNAME
  1

  9
$CAMERADISPLAY
290
     0
  9
$LENSLENGTH
 40
50.0
  9
$CAMERAHEIGHT
 40
0.0
  9
$STEPSPERSEC
 40
2.0
  9
$STEPSIZE
 40
6.0
  9
$3DDWFPREC
 40
2.0
  9
$PSOLWIDTH
 40
0.25
  9
$PSOLHEIGHT
 40
4.0
  9
$LOFTANG1
 40
1.570796326794897
  9
$LOFTANG2
 40
1.570796326794897
  9
$LOFTMAG1
 40
0.0
  9
$LOFTMAG2
 40
0.0
  9
$LOFTPARAM
 70
     7
  9
$LOFTNORMALS
280
     1
  9
$LATITUDE
 40
37.795
  9
$LONGITUDE
 40
-122.394
  9
$NORTHDIRECTION
 40
0.0
  9
$TIMEZONE
 70
 -8000
  9
$LIGHTGLYPHDISPLAY
280
     1
  9
$TILEMODELIGHTSYNCH
280
     1
  9
$CMATERIAL
347
44
  9
$SOLIDHIST
280
     0
  9
$SHOWHIST
280
     1
  9
$DWFFRAME
280
     2
  9
$DGNFRAME
280
     2
  9
$REALWORLDSCALE
290
     1
  9
$INTERFERECOLOR
 62
   256
  9
$CSHADOW
280
     0
  9
$SHADOWPLANELOCATION
 40
0.0
  0
ENDSEC
  0
SECTION
  2
CLASSES
  0
CLASS
  1
ACDBDICTIONARYWDFLT
  2
AcDbDictionaryWithDefault
  3
ObjectDBX Classes
 90
        0
 91
        3
280
     0
281
     0
  0
CLASS
  1
VISUALSTYLE
  2
AcDbVisualStyle
  3
ObjectDBX Classes
 90
     4095
 91
        3
280
     0
281
     0
  0
CLASS
  1
MATERIAL
  2
AcDbMaterial
  3
ObjectDBX Classes
 90
     1153
 91
        3
280
     0
281
     0
  0
CLASS
  1
SCALE
  2
AcDbScale
  3
ObjectDBX Classes
 90
     1153
 91
        3
280
     0
281
     0
  0
CLASS
  1
TABLESTYLE
  2
AcDbTableStyle
  3
ObjectDBX Classes
 90
     4095
 91
        3
280
     0
281
     0
  0
CLASS
  1
MLEADERSTYLE
  2
AcDbMLeaderStyle
  3
ACDB_MLEADERSTYLE_CLASS
 90
     4095
 91
        3
280
     0
281
     0
  0
CLASS
  1
SUN
  2
AcDbSun
  3
SCENEOE
 90
     1153
 91
        3
280
     0
281
     0
  0
CLASS
  1
DICTIONARYVAR
  2
AcDbDictionaryVar
  3
ObjectDBX Classes
 90
        0
 91
        3
280
     0
281
     0
  0
CLASS
  1
CELLSTYLEMAP
  2
AcDbCellStyleMap
  3
ObjectDBX Classes
 90
     1152
 91
        3
280
     0
281
     0
  0
ENDSEC
  0
SECTION
  2
TABLES
  0
TABLE
  2
VPORT
  5
8
330
0
100
AcDbSymbolTable
 70
     1
  0
VPORT
  5
29
330
8
100
AcDbSymbolTableRecord
100
AcDbViewportTableRecord
  2
*Active
 70
     0
 10
0.0
 20
0.0
 11
1.0
 21
1.0
 12
10.42990654205607
 22
4.5
 13
0.0
 23
0.0
 14
0.5
 24
0.5
 15
0.5
 25
0.5
 16
0.0
 26
0.0
 36
1.0
 17
0.0
 27
0.0
 37
0.0
 40
9.0
 41
1.972972972850329
 42
50.0
 43
0.0
 44
0.0
 50
0.0
 51
0.0
 71
     0
 72
   100
 73
     1
 74
     3
 75
     0
 76
     0
 77
     0
 78
     0
281
     0
 65
     1
110
0.0
120
0.0
130
0.0
111
1.0
121
0.0
131
0.0
112
0.0
122
1.0
132
0.0
 79
     0
146
0.0
348
2F
 60
     3
 61
     5
292
     1
282
     1
141
0.0
142
0.0
 63
   250
361
5D
  0
ENDTAB
  0
TABLE
  2
LTYPE
  5
5
330
0
100
AcDbSymbolTable
 70
     1
  0
LTYPE
  5
14
330
5
100
AcDbSymbolTableRecord
100
AcDbLinetypeTableRecord
  2
ByBlock
 70
     0
  3

 72
    65
 73
     0
 40
0.0
  0
LTYPE
  5
15
330
5
100
AcDbSymbolTableRecord
100
AcDbLinetypeTableRecord
  2
ByLayer
 70
     0
  3

 72
    65
 73
     0
 40
0.0
  0
LTYPE
  5
16
330
5
100
AcDbSymbolTableRecord
100
AcDbLinetypeTableRecord
  2
Continuous
 70
     0
  3
Solid line
 72
    65
 73
     0
 40
0.0
  0
ENDTAB
  0
TABLE
  2
LAYER
  5
2
330
0
100
AcDbSymbolTable
 70
     2
  0
LAYER
  5
10
330
2
100
AcDbSymbolTableRecord
100
AcDbLayerTableRecord
  2
0
 70
     0
 62
     7
  6
Continuous
370
    -3
390
F
347
46
348
0
  0
LAYER
  5
5F
330
2
100
AcDbSymbolTableRecord
100
AcDbLayerTableRecord
  2
Layer 1
 70
     0
 62
     7
  6
Continuous
370
    -3
390
F
347
46
348
0
  0
ENDTAB
  0
TABLE
  2
STYLE
  5
3
330
0
100
AcDbSymbolTable
 70
     1
  0
STYLE
  5
11
330
3
100
AcDbSymbolTableRecord
100
AcDbTextStyleTableRecord
  2
Standard
 70
     0
 40
0.0
 41
1.0
 50
0.0
 71
     0
 42
0.2
  3
txt
  4

  0
ENDTAB
  0
TABLE
  2
VIEW
  5
6
330
0
100
AcDbSymbolTable
 70
     0
  0
ENDTAB
  0
TABLE
  2
UCS
  5
7
330
0
100
AcDbSymbolTable
 70
     0
  0
ENDTAB
  0
TABLE
  2
APPID
  5
9
330
0
100
AcDbSymbolTable
 70
     2
  0
APPID
  5
12
330
9
100
AcDbSymbolTableRecord
100
AcDbRegAppTableRecord
  2
ACAD
 70
     0
  0
APPID
  5
5E
330
9
100
AcDbSymbolTableRecord
100
AcDbRegAppTableRecord
  2
ODA
 70
     0
  0
ENDTAB
  0
TABLE
  2
DIMSTYLE
  5
A
330
0
100
AcDbSymbolTable
 70
     1
100
AcDbDimStyleTable
  0
DIMSTYLE
105
27
330
A
100
AcDbSymbolTableRecord
100
AcDbDimStyleTableRecord
  2
Standard
 70
     0
178
     0
340
11
  0
ENDTAB
  0
TABLE
  2
BLOCK_RECORD
  5
1
330
0
100
AcDbSymbolTable
 70
     1
  0
BLOCK_RECORD
  5
1F
330
1
100
AcDbSymbolTableRecord
100
AcDbBlockTableRecord
  2
*Model_Space
340
22
 70
     0
280
     1
281
     0
  0
BLOCK_RECORD
  5
1B
330
1
100
AcDbSymbolTableRecord
100
AcDbBlockTableRecord
  2
*Paper_Space
340
1E
 70
     0
280
     1
281
     0
  0
BLOCK_RECORD
  5
23
330
1
100
AcDbSymbolTableRecord
100
AcDbBlockTableRecord
  2
*Paper_Space0
340
26
 70
     0
280
     1
281
     0
  0
ENDTAB
  0
ENDSEC
  0
SECTION
  2
BLOCKS
  0
BLOCK
  5
20
330
1F
100
AcDbEntity
  8
0
100
AcDbBlockBegin
  2
*Model_Space
 70
     0
 10
0.0
 20
0.0
 30
0.0
  3
*Model_Space
  1

  0
ENDBLK
  5
21
330
1F
100
AcDbEntity
  8
0
100
AcDbBlockEnd
  0
BLOCK
  5
1C
330
1B
100
AcDbEntity
 67
     1
  8
0
100
AcDbBlockBegin
  2
*Paper_Space
 70
     0
 10
0.0
 20
0.0
 30
0.0
  3
*Paper_Space
  1

  0
ENDBLK
  5
1D
330
1B
100
AcDbEntity
 67
     1
  8
0
100
AcDbBlockEnd
  0
BLOCK
  5
24
330
23
100
AcDbEntity
  8
0
100
AcDbBlockBegin
  2
*Paper_Space0
 70
     0
 10
0.0
 20
0.0
 30
0.0
  3
*Paper_Space0
  1

  0
ENDBLK
  5
25
330
23
100
AcDbEntity
  8
0
100
AcDbBlockEnd
  0
ENDSEC
  0
SECTION
  2
ENTITIES
  0
LWPOLYLINE
  5
60
330
1F
100
AcDbEntity
  8
Layer 1
 62
   250
370
    18
100
AcDbPolyline
 90
        5
 70
     1
 43
0.0
 10
212.2891
 20
-224.4572
 10
888.0345
 20
-224.4572
 10
888.0345
 20
272.9738
 10
212.2891
 20
272.9738
 10
212.2891
 20
-224.4572
  0
LWPOLYLINE
  5
61
330
1F
100
AcDbEntity
  8
Layer 1
 62
     7
370
    60
100
AcDbPolyline
 90
       65
 70
     1
 43
0.0
 10
558.2849
 20
179.3891
 10
585.4221
 20
182.1112
 10
612.5596
 20
184.0546
 10
639.6977
 20
185.2199
 10
666.8365
 20
185.6074
 10
693.9761
 20
185.2176
 10
721.1167
 20
184.051
 10
748.2585
 20
182.108
 10
775.4016
 20
179.3891
 10
787.9185
 20
176.9534
 10
799.3551
 20
172.7108
 10
809.5982
 20
166.7896
 10
818.5341
 20
159.3177
 10
826.0496
 20
150.4231
 10
832.031
 20
140.2341
 10
836.3651
 20
128.8785
 10
838.9383
 20
116.4845
 10
841.94
 20
89.6154
 10
844.0682
 20
62.7463
 10
845.3308
 20
35.8774
 10
845.7357
 20
9.0084
 10
845.2909
 20
-17.8607
 10
844.0044
 20
-44.7298
 10
841.8843
 20
-71.599
 10
838.9383
 20
-98.4685
 10
836.4033
 20
-110.8982
 10
832.0927
 20
-122.3329
 10
826.1218
 20
-132.6177
 10
818.606
 20
-141.5978
 10
809.6607
 20
-149.1183
 10
799.4013
 20
-155.0242
 10
787.9431
 20
-159.1608
 10
775.4016
 20
-161.3731
 10
747.6239
 20
-163.6076
 10
720.03
 20
-165.1953
 10
692.6192
 20
-166.1403
 10
665.3907
 20
-166.4469
 10
638.3438
 20
-166.1193
 10
611.4776
 20
-165.1616
 10
584.7916
 20
-163.5782
 10
558.2849
 20
-161.3731
 10
545.7264
 20
-159.1297
 10
534.228
 20
-154.9824
 10
523.9192
 20
-149.0803
 10
514.9292
 20
-141.5727
 10
507.3876
 20
-132.6085
 10
501.4236
 20
-122.337
 10
497.1667
 20
-110.9073
 10
494.7462
 20
-98.4685
 10
492.0629
 20
-71.599
 10
490.1095
 20
-44.7298
 10
488.9044
 20
-17.8607
 10
488.466
 20
9.0084
 10
488.8126
 20
35.8774
 10
489.9626
 20
62.7463
 10
491.9343
 20
89.6154
 10
494.7462
 20
116.4845
 10
497.2397
 20
128.8877
 10
501.5366
 20
140.2471
 10
507.5136
 20
150.4359
 10
515.0473
 20
159.3275
 10
524.0146
 20
166.7953
 10
534.2922
 20
172.7126
 10
545.7567
 20
176.9527
 10
558.2849
 20
179.3891
  0
LWPOLYLINE
  5
62
330
1F
100
AcDbEntity
  8
Layer 1
 62
     7
370
    60
100
AcDbPolyline
 90
       33
 70
     1
 43
0.0
 10
667.0953
 20
44.8179
 10
674.27
 20
44.1018
 10
680.9516
 20
42.0482
 10
686.9972
 20
38.7988
 10
692.264
 20
34.4955
 10
696.6091
 20
29.2801
 10
699.8896
 20
23.2944
 10
701.9626
 20
16.6804
 10
702.6854
 20
9.5797
 10
701.9626
 20
2.4784
 10
699.8896
 20
-4.1357
 10
696.6091
 20
-10.121
 10
692.264
 20
-15.3358
 10
686.9972
 20
-19.6384
 10
680.9516
 20
-22.8871
 10
674.27
 20
-24.9402
 10
667.0953
 20
-25.6561
 10
659.9261
 20
-24.9402
 10
653.2471
 20
-22.8871
 10
647.2018
 20
-19.6384
 10
641.9338
 20
-15.3358
 10
637.5867
 20
-10.121
 10
634.3038
 20
-4.1357
 10
632.2289
 20
2.4784
 10
631.5053
 20
9.5797
 10
632.2289
 20
16.6804
 10
634.3038
 20
23.2944
 10
637.5867
 20
29.2801
 10
641.9338
 20
34.4955
 10
647.2018
 20
38.7988
 10
653.2471
 20
42.0482
 10
659.9261
 20
44.1018
 10
667.0953
 20
44.8179
  0
LWPOLYLINE
  5
63
330
1F
100
AcDbEntity
  8
Layer 1
 62
     7
370
    60
100
AcDbPolyline
 90
       33
 70
     1
 43
0.0
 10
667.148
 20
30.758
 10
671.4534
 20
30.3282
 10
675.4646
 20
29.0955
 10
679.0952
 20
27.1447
 10
682.2592
 20
24.561
 10
684.8701
 20
21.4292
 10
686.8418
 20
17.8343
 10
688.0881
 20
13.8613
 10
688.5227
 20
9.5951
 10
688.0881
 20
5.3326
 10
686.8418
 20
1.3614
 10
684.8701
 20
-2.233
 10
682.2592
 20
-5.3654
 10
679.0952
 20
-7.9502
 10
675.4646
 20
-9.9022
 10
671.4534
 20
-11.1361
 10
667.148
 20
-11.5663
 10
662.8392
 20
-11.1361
 10
658.8264
 20
-9.9022
 10
655.1957
 20
-7.9502
 10
652.0326
 20
-5.3654
 10
649.4231
 20
-2.233
 10
647.4529
 20
1.3614
 10
646.2079
 20
5.3326
 10
645.7738
 20
9.5951
 10
646.2079
 20
13.8613
 10
647.4529
 20
17.8343
 10
649.4231
 20
21.4292
 10
652.0326
 20
24.561
 10
655.1957
 20
27.1447
 10
658.8264
 20
29.0955
 10
662.8392
 20
30.3282
 10
667.148
 20
30.758
  0
LWPOLYLINE
  5
64
330
1F
100
AcDbEntity
  8
Layer 1
 62
     7
370
    60
100
AcDbPolyline
 90
        2
 70
     0
 43
0.0
 10
845.6998
 20
216.4333
 10
845.6998
 20
242.71
  0
LWPOLYLINE
  5
65
330
1F
100
AcDbEntity
  8
Layer 1
 62
     7
370
    60
100
AcDbPolyline
 90
        2
 70
     0
 43
0.0
 10
488.4357
 20
216.4333
 10
488.4357
 20
242.71
  0
LWPOLYLINE
  5
66
330
1F
100
AcDbEntity
  8
Layer 1
 62
     7
370
    60
100
AcDbPolyline
 90
        2
 70
     0
 43
0.0
 10
706.5633
 20
228.2756
 10
845.6998
 20
228.2756
  0
LWPOLYLINE
  5
67
330
1F
100
AcDbEntity
  8
Layer 1
 62
     7
370
    60
100
AcDbPolyline
 90
        2
 70
     0
 43
0.0
 10
488.4357
 20
228.2756
 10
627.9324
 20
228.2756
  0
LWPOLYLINE
  5
68
330
1F
100
AcDbEntity
  8
Layer 1
 62
     7
370
    60
100
AcDbPolyline
 90
        2
 70
     0
 43
0.0
 10
462.2825
 20
186.4241
 10
435.7366
 20
186.4241
  0
LWPOLYLINE
  5
69
330
1F
100
AcDbEntity
  8
Layer 1
 62
     7
370
    60
100
AcDbPolyline
 90
        2
 70
     0
 43
0.0
 10
462.2825
 20
-167.2885
 10
435.7366
 20
-167.2885
  0
LWPOLYLINE
  5
6A
330
1F
100
AcDbEntity
  8
Layer 1
 62
     7
370
    60
100
AcDbPolyline
 90
        2
 70
     0
 43
0.0
 10
450.3077
 20
48.2336
 10
450.3077
 20
186.4241
  0
LWPOLYLINE
  5
6B
330
1F
100
AcDbEntity
  8
Layer 1
 62
     7
370
    60
100
AcDbPolyline
 90
        2
 70
     0
 43
0.0
 10
450.3077
 20
-167.2885
 10
450.3077
 20
-28.8676
  0
LWPOLYLINE
  5
6C
330
1F
100
AcDbEntity
  8
Layer 1
 62
     7
370
    60
100
AcDbPolyline
 90
        2
 70
     0
 43
0.0
 10
752.6413
 20
9.5936
 10
688.5072
 20
9.5936
  0
LWPOLYLINE
  5
6D
330
1F
100
AcDbEntity
  8
Layer 1
 62
     7
370
    60
100
AcDbPolyline
 90
        2
 70
     0
 43
0.0
 10
582.1403
 20
9.5951
 10
631.5278
 20
9.5951
  0
LWPOLYLINE
  5
6E
330
1F
100
AcDbEntity
  8
Layer 1
 62
     7
370
    18
100
AcDbPolyline
 90
       12
 70
     1
 43
0.0
 10
605.3122
 20
33.5236
 10
612.0453
 20
48.2666
 10
612.5354
 20
47.5605
 10
602.883
 20
47.5605
 10
603.7072
 20
48.3328
 10
603.7072
 20
44.6691
 10
602.1248
 20
44.6691
 10
602.1248
 20
48.9727
 10
613.5826
 20
48.9727
 10
613.5826
 20
47.8474
 10
607.0507
 20
33.5236
 10
605.3122
 20
33.5236
  0
LWPOLYLINE
  5
6F
330
1F
100
AcDbEntity
  8
Layer 1
 62
     7
370
    18
100
AcDbPolyline
 90
      131
 70
     1
 43
0.0
 10
620.2037
 20
33.3913
 10
619.7884
 20
33.3998
 10
619.3778
 20
33.4251
 10
618.972
 20
33.4674
 10
618.571
 20
33.5266
 10
618.1748
 20
33.6027
 10
617.7835
 20
33.6956
 10
617.3971
 20
33.8054
 10
617.0155
 20
33.9321
 10
616.6464
 20
34.0729
 10
616.2969
 20
34.225
 10
615.9667
 20
34.3886
 10
615.6561
 20
34.5635
 10
615.3648
 20
34.7499
 10
615.0931
 20
34.9476
 10
614.8408
 20
35.1568
 10
614.608
 20
35.3773
 10
615.3888
 20
36.6358
 10
615.5812
 20
36.4468
 10
615.7906
 20
36.2661
 10
616.0171
 20
36.0936
 10
616.2607
 20
35.9294
 10
616.5213
 20
35.7736
 10
616.799
 20
35.626
 10
617.0937
 20
35.4868
 10
617.4054
 20
35.3559
 10
617.7293
 20
35.2368
 10
618.0599
 20
35.1336
 10
618.3971
 20
35.0464
 10
618.7408
 20
34.975
 10
619.0912
 20
34.9195
 10
619.448
 20
34.8799
 10
619.8114
 20
34.8561
 10
620.1812
 20
34.8482
 10
620.6626
 20
34.8618
 10
621.1143
 20
34.9027
 10
621.5363
 20
34.9707
 10
621.9287
 20
35.0661
 10
622.2914
 20
35.1886
 10
622.6244
 20
35.3384
 10
622.9278
 20
35.5154
 10
623.2016
 20
35.7196
 10
623.4447
 20
35.9459
 10
623.6553
 20
36.1892
 10
623.8336
 20
36.4494
 10
623.9794
 20
36.7265
 10
624.0929
 20
37.0205
 10
624.1739
 20
37.3315
 10
624.2225
 20
37.6594
 10
624.2387
 20
38.0042
 10
624.2312
 20
38.2479
 10
624.2088
 20
38.4831
 10
624.1713
 20
38.7098
 10
624.1189
 20
38.9278
 10
624.0515
 20
39.1373
 10
623.9691
 20
39.3381
 10
623.8718
 20
39.5304
 10
623.7594
 20
39.714
 10
623.6293
 20
39.8883
 10
623.4786
 20
40.0526
 10
623.3074
 20
40.207
 10
623.1156
 20
40.3514
 10
622.9032
 20
40.4857
 10
622.6703
 20
40.61
 10
622.4168
 20
40.7243
 10
622.1427
 20
40.8285
 10
621.8455
 20
40.9218
 10
621.5217
 20
41.0027
 10
621.1715
 20
41.071
 10
620.7947
 20
41.127
 10
620.3914
 20
41.1704
 10
619.9615
 20
41.2015
 10
619.5051
 20
41.2201
 10
619.0221
 20
41.2263
 10
615.7003
 20
41.2263
 10
616.5027
 20
48.9727
 10
625.0412
 20
48.9727
 10
625.0412
 20
47.5605
 10
617.1491
 20
47.5605
 10
617.9741
 20
48.3328
 10
617.2827
 20
41.8439
 10
616.4585
 20
42.6384
 10
619.3796
 20
42.6384
 10
619.9557
 20
42.6294
 10
620.5024
 20
42.6025
 10
621.0199
 20
42.5577
 10
621.5081
 20
42.495
 10
621.9671
 20
42.4143
 10
622.3967
 20
42.3157
 10
622.7971
 20
42.1991
 10
623.1682
 20
42.0646
 10
623.5126
 20
41.9141
 10
623.8322
 20
41.7494
 10
624.127
 20
41.5706
 10
624.3971
 20
41.3777
 10
624.6424
 20
41.1706
 10
624.8629
 20
40.9494
 10
625.0588
 20
40.7141
 10
625.2299
 20
40.4648
 10
625.379
 20
40.2027
 10
625.5082
 20
39.93
 10
625.6174
 20
39.6467
 10
625.7068
 20
39.3527
 10
625.7762
 20
39.048
 10
625.8258
 20
38.7328
 10
625.8555
 20
38.4069
 10
625.8654
 20
38.0703
 10
625.8557
 20
37.7482
 10
625.8265
 20
37.4334
 10
625.7778
 20
37.126
 10
625.7096
 20
36.8258
 10
625.6219
 20
36.5329
 10
625.5147
 20
36.2472
 10
625.3879
 20
35.9687
 10
625.2416
 20
35.6973
 10
625.0758
 20
35.4369
 10
624.8904
 20
35.1905
 10
624.6856
 20
34.9583
 10
624.4613
 20
34.7402
 10
624.2174
 20
34.5361
 10
623.9542
 20
34.3463
 10
623.6715
 20
34.1705
 10
623.3695
 20
34.0089
 10
623.0469
 20
33.8641
 10
622.7035
 20
33.7386
 10
622.3391
 20
33.6324
 10
621.9538
 20
33.5456
 10
621.5476
 20
33.4781
 10
621.1206
 20
33.4299
 10
620.6726
 20
33.4009
 10
620.2037
 20
33.3913
  0
LWPOLYLINE
  5
70
330
1F
100
AcDbEntity
  8
Layer 1
 62
     7
370
    18
100
AcDbPolyline
 90
        9
 70
     1
 43
0.0
 10
649.5572
 20
223.752
 10
649.5572
 20
224.8996
 10
657.8276
 20
235.1397
 10
659.6113
 20
235.1397
 10
651.4077
 20
224.8996
 10
650.5384
 20
225.1642
 10
663.0885
 20
225.1642
 10
663.0885
 20
223.752
 10
649.5572
 20
223.752
  0
LWPOLYLINE
  5
71
330
1F
100
AcDbEntity
  8
Layer 1
 62
     7
370
    18
100
AcDbPolyline
 90
        7
 70
     1
 43
0.0
 10
658.362
 20
219.6906
 10
658.362
 20
223.752
 10
658.4071
 20
225.1642
 10
658.4071
 20
228.7393
 10
659.9679
 20
228.7393
 10
659.9679
 20
219.6906
 10
658.362
 20
219.6906
  0
LWPOLYLINE
  5
72
330
1F
100
AcDbEntity
  8
Layer 1
 62
     7
370
    18
100
AcDbPolyline
 90
        8
 70
     1
 43
0.0
 10
666.7227
 20
219.6906
 10
666.7227
 20
234.4774
 10
667.4358
 20
233.7275
 10
663.0442
 20
233.7275
 10
663.0442
 20
235.1397
 10
668.3276
 20
235.1397
 10
668.3276
 20
219.6906
 10
666.7227
 20
219.6906
  0
LWPOLYLINE
  5
73
330
1F
100
AcDbEntity
  8
Layer 1
 62
     7
370
    18
100
AcDbPolyline
 90
       97
 70
     1
 43
0.0
 10
678.2698
 20
219.5583
 10
677.8248
 20
219.573
 10
677.3922
 20
219.6169
 10
676.9722
 20
219.6902
 10
676.5646
 20
219.7928
 10
676.1696
 20
219.9247
 10
675.7871
 20
220.0858
 10
675.4172
 20
220.2762
 10
675.0599
 20
220.4959
 10
674.718
 20
220.7433
 10
674.395
 20
221.0161
 10
674.0909
 20
221.3145
 10
673.8057
 20
221.6383
 10
673.5393
 20
221.9876
 10
673.2917
 20
222.3625
 10
673.0629
 20
222.7629
 10
672.8528
 20
223.1889
 10
672.6646
 20
223.6388
 10
672.5016
 20
224.1112
 10
672.3636
 20
224.6059
 10
672.2508
 20
225.123
 10
672.1631
 20
225.6625
 10
672.1004
 20
226.2244
 10
672.0628
 20
226.8088
 10
672.0503
 20
227.4156
 10
672.0628
 20
228.0222
 10
672.1004
 20
228.6064
 10
672.1631
 20
229.1683
 10
672.2508
 20
229.7079
 10
672.3636
 20
230.225
 10
672.5016
 20
230.7196
 10
672.6646
 20
231.1918
 10
672.8528
 20
231.6414
 10
673.0629
 20
232.0674
 10
673.2917
 20
232.4678
 10
673.5393
 20
232.8427
 10
673.8057
 20
233.1921
 10
674.0909
 20
233.5159
 10
674.395
 20
233.8142
 10
674.718
 20
234.0871
 10
675.0599
 20
234.3344
 10
675.4172
 20
234.5541
 10
675.7871
 20
234.7445
 10
676.1696
 20
234.9056
 10
676.5646
 20
235.0375
 10
676.9722
 20
235.1401
 10
677.3922
 20
235.2134
 10
677.8248
 20
235.2573
 10
678.2698
 20
235.272
 10
678.7151
 20
235.2573
 10
679.1477
 20
235.2134
 10
679.5678
 20
235.1401
 10
679.9753
 20
235.0375
 10
680.3703
 20
234.9056
 10
680.7526
 20
234.7445
 10
681.1224
 20
234.5541
 10
681.4797
 20
234.3344
 10
681.8215
 20
234.0871
 10
682.1449
 20
233.8142
 10
682.4498
 20
233.5159
 10
682.7363
 20
233.1921
 10
683.0043
 20
232.8427
 10
683.2538
 20
232.4678
 10
683.4849
 20
232.0674
 10
683.6976
 20
231.6414
 10
683.8883
 20
231.1918
 10
684.0536
 20
230.7196
 10
684.1934
 20
230.225
 10
684.3078
 20
229.7079
 10
684.3967
 20
229.1683
 10
684.4602
 20
228.6064
 10
684.4983
 20
228.0222
 10
684.511
 20
227.4156
 10
684.4983
 20
226.8088
 10
684.4602
 20
226.2244
 10
684.3967
 20
225.6625
 10
684.3078
 20
225.123
 10
684.1934
 20
224.6059
 10
684.0536
 20
224.1112
 10
683.8883
 20
223.6388
 10
683.6976
 20
223.1889
 10
683.4849
 20
222.7629
 10
683.2538
 20
222.3625
 10
683.0043
 20
221.9876
 10
682.7363
 20
221.6383
 10
682.4498
 20
221.3145
 10
682.1449
 20
221.0161
 10
681.8215
 20
220.7433
 10
681.4797
 20
220.4959
 10
681.1224
 20
220.2762
 10
680.7526
 20
220.0858
 10
680.3703
 20
219.9247
 10
679.9753
 20
219.7928
 10
679.5678
 20
219.6902
 10
679.1477
 20
219.6169
 10
678.7151
 20
219.573
 10
678.2698
 20
219.5583
  0
LWPOLYLINE
  5
74
330
1F
100
AcDbEntity
  8
Layer 1
 62
     7
370
    18
100
AcDbPolyline
 90
       97
 70
     1
 43
0.0
 10
678.2698
 20
221.0152
 10
678.6098
 20
221.0267
 10
678.9387
 20
221.0613
 10
679.2564
 20
221.119
 10
679.5629
 20
221.1998
 10
679.8582
 20
221.3037
 10
680.1424
 20
221.4307
 10
680.4154
 20
221.581
 10
680.6773
 20
221.7544
 10
680.9266
 20
221.9498
 10
681.162
 20
222.1666
 10
681.3835
 20
222.4049
 10
681.5911
 20
222.6646
 10
681.7848
 20
222.9456
 10
681.9646
 20
223.2481
 10
682.1304
 20
223.572
 10
682.2822
 20
223.9173
 10
682.418
 20
224.2834
 10
682.5358
 20
224.6698
 10
682.6354
 20
225.0765
 10
682.7169
 20
225.5036
 10
682.7803
 20
225.951
 10
682.8256
 20
226.4188
 10
682.8527
 20
226.907
 10
682.8618
 20
227.4156
 10
682.8527
 20
227.924
 10
682.8256
 20
228.412
 10
682.7803
 20
228.8798
 10
682.7169
 20
229.3272
 10
682.6354
 20
229.7542
 10
682.5358
 20
230.1609
 10
682.418
 20
230.5472
 10
682.2822
 20
230.913
 10
682.1304
 20
231.2583
 10
681.9646
 20
231.5822
 10
681.7848
 20
231.8847
 10
681.5911
 20
232.1658
 10
681.3835
 20
232.4255
 10
681.162
 20
232.6637
 10
680.9266
 20
232.8806
 10
680.6773
 20
233.076
 10
680.4154
 20
233.2494
 10
680.1424
 20
233.3997
 10
679.8582
 20
233.5269
 10
679.5629
 20
233.631
 10
679.2564
 20
233.7119
 10
678.9387
 20
233.7697
 10
678.6098
 20
233.8044
 10
678.2698
 20
233.816
 10
677.9402
 20
233.8044
 10
677.6194
 20
233.7697
 10
677.3076
 20
233.7119
 10
677.0048
 20
233.631
 10
676.711
 20
233.5269
 10
676.4263
 20
233.3997
 10
676.1506
 20
233.2494
 10
675.884
 20
233.076
 10
675.6296
 20
232.8806
 10
675.3898
 20
232.6637
 10
675.1645
 20
232.4255
 10
674.9539
 20
232.1658
 10
674.7578
 20
231.8847
 10
674.5764
 20
231.5822
 10
674.4096
 20
231.2583
 10
674.2574
 20
230.913
 10
674.1216
 20
230.5472
 10
674.0038
 20
230.1609
 10
673.9042
 20
229.7542
 10
673.8227
 20
229.3272
 10
673.7593
 20
228.8798
 10
673.714
 20
228.412
 10
673.6869
 20
227.924
 10
673.6778
 20
227.4156
 10
673.6869
 20
226.907
 10
673.714
 20
226.4188
 10
673.7593
 20
225.951
 10
673.8227
 20
225.5036
 10
673.9042
 20
225.0765
 10
674.0038
 20
224.6698
 10
674.1216
 20
224.2834
 10
674.2574
 20
223.9173
 10
674.4096
 20
223.572
 10
674.5764
 20
223.2481
 10
674.7578
 20
222.9456
 10
674.9539
 20
222.6646
 10
675.1645
 20
222.4049
 10
675.3898
 20
222.1666
 10
675.6296
 20
221.9498
 10
675.884
 20
221.7544
 10
676.1506
 20
221.581
 10
676.4263
 20
221.4307
 10
676.711
 20
221.3037
 10
677.0048
 20
221.1998
 10
677.3076
 20
221.119
 10
677.6194
 20
221.0613
 10
677.9402
 20
221.0267
 10
678.2698
 20
221.0152
  0
LWPOLYLINE
  5
75
330
1F
100
AcDbEntity
  8
Layer 1
 62
     7
370
    18
100
AcDbPolyline
 90
        9
 70
     1
 43
0.0
 10
743.3578
 20
37.585
 10
743.3578
 20
38.7326
 10
751.6282
 20
48.9727
 10
753.411
 20
48.9727
 10
745.2083
 20
38.7326
 10
744.3382
 20
38.9972
 10
756.8891
 20
38.9972
 10
756.8891
 20
37.585
 10
743.3578
 20
37.585
  0
LWPOLYLINE
  5
76
330
1F
100
AcDbEntity
  8
Layer 1
 62
     7
370
    18
100
AcDbPolyline
 90
        7
 70
     1
 43
0.0
 10
752.1626
 20
33.5236
 10
752.1626
 20
37.585
 10
752.2078
 20
38.9972
 10
752.2078
 20
42.5723
 10
753.7676
 20
42.5723
 10
753.7676
 20
33.5236
 10
752.1626
 20
33.5236
  0
LWPOLYLINE
  5
77
330
1F
100
AcDbEntity
  8
Layer 1
 62
     7
370
    18
100
AcDbPolyline
 90
      131
 70
     1
 43
0.0
 10
763.2431
 20
33.3913
 10
762.8275
 20
33.3998
 10
762.4168
 20
33.4251
 10
762.0109
 20
33.4674
 10
761.61
 20
33.5266
 10
761.2139
 20
33.6027
 10
760.8227
 20
33.6956
 10
760.4363
 20
33.8054
 10
760.0548
 20
33.9321
 10
759.6857
 20
34.0729
 10
759.3362
 20
34.225
 10
759.006
 20
34.3886
 10
758.6954
 20
34.5635
 10
758.4041
 20
34.7499
 10
758.1324
 20
34.9476
 10
757.8801
 20
35.1568
 10
757.6473
 20
35.3773
 10
758.4281
 20
36.6358
 10
758.6205
 20
36.4468
 10
758.8299
 20
36.2661
 10
759.0564
 20
36.0936
 10
759.3
 20
35.9294
 10
759.5606
 20
35.7736
 10
759.8383
 20
35.626
 10
760.133
 20
35.4868
 10
760.4447
 20
35.3559
 10
760.7686
 20
35.2368
 10
761.0991
 20
35.1336
 10
761.4361
 20
35.0464
 10
761.7798
 20
34.975
 10
762.1301
 20
34.9195
 10
762.4869
 20
34.8799
 10
762.8504
 20
34.8561
 10
763.2205
 20
34.8482
 10
763.7019
 20
34.8618
 10
764.1536
 20
34.9027
 10
764.5756
 20
34.9707
 10
764.968
 20
35.0661
 10
765.3307
 20
35.1886
 10
765.6637
 20
35.3384
 10
765.9671
 20
35.5154
 10
766.2409
 20
35.7196
 10
766.484
 20
35.9459
 10
766.6946
 20
36.1892
 10
766.8729
 20
36.4494
 10
767.0188
 20
36.7265
 10
767.1322
 20
37.0205
 10
767.2133
 20
37.3315
 10
767.2619
 20
37.6594
 10
767.2781
 20
38.0042
 10
767.2706
 20
38.2479
 10
767.2481
 20
38.4831
 10
767.2107
 20
38.7098
 10
767.1583
 20
38.9278
 10
767.0908
 20
39.1373
 10
767.0084
 20
39.3381
 10
766.9111
 20
39.5304
 10
766.7987
 20
39.714
 10
766.6686
 20
39.8883
 10
766.5179
 20
40.0526
 10
766.3467
 20
40.207
 10
766.1549
 20
40.3514
 10
765.9425
 20
40.4857
 10
765.7096
 20
40.61
 10
765.4561
 20
40.7243
 10
765.182
 20
40.8285
 10
764.8848
 20
40.9218
 10
764.561
 20
41.0027
 10
764.2107
 20
41.071
 10
763.8339
 20
41.127
 10
763.4305
 20
41.1704
 10
763.0004
 20
41.2015
 10
762.5438
 20
41.2201
 10
762.0605
 20
41.2263
 10
758.7396
 20
41.2263
 10
759.5421
 20
48.9727
 10
768.0805
 20
48.9727
 10
768.0805
 20
47.5605
 10
760.1884
 20
47.5605
 10
761.0134
 20
48.3328
 10
760.322
 20
41.8439
 10
759.4978
 20
42.6384
 10
762.418
 20
42.6384
 10
762.9944
 20
42.6294
 10
763.5414
 20
42.6025
 10
764.059
 20
42.5577
 10
764.5474
 20
42.495
 10
765.0064
 20
42.4143
 10
765.436
 20
42.3157
 10
765.8364
 20
42.1991
 10
766.2075
 20
42.0646
 10
766.5519
 20
41.9141
 10
766.8715
 20
41.7494
 10
767.1663
 20
41.5706
 10
767.4364
 20
41.3777
 10
767.6817
 20
41.1706
 10
767.9022
 20
40.9494
 10
768.0981
 20
40.7141
 10
768.2692
 20
40.4648
 10
768.4183
 20
40.2027
 10
768.5475
 20
39.93
 10
768.6567
 20
39.6467
 10
768.7461
 20
39.3527
 10
768.8155
 20
39.048
 10
768.8651
 20
38.7328
 10
768.8948
 20
38.4069
 10
768.9047
 20
38.0703
 10
768.895
 20
37.7482
 10
768.8658
 20
37.4334
 10
768.8171
 20
37.126
 10
768.7489
 20
36.8258
 10
768.6612
 20
36.5329
 10
768.554
 20
36.2472
 10
768.4272
 20
35.9687
 10
768.2809
 20
35.6973
 10
768.1151
 20
35.4369
 10
767.9297
 20
35.1905
 10
767.7249
 20
34.9583
 10
767.5006
 20
34.7402
 10
767.2567
 20
34.5361
 10
766.9935
 20
34.3463
 10
766.7108
 20
34.1705
 10
766.4088
 20
34.0089
 10
766.0862
 20
33.8641
 10
765.7428
 20
33.7386
 10
765.3784
 20
33.6324
 10
764.9932
 20
33.5456
 10
764.587
 20
33.4781
 10
764.1599
 20
33.4299
 10
763.712
 20
33.4009
 10
763.2431
 20
33.3913
  0
LWPOLYLINE
  5
78
330
1F
100
AcDbEntity
  8
Layer 1
 62
     7
370
    35
100
AcDbPolyline
 90
       33
 70
     1
 43
0.0
 10
584.9612
 20
53.5744
 10
587.2949
 20
53.3415
 10
589.4686
 20
52.6734
 10
591.4357
 20
51.6163
 10
593.1495
 20
50.2164
 10
594.5635
 20
48.5196
 10
595.6312
 20
46.5721
 10
596.306
 20
44.4201
 10
596.5413
 20
42.1096
 10
596.306
 20
39.7991
 10
595.6312
 20
37.647
 10
594.5635
 20
35.6996
 10
593.1495
 20
34.0028
 10
591.4357
 20
32.6028
 10
589.4686
 20
31.5458
 10
587.2949
 20
30.8777
 10
584.9612
 20
30.6448
 10
582.6275
 20
30.8777
 10
580.4538
 20
31.5458
 10
578.4867
 20
32.6028
 10
576.7729
 20
34.0028
 10
575.3589
 20
35.6996
 10
574.2912
 20
37.647
 10
573.6164
 20
39.7991
 10
573.3811
 20
42.1096
 10
573.6164
 20
44.4201
 10
574.2912
 20
46.5721
 10
575.3589
 20
48.5196
 10
576.7729
 20
50.2164
 10
578.4867
 20
51.6163
 10
580.4538
 20
52.6734
 10
582.6275
 20
53.3415
 10
584.9612
 20
53.5744
  0
LWPOLYLINE
  5
79
330
1F
100
AcDbEntity
  8
Layer 1
 62
     7
370
    35
100
AcDbPolyline
 90
        2
 70
     0
 43
0.0
 10
588.7378
 20
60.646
 10
581.1254
 20
22.1069
  0
LWPOLYLINE
  5
7A
330
1F
100
AcDbEntity
  8
Layer 1
 62
     7
370
    35
100
AcDbPolyline
 90
       33
 70
     1
 43
0.0
 10
726.9557
 20
53.5744
 10
729.2894
 20
53.3415
 10
731.4631
 20
52.6734
 10
733.4302
 20
51.6163
 10
735.144
 20
50.2164
 10
736.558
 20
48.5196
 10
737.6257
 20
46.5721
 10
738.3005
 20
44.4201
 10
738.5358
 20
42.1096
 10
738.3005
 20
39.7991
 10
737.6257
 20
37.647
 10
736.558
 20
35.6996
 10
735.144
 20
34.0028
 10
733.4302
 20
32.6028
 10
731.4631
 20
31.5458
 10
729.2894
 20
30.8777
 10
726.9557
 20
30.6448
 10
724.622
 20
30.8777
 10
722.4483
 20
31.5458
 10
720.4813
 20
32.6028
 10
718.7675
 20
34.0028
 10
717.3534
 20
35.6996
 10
716.2857
 20
37.647
 10
715.611
 20
39.7991
 10
715.3757
 20
42.1096
 10
715.611
 20
44.4201
 10
716.2857
 20
46.5721
 10
717.3534
 20
48.5196
 10
718.7675
 20
50.2164
 10
720.4813
 20
51.6163
 10
722.4483
 20
52.6734
 10
724.622
 20
53.3415
 10
726.9557
 20
53.5744
  0
LWPOLYLINE
  5
7B
330
1F
100
AcDbEntity
  8
Layer 1
 62
     7
370
    35
100
AcDbPolyline
 90
        2
 70
     0
 43
0.0
 10
730.7323
 20
60.646
 10
723.12
 20
22.1069
  0
LWPOLYLINE
  5
7C
330
1F
100
AcDbEntity
  8
Layer 1
 62
     7
370
    18
100
AcDbPolyline
 90
        9
 70
     1
 43
0.0
 10
453.5656
 20
-9.7312
 10
452.4029
 20
-9.7312
 10
442.0257
 20
-1.5156
 10
442.0257
 20
0.2559
 10
452.4029
 20
-7.8936
 10
452.1348
 20
-8.757
 10
452.1348
 20
3.7095
 10
453.5656
 20
3.7095
 10
453.5656
 20
-9.7312
  0
LWPOLYLINE
  5
7D
330
1F
100
AcDbEntity
  8
Layer 1
 62
     7
370
    18
100
AcDbPolyline
 90
        7
 70
     1
 43
0.0
 10
457.6809
 20
-0.9846
 10
453.5656
 20
-0.9846
 10
452.1348
 20
-0.94
 10
448.5105
 20
-0.94
 10
448.5105
 20
0.6099
 10
457.6809
 20
0.6099
 10
457.6809
 20
-0.9846
  0
LWPOLYLINE
  5
7E
330
1F
100
AcDbEntity
  8
Layer 1
 62
     7
370
    18
100
AcDbPolyline
 90
        8
 70
     1
 43
0.0
 10
457.6809
 20
7.3195
 10
442.6963
 20
7.3195
 10
443.4564
 20
8.0283
 10
443.4564
 20
3.6657
 10
442.0257
 20
3.6657
 10
442.0257
 20
8.9141
 10
457.6809
 20
8.9141
 10
457.6809
 20
7.3195
  0
LWPOLYLINE
  5
7F
330
1F
100
AcDbEntity
  8
Layer 1
 62
     7
370
    18
100
AcDbPolyline
 90
       97
 70
     1
 43
0.0
 10
457.8154
 20
18.7904
 10
457.8005
 20
18.3481
 10
457.756
 20
17.9183
 10
457.6817
 20
17.5009
 10
457.5778
 20
17.096
 10
457.4441
 20
16.7036
 10
457.2808
 20
16.3236
 10
457.0877
 20
15.9562
 10
456.8649
 20
15.6014
 10
456.6143
 20
15.2618
 10
456.3379
 20
14.9411
 10
456.0355
 20
14.639
 10
455.7073
 20
14.3556
 10
455.3533
 20
14.091
 10
454.9734
 20
13.845
 10
454.5676
 20
13.6176
 10
454.1361
 20
13.4089
 10
453.6803
 20
13.2222
 10
453.2018
 20
13.0604
 10
452.7005
 20
12.9234
 10
452.1766
 20
12.8112
 10
451.6298
 20
12.724
 10
451.0603
 20
12.6616
 10
450.468
 20
12.6242
 10
449.8528
 20
12.6117
 10
449.2379
 20
12.6242
 10
448.6457
 20
12.6616
 10
448.0762
 20
12.724
 10
447.5294
 20
12.8112
 10
447.0054
 20
12.9234
 10
446.504
 20
13.0604
 10
446.0254
 20
13.2222
 10
445.5696
 20
13.4089
 10
445.1381
 20
13.6176
 10
444.7325
 20
13.845
 10
444.3527
 20
14.091
 10
443.9988
 20
14.3556
 10
443.6708
 20
14.639
 10
443.3686
 20
14.9411
 10
443.0922
 20
15.2618
 10
442.8417
 20
15.6014
 10
442.6189
 20
15.9562
 10
442.4258
 20
16.3236
 10
442.2625
 20
16.7036
 10
442.1288
 20
17.096
 10
442.0249
 20
17.5009
 10
441.9506
 20
17.9183
 10
441.9061
 20
18.3481
 10
441.8912
 20
18.7904
 10
441.9061
 20
19.2324
 10
441.9506
 20
19.662
 10
442.0249
 20
20.0792
 10
442.1288
 20
20.484
 10
442.2625
 20
20.8764
 10
442.4258
 20
21.2563
 10
442.6189
 20
21.6237
 10
442.8417
 20
21.9785
 10
443.0922
 20
22.3182
 10
443.3686
 20
22.6395
 10
443.6708
 20
22.9424
 10
443.9988
 20
23.227
 10
444.3527
 20
23.4931
 10
444.7325
 20
23.741
 10
445.1381
 20
23.9705
 10
445.5696
 20
24.1817
 10
446.0254
 20
24.3712
 10
446.504
 20
24.5355
 10
447.0054
 20
24.6745
 10
447.5294
 20
24.7883
 10
448.0762
 20
24.8768
 10
448.6457
 20
24.94
 10
449.2379
 20
24.978
 10
449.8528
 20
24.9906
 10
450.468
 20
24.978
 10
451.0603
 20
24.94
 10
451.6298
 20
24.8768
 10
452.1766
 20
24.7883
 10
452.7005
 20
24.6745
 10
453.2018
 20
24.5355
 10
453.6803
 20
24.3712
 10
454.1361
 20
24.1817
 10
454.5676
 20
23.9705
 10
454.9734
 20
23.741
 10
455.3533
 20
23.4931
 10
455.7073
 20
23.227
 10
456.0355
 20
22.9424
 10
456.3379
 20
22.6395
 10
456.6143
 20
22.3182
 10
456.8649
 20
21.9785
 10
457.0877
 20
21.6237
 10
457.2808
 20
21.2563
 10
457.4441
 20
20.8764
 10
457.5778
 20
20.484
 10
457.6817
 20
20.0792
 10
457.756
 20
19.662
 10
457.8005
 20
19.2324
 10
457.8154
 20
18.7904
  0
LWPOLYLINE
  5
80
330
1F
100
AcDbEntity
  8
Layer 1
 62
     7
370
    18
100
AcDbPolyline
 90
       97
 70
     1
 43
0.0
 10
456.3395
 20
18.7904
 10
456.3278
 20
19.128
 10
456.2926
 20
19.4546
 10
456.2341
 20
19.77
 10
456.1521
 20
20.0743
 10
456.0467
 20
20.3676
 10
455.918
 20
20.6498
 10
455.7658
 20
20.9211
 10
455.5903
 20
21.1813
 10
455.392
 20
21.4291
 10
455.1721
 20
21.6631
 10
454.9305
 20
21.8832
 10
454.6674
 20
22.0895
 10
454.3827
 20
22.2819
 10
454.0763
 20
22.4604
 10
453.7483
 20
22.6251
 10
453.3986
 20
22.7758
 10
453.0275
 20
22.9106
 10
452.6357
 20
23.0275
 10
452.2234
 20
23.1264
 10
451.7906
 20
23.2074
 10
451.3371
 20
23.2704
 10
450.8629
 20
23.3154
 10
450.3682
 20
23.3424
 10
449.8528
 20
23.3514
 10
449.3374
 20
23.3424
 10
448.8427
 20
23.3154
 10
448.3686
 20
23.2704
 10
447.9152
 20
23.2074
 10
447.4824
 20
23.1264
 10
447.0703
 20
23.0275
 10
446.6788
 20
22.9106
 10
446.308
 20
22.7758
 10
445.9583
 20
22.6251
 10
445.6302
 20
22.4604
 10
445.3237
 20
22.2819
 10
445.0388
 20
22.0895
 10
444.7756
 20
21.8832
 10
444.5342
 20
21.6631
 10
444.3144
 20
21.4291
 10
444.1163
 20
21.1813
 10
443.9408
 20
20.9211
 10
443.7886
 20
20.6498
 10
443.6598
 20
20.3676
 10
443.5545
 20
20.0743
 10
443.4725
 20
19.77
 10
443.4139
 20
19.4546
 10
443.3787
 20
19.128
 10
443.367
 20
18.7904
 10
443.3787
 20
18.4627
 10
443.4139
 20
18.1441
 10
443.4725
 20
17.8344
 10
443.5545
 20
17.5337
 10
443.6598
 20
17.242
 10
443.7886
 20
16.9593
 10
443.9408
 20
16.6856
 10
444.1163
 20
16.421
 10
444.3144
 20
16.1679
 10
444.5342
 20
15.9293
 10
444.7756
 20
15.7053
 10
445.0388
 20
15.4959
 10
445.3237
 20
15.3011
 10
445.6302
 20
15.1208
 10
445.9583
 20
14.9552
 10
446.308
 20
14.8041
 10
446.6788
 20
14.6693
 10
447.0703
 20
14.5524
 10
447.4824
 20
14.4535
 10
447.9152
 20
14.3725
 10
448.3686
 20
14.3095
 10
448.8427
 20
14.2645
 10
449.3374
 20
14.2375
 10
449.8528
 20
14.2285
 10
450.3682
 20
14.2375
 10
450.8629
 20
14.2645
 10
451.3371
 20
14.3095
 10
451.7906
 20
14.3725
 10
452.2234
 20
14.4535
 10
452.6357
 20
14.5524
 10
453.0275
 20
14.6693
 10
453.3986
 20
14.8041
 10
453.7483
 20
14.9552
 10
454.0763
 20
15.1208
 10
454.3827
 20
15.3011
 10
454.6674
 20
15.4959
 10
454.9305
 20
15.7053
 10
455.1721
 20
15.9293
 10
455.392
 20
16.1679
 10
455.5903
 20
16.421
 10
455.7658
 20
16.6856
 10
455.918
 20
16.9593
 10
456.0467
 20
17.242
 10
456.1521
 20
17.5337
 10
456.2341
 20
17.8344
 10
456.2926
 20
18.1441
 10
456.3278
 20
18.4627
 10
456.3395
 20
18.7904
  0
LWPOLYLINE
  5
81
330
1F
100
AcDbEntity
  8
Layer 1
 62
     7
370
    50
100
AcDbPolyline
 90
       35
 70
     1
 43
0.0
 10
287.0447
 20
50.7985
 10
389.3931
 20
50.7985
 10
389.8143
 20
50.7404
 10
390.1679
 20
50.5775
 10
390.4674
 20
50.3272
 10
390.7263
 20
50.0067
 10
390.9581
 20
49.6333
 10
391.1764
 20
49.2241
 10
391.3946
 20
48.7966
 10
391.6263
 20
48.3679
 10
395.7162
 20
40.8976
 10
399.6465
 20
32.6672
 10
402.8612
 20
24.2178
 10
404.8042
 20
16.0908
 10
404.9192
 20
8.8276
 10
402.6502
 20
2.9694
 10
397.4411
 20
-0.9425
 10
388.7357
 20
-2.3668
 10
288.2279
 20
-2.3668
 10
279.5666
 20
-0.9584
 10
274.2739
 20
2.9149
 10
271.842
 20
8.7254
 10
271.7627
 20
15.9455
 10
273.528
 20
24.0475
 10
276.6299
 20
32.5037
 10
280.5604
 20
40.7864
 10
284.8115
 20
48.3679
 10
285.0502
 20
48.7934
 10
285.2715
 20
49.2195
 10
285.4899
 20
49.6284
 10
285.7198
 20
50.0026
 10
285.9757
 20
50.3243
 10
286.2722
 20
50.576
 10
286.6237
 20
50.7399
 10
287.0447
 20
50.7985
  0
LWPOLYLINE
  5
82
330
1F
100
AcDbEntity
  8
Layer 1
 62
     7
370
    50
100
AcDbPolyline
 90
        2
 70
     0
 43
0.0
 10
257.0056
 20
50.7814
 10
245.1298
 20
50.7814
  0
LWPOLYLINE
  5
83
330
1F
100
AcDbEntity
  8
Layer 1
 62
     7
370
    50
100
AcDbPolyline
 90
        2
 70
     0
 43
0.0
 10
257.0056
 20
-2.3788
 10
245.1298
 20
-2.3788
  0
LWPOLYLINE
  5
84
330
1F
100
AcDbEntity
  8
Layer 1
 62
     7
370
    50
100
AcDbPolyline
 90
        2
 70
     0
 43
0.0
 10
251.6544
 20
39.3448
 10
251.6544
 20
50.7814
  0
LWPOLYLINE
  5
85
330
1F
100
AcDbEntity
  8
Layer 1
 62
     7
370
    50
100
AcDbPolyline
 90
        2
 70
     0
 43
0.0
 10
251.6544
 20
-2.3788
 10
251.6544
 20
10.5971
  0
LWPOLYLINE
  5
86
330
1F
100
AcDbEntity
  8
Layer 1
 62
     7
370
    18
100
AcDbPolyline
 90
        8
 70
     1
 43
0.0
 10
255.1236
 20
20.7578
 10
250.5777
 20
20.7578
 10
250.8083
 20
20.975
 10
250.8083
 20
19.6384
 10
250.3742
 20
19.6384
 10
250.3742
 20
21.2463
 10
255.1236
 20
21.2463
 10
255.1236
 20
20.7578
  0
LWPOLYLINE
  5
87
330
1F
100
AcDbEntity
  8
Layer 1
 62
     7
370
    18
100
AcDbPolyline
 90
      148
 70
     1
 43
0.0
 10
255.1644
 20
24.3264
 10
255.16
 20
24.1717
 10
255.1468
 20
24.0232
 10
255.1248
 20
23.8809
 10
255.094
 20
23.7446
 10
255.0544
 20
23.6146
 10
255.0059
 20
23.4906
 10
254.9487
 20
23.3728
 10
254.8827
 20
23.2612
 10
254.8084
 20
23.156
 10
254.7263
 20
23.0573
 10
254.6363
 20
22.9652
 10
254.5385
 20
22.8796
 10
254.4327
 20
22.8007
 10
254.3192
 20
22.7283
 10
254.1978
 20
22.6624
 10
254.0685
 20
22.6032
 10
253.932
 20
22.5507
 10
253.7888
 20
22.5052
 10
253.6389
 20
22.4667
 10
253.4824
 20
22.4352
 10
253.3192
 20
22.4107
 10
253.1493
 20
22.3932
 10
252.9727
 20
22.3827
 10
252.7895
 20
22.3792
 10
252.5918
 20
22.3835
 10
252.4022
 20
22.3964
 10
252.2208
 20
22.4179
 10
252.0475
 20
22.448
 10
251.8824
 20
22.4866
 10
251.7255
 20
22.5339
 10
251.5768
 20
22.5897
 10
251.4362
 20
22.6541
 10
251.3037
 20
22.7261
 10
251.1797
 20
22.8049
 10
251.064
 20
22.8902
 10
250.9567
 20
22.9823
 10
250.8579
 20
23.081
 10
250.7674
 20
23.1865
 10
250.6853
 20
23.2985
 10
250.6116
 20
23.4173
 10
250.5464
 20
23.5418
 10
250.4898
 20
23.6713
 10
250.442
 20
23.8055
 10
250.4029
 20
23.9447
 10
250.3725
 20
24.0888
 10
250.3508
 20
24.2377
 10
250.3377
 20
24.3915
 10
250.3334
 20
24.5502
 10
250.3372
 20
24.708
 10
250.3487
 20
24.8624
 10
250.3677
 20
25.0133
 10
250.3945
 20
25.1608
 10
250.4296
 20
25.3024
 10
250.4741
 20
25.4356
 10
250.5279
 20
25.5602
 10
250.5911
 20
25.6764
 10
250.9846
 20
25.4795
 10
250.928
 20
25.3847
 10
250.8803
 20
25.283
 10
250.8415
 20
25.1744
 10
250.8115
 20
25.0589
 10
250.7609
 20
24.557
 10
250.7685
 20
24.3702
 10
250.7914
 20
24.193
 10
250.8295
 20
24.0255
 10
250.8829
 20
23.8676
 10
250.9516
 20
23.7193
 10
251.0356
 20
23.5807
 10
251.1348
 20
23.4517
 10
251.2494
 20
23.3324
 10
251.3791
 20
23.2251
 10
251.5239
 20
23.1321
 10
251.6836
 20
23.0534
 10
251.8584
 20
22.989
 10
252.0483
 20
22.939
 10
252.2531
 20
22.9032
 10
252.4731
 20
22.8817
 10
252.7081
 20
22.8746
 10
253.0778
 20
22.8915
 10
253.5154
 20
22.9696
 10
253.3867
 20
22.7998
 10
253.3001
 20
22.8207
 10
253.2169
 20
22.846
 10
253.1369
 20
22.8758
 10
253.0602
 20
22.9101
 10
252.9867
 20
22.9488
 10
252.9166
 20
22.992
 10
252.8498
 20
23.0396
 10
252.7862
 20
23.0917
 10
252.7261
 20
23.1476
 10
252.6698
 20
23.207
 10
252.6171
 20
23.2697
 10
252.5682
 20
23.3359
 10
252.4815
 20
23.4783
 10
252.4096
 20
23.6344
 10
252.3532
 20
23.801
 10
252.3129
 20
23.9753
 10
252.2888
 20
24.1572
 10
252.2807
 20
24.3467
 10
252.2835
 20
24.4636
 10
252.2917
 20
24.5769
 10
252.3055
 20
24.6866
 10
252.3248
 20
24.7927
 10
252.3496
 20
24.8952
 10
252.3799
 20
24.9942
 10
252.4157
 20
25.0894
 10
252.457
 20
25.1811
 10
252.5034
 20
25.2686
 10
252.5542
 20
25.3512
 10
252.6095
 20
25.4289
 10
252.6692
 20
25.5017
 10
252.7333
 20
25.5697
 10
252.8019
 20
25.6327
 10
252.8749
 20
25.6909
 10
252.9524
 20
25.7443
 10
253.0339
 20
25.792
 10
253.119
 20
25.8333
 10
253.2077
 20
25.8683
 10
253.3001
 20
25.8969
 10
253.396
 20
25.9192
 10
253.4955
 20
25.9351
 10
253.5987
 20
25.9446
 10
253.7054
 20
25.9478
 10
253.814
 20
25.9445
 10
253.9191
 20
25.9347
 10
254.0207
 20
25.9182
 10
254.1187
 20
25.8952
 10
254.2132
 20
25.8657
 10
254.3042
 20
25.8295
 10
254.3917
 20
25.7868
 10
254.4757
 20
25.7375
 10
254.5556
 20
25.6824
 10
254.6309
 20
25.6224
 10
254.7015
 20
25.5574
 10
254.7674
 20
25.4874
 10
254.8287
 20
25.4124
 10
254.8853
 20
25.3324
 10
254.9372
 20
25.2474
 10
254.9845
 20
25.1575
 10
255.0267
 20
25.0637
 10
255.0632
 20
24.9669
 10
255.0942
 20
24.8673
 10
255.1195
 20
24.7649
 10
255.1391
 20
24.6595
 10
255.1532
 20
24.5513
 10
255.1616
 20
24.4403
 10
255.1644
 20
24.3264
  0
LWPOLYLINE
  5
88
330
1F
100
AcDbEntity
  8
Layer 1
 62
     7
370
    18
100
AcDbPolyline
 90
       63
 70
     1
 43
0.0
 10
254.7504
 20
24.3059
 10
254.7426
 20
24.4707
 10
254.7191
 20
24.6257
 10
254.6799
 20
24.7709
 10
254.625
 20
24.9064
 10
254.5554
 20
25.0301
 10
254.4723
 20
25.1397
 10
254.3757
 20
25.2353
 10
254.2654
 20
25.3169
 10
254.2056
 20
25.3518
 10
254.1435
 20
25.3821
 10
254.0788
 20
25.4078
 10
254.0118
 20
25.4288
 10
253.8703
 20
25.4568
 10
253.7191
 20
25.4661
 10
253.605
 20
25.4611
 10
253.4969
 20
25.446
 10
253.3947
 20
25.4208
 10
253.2985
 20
25.3856
 10
253.2081
 20
25.3403
 10
253.1237
 20
25.2849
 10
253.0453
 20
25.2194
 10
252.9727
 20
25.1438
 10
252.9075
 20
25.0597
 10
252.851
 20
24.9685
 10
252.8033
 20
24.8702
 10
252.7642
 20
24.7648
 10
252.7338
 20
24.6523
 10
252.7121
 20
24.5326
 10
252.699
 20
24.406
 10
252.6947
 20
24.2722
 10
252.7032
 20
24.0949
 10
252.7286
 20
23.9295
 10
252.771
 20
23.776
 10
252.8303
 20
23.6344
 10
252.9042
 20
23.5059
 10
252.9904
 20
23.3918
 10
253.089
 20
23.2922
 10
253.1999
 20
23.207
 10
253.2594
 20
23.1704
 10
253.321
 20
23.1387
 10
253.3845
 20
23.1119
 10
253.4501
 20
23.0899
 10
253.5177
 20
23.0728
 10
253.5873
 20
23.0607
 10
253.6589
 20
23.0533
 10
253.7325
 20
23.0509
 10
253.8601
 20
23.0598
 10
253.9846
 20
23.0865
 10
254.1061
 20
23.131
 10
254.2246
 20
23.1933
 10
254.2818
 20
23.2311
 10
254.3362
 20
23.2732
 10
254.3878
 20
23.3197
 10
254.4367
 20
23.3706
 10
254.5263
 20
23.4853
 10
254.6047
 20
23.6175
 10
254.6389
 20
23.6898
 10
254.6685
 20
23.766
 10
254.6935
 20
23.8462
 10
254.714
 20
23.9302
 10
254.7413
 20
24.1102
 10
254.7504
 20
24.3059
  0
LWPOLYLINE
  5
89
330
1F
100
AcDbEntity
  8
Layer 1
 62
     7
370
    18
100
AcDbPolyline
 90
       97
 70
     1
 43
0.0
 10
255.1644
 20
28.4038
 10
255.1599
 20
28.2683
 10
255.1464
 20
28.1366
 10
255.1239
 20
28.0087
 10
255.0923
 20
27.8847
 10
255.0518
 20
27.7645
 10
255.0022
 20
27.6481
 10
254.9437
 20
27.5355
 10
254.8761
 20
27.4268
 10
254.8001
 20
27.3228
 10
254.7162
 20
27.2245
 10
254.6245
 20
27.1319
 10
254.5249
 20
27.0451
 10
254.4175
 20
26.964
 10
254.3023
 20
26.8887
 10
254.1792
 20
26.819
 10
254.0483
 20
26.7551
 10
253.9099
 20
26.6979
 10
253.7647
 20
26.6483
 10
253.6126
 20
26.6063
 10
253.4537
 20
26.5719
 10
253.2878
 20
26.5452
 10
253.1151
 20
26.5261
 10
252.9354
 20
26.5146
 10
252.7489
 20
26.5108
 10
252.5624
 20
26.5146
 10
252.3827
 20
26.5261
 10
252.21
 20
26.5452
 10
252.0441
 20
26.5719
 10
251.8851
 20
26.6063
 10
251.733
 20
26.6483
 10
251.5879
 20
26.6979
 10
251.4496
 20
26.7551
 10
251.3186
 20
26.819
 10
251.1955
 20
26.8887
 10
251.0802
 20
26.964
 10
250.9729
 20
27.0451
 10
250.8733
 20
27.1319
 10
250.7816
 20
27.2245
 10
250.6978
 20
27.3228
 10
250.6218
 20
27.4268
 10
250.5542
 20
27.5355
 10
250.4956
 20
27.6481
 10
250.446
 20
27.7645
 10
250.4055
 20
27.8847
 10
250.3739
 20
28.0087
 10
250.3514
 20
28.1366
 10
250.3379
 20
28.2683
 10
250.3334
 20
28.4038
 10
250.3379
 20
28.5392
 10
250.3514
 20
28.6709
 10
250.3739
 20
28.7987
 10
250.4055
 20
28.9227
 10
250.446
 20
29.0429
 10
250.4956
 20
29.1593
 10
250.5542
 20
29.2719
 10
250.6218
 20
29.3806
 10
250.6978
 20
29.4847
 10
250.7816
 20
29.5831
 10
250.8733
 20
29.6759
 10
250.9729
 20
29.7631
 10
251.0802
 20
29.8446
 10
251.1955
 20
29.9206
 10
251.3186
 20
29.9909
 10
251.4496
 20
30.0556
 10
251.5879
 20
30.1136
 10
251.733
 20
30.164
 10
251.8851
 20
30.2066
 10
252.0441
 20
30.2414
 10
252.21
 20
30.2685
 10
252.3827
 20
30.2879
 10
252.5624
 20
30.2995
 10
252.7489
 20
30.3034
 10
252.9354
 20
30.2995
 10
253.1151
 20
30.2879
 10
253.2878
 20
30.2685
 10
253.4537
 20
30.2414
 10
253.6126
 20
30.2066
 10
253.7647
 20
30.164
 10
253.9099
 20
30.1136
 10
254.0483
 20
30.0556
 10
254.1792
 20
29.9909
 10
254.3023
 20
29.9206
 10
254.4175
 20
29.8446
 10
254.5249
 20
29.7631
 10
254.6245
 20
29.6759
 10
254.7162
 20
29.5831
 10
254.8001
 20
29.4847
 10
254.8761
 20
29.3806
 10
254.9437
 20
29.2719
 10
255.0022
 20
29.1593
 10
255.0518
 20
29.0429
 10
255.0923
 20
28.9227
 10
255.1239
 20
28.7987
 10
255.1464
 20
28.6709
 10
255.1599
 20
28.5392
 10
255.1644
 20
28.4038
  0
LWPOLYLINE
  5
8A
330
1F
100
AcDbEntity
  8
Layer 1
 62
     7
370
    18
100
AcDbPolyline
 90
       97
 70
     1
 43
0.0
 10
254.7167
 20
28.4038
 10
254.7131
 20
28.5072
 10
254.7025
 20
28.6073
 10
254.6847
 20
28.7039
 10
254.6599
 20
28.7972
 10
254.6279
 20
28.887
 10
254.5888
 20
28.9735
 10
254.5427
 20
29.0566
 10
254.4894
 20
29.1363
 10
254.4292
 20
29.2123
 10
254.3625
 20
29.284
 10
254.2893
 20
29.3514
 10
254.2094
 20
29.4146
 10
254.123
 20
29.4736
 10
254.03
 20
29.5283
 10
253.9305
 20
29.5787
 10
253.8243
 20
29.6249
 10
253.7117
 20
29.6662
 10
253.5929
 20
29.702
 10
253.4678
 20
29.7323
 10
253.3365
 20
29.7571
 10
253.199
 20
29.7764
 10
253.0552
 20
29.7902
 10
252.9052
 20
29.7984
 10
252.7489
 20
29.8012
 10
252.5926
 20
29.7984
 10
252.4425
 20
29.7902
 10
252.2987
 20
29.7764
 10
252.1612
 20
29.7571
 10
252.0299
 20
29.7323
 10
251.9048
 20
29.702
 10
251.7861
 20
29.6662
 10
251.6736
 20
29.6249
 10
251.5675
 20
29.5787
 10
251.4679
 20
29.5283
 10
251.3749
 20
29.4736
 10
251.2885
 20
29.4146
 10
251.2086
 20
29.3514
 10
251.1353
 20
29.284
 10
251.0686
 20
29.2123
 10
251.0084
 20
29.1363
 10
250.9552
 20
29.0566
 10
250.909
 20
28.9735
 10
250.8699
 20
28.887
 10
250.838
 20
28.7972
 10
250.8131
 20
28.7039
 10
250.7953
 20
28.6073
 10
250.7847
 20
28.5072
 10
250.7811
 20
28.4038
 10
250.7847
 20
28.3034
 10
250.7953
 20
28.2058
 10
250.8131
 20
28.1109
 10
250.838
 20
28.0188
 10
250.8699
 20
27.9294
 10
250.909
 20
27.8428
 10
250.9552
 20
27.759
 10
251.0084
 20
27.6779
 10
251.0686
 20
27.6003
 10
251.1353
 20
27.5272
 10
251.2086
 20
27.4586
 10
251.2885
 20
27.3945
 10
251.3749
 20
27.3348
 10
251.4679
 20
27.2796
 10
251.5675
 20
27.2288
 10
251.6736
 20
27.1825
 10
251.7861
 20
27.1412
 10
251.9048
 20
27.1054
 10
252.0299
 20
27.0751
 10
252.1612
 20
27.0503
 10
252.2987
 20
27.031
 10
252.4425
 20
27.0172
 10
252.5926
 20
27.009
 10
252.7489
 20
27.0062
 10
252.9052
 20
27.009
 10
253.0552
 20
27.0172
 10
253.199
 20
27.031
 10
253.3365
 20
27.0503
 10
253.4678
 20
27.0751
 10
253.5929
 20
27.1054
 10
253.7117
 20
27.1412
 10
253.8243
 20
27.1825
 10
253.9305
 20
27.2288
 10
254.03
 20
27.2796
 10
254.123
 20
27.3348
 10
254.2094
 20
27.3945
 10
254.2893
 20
27.4586
 10
254.3625
 20
27.5272
 10
254.4292
 20
27.6003
 10
254.4894
 20
27.6779
 10
254.5427
 20
27.759
 10
254.5888
 20
27.8428
 10
254.6279
 20
27.9294
 10
254.6599
 20
28.0188
 10
254.6847
 20
28.1109
 10
254.7025
 20
28.2058
 10
254.7131
 20
28.3034
 10
254.7167
 20
28.4038
  0
ENDSEC
  0
SECTION
  2
OBJECTS
  0
DICTIONARY
  5
C
330
0
100
AcDbDictionary
281
     1
  3
ACAD_DETAILVIEWSTYLE
350
92
  3
ACAD_GROUP
350
D
  3
ACAD_LAYOUT
350
1A
  3
ACAD_MATERIAL
350
43
  3
ACAD_MLEADERSTYLE
350
5B
  3
ACAD_MLINESTYLE
350
17
  3
ACAD_PLOTSETTINGS
350
19
  3
ACAD_PLOTSTYLENAME
350
E
  3
ACAD_SCALELIST
350
47
  3
ACAD_SECTIONVIEWSTYLE
350
93
  3
ACAD_TABLESTYLE
350
59
  3
ACAD_VISUALSTYLE
350
2A
  3
ACDB_RECOMPOSE_DATA
350
8F
  3
AcDbVariableDictionary
350
8B
  0
SUN
  5
5D
330
29
100
AcDbSun
 90
        1
290
     0
 63
     7
421
 16777215
 40
1.0
291
     1
 91
  2455826
 92
 54000000
292
     0
 70
     2
 71
   256
280
     1
  0
DICTIONARY
  5
92
102
{ACAD_REACTORS
330
C
102
}
330
C
100
AcDbDictionary
281
     1
  0
DICTIONARY
  5
D
102
{ACAD_REACTORS
330
C
102
}
330
C
100
AcDbDictionary
281
     1
  0
DICTIONARY
  5
1A
102
{ACAD_REACTORS
330
C
102
}
330
C
100
AcDbDictionary
281
     1
  3
Layout1
350
1E
  3
Layout2
350
26
  3
Model
350
22
  0
DICTIONARY
  5
43
102
{ACAD_REACTORS
330
C
102
}
330
C
100
AcDbDictionary
281
     1
  3
ByBlock
350
45
  3
ByLayer
350
44
  3
Global
350
46
  0
DICTIONARY
  5
5B
102
{ACAD_REACTORS
330
C
102
}
330
C
100
AcDbDictionary
281
     1
  3
Standard
350
5C
  0
DICTIONARY
  5
17
102
{ACAD_REACTORS
330
C
102
}
330
C
100
AcDbDictionary
281
     1
  3
Standard
350
18
  0
DICTIONARY
  5
19
102
{ACAD_REACTORS
330
C
102
}
330
C
100
AcDbDictionary
281
     1
  0
ACDBDICTIONARYWDFLT
  5
E
102
{ACAD_REACTORS
330
C
102
}
330
C
100
AcDbDictionary
281
     1
  3
Normal
350
F
100
AcDbDictionaryWithDefault
340
F
  0
DICTIONARY
  5
47
102
{ACAD_REACTORS
330
C
102
}
330
C
100
AcDbDictionary
281
     1
  3
A0
350
48
  3
A1
350
49
  3
A2
350
4A
  3
A3
350
4B
  3
A4
350
4C
  3
A5
350
4D
  3
A6
350
4E
  3
A7
350
4F
  3
A8
350
50
  3
A9
350
51
  3
B1
350
52
  3
B2
350
53
  3
B3
350
54
  3
B4
350
55
  3
B5
350
56
  3
B6
350
57
  3
B7
350
58
  0
DICTIONARY
  5
93
102
{ACAD_REACTORS
330
C
102
}
330
C
100
AcDbDictionary
281
     1
  0
DICTIONARY
  5
59
102
{ACAD_REACTORS
330
C
102
}
330
C
100
AcDbDictionary
281
     1
  3
Standard
350
5A
  0
DICTIONARY
  5
2A
102
{ACAD_REACTORS
330
C
102
}
330
C
100
AcDbDictionary
281
     1
  3
2dWireframe
350
2F
  3
Basic
350
32
  3
Brighten
350
36
  3
ColorChange
350
3A
  3
Conceptual
350
34
  3
Dim
350
35
  3
EdgeColorOff
350
3D
  3
Facepattern
350
39
  3
Flat
350
2B
  3
FlatWithEdges
350
2C
  3
Gouraud
350
2D
  3
GouraudWithEdges
350
2E
  3
Hidden
350
31
  3
JitterOff
350
3B
  3
Linepattern
350
38
  3
OverhangOff
350
3C
  3
Realistic
350
33
  3
Shaded
350
42
  3
Shaded with edges
350
41
  3
Shades of Gray
350
3E
  3
Sketchy
350
3F
  3
Thicken
350
37
  3
Wireframe
350
30
  3
X-Ray
350
40
  0
XRECORD
  5
8F
102
{ACAD_REACTORS
330
C
102
}
330
C
100
AcDbXrecord
280
     1
 90
        1
330
5A
  0
DICTIONARY
  5
8B
102
{ACAD_REACTORS
330
C
102
}
330
C
100
AcDbDictionary
281
     1
  3
CANNOSCALE
350
8C
  3
CMLEADERSTYLE
350
91
  3
CTABLESTYLE
350
90
  0
LAYOUT
  5
1E
102
{ACAD_REACTORS
330
1A
102
}
330
1A
100
AcDbPlotSettings
  1

  2
none_device
  4

  6

 40
0.0
 41
0.0
 42
0.0
 43
0.0
 44
0.0
 45
0.0
 46
0.0
 47
0.0
 48
0.0
 49
0.0
140
0.0
141
0.0
142
1.0
143
1.0
 70
   688
 72
     0
 73
     0
 74
     5
  7

 75
    16
 76
     0
 77
     2
 78
   300
147
1.0
148
0.0
149
0.0
100
AcDbLayout
  1
Layout1
 70
     1
 71
     1
 10
0.0
 20
0.0
 11
12.0
 21
9.0
 12
0.0
 22
0.0
 32
0.0
 14
1.000000000000000E+20
 24
1.000000000000000E+20
 34
1.000000000000000E+20
 15
-1.000000000000000E+20
 25
-1.000000000000000E+20
 35
-1.000000000000000E+20
146
0.0
 13
0.0
 23
0.0
 33
0.0
 16
1.0
 26
0.0
 36
0.0
 17
0.0
 27
1.0
 37
0.0
 76
     0
330
1B
  0
LAYOUT
  5
26
102
{ACAD_REACTORS
330
1A
102
}
330
1A
100
AcDbPlotSettings
  1

  2
none_device
  4

  6

 40
0.0
 41
0.0
 42
0.0
 43
0.0
 44
0.0
 45
0.0
 46
0.0
 47
0.0
 48
0.0
 49
0.0
140
0.0
141
0.0
142
1.0
143
1.0
 70
   688
 72
     0
 73
     0
 74
     5
  7

 75
    16
 76
     0
 77
     2
 78
   300
147
1.0
148
0.0
149
0.0
100
AcDbLayout
  1
Layout2
 70
     1
 71
     2
 10
0.0
 20
0.0
 11
0.0
 21
0.0
 12
0.0
 22
0.0
 32
0.0
 14
0.0
 24
0.0
 34
0.0
 15
0.0
 25
0.0
 35
0.0
146
0.0
 13
0.0
 23
0.0
 33
0.0
 16
1.0
 26
0.0
 36
0.0
 17
0.0
 27
1.0
 37
0.0
 76
     0
330
23
  0
LAYOUT
  5
22
102
{ACAD_REACTORS
330
1A
102
}
330
1A
100
AcDbPlotSettings
  1

  2
none_device
  4
Letter_(8.50_x_11.00_Inches)
  6

 40
6.35
 41
6.35
 42
6.35000508
 43
6.35000508
 44
215.9
 45
279.4
 46
0.0
 47
0.0
 48
0.0
 49
0.0
140
0.0
141
0.0
142
1.0
143
1.0
 70
  1712
 72
     0
 73
     0
 74
     0
  7

 75
     0
 76
     0
 77
     2
 78
   300
147
1.0
148
0.0
149
0.0
100
AcDbLayout
  1
Model
 70
     1
 71
     0
 10
0.0
 20
0.0
 11
12.0
 21
9.0
 12
0.0
 22
0.0
 32
0.0
 14
212.2009
 24
-224.5455
 34
0.0
 15
888.1228
 25
273.062
 35
0.0
146
0.0
 13
0.0
 23
0.0
 33
0.0
 16
1.0
 26
0.0
 36
0.0
 17
0.0
 27
1.0
 37
0.0
 76
     0
330
1F
331
29
  0
MATERIAL
  5
45
102
{ACAD_REACTORS
330
43
102
}
330
43
100
AcDbMaterial
  1
ByBlock
 72
     1
 94
      127
  0
MATERIAL
  5
44
102
{ACAD_REACTORS
330
43
102
}
330
43
100
AcDbMaterial
  1
ByLayer
 72
     1
 94
      127
  0
MATERIAL
  5
46
102
{ACAD_REACTORS
330
43
102
}
330
43
100
AcDbMaterial
  1
Global
 72
     1
 94
      127
  0
MLEADERSTYLE
  5
5C
102
{ACAD_REACTORS
330
5B
102
}
330
5B
100
AcDbMLeaderStyle
179
     2
170
     2
171
     1
172
     0
 90
        2
 40
0.0
 41
0.0
173
     1
 91
-1056964608
340
14
 92
       -2
290
     1
 42
0.09
291
     1
 43
0.36
  3
Standard
341
0
 44
0.18
300

342
11
174
     1
178
     6
175
     1
176
     0
 93
-1056964608
 45
0.18
292
     0
297
     0
 46
0.18
343
0
 94
-1056964608
 47
1.0
 49
1.0
140
1.0
293
     1
141
0.0
294
     1
177
     0
142
1.0
295
     0
296
     0
143
0.125
271
     0
272
     9
273
     9
298
     0
  0
MLINESTYLE
  5
18
102
{ACAD_REACTORS
330
17
102
}
330
17
100
AcDbMlineStyle
  2
Standard
 70
     0
  3

 62
   256
 51
90.0
 52
90.0
 71
     2
 49
0.5
 62
   256
  6
BYLAYER
 49
-0.5
 62
   256
  6
BYLAYER
  0
ACDBPLACEHOLDER
  5
F
102
{ACAD_REACTORS
330
E
102
}
330
E
  0
SCALE
  5
48
102
{ACAD_REACTORS
330
47
102
}
330
47
100
AcDbScale
 70
     0
300
1:1
140
1.0
141
1.0
290
     1
  0
SCALE
  5
49
102
{ACAD_REACTORS
330
47
102
}
330
47
100
AcDbScale
 70
     0
300
1/128" = 1'-0"
140
0.0078125
141
12.0
290
     0
  0
SCALE
  5
4A
102
{ACAD_REACTORS
330
47
102
}
330
47
100
AcDbScale
 70
     0
300
1/64" = 1'-0"
140
0.015625
141
12.0
290
     0
  0
SCALE
  5
4B
102
{ACAD_REACTORS
330
47
102
}
330
47
100
AcDbScale
 70
     0
300
1/32" = 1'-0"
140
0.03125
141
12.0
290
     0
  0
SCALE
  5
4C
102
{ACAD_REACTORS
330
47
102
}
330
47
100
AcDbScale
 70
     0
300
1/16" = 1'-0"
140
0.0625
141
12.0
290
     0
  0
SCALE
  5
4D
102
{ACAD_REACTORS
330
47
102
}
330
47
100
AcDbScale
 70
     0
300
3/32" = 1'-0"
140
0.09375
141
12.0
290
     0
  0
SCALE
  5
4E
102
{ACAD_REACTORS
330
47
102
}
330
47
100
AcDbScale
 70
     0
300
1/8" = 1'-0"
140
0.125
141
12.0
290
     0
  0
SCALE
  5
4F
102
{ACAD_REACTORS
330
47
102
}
330
47
100
AcDbScale
 70
     0
300
3/16" = 1'-0"
140
0.1875
141
12.0
290
     0
  0
SCALE
  5
50
102
{ACAD_REACTORS
330
47
102
}
330
47
100
AcDbScale
 70
     0
300
1/4" = 1'-0"
140
0.25
141
12.0
290
     0
  0
SCALE
  5
51
102
{ACAD_REACTORS
330
47
102
}
330
47
100
AcDbScale
 70
     0
300
3/8" = 1'-0"
140
0.375
141
12.0
290
     0
  0
SCALE
  5
52
102
{ACAD_REACTORS
330
47
102
}
330
47
100
AcDbScale
 70
     0
300
1/2" = 1'-0"
140
0.5
141
12.0
290
     0
  0
SCALE
  5
53
102
{ACAD_REACTORS
330
47
102
}
330
47
100
AcDbScale
 70
     0
300
3/4" = 1'-0"
140
0.75
141
12.0
290
     0
  0
SCALE
  5
54
102
{ACAD_REACTORS
330
47
102
}
330
47
100
AcDbScale
 70
     0
300
1" = 1'-0"
140
1.0
141
12.0
290
     0
  0
SCALE
  5
55
102
{ACAD_REACTORS
330
47
102
}
330
47
100
AcDbScale
 70
     0
300
1-1/2" = 1'-0"
140
1.5
141
12.0
290
     0
  0
SCALE
  5
56
102
{ACAD_REACTORS
330
47
102
}
330
47
100
AcDbScale
 70
     0
300
3" = 1'-0"
140
3.0
141
12.0
290
     0
  0
SCALE
  5
57
102
{ACAD_REACTORS
330
47
102
}
330
47
100
AcDbScale
 70
     0
300
6" = 1'-0"
140
6.0
141
12.0
290
     0
  0
SCALE
  5
58
102
{ACAD_REACTORS
330
47
102
}
330
47
100
AcDbScale
 70
     0
300
1'-0" = 1'-0"
140
12.0
141
12.0
290
     0
  0
TABLESTYLE
  5
5A
102
{ACAD_REACTORS
330
59
102
}
102
{ACAD_XDICTIONARY
360
8D
102
}
330
59
100
AcDbTableStyle
  3
Standard
 70
     0
 71
     0
 40
0.06
 41
0.06
280
     0
281
     0
  7
Standard
140
0.18
170
     2
 62
     0
 63
   257
283
     0
 90
        4
 91
        0
  1

274
    -2
284
     1
 64
     0
275
    -2
285
     1
 65
     0
276
    -2
286
     1
 66
     0
277
    -2
287
     1
 67
     0
278
    -2
288
     1
 68
     0
279
    -2
289
     1
 69
     0
  7
Standard
140
0.25
170
     5
 62
     0
 63
   257
283
     0
 90
        4
 91
        0
  1

274
    -2
284
     1
 64
     0
275
    -2
285
     1
 65
     0
276
    -2
286
     1
 66
     0
277
    -2
287
     1
 67
     0
278
    -2
288
     1
 68
     0
279
    -2
289
     1
 69
     0
  7
Standard
140
0.18
170
     5
 62
     0
 63
   257
283
     0
 90
        4
 91
        0
  1

274
    -2
284
     1
 64
     0
275
    -2
285
     1
 65
     0
276
    -2
286
     1
 66
     0
277
    -2
287
     1
 67
     0
278
    -2
288
     1
 68
     0
279
    -2
289
     1
 69
     0
  0
VISUALSTYLE
  5
2F
102
{ACAD_REACTORS
330
2A
102
}
330
2A
100
AcDbVisualStyle
  2
2dWireframe
 70
     4
177
     3
291
     0
 70
    58
 90
        0
176
     1
 90
        2
176
     1
 90
        0
176
     1
 90
        0
176
     1
 40
0.6
176
     1
 40
30.0
176
     1
 62
     7
420
 16777215
176
     1
 90
        1
176
     1
 90
        4
176
     1
 62
     7
176
     1
 62
   257
176
     1
 90
        1
176
     1
 90
        1
176
     1
 40
1.0
176
     1
 90
        0
176
     1
 62
   257
176
     1
 40
1.0
176
     1
 90
        1
176
     1
 90
        6
176
     1
 90
        2
176
     1
 62
     7
176
     1
 90
        5
176
     1
 90
        0
176
     1
 90
        0
176
     1
290
     0
176
     1
 90
        1
176
     1
 40
0.0
176
     1
 90
        0
176
     1
290
     1
176
     1
290
     1
176
     1
290
     0
176
     1
290
     0
176
     1
290
     0
176
     1
290
     0
176
     1
290
     0
176
     1
290
     0
176
     1
290
     0
176
     1
 90
       50
176
     1
 40
0.0
176
     1
 40
1.0
176
     1
 90
        0
176
     1
 62
    18
420
        0
176
     1
 90
       50
176
     1
 90
        3
176
     1
 62
     5
420
      255
176
     1
290
     0
176
     1
 90
       50
176
     1
 90
       50
176
     1
 90
       50
176
     1
290
     0
176
     1
 90
       50
176
     1
 62
   256
176
     0
 40
1.0
176
     0
 90
        2
176
     1
  1
strokes_ogs.tif
176
     1
290
     0
176
     1
 40
1.0
176
     1
 40
1.0
176
     1
  0
VISUALSTYLE
  5
32
102
{ACAD_REACTORS
330
2A
102
}
330
2A
100
AcDbVisualStyle
  2
Basic
 70
     7
177
     3
291
     1
 70
    58
 90
        1
176
     1
 90
        0
176
     1
 90
        1
176
     1
 90
        0
176
     1
 40
0.6
176
     1
 40
30.0
176
     1
 62
     7
420
 16777215
176
     1
 90
        0
176
     1
 90
        4
176
     1
 62
     7
176
     1
 62
   257
176
     1
 90
        1
176
     1
 90
        1
176
     1
 40
1.0
176
     1
 90
        8
176
     1
 62
     7
176
     1
 40
1.0
176
     1
 90
        1
176
     1
 90
        6
176
     1
 90
        2
176
     1
 62
     7
176
     1
 90
        5
176
     1
 90
        0
176
     1
 90
        0
176
     1
290
     0
176
     1
 90
        1
176
     1
 40
0.0
176
     1
 90
        0
176
     1
290
     0
176
     1
290
     1
176
     1
290
     1
176
     1
290
     0
176
     1
290
     0
176
     1
290
     0
176
     1
290
     0
176
     1
290
     0
176
     1
290
     0
176
     1
 90
       50
176
     1
 40
0.0
176
     1
 40
1.0
176
     1
 90
        0
176
     1
 62
    18
420
        0
176
     1
 90
       50
176
     1
 90
        3
176
     1
 62
     5
420
      255
176
     1
290
     0
176
     1
 90
       50
176
     1
 90
       50
176
     1
 90
       50
176
     1
290
     0
176
     1
 90
       50
176
     1
 62
   256
176
     0
 40
1.0
176
     0
 90
        2
176
     1
  1
strokes_ogs.tif
176
     1
290
     0
176
     1
 40
1.0
176
     1
 40
1.0
176
     1
  0
VISUALSTYLE
  5
36
102
{ACAD_REACTORS
330
2A
102
}
330
2A
100
AcDbVisualStyle
  2
Brighten
 70
    12
177
     3
291
     1
 70
    58
 90
        2
176
     1
 90
        2
176
     1
 90
        0
176
     1
 90
        0
176
     1
 40
0.6
176
     1
 40
30.0
176
     1
 62
     7
420
 16777215
176
     1
 90
        1
176
     1
 90
        4
176
     1
 62
     7
176
     1
 62
   257
176
     1
 90
        1
176
     1
 90
        1
176
     1
 40
1.0
176
     1
 90
        8
176
     1
 62
     7
176
     1
 40
1.0
176
     1
 90
        1
176
     1
 90
        6
176
     1
 90
        2
176
     1
 62
     7
176
     1
 90
        5
176
     1
 90
        0
176
     1
 90
        0
176
     1
290
     0
176
     1
 90
        1
176
     1
 40
50.0
176
     1
 90
        0
176
     1
290
     0
176
     1
290
     1
176
     1
290
     1
176
     1
290
     0
176
     1
290
     0
176
     1
290
     0
176
     1
290
     0
176
     1
290
     0
176
     1
290
     0
176
     1
 90
       50
176
     1
 40
0.0
176
     1
 40
1.0
176
     1
 90
        0
176
     1
 62
    18
420
        0
176
     1
 90
       50
176
     1
 90
        3
176
     1
 62
     5
420
      255
176
     1
290
     0
176
     1
 90
       50
176
     1
 90
       50
176
     1
 90
       50
176
     1
290
     0
176
     1
 90
       50
176
     1
 62
   256
176
     0
 40
1.0
176
     0
 90
        2
176
     1
  1
strokes_ogs.tif
176
     1
290
     0
176
     1
 40
1.0
176
     1
 40
1.0
176
     1
  0
VISUALSTYLE
  5
3A
102
{ACAD_REACTORS
330
2A
102
}
330
2A
100
AcDbVisualStyle
  2
ColorChange
 70
    16
177
     3
291
     1
 70
    58
 90
        2
176
     1
 90
        2
176
     1
 90
        3
176
     1
 90
        0
176
     1
 40
0.6
176
     1
 40
30.0
176
     1
 62
     8
420
  8421504
176
     1
 90
        1
176
     1
 90
        4
176
     1
 62
     7
176
     1
 62
   257
176
     1
 90
        1
176
     1
 90
        1
176
     1
 40
1.0
176
     1
 90
        8
176
     1
 62
     8
420
  8421504
176
     1
 40
1.0
176
     1
 90
        1
176
     1
 90
        6
176
     1
 90
        2
176
     1
 62
     7
176
     1
 90
        5
176
     1
 90
        0
176
     1
 90
        0
176
     1
290
     0
176
     1
 90
        1
176
     1
 40
0.0
176
     1
 90
        0
176
     1
290
     0
176
     1
290
     1
176
     1
290
     1
176
     1
290
     0
176
     1
290
     0
176
     1
290
     0
176
     1
290
     0
176
     1
290
     0
176
     1
290
     0
176
     1
 90
       50
176
     1
 40
0.0
176
     1
 40
1.0
176
     1
 90
        0
176
     1
 62
    18
420
        0
176
     1
 90
       50
176
     1
 90
        3
176
     1
 62
     5
420
      255
176
     1
290
     0
176
     1
 90
       50
176
     1
 90
       50
176
     1
 90
       50
176
     1
290
     0
176
     1
 90
       50
176
     1
 62
   256
176
     0
 40
1.0
176
     0
 90
        2
176
     1
  1
strokes_ogs.tif
176
     1
290
     0
176
     1
 40
1.0
176
     1
 40
1.0
176
     1
  0
VISUALSTYLE
  5
34
102
{ACAD_REACTORS
330
2A
102
}
330
2A
100
AcDbVisualStyle
  2
Conceptual
 70
     9
177
     3
291
     0
 70
    58
 90
        3
176
     1
 90
        2
176
     1
 90
        0
176
     1
 90
        0
176
     1
 40
0.6
176
     1
 40
30.0
176
     1
 62
     7
420
 16777215
176
     1
 90
        2
176
     1
 90
        2
176
     1
 62
     7
176
     1
 62
   257
176
     1
 90
        1
176
     1
 90
        1
176
     1
 40
179.0
176
     1
 90
        8
176
     1
 62
     7
176
     1
 40
1.0
176
     1
 90
        1
176
     1
 90
        6
176
     1
 90
        2
176
     1
 62
     7
176
     1
 90
        3
176
     1
 90
        0
176
     1
 90
        0
176
     1
290
     0
176
     1
 90
        1
176
     1
 40
0.0
176
     1
 90
        0
176
     1
290
     0
176
     1
290
     1
176
     1
290
     1
176
     1
290
     0
176
     1
290
     0
176
     1
290
     0
176
     1
290
     0
176
     1
290
     0
176
     1
290
     0
176
     1
 90
       50
176
     1
 40
0.0
176
     1
 40
1.0
176
     1
 90
        0
176
     1
 62
    18
420
        0
176
     1
 90
       50
176
     1
 90
        3
176
     1
 62
     5
420
      255
176
     1
290
     0
176
     1
 90
       50
176
     1
 90
       50
176
     1
 90
       50
176
     1
290
     0
176
     1
 90
       50
176
     1
 62
   256
176
     0
 40
1.0
176
     0
 90
        2
176
     1
  1
strokes_ogs.tif
176
     1
290
     0
176
     1
 40
1.0
176
     1
 40
1.0
176
     1
  0
VISUALSTYLE
  5
35
102
{ACAD_REACTORS
330
2A
102
}
330
2A
100
AcDbVisualStyle
  2
Dim
 70
    11
177
     3
291
     1
 70
    58
 90
        2
176
     1
 90
        2
176
     1
 90
        0
176
     1
 90
        0
176
     1
 40
0.6
176
     1
 40
30.0
176
     1
 62
     7
420
 16777215
176
     1
 90
        1
176
     1
 90
        4
176
     1
 62
     7
176
     1
 62
   257
176
     1
 90
        1
176
     1
 90
        1
176
     1
 40
1.0
176
     1
 90
        8
176
     1
 62
     7
176
     1
 40
1.0
176
     1
 90
        1
176
     1
 90
        6
176
     1
 90
        2
176
     1
 62
     7
176
     1
 90
        5
176
     1
 90
        0
176
     1
 90
        0
176
     1
290
     0
176
     1
 90
        1
176
     1
 40
-50.0
176
     1
 90
        0
176
     1
290
     0
176
     1
290
     1
176
     1
290
     1
176
     1
290
     0
176
     1
290
     0
176
     1
290
     0
176
     1
290
     0
176
     1
290
     0
176
     1
290
     0
176
     1
 90
       50
176
     1
 40
0.0
176
     1
 40
1.0
176
     1
 90
        0
176
     1
 62
    18
420
        0
176
     1
 90
       50
176
     1
 90
        3
176
     1
 62
     5
420
      255
176
     1
290
     0
176
     1
 90
       50
176
     1
 90
       50
176
     1
 90
       50
176
     1
290
     0
176
     1
 90
       50
176
     1
 62
   256
176
     0
 40
1.0
176
     0
 90
        2
176
     1
  1
strokes_ogs.tif
176
     1
290
     0
176
     1
 40
1.0
176
     1
 40
1.0
176
     1
  0
VISUALSTYLE
  5
3D
102
{ACAD_REACTORS
330
2A
102
}
330
2A
100
AcDbVisualStyle
  2
EdgeColorOff
 70
    22
177
     3
291
     1
 70
    58
 90
        2
176
     0
 90
        2
176
     0
 90
        0
176
     0
 90
        0
176
     0
 40
0.6
176
     0
 40
30.0
176
     0
 62
     7
420
 16777215
176
     0
 90
        1
176
     0
 90
        4
176
     0
 62
     7
176
     0
 62
   257
176
     0
 90
        1
176
     0
 90
        1
176
     0
 40
1.0
176
     0
 90
        8
176
     2
 62
     7
176
     0
 40
1.0
176
     0
 90
        1
176
     0
 90
        6
176
     0
 90
        2
176
     0
 62
     7
176
     0
 90
        5
176
     0
 90
        0
176
     0
 90
        0
176
     0
290
     0
176
     0
 90
        1
176
     0
 40
0.0
176
     0
 90
        0
176
     0
290
     0
176
     0
290
     1
176
     0
290
     1
176
     0
290
     0
176
     0
290
     0
176
     0
290
     0
176
     0
290
     0
176
     0
290
     0
176
     0
290
     0
176
     0
 90
       50
176
     0
 40
0.0
176
     0
 40
1.0
176
     0
 90
        0
176
     0
 62
    18
420
        0
176
     0
 90
       50
176
     0
 90
        3
176
     0
 62
     5
420
      255
176
     0
290
     0
176
     0
 90
       50
176
     0
 90
       50
176
     0
 90
       50
176
     0
290
     0
176
     0
 90
       50
176
     0
 62
   256
176
     0
 40
1.0
176
     0
 90
        2
176
     0
  1
strokes_ogs.tif
176
     0
290
     0
176
     0
 40
1.0
176
     0
 40
1.0
176
     0
  0
VISUALSTYLE
  5
39
102
{ACAD_REACTORS
330
2A
102
}
330
2A
100
AcDbVisualStyle
  2
Facepattern
 70
    15
177
     3
291
     1
 70
    58
 90
        2
176
     1
 90
        2
176
     1
 90
        0
176
     1
 90
        0
176
     1
 40
0.6
176
     1
 40
30.0
176
     1
 62
     7
420
 16777215
176
     1
 90
        1
176
     1
 90
        4
176
     1
 62
     7
176
     1
 62
   257
176
     1
 90
        1
176
     1
 90
        1
176
     1
 40
1.0
176
     1
 90
        8
176
     1
 62
     7
176
     1
 40
1.0
176
     1
 90
        1
176
     1
 90
        6
176
     1
 90
        2
176
     1
 62
     7
176
     1
 90
        5
176
     1
 90
        0
176
     1
 90
        0
176
     1
290
     0
176
     1
 90
        1
176
     1
 40
0.0
176
     1
 90
        0
176
     1
290
     0
176
     1
290
     1
176
     1
290
     1
176
     1
290
     0
176
     1
290
     0
176
     1
290
     0
176
     1
290
     0
176
     1
290
     0
176
     1
290
     0
176
     1
 90
       50
176
     1
 40
0.0
176
     1
 40
1.0
176
     1
 90
        0
176
     1
 62
    18
420
        0
176
     1
 90
       50
176
     1
 90
        3
176
     1
 62
     5
420
      255
176
     1
290
     0
176
     1
 90
       50
176
     1
 90
       50
176
     1
 90
       50
176
     1
290
     0
176
     1
 90
       50
176
     1
 62
   256
176
     0
 40
1.0
176
     0
 90
        2
176
     1
  1
strokes_ogs.tif
176
     1
290
     0
176
     1
 40
1.0
176
     1
 40
1.0
176
     1
  0
VISUALSTYLE
  5
2B
102
{ACAD_REACTORS
330
2A
102
}
330
2A
100
AcDbVisualStyle
  2
Flat
 70
     0
177
     3
291
     1
 70
    58
 90
        2
176
     1
 90
        1
176
     1
 90
        1
176
     1
 90
        2
176
     1
 40
0.6
176
     1
 40
30.0
176
     1
 62
     7
420
 16777215
176
     1
 90
        0
176
     1
 90
        0
176
     1
 62
     7
176
     1
 62
   257
176
     1
 90
        1
176
     1
 90
        1
176
     1
 40
1.0
176
     1
 90
        8
176
     1
 62
     7
176
     1
 40
1.0
176
     1
 90
        1
176
     1
 90
        6
176
     1
 90
        2
176
     1
 62
     7
176
     1
 90
        5
176
     1
 90
        0
176
     1
 90
        0
176
     1
290
     0
176
     1
 90
       13
176
     1
 40
0.0
176
     1
 90
        0
176
     1
290
     0
176
     1
290
     1
176
     1
290
     1
176
     1
290
     0
176
     1
290
     0
176
     1
290
     0
176
     1
290
     0
176
     1
290
     0
176
     1
290
     0
176
     1
 90
       50
176
     1
 40
0.0
176
     1
 40
1.0
176
     1
 90
        0
176
     1
 62
    18
420
        0
176
     1
 90
       50
176
     1
 90
        3
176
     1
 62
     5
420
      255
176
     1
290
     0
176
     1
 90
       50
176
     1
 90
       50
176
     1
 90
       50
176
     1
290
     0
176
     1
 90
       50
176
     1
 62
   256
176
     0
 40
1.0
176
     0
 90
        2
176
     1
  1
strokes_ogs.tif
176
     1
290
     0
176
     1
 40
1.0
176
     1
 40
1.0
176
     1
  0
VISUALSTYLE
  5
2C
102
{ACAD_REACTORS
330
2A
102
}
330
2A
100
AcDbVisualStyle
  2
FlatWithEdges
 70
     1
177
     3
291
     1
 70
    58
 90
        2
176
     1
 90
        1
176
     1
 90
        1
176
     1
 90
        2
176
     1
 40
0.6
176
     1
 40
30.0
176
     1
 62
     7
420
 16777215
176
     1
 90
        1
176
     1
 90
        0
176
     1
 62
     7
176
     1
 62
   257
176
     1
 90
        1
176
     1
 90
        1
176
     1
 40
1.0
176
     1
 90
        0
176
     1
 62
   257
176
     1
 40
1.0
176
     1
 90
        1
176
     1
 90
        6
176
     1
 90
        2
176
     1
 62
     7
176
     1
 90
        5
176
     1
 90
        0
176
     1
 90
        0
176
     1
290
     0
176
     1
 90
       13
176
     1
 40
0.0
176
     1
 90
        0
176
     1
290
     0
176
     1
290
     1
176
     1
290
     1
176
     1
290
     0
176
     1
290
     0
176
     1
290
     0
176
     1
290
     0
176
     1
290
     0
176
     1
290
     0
176
     1
 90
       50
176
     1
 40
0.0
176
     1
 40
1.0
176
     1
 90
        0
176
     1
 62
    18
420
        0
176
     1
 90
       50
176
     1
 90
        3
176
     1
 62
     5
420
      255
176
     1
290
     0
176
     1
 90
       50
176
     1
 90
       50
176
     1
 90
       50
176
     1
290
     0
176
     1
 90
       50
176
     1
 62
   256
176
     0
 40
1.0
176
     0
 90
        2
176
     1
  1
strokes_ogs.tif
176
     1
290
     0
176
     1
 40
1.0
176
     1
 40
1.0
176
     1
  0
VISUALSTYLE
  5
2D
102
{ACAD_REACTORS
330
2A
102
}
330
2A
100
AcDbVisualStyle
  2
Gouraud
 70
     2
177
     3
291
     1
 70
    58
 90
        2
176
     1
 90
        2
176
     1
 90
        1
176
     1
 90
        2
176
     1
 40
0.6
176
     1
 40
30.0
176
     1
 62
     7
420
 16777215
176
     1
 90
        0
176
     1
 90
        0
176
     1
 62
     7
176
     1
 62
   257
176
     1
 90
        1
176
     1
 90
        1
176
     1
 40
1.0
176
     1
 90
        0
176
     1
 62
     7
176
     1
 40
1.0
176
     1
 90
        1
176
     1
 90
        6
176
     1
 90
        2
176
     1
 62
     7
176
     1
 90
        5
176
     1
 90
        0
176
     1
 90
        0
176
     1
290
     0
176
     1
 90
       13
176
     1
 40
0.0
176
     1
 90
        0
176
     1
290
     0
176
     1
290
     1
176
     1
290
     1
176
     1
290
     0
176
     1
290
     0
176
     1
290
     0
176
     1
290
     0
176
     1
290
     0
176
     1
290
     0
176
     1
 90
       50
176
     1
 40
0.0
176
     1
 40
1.0
176
     1
 90
        0
176
     1
 62
    18
420
        0
176
     1
 90
       50
176
     1
 90
        3
176
     1
 62
     5
420
      255
176
     1
290
     0
176
     1
 90
       50
176
     1
 90
       50
176
     1
 90
       50
176
     1
290
     0
176
     1
 90
       50
176
     1
 62
   256
176
     0
 40
1.0
176
     0
 90
        2
176
     1
  1
strokes_ogs.tif
176
     1
290
     0
176
     1
 40
1.0
176
     1
 40
1.0
176
     1
  0
VISUALSTYLE
  5
2E
102
{ACAD_REACTORS
330
2A
102
}
330
2A
100
AcDbVisualStyle
  2
GouraudWithEdges
 70
     3
177
     3
291
     1
 70
    58
 90
        2
176
     1
 90
        2
176
     1
 90
        1
176
     1
 90
        2
176
     1
 40
0.6
176
     1
 40
30.0
176
     1
 62
     7
420
 16777215
176
     1
 90
        1
176
     1
 90
        0
176
     1
 62
     7
176
     1
 62
   257
176
     1
 90
        1
176
     1
 90
        1
176
     1
 40
1.0
176
     1
 90
        0
176
     1
 62
   257
176
     1
 40
1.0
176
     1
 90
        1
176
     1
 90
        6
176
     1
 90
        2
176
     1
 62
     7
176
     1
 90
        5
176
     1
 90
        0
176
     1
 90
        0
176
     1
290
     0
176
     1
 90
       13
176
     1
 40
0.0
176
     1
 90
        0
176
     1
290
     0
176
     1
290
     1
176
     1
290
     1
176
     1
290
     0
176
     1
290
     0
176
     1
290
     0
176
     1
290
     0
176
     1
290
     0
176
     1
290
     0
176
     1
 90
       50
176
     1
 40
0.0
176
     1
 40
1.0
176
     1
 90
        0
176
     1
 62
    18
420
        0
176
     1
 90
       50
176
     1
 90
        3
176
     1
 62
     5
420
      255
176
     1
290
     0
176
     1
 90
       50
176
     1
 90
       50
176
     1
 90
       50
176
     1
290
     0
176
     1
 90
       50
176
     1
 62
   256
176
     0
 40
1.0
176
     0
 90
        2
176
     1
  1
strokes_ogs.tif
176
     1
290
     0
176
     1
 40
1.0
176
     1
 40
1.0
176
     1
  0
VISUALSTYLE
  5
31
102
{ACAD_REACTORS
330
2A
102
}
330
2A
100
AcDbVisualStyle
  2
Hidden
 70
     6
177
     3
291
     0
 70
    58
 90
        1
176
     1
 90
        2
176
     1
 90
        2
176
     1
 90
        0
176
     1
 40
0.6
176
     1
 40
30.0
176
     1
 62
     7
420
 16777215
176
     1
 90
        2
176
     1
 90
        2
176
     1
 62
     7
176
     1
 62
   257
176
     1
 90
        2
176
     1
 90
        1
176
     1
 40
40.0
176
     1
 90
        0
176
     1
 62
   257
176
     1
 40
1.0
176
     1
 90
        1
176
     1
 90
        6
176
     1
 90
        2
176
     1
 62
     7
176
     1
 90
        3
176
     1
 90
        0
176
     1
 90
        0
176
     1
290
     0
176
     1
 90
        1
176
     1
 40
0.0
176
     1
 90
        0
176
     1
290
     0
176
     1
290
     1
176
     1
290
     1
176
     1
290
     0
176
     1
290
     0
176
     1
290
     0
176
     1
290
     0
176
     1
290
     0
176
     1
290
     0
176
     1
 90
       50
176
     1
 40
0.0
176
     1
 40
1.0
176
     1
 90
        0
176
     1
 62
    18
420
        0
176
     1
 90
       50
176
     1
 90
        3
176
     1
 62
     5
420
      255
176
     1
290
     0
176
     1
 90
       50
176
     1
 90
       50
176
     1
 90
       50
176
     1
290
     0
176
     1
 90
       50
176
     1
 62
   256
176
     0
 40
1.0
176
     0
 90
        2
176
     1
  1
strokes_ogs.tif
176
     1
290
     0
176
     1
 40
1.0
176
     1
 40
1.0
176
     1
  0
VISUALSTYLE
  5
3B
102
{ACAD_REACTORS
330
2A
102
}
330
2A
100
AcDbVisualStyle
  2
JitterOff
 70
    20
177
     3
291
     1
 70
    58
 90
        2
176
     0
 90
        2
176
     0
 90
        0
176
     0
 90
        0
176
     0
 40
0.6
176
     0
 40
30.0
176
     0
 62
     7
420
 16777215
176
     0
 90
        1
176
     0
 90
        4
176
     0
 62
     7
176
     0
 62
   257
176
     0
 90
        1
176
     0
 90
        1
176
     0
 40
1.0
176
     0
 90
       10
176
     2
 62
     7
176
     0
 40
1.0
176
     0
 90
        1
176
     0
 90
        6
176
     0
 90
        2
176
     0
 62
     7
176
     0
 90
        5
176
     0
 90
        0
176
     0
 90
        0
176
     0
290
     0
176
     0
 90
        1
176
     0
 40
0.0
176
     0
 90
        0
176
     0
290
     0
176
     0
290
     1
176
     0
290
     1
176
     0
290
     0
176
     0
290
     0
176
     0
290
     0
176
     0
290
     0
176
     0
290
     0
176
     0
290
     0
176
     0
 90
       50
176
     0
 40
0.0
176
     0
 40
1.0
176
     0
 90
        0
176
     0
 62
    18
420
        0
176
     0
 90
       50
176
     0
 90
        3
176
     0
 62
     5
420
      255
176
     0
290
     0
176
     0
 90
       50
176
     0
 90
       50
176
     0
 90
       50
176
     0
290
     0
176
     0
 90
       50
176
     0
 62
   256
176
     0
 40
1.0
176
     0
 90
        2
176
     0
  1
strokes_ogs.tif
176
     0
290
     0
176
     0
 40
1.0
176
     0
 40
1.0
176
     0
  0
VISUALSTYLE
  5
38
102
{ACAD_REACTORS
330
2A
102
}
330
2A
100
AcDbVisualStyle
  2
Linepattern
 70
    14
177
     3
291
     1
 70
    58
 90
        2
176
     1
 90
        2
176
     1
 90
        0
176
     1
 90
        0
176
     1
 40
0.6
176
     1
 40
30.0
176
     1
 62
     7
420
 16777215
176
     1
 90
        1
176
     1
 90
        4
176
     1
 62
     7
176
     1
 62
   257
176
     1
 90
        7
176
     1
 90
        7
176
     1
 40
1.0
176
     1
 90
        8
176
     1
 62
     7
176
     1
 40
1.0
176
     1
 90
        1
176
     1
 90
        6
176
     1
 90
        2
176
     1
 62
     7
176
     1
 90
        5
176
     1
 90
        0
176
     1
 90
        0
176
     1
290
     0
176
     1
 90
        1
176
     1
 40
0.0
176
     1
 90
        0
176
     1
290
     0
176
     1
290
     1
176
     1
290
     1
176
     1
290
     0
176
     1
290
     0
176
     1
290
     0
176
     1
290
     0
176
     1
290
     0
176
     1
290
     0
176
     1
 90
       50
176
     1
 40
0.0
176
     1
 40
1.0
176
     1
 90
        0
176
     1
 62
    18
420
        0
176
     1
 90
       50
176
     1
 90
        3
176
     1
 62
     5
420
      255
176
     1
290
     0
176
     1
 90
       50
176
     1
 90
       50
176
     1
 90
       50
176
     1
290
     0
176
     1
 90
       50
176
     1
 62
   256
176
     0
 40
1.0
176
     0
 90
        2
176
     1
  1
strokes_ogs.tif
176
     1
290
     0
176
     1
 40
1.0
176
     1
 40
1.0
176
     1
  0
VISUALSTYLE
  5
3C
102
{ACAD_REACTORS
330
2A
102
}
330
2A
100
AcDbVisualStyle
  2
OverhangOff
 70
    21
177
     3
291
     1
 70
    58
 90
        2
176
     0
 90
        2
176
     0
 90
        0
176
     0
 90
        0
176
     0
 40
0.6
176
     0
 40
30.0
176
     0
 62
     7
420
 16777215
176
     0
 90
        1
176
     0
 90
        4
176
     0
 62
     7
176
     0
 62
   257
176
     0
 90
        1
176
     0
 90
        1
176
     0
 40
1.0
176
     0
 90
        9
176
     2
 62
     7
176
     0
 40
1.0
176
     0
 90
        1
176
     0
 90
        6
176
     0
 90
        2
176
     0
 62
     7
176
     0
 90
        5
176
     0
 90
        0
176
     0
 90
        0
176
     0
290
     0
176
     0
 90
        1
176
     0
 40
0.0
176
     0
 90
        0
176
     0
290
     0
176
     0
290
     1
176
     0
290
     1
176
     0
290
     0
176
     0
290
     0
176
     0
290
     0
176
     0
290
     0
176
     0
290
     0
176
     0
290
     0
176
     0
 90
       50
176
     0
 40
0.0
176
     0
 40
1.0
176
     0
 90
        0
176
     0
 62
    18
420
        0
176
     0
 90
       50
176
     0
 90
        3
176
     0
 62
     5
420
      255
176
     0
290
     0
176
     0
 90
       50
176
     0
 90
       50
176
     0
 90
       50
176
     0
290
     0
176
     0
 90
       50
176
     0
 62
   256
176
     0
 40
1.0
176
     0
 90
        2
176
     0
  1
strokes_ogs.tif
176
     0
290
     0
176
     0
 40
1.0
176
     0
 40
1.0
176
     0
  0
VISUALSTYLE
  5
33
102
{ACAD_REACTORS
330
2A
102
}
330
2A
100
AcDbVisualStyle
  2
Realistic
 70
     8
177
     3
291
     0
 70
    58
 90
        2
176
     1
 90
        3
176
     1
 90
        0
176
     1
 90
        2
176
     1
 40
0.6
176
     1
 40
30.0
176
     1
 62
     7
420
 16777215
176
     1
 90
        0
176
     1
 90
        0
176
     1
 62
     7
176
     1
 62
   257
176
     1
 90
        1
176
     1
 90
        1
176
     1
 40
1.0
176
     1
 90
        8
176
     1
 62
   257
176
     1
 40
1.0
176
     1
 90
        1
176
     1
 90
        6
176
     1
 90
        2
176
     1
 62
     7
176
     1
 90
        3
176
     1
 90
        0
176
     1
 90
        0
176
     1
290
     0
176
     1
 90
       13
176
     1
 40
0.0
176
     1
 90
        0
176
     1
290
     0
176
     1
290
     1
176
     1
290
     1
176
     1
290
     0
176
     1
290
     0
176
     1
290
     0
176
     1
290
     0
176
     1
290
     0
176
     1
290
     0
176
     1
 90
       50
176
     1
 40
0.0
176
     1
 40
1.0
176
     1
 90
        0
176
     1
 62
    18
420
        0
176
     1
 90
       50
176
     1
 90
        3
176
     1
 62
     5
420
      255
176
     1
290
     0
176
     1
 90
       50
176
     1
 90
       50
176
     1
 90
       50
176
     1
290
     0
176
     1
 90
       50
176
     1
 62
   256
176
     0
 40
1.0
176
     0
 90
        2
176
     1
  1
strokes_ogs.tif
176
     1
290
     0
176
     1
 40
1.0
176
     1
 40
1.0
176
     1
  0
VISUALSTYLE
  5
42
102
{ACAD_REACTORS
330
2A
102
}
330
2A
100
AcDbVisualStyle
  2
Shaded
 70
    27
177
     3
291
     0
 70
    58
 90
        2
176
     1
 90
        2
176
     1
 90
        1
176
     1
 90
        2
176
     1
 40
0.6
176
     1
 40
30.0
176
     1
 62
     7
420
 16777215
176
     1
 90
        0
176
     1
 90
        4
176
     1
 62
     7
176
     1
 62
   257
176
     1
 90
        1
176
     1
 90
        1
176
     1
 40
1.0
176
     1
 90
        8
176
     1
 62
   257
176
     1
 40
1.0
176
     1
 90
        1
176
     1
 90
        6
176
     1
 90
        2
176
     1
 62
     8
420
  7895160
176
     1
 90
        3
176
     1
 90
        0
176
     1
 90
        0
176
     1
290
     0
176
     1
 90
        5
176
     1
 40
0.0
176
     1
 90
        0
176
     1
290
     0
176
     1
290
     1
176
     1
290
     1
176
     1
290
     0
176
     1
290
     0
176
     1
290
     0
176
     1
290
     0
176
     1
290
     0
176
     1
290
     0
176
     1
 90
       50
176
     1
 40
0.0
176
     1
 40
1.0
176
     1
 90
        0
176
     1
 62
    18
420
        0
176
     1
 90
       50
176
     1
 90
        3
176
     1
 62
     5
420
      255
176
     1
290
     0
176
     1
 90
       50
176
     1
 90
       50
176
     1
 90
       50
176
     1
290
     0
176
     1
 90
       50
176
     1
 62
   256
176
     0
 40
1.0
176
     0
 90
        2
176
     1
  1
strokes_ogs.tif
176
     1
290
     0
176
     1
 40
1.0
176
     1
 40
1.0
176
     1
  0
VISUALSTYLE
  5
41
102
{ACAD_REACTORS
330
2A
102
}
330
2A
100
AcDbVisualStyle
  2
Shaded with edges
 70
    26
177
     3
291
     0
 70
    58
 90
        2
176
     1
 90
        2
176
     1
 90
        1
176
     1
 90
        2
176
     1
 40
0.6
176
     1
 40
30.0
176
     1
 62
     7
420
 16777215
176
     1
 90
        1
176
     1
 90
       10
176
     1
 62
     7
176
     1
 62
   257
176
     1
 90
        2
176
     1
 90
        1
176
     1
 40
1.0
176
     1
 90
        8
176
     1
 62
   257
176
     1
 40
1.0
176
     1
 90
        1
176
     1
 90
        6
176
     1
 90
        2
176
     1
 62
     7
176
     1
 90
        3
176
     1
 90
        0
176
     1
 90
        0
176
     1
290
     0
176
     1
 90
        5
176
     1
 40
0.0
176
     1
 90
        0
176
     1
290
     0
176
     1
290
     1
176
     1
290
     1
176
     1
290
     0
176
     1
290
     0
176
     1
290
     0
176
     1
290
     0
176
     1
290
     0
176
     1
290
     0
176
     1
 90
       50
176
     1
 40
0.0
176
     1
 40
1.0
176
     1
 90
        0
176
     1
 62
    18
420
        0
176
     1
 90
       50
176
     1
 90
        3
176
     1
 62
     5
420
      255
176
     1
290
     0
176
     1
 90
       50
176
     1
 90
       50
176
     1
 90
       50
176
     1
290
     0
176
     1
 90
       50
176
     1
 62
   256
176
     0
 40
1.0
176
     0
 90
        2
176
     1
  1
strokes_ogs.tif
176
     1
290
     0
176
     1
 40
1.0
176
     1
 40
1.0
176
     1
  0
VISUALSTYLE
  5
3E
102
{ACAD_REACTORS
330
2A
102
}
330
2A
100
AcDbVisualStyle
  2
Shades of Gray
 70
    23
177
     3
291
     0
 70
    58
 90
        2
176
     1
 90
        2
176
     1
 90
        3
176
     1
 90
        0
176
     1
 40
0.6
176
     1
 40
30.0
176
     1
 62
     7
420
 16777215
176
     1
 90
        2
176
     1
 90
        2
176
     1
 62
     7
176
     1
 62
     7
176
     1
 90
        1
176
     1
 90
        1
176
     1
 40
40.0
176
     1
 90
        8
176
     1
 62
     7
176
     1
 40
1.0
176
     1
 90
        1
176
     1
 90
        6
176
     1
 90
        2
176
     1
 62
     7
176
     1
 90
        3
176
     1
 90
        0
176
     1
 90
        0
176
     1
290
     0
176
     1
 90
        1
176
     1
 40
0.0
176
     1
 90
        0
176
     1
290
     0
176
     1
290
     1
176
     1
290
     1
176
     1
290
     0
176
     1
290
     0
176
     1
290
     0
176
     1
290
     0
176
     1
290
     0
176
     1
290
     0
176
     1
 90
       50
176
     1
 40
0.0
176
     1
 40
1.0
176
     1
 90
        0
176
     1
 62
    18
420
        0
176
     1
 90
       50
176
     1
 90
        3
176
     1
 62
     5
420
      255
176
     1
290
     0
176
     1
 90
       50
176
     1
 90
       50
176
     1
 90
       50
176
     1
290
     0
176
     1
 90
       50
176
     1
 62
   256
176
     0
 40
1.0
176
     0
 90
        2
176
     1
  1
strokes_ogs.tif
176
     1
290
     0
176
     1
 40
1.0
176
     1
 40
1.0
176
     1
  0
VISUALSTYLE
  5
3F
102
{ACAD_REACTORS
330
2A
102
}
330
2A
100
AcDbVisualStyle
  2
Sketchy
 70
    24
177
     3
291
     0
 70
    58
 90
        1
176
     1
 90
        2
176
     1
 90
        2
176
     1
 90
        0
176
     1
 40
0.6
176
     1
 40
30.0
176
     1
 62
     7
420
 16777215
176
     1
 90
        2
176
     1
 90
        2
176
     1
 62
     7
176
     1
 62
     7
176
     1
 90
        1
176
     1
 90
        1
176
     1
 40
40.0
176
     1
 90
       11
176
     1
 62
     7
176
     1
 40
1.0
176
     1
 90
        1
176
     1
 90
        6
176
     1
 90
        2
176
     1
 62
     7
176
     1
 90
        6
176
     1
 90
        0
176
     1
 90
        0
176
     1
290
     0
176
     1
 90
        1
176
     1
 40
0.0
176
     1
 90
        0
176
     1
290
     0
176
     1
290
     1
176
     1
290
     1
176
     1
290
     0
176
     1
290
     0
176
     1
290
     0
176
     1
290
     0
176
     1
290
     0
176
     1
290
     0
176
     1
 90
       50
176
     1
 40
0.0
176
     1
 40
1.0
176
     1
 90
        0
176
     1
 62
    18
420
        0
176
     1
 90
       50
176
     1
 90
        3
176
     1
 62
     5
420
      255
176
     1
290
     0
176
     1
 90
       50
176
     1
 90
       50
176
     1
 90
       50
176
     1
290
     0
176
     1
 90
       50
176
     1
 62
   256
176
     0
 40
1.0
176
     0
 90
        2
176
     1
  1
strokes_ogs.tif
176
     1
290
     0
176
     1
 40
1.0
176
     1
 40
1.0
176
     1
  0
VISUALSTYLE
  5
37
102
{ACAD_REACTORS
330
2A
102
}
330
2A
100
AcDbVisualStyle
  2
Thicken
 70
    13
177
     3
291
     1
 70
    58
 90
        2
176
     1
 90
        2
176
     1
 90
        0
176
     1
 90
        0
176
     1
 40
0.6
176
     1
 40
30.0
176
     1
 62
     7
420
 16777215
176
     1
 90
        1
176
     1
 90
        4
176
     1
 62
     7
176
     1
 62
   257
176
     1
 90
        1
176
     1
 90
        1
176
     1
 40
1.0
176
     1
 90
       12
176
     1
 62
     7
176
     1
 40
1.0
176
     1
 90
        1
176
     1
 90
        6
176
     1
 90
        2
176
     1
 62
     7
176
     1
 90
        5
176
     1
 90
        0
176
     1
 90
        0
176
     1
290
     0
176
     1
 90
        1
176
     1
 40
0.0
176
     1
 90
        0
176
     1
290
     0
176
     1
290
     1
176
     1
290
     1
176
     1
290
     0
176
     1
290
     0
176
     1
290
     0
176
     1
290
     0
176
     1
290
     0
176
     1
290
     0
176
     1
 90
       50
176
     1
 40
0.0
176
     1
 40
1.0
176
     1
 90
        0
176
     1
 62
    18
420
        0
176
     1
 90
       50
176
     1
 90
        3
176
     1
 62
     5
420
      255
176
     1
290
     0
176
     1
 90
       50
176
     1
 90
       50
176
     1
 90
       50
176
     1
290
     0
176
     1
 90
       50
176
     1
 62
   256
176
     0
 40
1.0
176
     0
 90
        2
176
     1
  1
strokes_ogs.tif
176
     1
290
     0
176
     1
 40
1.0
176
     1
 40
1.0
176
     1
  0
VISUALSTYLE
  5
30
102
{ACAD_REACTORS
330
2A
102
}
330
2A
100
AcDbVisualStyle
  2
Wireframe
 70
     5
177
     3
291
     0
 70
    58
 90
        0
176
     1
 90
        2
176
     1
 90
        0
176
     1
 90
        0
176
     1
 40
0.6
176
     1
 40
30.0
176
     1
 62
     7
420
 16777215
176
     1
 90
        1
176
     1
 90
        4
176
     1
 62
     7
176
     1
 62
   257
176
     1
 90
        1
176
     1
 90
        1
176
     1
 40
1.0
176
     1
 90
        0
176
     1
 62
   257
176
     1
 40
1.0
176
     1
 90
        1
176
     1
 90
        6
176
     1
 90
        2
176
     1
 62
     7
176
     1
 90
        3
176
     1
 90
        0
176
     1
 90
        0
176
     1
290
     0
176
     1
 90
        1
176
     1
 40
0.0
176
     1
 90
        0
176
     1
290
     0
176
     1
290
     1
176
     1
290
     1
176
     1
290
     0
176
     1
290
     0
176
     1
290
     0
176
     1
290
     0
176
     1
290
     0
176
     1
290
     0
176
     1
 90
       50
176
     1
 40
0.0
176
     1
 40
1.0
176
     1
 90
        0
176
     1
 62
    18
420
        0
176
     1
 90
       50
176
     1
 90
        3
176
     1
 62
     5
420
      255
176
     1
290
     0
176
     1
 90
       50
176
     1
 90
       50
176
     1
 90
       50
176
     1
290
     0
176
     1
 90
       50
176
     1
 62
   256
176
     0
 40
1.0
176
     0
 90
        2
176
     1
  1
strokes_ogs.tif
176
     1
290
     0
176
     1
 40
1.0
176
     1
 40
1.0
176
     1
  0
VISUALSTYLE
  5
40
102
{ACAD_REACTORS
330
2A
102
}
330
2A
100
AcDbVisualStyle
  2
X-Ray
 70
    25
177
     3
291
     0
 70
    58
 90
        2
176
     1
 90
        2
176
     1
 90
        1
176
     1
 90
        1
176
     1
 40
0.5
176
     1
 40
30.0
176
     1
 62
     7
420
 16777215
176
     1
 90
        1
176
     1
 90
        0
176
     1
 62
     7
176
     1
 62
   257
176
     1
 90
        1
176
     1
 90
        1
176
     1
 40
1.0
176
     1
 90
        8
176
     1
 62
     7
176
     1
 40
1.0
176
     1
 90
        1
176
     1
 90
        6
176
     1
 90
        2
176
     1
 62
     7
176
     1
 90
        3
176
     1
 90
        0
176
     1
 90
        0
176
     1
290
     0
176
     1
 90
       13
176
     1
 40
0.0
176
     1
 90
        0
176
     1
290
     0
176
     1
290
     1
176
     1
290
     1
176
     1
290
     0
176
     1
290
     0
176
     1
290
     0
176
     1
290
     0
176
     1
290
     0
176
     1
290
     0
176
     1
 90
       50
176
     1
 40
0.0
176
     1
 40
1.0
176
     1
 90
        0
176
     1
 62
    18
420
        0
176
     1
 90
       50
176
     1
 90
        3
176
     1
 62
     5
420
      255
176
     1
290
     0
176
     1
 90
       50
176
     1
 90
       50
176
     1
 90
       50
176
     1
290
     0
176
     1
 90
       50
176
     1
 62
   256
176
     0
 40
1.0
176
     0
 90
        2
176
     1
  1
strokes_ogs.tif
176
     1
290
     0
176
     1
 40
1.0
176
     1
 40
1.0
176
     1
  0
DICTIONARYVAR
  5
8C
102
{ACAD_REACTORS
330
8B
102
}
330
8B
100
DictionaryVariables
280
     0
  1
1:1
  0
DICTIONARYVAR
  5
91
102
{ACAD_REACTORS
330
8B
102
}
330
8B
100
DictionaryVariables
280
     0
  1
Standard
  0
DICTIONARYVAR
  5
90
102
{ACAD_REACTORS
330
8B
102
}
330
8B
100
DictionaryVariables
280
     0
  1
Standard
  0
DICTIONARY
  5
8D
330
5A
100
AcDbDictionary
280
     1
281
     1
  3
ACAD_ROUNDTRIP_2008_TABLESTYLE_CELLSTYLEMAP
360
8E
  0
CELLSTYLEMAP
  5
8E
102
{ACAD_REACTORS
330
8D
102
}
330
8D
100
AcDbCellStyleMap
 90
        3
300
CELLSTYLE
  1
TABLEFORMAT_BEGIN
 90
        5
170
     1
 91
        0
 92
    32768
 62
   257
 93
        1
300
CONTENTFORMAT
  1
CONTENTFORMAT_BEGIN
 90
        0
 91
        0
 92
        4
 93
        0
300

 40
0.0
140
1.0
 94
        5
 62
     0
340
11
144
0.25
309
CONTENTFORMAT_END
171
     1
301
MARGIN
  1
CELLMARGIN_BEGIN
 40
0.06
 40
0.06
 40
0.06
 40
0.06
 40
0.06
 40
0.06
309
CELLMARGIN_END
 94
        6
 95
        1
302
GRIDFORMAT
  1
GRIDFORMAT_BEGIN
 90
        0
 91
        1
 62
     0
 92
       -2
340
14
 93
        0
 40
0.045
309
GRIDFORMAT_END
 95
        2
302
GRIDFORMAT
  1
GRIDFORMAT_BEGIN
 90
        0
 91
        1
 62
     0
 92
       -2
340
14
 93
        0
 40
0.045
309
GRIDFORMAT_END
 95
        4
302
GRIDFORMAT
  1
GRIDFORMAT_BEGIN
 90
        0
 91
        1
 62
     0
 92
       -2
340
14
 93
        0
 40
0.045
309
GRIDFORMAT_END
 95
        8
302
GRIDFORMAT
  1
GRIDFORMAT_BEGIN
 90
        0
 91
        1
 62
     0
 92
       -2
340
14
 93
        0
 40
0.045
309
GRIDFORMAT_END
 95
       16
302
GRIDFORMAT
  1
GRIDFORMAT_BEGIN
 90
        0
 91
        1
 62
     0
 92
       -2
340
14
 93
        0
 40
0.045
309
GRIDFORMAT_END
 95
       32
302
GRIDFORMAT
  1
GRIDFORMAT_BEGIN
 90
        0
 91
        1
 62
     0
 92
       -2
340
14
 93
        0
 40
0.045
309
GRIDFORMAT_END
309
TABLEFORMAT_END
  1
CELLSTYLE_BEGIN
 90
        1
 91
        1
300
_TITLE
309
CELLSTYLE_END
300
CELLSTYLE
  1
TABLEFORMAT_BEGIN
 90
        5
170
     1
 91
        0
 92
        0
 62
   257
 93
        1
300
CONTENTFORMAT
  1
CONTENTFORMAT_BEGIN
 90
        0
 91
        0
 92
        4
 93
        0
300

 40
0.0
140
1.0
 94
        5
 62
     0
340
11
144
0.18
309
CONTENTFORMAT_END
171
     1
301
MARGIN
  1
CELLMARGIN_BEGIN
 40
0.06
 40
0.06
 40
0.06
 40
0.06
 40
0.06
 40
0.06
309
CELLMARGIN_END
 94
        6
 95
        1
302
GRIDFORMAT
  1
GRIDFORMAT_BEGIN
 90
        0
 91
        1
 62
     0
 92
       -2
340
14
 93
        0
 40
0.045
309
GRIDFORMAT_END
 95
        2
302
GRIDFORMAT
  1
GRIDFORMAT_BEGIN
 90
        0
 91
        1
 62
     0
 92
       -2
340
14
 93
        0
 40
0.045
309
GRIDFORMAT_END
 95
        4
302
GRIDFORMAT
  1
GRIDFORMAT_BEGIN
 90
        0
 91
        1
 62
     0
 92
       -2
340
14
 93
        0
 40
0.045
309
GRIDFORMAT_END
 95
        8
302
GRIDFORMAT
  1
GRIDFORMAT_BEGIN
 90
        0
 91
        1
 62
     0
 92
       -2
340
14
 93
        0
 40
0.045
309
GRIDFORMAT_END
 95
       16
302
GRIDFORMAT
  1
GRIDFORMAT_BEGIN
 90
        0
 91
        1
 62
     0
 92
       -2
340
14
 93
        0
 40
0.045
309
GRIDFORMAT_END
 95
       32
302
GRIDFORMAT
  1
GRIDFORMAT_BEGIN
 90
        0
 91
        1
 62
     0
 92
       -2
340
14
 93
        0
 40
0.045
309
GRIDFORMAT_END
309
TABLEFORMAT_END
  1
CELLSTYLE_BEGIN
 90
        2
 91
        1
300
_HEADER
309
CELLSTYLE_END
300
CELLSTYLE
  1
TABLEFORMAT_BEGIN
 90
        5
170
     1
 91
        0
 92
        0
 62
   257
 93
        1
300
CONTENTFORMAT
  1
CONTENTFORMAT_BEGIN
 90
        0
 91
        0
 92
        4
 93
        0
300

 40
0.0
140
1.0
 94
        2
 62
     0
340
11
144
0.18
309
CONTENTFORMAT_END
171
     1
301
MARGIN
  1
CELLMARGIN_BEGIN
 40
0.06
 40
0.06
 40
0.06
 40
0.06
 40
0.06
 40
0.06
309
CELLMARGIN_END
 94
        6
 95
        1
302
GRIDFORMAT
  1
GRIDFORMAT_BEGIN
 90
        0
 91
        1
 62
     0
 92
       -2
340
14
 93
        0
 40
0.045
309
GRIDFORMAT_END
 95
        2
302
GRIDFORMAT
  1
GRIDFORMAT_BEGIN
 90
        0
 91
        1
 62
     0
 92
       -2
340
14
 93
        0
 40
0.045
309
GRIDFORMAT_END
 95
        4
302
GRIDFORMAT
  1
GRIDFORMAT_BEGIN
 90
        0
 91
        1
 62
     0
 92
       -2
340
14
 93
        0
 40
0.045
309
GRIDFORMAT_END
 95
        8
302
GRIDFORMAT
  1
GRIDFORMAT_BEGIN
 90
        0
 91
        1
 62
     0
 92
       -2
340
14
 93
        0
 40
0.045
309
GRIDFORMAT_END
 95
       16
302
GRIDFORMAT
  1
GRIDFORMAT_BEGIN
 90
        0
 91
        1
 62
     0
 92
       -2
340
14
 93
        0
 40
0.045
309
GRIDFORMAT_END
 95
       32
302
GRIDFORMAT
  1
GRIDFORMAT_BEGIN
 90
        0
 91
        1
 62
     0
 92
       -2
340
14
 93
        0
 40
0.045
309
GRIDFORMAT_END
309
TABLEFORMAT_END
  1
CELLSTYLE_BEGIN
 90
        3
 91
        2
300
_DATA
309
CELLSTYLE_END
  0
ENDSEC
  0
EOF
