  0
SECTION
  2
HEADER
  9
$ACADVER
  1
AC1027
  9
$ACADMAINTVER
 70
   105
  9
$DWGCODEPAGE
  3
ANSI_1252
  9
$LASTSAVEDBY
  1
Office Desk
  9
$REQUIREDVERSIONS
160
                 0
  9
$INSBASE
 10
0.0
 20
0.0
 30
0.0
  9
$EXTMIN
 10
285.4605
 20
-153.0176
 30
0.0
  9
$EXTMAX
 10
1017.3043
 20
168.2402
 30
0.0
  9
$LIMMIN
 10
0.0
 20
0.0
  9
$LIMMAX
 10
12.0
 20
9.0
  9
$ORTHOMODE
 70
     0
  9
$REGENMODE
 70
     1
  9
$FILLMODE
 70
     1
  9
$QTEXTMODE
 70
     0
  9
$MIRRTEXT
 70
     1
  9
$LTSCALE
 40
1.0
  9
$ATTMODE
 70
     1
  9
$TEXTSIZE
 40
0.2
  9
$TRACEWID
 40
0.05
  9
$TEXTSTYLE
  7
Standard
  9
$CLAYER
  8
0
  9
$CELTYPE
  6
ByLayer
  9
$CECOLOR
 62
   256
  9
$CELTSCALE
 40
1.0
  9
$DISPSILH
 70
     0
  9
$DIMSCALE
 40
1.0
  9
$DIMASZ
 40
0.18
  9
$DIMEXO
 40
0.0625
  9
$DIMDLI
 40
0.38
  9
$DIMRND
 40
0.0
  9
$DIMDLE
 40
0.0
  9
$DIMEXE
 40
0.18
  9
$DIMTP
 40
0.0
  9
$DIMTM
 40
0.0
  9
$DIMTXT
 40
0.18
  9
$DIMCEN
 40
0.09
  9
$DIMTSZ
 40
0.0
  9
$DIMTOL
 70
     0
  9
$DIMLIM
 70
     0
  9
$DIMTIH
 70
     1
  9
$DIMTOH
 70
     1
  9
$DIMSE1
 70
     0
  9
$DIMSE2
 70
     0
  9
$DIMTAD
 70
     0
  9
$DIMZIN
 70
     0
  9
$DIMBLK
  1

  9
$DIMASO
 70
     1
  9
$DIMSHO
 70
     1
  9
$DIMPOST
  1

  9
$DIMAPOST
  1

  9
$DIMALT
 70
     0
  9
$DIMALTD
 70
     2
  9
$DIMALTF
 40
25.4
  9
$DIMLFAC
 40
1.0
  9
$DIMTOFL
 70
     0
  9
$DIMTVP
 40
0.0
  9
$DIMTIX
 70
     0
  9
$DIMSOXD
 70
     0
  9
$DIMSAH
 70
     0
  9
$DIMBLK1
  1

  9
$DIMBLK2
  1

  9
$DIMSTYLE
  2
Standard
  9
$DIMCLRD
 70
     0
  9
$DIMCLRE
 70
     0
  9
$DIMCLRT
 70
     0
  9
$DIMTFAC
 40
1.0
  9
$DIMGAP
 40
0.09
  9
$DIMJUST
 70
     0
  9
$DIMSD1
 70
     0
  9
$DIMSD2
 70
     0
  9
$DIMTOLJ
 70
     1
  9
$DIMTZIN
 70
     0
  9
$DIMALTZ
 70
     0
  9
$DIMALTTZ
 70
     0
  9
$DIMUPT
 70
     0
  9
$DIMDEC
 70
     4
  9
$DIMTDEC
 70
     4
  9
$DIMALTU
 70
     2
  9
$DIMALTTD
 70
     2
  9
$DIMTXSTY
  7
Standard
  9
$DIMAUNIT
 70
     0
  9
$DIMADEC
 70
     0
  9
$DIMALTRND
 40
0.0
  9
$DIMAZIN
 70
     0
  9
$DIMDSEP
 70
    46
  9
$DIMATFIT
 70
     3
  9
$DIMFRAC
 70
     0
  9
$DIMLDRBLK
  1

  9
$DIMLUNIT
 70
     2
  9
$DIMLWD
 70
    -2
  9
$DIMLWE
 70
    -2
  9
$DIMTMOVE
 70
     0
  9
$DIMFXL
 40
1.0
  9
$DIMFXLON
 70
     0
  9
$DIMJOGANG
 40
0.7853981633974483
  9
$DIMTFILL
 70
     0
  9
$DIMTFILLCLR
 70
     0
  9
$DIMARCSYM
 70
     0
  9
$DIMLTYPE
  6

  9
$DIMLTEX1
  6

  9
$DIMLTEX2
  6

  9
$DIMTXTDIRECTION
 70
     0
  9
$LUNITS
 70
     2
  9
$LUPREC
 70
     4
  9
$SKETCHINC
 40
0.1
  9
$FILLETRAD
 40
0.0
  9
$AUNITS
 70
     0
  9
$AUPREC
 70
     0
  9
$MENU
  1
.
  9
$ELEVATION
 40
0.0
  9
$PELEVATION
 40
0.0
  9
$THICKNESS
 40
0.0
  9
$LIMCHECK
 70
     0
  9
$CHAMFERA
 40
0.0
  9
$CHAMFERB
 40
0.0
  9
$CHAMFERC
 40
0.0
  9
$CHAMFERD
 40
0.0
  9
$SKPOLY
 70
     0
  9
$TDCREATE
 40
2461012.651554561
  9
$TDUCREATE
 40
2461012.422387894
  9
$TDUPDATE
 40
2461012.651554561
  9
$TDUUPDATE
 40
2461012.422387894
  9
$TDINDWG
 40
0.0000000116
  9
$TDUSRTIMER
 40
0.0000000116
  9
$USRTIMER
 70
     1
  9
$ANGBASE
 50
0.0
  9
$ANGDIR
 70
     0
  9
$PDMODE
 70
     0
  9
$PDSIZE
 40
0.0
  9
$PLINEWID
 40
0.0
  9
$SPLFRAME
 70
     0
  9
$SPLINETYPE
 70
     6
  9
$SPLINESEGS
 70
     8
  9
$HANDSEED
  5
83
  9
$SURFTAB1
 70
     6
  9
$SURFTAB2
 70
     6
  9
$SURFTYPE
 70
     6
  9
$SURFU
 70
     6
  9
$SURFV
 70
     6
  9
$UCSBASE
  2

  9
$UCSNAME
  2

  9
$UCSORG
 10
0.0
 20
0.0
 30
0.0
  9
$UCSXDIR
 10
1.0
 20
0.0
 30
0.0
  9
$UCSYDIR
 10
0.0
 20
1.0
 30
0.0
  9
$UCSORTHOREF
  2

  9
$UCSORTHOVIEW
 70
     0
  9
$UCSORGTOP
 10
0.0
 20
0.0
 30
0.0
  9
$UCSORGBOTTOM
 10
0.0
 20
0.0
 30
0.0
  9
$UCSORGLEFT
 10
0.0
 20
0.0
 30
0.0
  9
$UCSORGRIGHT
 10
0.0
 20
0.0
 30
0.0
  9
$UCSORGFRONT
 10
0.0
 20
0.0
 30
0.0
  9
$UCSORGBACK
 10
0.0
 20
0.0
 30
0.0
  9
$PUCSBASE
  2

  9
$PUCSNAME
  2

  9
$PUCSORG
 10
0.0
 20
0.0
 30
0.0
  9
$PUCSXDIR
 10
1.0
 20
0.0
 30
0.0
  9
$PUCSYDIR
 10
0.0
 20
1.0
 30
0.0
  9
$PUCSORTHOREF
  2

  9
$PUCSORTHOVIEW
 70
     0
  9
$PUCSORGTOP
 10
0.0
 20
0.0
 30
0.0
  9
$PUCSORGBOTTOM
 10
0.0
 20
0.0
 30
0.0
  9
$PUCSORGLEFT
 10
0.0
 20
0.0
 30
0.0
  9
$PUCSORGRIGHT
 10
0.0
 20
0.0
 30
0.0
  9
$PUCSORGFRONT
 10
0.0
 20
0.0
 30
0.0
  9
$PUCSORGBACK
 10
0.0
 20
0.0
 30
0.0
  9
$USERI1
 70
     0
  9
$USERI2
 70
     0
  9
$USERI3
 70
     0
  9
$USERI4
 70
     0
  9
$USERI5
 70
     0
  9
$USERR1
 40
0.0
  9
$USERR2
 40
0.0
  9
$USERR3
 40
0.0
  9
$USERR4
 40
0.0
  9
$USERR5
 40
0.0
  9
$WORLDVIEW
 70
     1
  9
$SHADEDGE
 70
     3
  9
$SHADEDIF
 70
    70
  9
$TILEMODE
 70
     1
  9
$MAXACTVP
 70
    64
  9
$PINSBASE
 10
0.0
 20
0.0
 30
0.0
  9
$PLIMCHECK
 70
     0
  9
$PEXTMIN
 10
1.000000000000000E+20
 20
1.000000000000000E+20
 30
1.000000000000000E+20
  9
$PEXTMAX
 10
-1.000000000000000E+20
 20
-1.000000000000000E+20
 30
-1.000000000000000E+20
  9
$PLIMMIN
 10
0.0
 20
0.0
  9
$PLIMMAX
 10
12.0
 20
9.0
  9
$UNITMODE
 70
     0
  9
$VISRETAIN
 70
     1
  9
$PLINEGEN
 70
     0
  9
$PSLTSCALE
 70
     1
  9
$TREEDEPTH
 70
  3020
  9
$CMLSTYLE
  2
Standard
  9
$CMLJUST
 70
     0
  9
$CMLSCALE
 40
1.0
  9
$PROXYGRAPHICS
 70
     1
  9
$MEASUREMENT
 70
     0
  9
$CELWEIGHT
370
    -1
  9
$ENDCAPS
280
     0
  9
$JOINSTYLE
280
     0
  9
$LWDISPLAY
290
     0
  9
$INSUNITS
 70
     4
  9
$HYPERLINKBASE
  1

  9
$STYLESHEET
  1

  9
$XEDIT
290
     1
  9
$CEPSNTYPE
380
     0
  9
$PSTYLEMODE
290
     1
  9
$FINGERPRINTGUID
  2
{2f187c65-9c1c-4d30-9d05-ff7b9ae3bb0e}
  9
$VERSIONGUID
  2
{FAEB1C32-E019-11D5-929B-00C0DF256EC4}
  9
$EXTNAMES
290
     1
  9
$PSVPSCALE
 40
0.0
  9
$OLESTARTUP
290
     0
  9
$SORTENTS
280
   127
  9
$INDEXCTL
280
     0
  9
$HIDETEXT
280
     1
  9
$XCLIPFRAME
280
     2
  9
$HALOGAP
280
     0
  9
$OBSCOLOR
 70
   257
  9
$OBSLTYPE
280
     0
  9
$INTERSECTIONDISPLAY
280
     0
  9
$INTERSECTIONCOLOR
 70
   257
  9
$DIMASSOC
280
     2
  9
$PROJECTNAME
  1

  9
$CAMERADISPLAY
290
     0
  9
$LENSLENGTH
 40
50.0
  9
$CAMERAHEIGHT
 40
0.0
  9
$STEPSPERSEC
 40
2.0
  9
$STEPSIZE
 40
6.0
  9
$3DDWFPREC
 40
2.0
  9
$PSOLWIDTH
 40
0.25
  9
$PSOLHEIGHT
 40
4.0
  9
$LOFTANG1
 40
1.570796326794897
  9
$LOFTANG2
 40
1.570796326794897
  9
$LOFTMAG1
 40
0.0
  9
$LOFTMAG2
 40
0.0
  9
$LOFTPARAM
 70
     7
  9
$LOFTNORMALS
280
     1
  9
$LATITUDE
 40
37.795
  9
$LONGITUDE
 40
-122.394
  9
$NORTHDIRECTION
 40
0.0
  9
$TIMEZONE
 70
 -8000
  9
$LIGHTGLYPHDISPLAY
280
     1
  9
$TILEMODELIGHTSYNCH
280
     1
  9
$CMATERIAL
347
44
  9
$SOLIDHIST
280
     0
  9
$SHOWHIST
280
     1
  9
$DWFFRAME
280
     2
  9
$DGNFRAME
280
     2
  9
$REALWORLDSCALE
290
     1
  9
$INTERFERECOLOR
 62
   256
  9
$CSHADOW
280
     0
  9
$SHADOWPLANELOCATION
 40
0.0
  0
ENDSEC
  0
SECTION
  2
CLASSES
  0
CLASS
  1
ACDBDICTIONARYWDFLT
  2
AcDbDictionaryWithDefault
  3
ObjectDBX Classes
 90
        0
 91
        3
280
     0
281
     0
  0
CLASS
  1
VISUALSTYLE
  2
AcDbVisualStyle
  3
ObjectDBX Classes
 90
     4095
 91
        3
280
     0
281
     0
  0
CLASS
  1
MATERIAL
  2
AcDbMaterial
  3
ObjectDBX Classes
 90
     1153
 91
        3
280
     0
281
     0
  0
CLASS
  1
SCALE
  2
AcDbScale
  3
ObjectDBX Classes
 90
     1153
 91
        3
280
     0
281
     0
  0
CLASS
  1
TABLESTYLE
  2
AcDbTableStyle
  3
ObjectDBX Classes
 90
     4095
 91
        3
280
     0
281
     0
  0
CLASS
  1
MLEADERSTYLE
  2
AcDbMLeaderStyle
  3
ACDB_MLEADERSTYLE_CLASS
 90
     4095
 91
        3
280
     0
281
     0
  0
CLASS
  1
SUN
  2
AcDbSun
  3
SCENEOE
 90
     1153
 91
        3
280
     0
281
     0
  0
CLASS
  1
DICTIONARYVAR
  2
AcDbDictionaryVar
  3
ObjectDBX Classes
 90
        0
 91
        3
280
     0
281
     0
  0
CLASS
  1
CELLSTYLEMAP
  2
AcDbCellStyleMap
  3
ObjectDBX Classes
 90
     1152
 91
        3
280
     0
281
     0
  0
ENDSEC
  0
SECTION
  2
TABLES
  0
TABLE
  2
VPORT
  5
8
330
0
100
AcDbSymbolTable
 70
     1
  0
VPORT
  5
29
330
8
100
AcDbSymbolTableRecord
100
AcDbViewportTableRecord
  2
*Active
 70
     0
 10
0.0
 20
0.0
 11
1.0
 21
1.0
 12
10.42990654205607
 22
4.5
 13
0.0
 23
0.0
 14
0.5
 24
0.5
 15
0.5
 25
0.5
 16
0.0
 26
0.0
 36
1.0
 17
0.0
 27
0.0
 37
0.0
 40
9.0
 41
1.972972972850329
 42
50.0
 43
0.0
 44
0.0
 50
0.0
 51
0.0
 71
     0
 72
   100
 73
     1
 74
     3
 75
     0
 76
     0
 77
     0
 78
     0
281
     0
 65
     1
110
0.0
120
0.0
130
0.0
111
1.0
121
0.0
131
0.0
112
0.0
122
1.0
132
0.0
 79
     0
146
0.0
348
2F
 60
     3
 61
     5
292
     1
282
     1
141
0.0
142
0.0
 63
   250
361
5D
  0
ENDTAB
  0
TABLE
  2
LTYPE
  5
5
330
0
100
AcDbSymbolTable
 70
     1
  0
LTYPE
  5
14
330
5
100
AcDbSymbolTableRecord
100
AcDbLinetypeTableRecord
  2
ByBlock
 70
     0
  3

 72
    65
 73
     0
 40
0.0
  0
LTYPE
  5
15
330
5
100
AcDbSymbolTableRecord
100
AcDbLinetypeTableRecord
  2
ByLayer
 70
     0
  3

 72
    65
 73
     0
 40
0.0
  0
LTYPE
  5
16
330
5
100
AcDbSymbolTableRecord
100
AcDbLinetypeTableRecord
  2
Continuous
 70
     0
  3
Solid line
 72
    65
 73
     0
 40
0.0
  0
ENDTAB
  0
TABLE
  2
LAYER
  5
2
330
0
100
AcDbSymbolTable
 70
     2
  0
LAYER
  5
10
330
2
100
AcDbSymbolTableRecord
100
AcDbLayerTableRecord
  2
0
 70
     0
 62
     7
  6
Continuous
370
    -3
390
F
347
46
348
0
  0
LAYER
  5
5F
330
2
100
AcDbSymbolTableRecord
100
AcDbLayerTableRecord
  2
Layer 1
 70
     0
 62
     7
  6
Continuous
370
    -3
390
F
347
46
348
0
  0
ENDTAB
  0
TABLE
  2
STYLE
  5
3
330
0
100
AcDbSymbolTable
 70
     1
  0
STYLE
  5
11
330
3
100
AcDbSymbolTableRecord
100
AcDbTextStyleTableRecord
  2
Standard
 70
     0
 40
0.0
 41
1.0
 50
0.0
 71
     0
 42
0.2
  3
txt
  4

  0
ENDTAB
  0
TABLE
  2
VIEW
  5
6
330
0
100
AcDbSymbolTable
 70
     0
  0
ENDTAB
  0
TABLE
  2
UCS
  5
7
330
0
100
AcDbSymbolTable
 70
     0
  0
ENDTAB
  0
TABLE
  2
APPID
  5
9
330
0
100
AcDbSymbolTable
 70
     2
  0
APPID
  5
12
330
9
100
AcDbSymbolTableRecord
100
AcDbRegAppTableRecord
  2
ACAD
 70
     0
  0
APPID
  5
5E
330
9
100
AcDbSymbolTableRecord
100
AcDbRegAppTableRecord
  2
ODA
 70
     0
  0
ENDTAB
  0
TABLE
  2
DIMSTYLE
  5
A
330
0
100
AcDbSymbolTable
 70
     1
100
AcDbDimStyleTable
  0
DIMSTYLE
105
27
330
A
100
AcDbSymbolTableRecord
100
AcDbDimStyleTableRecord
  2
Standard
 70
     0
178
     0
340
11
  0
ENDTAB
  0
TABLE
  2
BLOCK_RECORD
  5
1
330
0
100
AcDbSymbolTable
 70
     1
  0
BLOCK_RECORD
  5
1F
330
1
100
AcDbSymbolTableRecord
100
AcDbBlockTableRecord
  2
*Model_Space
340
22
 70
     0
280
     1
281
     0
  0
BLOCK_RECORD
  5
1B
330
1
100
AcDbSymbolTableRecord
100
AcDbBlockTableRecord
  2
*Paper_Space
340
1E
 70
     0
280
     1
281
     0
  0
BLOCK_RECORD
  5
23
330
1
100
AcDbSymbolTableRecord
100
AcDbBlockTableRecord
  2
*Paper_Space0
340
26
 70
     0
280
     1
281
     0
  0
ENDTAB
  0
ENDSEC
  0
SECTION
  2
BLOCKS
  0
BLOCK
  5
20
330
1F
100
AcDbEntity
  8
0
100
AcDbBlockBegin
  2
*Model_Space
 70
     0
 10
0.0
 20
0.0
 30
0.0
  3
*Model_Space
  1

  0
ENDBLK
  5
21
330
1F
100
AcDbEntity
  8
0
100
AcDbBlockEnd
  0
BLOCK
  5
1C
330
1B
100
AcDbEntity
 67
     1
  8
0
100
AcDbBlockBegin
  2
*Paper_Space
 70
     0
 10
0.0
 20
0.0
 30
0.0
  3
*Paper_Space
  1

  0
ENDBLK
  5
1D
330
1B
100
AcDbEntity
 67
     1
  8
0
100
AcDbBlockEnd
  0
BLOCK
  5
24
330
23
100
AcDbEntity
  8
0
100
AcDbBlockBegin
  2
*Paper_Space0
 70
     0
 10
0.0
 20
0.0
 30
0.0
  3
*Paper_Space0
  1

  0
ENDBLK
  5
25
330
23
100
AcDbEntity
  8
0
100
AcDbBlockEnd
  0
ENDSEC
  0
SECTION
  2
ENTITIES
  0
LWPOLYLINE
  5
60
330
1F
100
AcDbEntity
  8
Layer 1
 62
   250
370
    18
100
AcDbPolyline
 90
        5
 70
     1
 43
0.0
 10
285.5487
 20
-152.9294
 10
1017.2161
 20
-152.9294
 10
1017.2161
 20
168.152
 10
285.5487
 20
168.152
 10
285.5487
 20
-152.9294
  0
LWPOLYLINE
  5
61
330
1F
100
AcDbEntity
  8
Layer 1
 62
     7
370
    35
100
AcDbPolyline
 90
       33
 70
     1
 43
0.0
 10
613.0591
 20
146.9858
 10
642.4844
 20
144.2105
 10
669.8912
 20
136.2508
 10
694.6924
 20
123.6561
 10
716.3008
 20
106.9756
 10
734.1294
 20
86.7588
 10
747.591
 20
63.5549
 10
756.0985
 20
37.9132
 10
759.0648
 20
10.3832
 10
756.0985
 20
-17.147
 10
747.591
 20
-42.7888
 10
734.1294
 20
-65.9928
 10
716.3008
 20
-86.2098
 10
694.6924
 20
-102.8902
 10
669.8912
 20
-115.485
 10
642.4844
 20
-123.4447
 10
613.0591
 20
-126.22
 10
583.6336
 20
-123.4447
 10
556.2266
 20
-115.485
 10
531.4253
 20
-102.8902
 10
509.8168
 20
-86.2098
 10
491.9882
 20
-65.9928
 10
478.5266
 20
-42.7888
 10
470.0191
 20
-17.147
 10
467.0528
 20
10.3832
 10
470.0191
 20
37.9132
 10
478.5266
 20
63.5549
 10
491.9882
 20
86.7588
 10
509.8168
 20
106.9756
 10
531.4253
 20
123.6561
 10
556.2266
 20
136.2508
 10
583.6336
 20
144.2105
 10
613.0591
 20
146.9858
  0
LWPOLYLINE
  5
62
330
1F
100
AcDbEntity
  8
Layer 1
 62
     7
370
    35
100
AcDbPolyline
 90
       33
 70
     1
 43
0.0
 10
613.0591
 20
142.2752
 10
641.4698
 20
139.5956
 10
667.9317
 20
131.9105
 10
691.8778
 20
119.7502
 10
712.7412
 20
103.6451
 10
729.9551
 20
84.1255
 10
742.9526
 20
61.7217
 10
751.1669
 20
36.9642
 10
754.0309
 20
10.3832
 10
751.1669
 20
-16.198
 10
742.9526
 20
-40.9557
 10
729.9551
 20
-63.3596
 10
712.7412
 20
-82.8793
 10
691.8778
 20
-98.9845
 10
667.9317
 20
-111.1448
 10
641.4698
 20
-118.8299
 10
613.0591
 20
-121.5095
 10
584.6481
 20
-118.8299
 10
558.1861
 20
-111.1448
 10
534.2399
 20
-98.9845
 10
513.3764
 20
-82.8793
 10
496.1624
 20
-63.3596
 10
483.1649
 20
-40.9557
 10
474.9506
 20
-16.198
 10
472.0866
 20
10.3832
 10
474.9506
 20
36.9642
 10
483.1649
 20
61.7217
 10
496.1624
 20
84.1255
 10
513.3764
 20
103.6451
 10
534.2399
 20
119.7502
 10
558.1861
 20
131.9105
 10
584.6481
 20
139.5956
 10
613.0591
 20
142.2752
  0
LWPOLYLINE
  5
63
330
1F
100
AcDbEntity
  8
Layer 1
 62
     7
370
    35
100
AcDbPolyline
 90
       33
 70
     1
 43
0.0
 10
613.0591
 20
29.2255
 10
617.1175
 20
28.8427
 10
620.8976
 20
27.7448
 10
624.3185
 20
26.0076
 10
627.299
 20
23.7068
 10
629.7581
 20
20.9182
 10
631.615
 20
17.7176
 10
632.7885
 20
14.1806
 10
633.1977
 20
10.3832
 10
632.7885
 20
6.5858
 10
631.615
 20
3.0488
 10
629.7581
 20
-0.1518
 10
627.299
 20
-2.9404
 10
624.3185
 20
-5.2412
 10
620.8976
 20
-6.9784
 10
617.1175
 20
-8.0763
 10
613.0591
 20
-8.4591
 10
609.0005
 20
-8.0763
 10
605.2202
 20
-6.9784
 10
601.7992
 20
-5.2412
 10
598.8186
 20
-2.9404
 10
596.3594
 20
-0.1518
 10
594.5025
 20
3.0488
 10
593.329
 20
6.5858
 10
592.9198
 20
10.3832
 10
593.329
 20
14.1806
 10
594.5025
 20
17.7176
 10
596.3594
 20
20.9182
 10
598.8186
 20
23.7068
 10
601.7992
 20
26.0076
 10
605.2202
 20
27.7448
 10
609.0005
 20
28.8427
 10
613.0591
 20
29.2255
  0
LWPOLYLINE
  5
64
330
1F
100
AcDbEntity
  8
Layer 1
 62
     7
370
    35
100
AcDbPolyline
 90
       33
 70
     1
 43
0.0
 10
613.0591
 20
21.1894
 10
615.3867
 20
20.9698
 10
617.5547
 20
20.3401
 10
619.5167
 20
19.3438
 10
621.2261
 20
18.0242
 10
622.6366
 20
16.4249
 10
623.7016
 20
14.5893
 10
624.3746
 20
12.5609
 10
624.6093
 20
10.3832
 10
624.3746
 20
8.2053
 10
623.7016
 20
6.1769
 10
622.6366
 20
4.3413
 10
621.2261
 20
2.742
 10
619.5167
 20
1.4225
 10
617.5547
 20
0.4262
 10
615.3867
 20
-0.2035
 10
613.0591
 20
-0.423
 10
610.7311
 20
-0.2035
 10
608.5629
 20
0.4262
 10
606.6009
 20
1.4225
 10
604.8915
 20
2.742
 10
603.4813
 20
4.3413
 10
602.4164
 20
6.1769
 10
601.7435
 20
8.2053
 10
601.5089
 20
10.3832
 10
601.7435
 20
12.5609
 10
602.4164
 20
14.5893
 10
603.4813
 20
16.4249
 10
604.8915
 20
18.0242
 10
606.6009
 20
19.3438
 10
608.5629
 20
20.3401
 10
610.7311
 20
20.9698
 10
613.0591
 20
21.1894
  0
LWPOLYLINE
  5
65
330
1F
100
AcDbEntity
  8
Layer 1
 62
     7
370
    35
100
AcDbPolyline
 90
       42
 70
     1
 43
0.0
 10
871.8677
 20
-7.1834
 10
870.6245
 20
-2.4226
 10
869.6292
 20
2.4126
 10
868.8648
 20
7.3171
 10
868.3144
 20
12.2858
 10
867.9611
 20
17.3137
 10
867.7881
 20
22.3957
 10
867.7784
 20
27.5268
 10
867.9152
 20
32.7017
 10
986.5146
 20
32.7017
 10
986.5779
 20
27.674
 10
986.5501
 20
22.6567
 10
986.3968
 20
17.6507
 10
986.0839
 20
12.6567
 10
985.5769
 20
7.6755
 10
984.8417
 20
2.7079
 10
983.8439
 20
-2.2454
 10
982.5493
 20
-7.1834
 10
978.9264
 20
-8.2527
 10
975.6002
 20
-9.5409
 10
972.5113
 20
-11.0472
 10
969.6002
 20
-12.771
 10
966.8073
 20
-14.7116
 10
964.0731
 20
-16.8683
 10
961.3382
 20
-19.2405
 10
958.5429
 20
-21.8273
 10
951.8375
 20
-21.7839
 10
944.5114
 20
-21.7405
 10
936.7714
 20
-21.6971
 10
928.8245
 20
-21.6536
 10
920.8776
 20
-21.6101
 10
913.1376
 20
-21.5667
 10
905.8115
 20
-21.5233
 10
899.1061
 20
-21.4799
 10
896.648
 20
-18.9535
 10
894.2899
 20
-16.6088
 10
891.8465
 20
-14.4605
 10
889.1326
 20
-12.5234
 10
885.963
 20
-10.8124
 10
882.1525
 20
-9.3422
 10
877.5158
 20
-8.1276
 10
871.8677
 20
-7.1834
  0
LWPOLYLINE
  5
66
330
1F
100
AcDbEntity
  8
Layer 1
 62
     7
370
    35
100
AcDbPolyline
 90
        4
 70
     0
 43
0.0
 10
483.3084
 20
-124.6694
 10
421.7693
 20
-124.6694
 10
421.7693
 20
146.9858
 10
480.8472
 20
146.9858
  0
LWPOLYLINE
  5
67
330
1F
100
AcDbEntity
  8
Layer 1
 62
     7
370
    35
100
AcDbPolyline
 90
        2
 70
     0
 43
0.0
 10
425.6425
 20
-121.5523
 10
418.8412
 20
-127.0511
  0
LWPOLYLINE
  5
68
330
1F
100
AcDbEntity
  8
Layer 1
 62
     7
370
    35
100
AcDbPolyline
 90
        2
 70
     0
 43
0.0
 10
425.7183
 20
149.7348
 10
418.9164
 20
144.2354
  0
LWPOLYLINE
  5
69
330
1F
100
AcDbEntity
  8
Layer 1
 62
     7
370
    35
100
AcDbPolyline
 90
        4
 70
     0
 43
0.0
 10
861.7623
 20
-21.358
 10
848.4606
 20
-21.358
 10
848.4606
 20
32.1603
 10
861.23
 20
32.1603
  0
LWPOLYLINE
  5
6A
330
1F
100
AcDbEntity
  8
Layer 1
 62
     7
370
    35
100
AcDbPolyline
 90
        2
 70
     0
 43
0.0
 10
849.2978
 20
-20.7441
 10
847.828
 20
-21.8276
  0
LWPOLYLINE
  5
6B
330
1F
100
AcDbEntity
  8
Layer 1
 62
     7
370
    35
100
AcDbPolyline
 90
        2
 70
     0
 43
0.0
 10
849.3142
 20
32.7019
 10
847.8443
 20
31.6184
  0
LWPOLYLINE
  5
6C
330
1F
100
AcDbEntity
  8
Layer 1
 62
     7
100
AcDbPolyline
 90
        7
 70
     1
 43
0.0
 10
802.7747
 20
0.1165
 10
803.6277
 20
0.1165
 10
803.6277
 20
8.4999
 10
801.5808
 20
8.2806
 10
801.5808
 20
7.5375
 10
802.7747
 20
7.5375
 10
802.7747
 20
0.1165
  0
LWPOLYLINE
  5
6D
330
1F
100
AcDbEntity
  8
Layer 1
 62
     7
100
AcDbPolyline
 90
       65
 70
     1
 43
0.0
 10
807.6729
 20
4.3326
 10
807.8536
 20
4.3248
 10
808.0273
 20
4.3014
 10
808.194
 20
4.2623
 10
808.3536
 20
4.2077
 10
808.5061
 20
4.1374
 10
808.6517
 20
4.0515
 10
808.7901
 20
3.9501
 10
808.9216
 20
3.833
 10
809.0401
 20
3.706
 10
809.1428
 20
3.5718
 10
809.2296
 20
3.4303
 10
809.3007
 20
3.2816
 10
809.356
 20
3.1256
 10
809.3955
 20
2.9624
 10
809.4192
 20
2.792
 10
809.4271
 20
2.6144
 10
809.4193
 20
2.4384
 10
809.3959
 20
2.2683
 10
809.3569
 20
2.104
 10
809.3023
 20
1.9458
 10
809.2321
 20
1.7934
 10
809.1463
 20
1.6469
 10
809.0449
 20
1.5063
 10
808.9278
 20
1.3716
 10
808.7996
 20
1.2488
 10
808.6632
 20
1.1423
 10
808.5186
 20
1.0523
 10
808.3658
 20
0.9786
 10
808.2049
 20
0.9213
 10
808.0357
 20
0.8804
 10
807.8584
 20
0.8559
 10
807.6729
 20
0.8477
 10
807.4873
 20
0.8559
 10
807.3099
 20
0.8804
 10
807.1407
 20
0.9213
 10
806.9797
 20
0.9786
 10
806.827
 20
1.0523
 10
806.6824
 20
1.1423
 10
806.5461
 20
1.2488
 10
806.4179
 20
1.3716
 10
806.3008
 20
1.5063
 10
806.1993
 20
1.6469
 10
806.1134
 20
1.7934
 10
806.0432
 20
1.9458
 10
805.9885
 20
2.104
 10
805.9495
 20
2.2683
 10
805.9261
 20
2.4384
 10
805.9183
 20
2.6144
 10
805.9262
 20
2.792
 10
805.9499
 20
2.9624
 10
805.9894
 20
3.1256
 10
806.0447
 20
3.2816
 10
806.1158
 20
3.4303
 10
806.2027
 20
3.5718
 10
806.3054
 20
3.706
 10
806.4239
 20
3.833
 10
806.5554
 20
3.9501
 10
806.6939
 20
4.0515
 10
806.8395
 20
4.1374
 10
806.9921
 20
4.2077
 10
807.1517
 20
4.2623
 10
807.3184
 20
4.3014
 10
807.4921
 20
4.3248
 10
807.6729
 20
4.3326
  0
LWPOLYLINE
  5
6E
330
1F
100
AcDbEntity
  8
Layer 1
 62
     7
100
AcDbPolyline
 90
       65
 70
     1
 43
0.0
 10
807.6729
 20
7.6956
 10
807.8186
 20
7.6895
 10
807.9588
 20
7.6713
 10
808.0935
 20
7.6408
 10
808.2226
 20
7.5982
 10
808.3463
 20
7.5434
 10
808.4644
 20
7.4764
 10
808.5769
 20
7.3973
 10
808.684
 20
7.3059
 10
808.7839
 20
7.2031
 10
808.8705
 20
7.0945
 10
808.9438
 20
6.98
 10
809.0038
 20
6.8595
 10
809.0505
 20
6.7332
 10
809.0838
 20
6.601
 10
809.1038
 20
6.4629
 10
809.1105
 20
6.3189
 10
809.1038
 20
6.178
 10
809.0838
 20
6.0417
 10
809.0505
 20
5.9099
 10
809.0038
 20
5.7827
 10
808.9438
 20
5.66
 10
808.8705
 20
5.5419
 10
808.7839
 20
5.4285
 10
808.684
 20
5.3196
 10
808.5776
 20
5.2225
 10
808.4654
 20
5.1383
 10
808.3476
 20
5.0671
 10
808.2241
 20
5.0088
 10
808.0948
 20
4.9635
 10
807.9599
 20
4.9312
 10
807.8192
 20
4.9118
 10
807.6729
 20
4.9053
 10
807.5264
 20
4.9118
 10
807.3857
 20
4.9312
 10
807.2507
 20
4.9635
 10
807.1214
 20
5.0088
 10
806.9979
 20
5.0671
 10
806.88
 20
5.1383
 10
806.7679
 20
5.2225
 10
806.6614
 20
5.3196
 10
806.5615
 20
5.4285
 10
806.4749
 20
5.5419
 10
806.4016
 20
5.66
 10
806.3416
 20
5.7827
 10
806.2949
 20
5.9099
 10
806.2616
 20
6.0417
 10
806.2416
 20
6.178
 10
806.2349
 20
6.3189
 10
806.2416
 20
6.4629
 10
806.2616
 20
6.601
 10
806.2949
 20
6.7332
 10
806.3416
 20
6.8595
 10
806.4016
 20
6.98
 10
806.4749
 20
7.0945
 10
806.5615
 20
7.2031
 10
806.6614
 20
7.3059
 10
806.7685
 20
7.3973
 10
806.8811
 20
7.4764
 10
806.9993
 20
7.5434
 10
807.123
 20
7.5982
 10
807.2522
 20
7.6408
 10
807.3869
 20
7.6713
 10
807.5272
 20
7.6895
 10
807.6729
 20
7.6956
  0
LWPOLYLINE
  5
6F
330
1F
100
AcDbEntity
  8
Layer 1
 62
     7
100
AcDbPolyline
 90
      121
 70
     1
 43
0.0
 10
807.6729
 20
-0.0054
 10
807.9521
 20
0.0052
 10
808.22
 20
0.0369
 10
808.4767
 20
0.0897
 10
808.7221
 20
0.1637
 10
808.9564
 20
0.2588
 10
809.1794
 20
0.375
 10
809.3913
 20
0.5124
 10
809.5919
 20
0.6709
 10
809.6823
 20
0.7537
 10
809.7677
 20
0.8407
 10
809.8482
 20
0.9319
 10
809.9238
 20
1.0272
 10
809.9944
 20
1.1268
 10
810.06
 20
1.2306
 10
810.1207
 20
1.3385
 10
810.1765
 20
1.4507
 10
810.2265
 20
1.567
 10
810.2698
 20
1.6875
 10
810.3064
 20
1.8123
 10
810.3364
 20
1.9412
 10
810.3598
 20
2.0743
 10
810.3765
 20
2.2116
 10
810.3865
 20
2.3531
 10
810.3898
 20
2.4988
 10
810.3842
 20
2.6463
 10
810.3674
 20
2.7934
 10
810.3393
 20
2.9402
 10
810.3
 20
3.0866
 10
810.2495
 20
3.2326
 10
810.1877
 20
3.3783
 10
810.1147
 20
3.5236
 10
810.0304
 20
3.6685
 10
809.9357
 20
3.8099
 10
809.8312
 20
3.9446
 10
809.7171
 20
4.0726
 10
809.5933
 20
4.194
 10
809.4597
 20
4.3088
 10
809.3165
 20
4.4168
 10
809.1636
 20
4.5182
 10
809.0009
 20
4.613
 10
809.2322
 20
4.8192
 10
809.4326
 20
5.0299
 10
809.6022
 20
5.2449
 10
809.741
 20
5.4643
 10
809.849
 20
5.6881
 10
809.9261
 20
5.9162
 10
809.9724
 20
6.1488
 10
809.9878
 20
6.3857
 10
809.9772
 20
6.6195
 10
809.9455
 20
6.8424
 10
809.8927
 20
7.0544
 10
809.8187
 20
7.2556
 10
809.7236
 20
7.4459
 10
809.6074
 20
7.6253
 10
809.47
 20
7.7939
 10
809.3115
 20
7.9517
 10
809.144
 20
8.0887
 10
808.9658
 20
8.2075
 10
808.777
 20
8.308
 10
808.5775
 20
8.3903
 10
808.3673
 20
8.4542
 10
808.1465
 20
8.4999
 10
807.915
 20
8.5274
 10
807.6729
 20
8.5365
 10
807.4307
 20
8.5274
 10
807.1991
 20
8.4999
 10
806.9783
 20
8.4542
 10
806.7681
 20
8.3903
 10
806.5685
 20
8.308
 10
806.3797
 20
8.2075
 10
806.2015
 20
8.0887
 10
806.034
 20
7.9517
 10
805.8755
 20
7.794
 10
805.7382
 20
7.6257
 10
805.622
 20
7.4467
 10
805.5269
 20
7.2571
 10
805.453
 20
7.0568
 10
805.4001
 20
6.8458
 10
805.3685
 20
6.6242
 10
805.3579
 20
6.392
 10
805.3733
 20
6.1536
 10
805.4196
 20
5.9198
 10
805.4967
 20
5.6906
 10
805.6046
 20
5.4659
 10
805.7434
 20
5.2458
 10
805.913
 20
5.0303
 10
806.1135
 20
4.8193
 10
806.3448
 20
4.613
 10
806.1821
 20
4.5182
 10
806.0291
 20
4.4168
 10
805.8858
 20
4.3088
 10
805.7523
 20
4.194
 10
805.6284
 20
4.0726
 10
805.5143
 20
3.9446
 10
805.4098
 20
3.8099
 10
805.3151
 20
3.6685
 10
805.2309
 20
3.5233
 10
805.1579
 20
3.3772
 10
805.0962
 20
3.2301
 10
805.0456
 20
3.0821
 10
805.0063
 20
2.9331
 10
804.9782
 20
2.7832
 10
804.9613
 20
2.6323
 10
804.9557
 20
2.4805
 10
804.9682
 20
2.2083
 10
805.0056
 20
1.9492
 10
805.068
 20
1.7033
 10
805.1553
 20
1.4706
 10
805.2676
 20
1.2509
 10
805.4047
 20
1.0445
 10
805.5669
 20
0.8511
 10
805.7539
 20
0.6709
 10
805.9544
 20
0.5124
 10
806.1662
 20
0.375
 10
806.3893
 20
0.2588
 10
806.6235
 20
0.1637
 10
806.869
 20
0.0897
 10
807.1257
 20
0.0369
 10
807.3937
 20
0.0052
 10
807.6729
 20
-0.0054
  0
LWPOLYLINE
  5
70
330
1F
100
AcDbEntity
  8
Layer 1
 62
     7
100
AcDbPolyline
 90
      132
 70
     1
 43
0.0
 10
813.0581
 20
5.3319
 10
813.6185
 20
7.5495
 10
816.6157
 20
7.5495
 10
816.6157
 20
8.4026
 10
812.9728
 20
8.4026
 10
812.0224
 20
4.6861
 10
812.9482
 20
4.2718
 10
813.0826
 20
4.3632
 10
813.2236
 20
4.4423
 10
813.3713
 20
4.5093
 10
813.5256
 20
4.5641
 10
813.6866
 20
4.6067
 10
813.8542
 20
4.6372
 10
814.0285
 20
4.6554
 10
814.2095
 20
4.6615
 10
814.3914
 20
4.6526
 10
814.5673
 20
4.6257
 10
814.7371
 20
4.581
 10
814.9008
 20
4.5183
 10
815.0584
 20
4.4378
 10
815.2099
 20
4.3394
 10
815.3553
 20
4.223
 10
815.4947
 20
4.0888
 10
815.6261
 20
3.9391
 10
815.7399
 20
3.7838
 10
815.8363
 20
3.6231
 10
815.9151
 20
3.4568
 10
815.9764
 20
3.2849
 10
816.0202
 20
3.1076
 10
816.0465
 20
2.9247
 10
816.0553
 20
2.7363
 10
816.0464
 20
2.5414
 10
816.0195
 20
2.3543
 10
815.9748
 20
2.175
 10
815.9122
 20
2.0036
 10
815.8317
 20
1.84
 10
815.7332
 20
1.6841
 10
815.6169
 20
1.5361
 10
815.4827
 20
1.3959
 10
815.3436
 20
1.2745
 10
815.1947
 20
1.166
 10
815.0359
 20
1.0705
 10
814.8672
 20
0.9879
 10
814.7779
 20
0.9521
 10
814.6837
 20
0.9211
 10
814.5845
 20
0.8949
 10
814.4804
 20
0.8735
 10
814.3714
 20
0.8568
 10
814.2574
 20
0.8449
 10
814.1384
 20
0.8378
 10
814.0145
 20
0.8354
 10
813.8882
 20
0.8407
 10
813.7621
 20
0.8567
 10
813.6361
 20
0.8834
 10
813.5104
 20
0.9207
 10
813.3848
 20
0.9687
 10
813.2594
 20
1.0273
 10
813.1343
 20
1.0966
 10
813.0093
 20
1.1766
 10
812.889
 20
1.2651
 10
812.7778
 20
1.3601
 10
812.6758
 20
1.4616
 10
812.5829
 20
1.5695
 10
812.4991
 20
1.684
 10
812.4244
 20
1.8049
 10
812.3589
 20
1.9323
 10
812.3025
 20
2.0662
 10
811.474
 20
1.7981
 10
811.5554
 20
1.5975
 10
811.6503
 20
1.407
 10
811.7587
 20
1.2266
 10
811.8807
 20
1.0562
 10
812.0161
 20
0.896
 10
812.1651
 20
0.7459
 10
812.3276
 20
0.6058
 10
812.5037
 20
0.4759
 10
812.6908
 20
0.3574
 10
812.8821
 20
0.2547
 10
813.0776
 20
0.1678
 10
813.2773
 20
0.0967
 10
813.4812
 20
0.0414
 10
813.6893
 20
0.0019
 10
813.9016
 20
-0.0218
 10
814.1181
 20
-0.0297
 10
814.4065
 20
-0.0167
 10
814.6838
 20
0.0225
 10
814.9501
 20
0.0877
 10
815.2054
 20
0.179
 10
815.4496
 20
0.2963
 10
815.6828
 20
0.4398
 10
815.905
 20
0.6093
 10
816.1162
 20
0.8049
 10
816.3075
 20
1.0173
 10
816.4733
 20
1.2402
 10
816.6136
 20
1.4735
 10
816.7284
 20
1.7173
 10
816.8176
 20
1.9716
 10
816.8813
 20
2.2363
 10
816.9196
 20
2.5115
 10
816.9323
 20
2.7971
 10
816.9198
 20
3.0813
 10
816.8821
 20
3.3535
 10
816.8193
 20
3.6136
 10
816.7314
 20
3.8618
 10
816.6184
 20
4.098
 10
816.4802
 20
4.3222
 10
816.3169
 20
4.5344
 10
816.1284
 20
4.7346
 10
816.032
 20
4.8236
 10
815.9319
 20
4.9079
 10
815.8279
 20
4.9874
 10
815.7202
 20
5.0622
 10
815.6086
 20
5.1321
 10
815.4933
 20
5.1974
 10
815.3741
 20
5.2579
 10
815.2512
 20
5.3136
 10
815.1258
 20
5.3636
 10
814.9992
 20
5.4068
 10
814.8715
 20
5.4434
 10
814.7428
 20
5.4734
 10
814.613
 20
5.4967
 10
814.4821
 20
5.5133
 10
814.3503
 20
5.5233
 10
814.2174
 20
5.5266
 10
814.0821
 20
5.5236
 10
813.9441
 20
5.5144
 10
813.8033
 20
5.4992
 10
813.6598
 20
5.4779
 10
813.5136
 20
5.4505
 10
813.3646
 20
5.4171
 10
813.2128
 20
5.3775
 10
813.0581
 20
5.3319
  0
LWPOLYLINE
  5
71
330
1F
100
AcDbEntity
  8
Layer 1
 62
     7
100
AcDbPolyline
 90
      155
 70
     1
 43
0.0
 10
825.2905
 20
0.1408
 10
826.1433
 20
0.1408
 10
826.1433
 20
3.4918
 10
826.1364
 20
3.7143
 10
826.1155
 20
3.9264
 10
826.0808
 20
4.1279
 10
826.0322
 20
4.319
 10
825.9697
 20
4.4996
 10
825.8933
 20
4.6697
 10
825.803
 20
4.8293
 10
825.6988
 20
4.9784
 10
825.6406
 20
5.0497
 10
825.5788
 20
5.1174
 10
825.5134
 20
5.1815
 10
825.4444
 20
5.2419
 10
825.3717
 20
5.2987
 10
825.2954
 20
5.3519
 10
825.2156
 20
5.4015
 10
825.1321
 20
5.4475
 10
825.0434
 20
5.4889
 10
824.9478
 20
5.5248
 10
824.8454
 20
5.5552
 10
824.7362
 20
5.5801
 10
824.6201
 20
5.5994
 10
824.4971
 20
5.6132
 10
824.3673
 20
5.6215
 10
824.2306
 20
5.6243
 10
824.0927
 20
5.6195
 10
823.9591
 20
5.6053
 10
823.83
 20
5.5815
 10
823.7052
 20
5.5482
 10
823.5847
 20
5.5053
 10
823.4687
 20
5.4529
 10
823.357
 20
5.391
 10
823.2497
 20
5.3196
 10
823.1566
 20
5.2484
 10
823.0677
 20
5.172
 10
822.9829
 20
5.0902
 10
822.9024
 20
5.0033
 10
822.826
 20
4.9113
 10
822.7539
 20
4.8142
 10
822.6859
 20
4.712
 10
822.6222
 20
4.6048
 10
822.3969
 20
4.9784
 10
822.3388
 20
5.0497
 10
822.277
 20
5.1174
 10
822.2116
 20
5.1815
 10
822.1426
 20
5.2419
 10
822.0699
 20
5.2987
 10
821.9936
 20
5.3519
 10
821.9138
 20
5.4015
 10
821.8303
 20
5.4475
 10
821.7416
 20
5.4889
 10
821.646
 20
5.5248
 10
821.5436
 20
5.5552
 10
821.4343
 20
5.5801
 10
821.3182
 20
5.5994
 10
821.1952
 20
5.6132
 10
821.0654
 20
5.6215
 10
820.9287
 20
5.6243
 10
820.7908
 20
5.6195
 10
820.6573
 20
5.6053
 10
820.5281
 20
5.5815
 10
820.4033
 20
5.5482
 10
820.2829
 20
5.5053
 10
820.1668
 20
5.4529
 10
820.0551
 20
5.391
 10
819.9478
 20
5.3196
 10
819.8591
 20
5.2519
 10
819.7742
 20
5.1795
 10
819.6931
 20
5.1025
 10
819.6159
 20
5.0208
 10
819.5424
 20
4.9345
 10
819.4727
 20
4.8434
 10
819.4067
 20
4.7477
 10
819.3446
 20
4.6473
 10
819.3446
 20
5.5023
 10
818.4919
 20
5.5023
 10
818.4919
 20
0.1408
 10
819.3446
 20
0.1408
 10
819.3446
 20
2.8847
 10
819.3644
 20
3.0445
 10
819.3904
 20
3.1981
 10
819.4224
 20
3.3455
 10
819.4605
 20
3.4867
 10
819.5046
 20
3.6219
 10
819.5549
 20
3.7511
 10
819.6113
 20
3.8742
 10
819.6738
 20
3.9914
 10
819.7246
 20
4.0748
 10
819.7796
 20
4.1544
 10
819.8388
 20
4.2302
 10
819.9022
 20
4.3021
 10
819.9698
 20
4.3703
 10
820.0415
 20
4.4346
 10
820.1175
 20
4.4952
 10
820.1976
 20
4.5519
 10
820.2806
 20
4.6033
 10
820.3651
 20
4.6478
 10
820.4512
 20
4.6855
 10
820.5388
 20
4.7164
 10
820.6278
 20
4.7404
 10
820.7184
 20
4.7575
 10
820.8106
 20
4.7678
 10
820.9042
 20
4.7712
 10
821.081
 20
4.764
 10
821.2333
 20
4.7423
 10
821.3004
 20
4.726
 10
821.3613
 20
4.7061
 10
821.4161
 20
4.6826
 10
821.4649
 20
4.6555
 10
821.5876
 20
4.5647
 10
821.694
 20
4.4582
 10
821.784
 20
4.3362
 10
821.8577
 20
4.1985
 10
821.915
 20
4.0453
 10
821.9559
 20
3.8764
 10
821.9805
 20
3.6919
 10
821.9887
 20
3.4918
 10
821.9887
 20
0.1408
 10
822.8414
 20
0.1408
 10
822.8414
 20
3.4918
 10
822.8354
 20
3.6969
 10
822.9756
 20
3.9914
 10
823.0264
 20
4.0748
 10
823.0814
 20
4.1544
 10
823.1406
 20
4.2302
 10
823.204
 20
4.3021
 10
823.2716
 20
4.3703
 10
823.3434
 20
4.4346
 10
823.4193
 20
4.4952
 10
823.4995
 20
4.5519
 10
823.5825
 20
4.6033
 10
823.667
 20
4.6478
 10
823.753
 20
4.6855
 10
823.8406
 20
4.7164
 10
823.9296
 20
4.7404
 10
824.0202
 20
4.7575
 10
824.1124
 20
4.7678
 10
824.206
 20
4.7712
 10
824.3828
 20
4.764
 10
824.5351
 20
4.7423
 10
824.6022
 20
4.726
 10
824.6631
 20
4.7061
 10
824.7179
 20
4.6826
 10
824.7667
 20
4.6555
 10
824.8894
 20
4.5647
 10
824.9958
 20
4.4582
 10
825.0858
 20
4.3362
 10
825.1595
 20
4.1985
 10
825.2168
 20
4.0453
 10
825.2577
 20
3.8764
 10
825.2823
 20
3.6919
 10
825.2905
 20
3.4918
 10
825.2905
 20
0.1408
  0
LWPOLYLINE
  5
72
330
1F
100
AcDbEntity
  8
Layer 1
 62
     7
100
AcDbPolyline
 90
      155
 70
     1
 43
0.0
 10
834.5868
 20
0.1408
 10
835.4396
 20
0.1408
 10
835.4396
 20
3.4918
 10
835.4327
 20
3.7143
 10
835.4118
 20
3.9264
 10
835.3771
 20
4.1279
 10
835.3285
 20
4.319
 10
835.266
 20
4.4996
 10
835.1896
 20
4.6697
 10
835.0993
 20
4.8293
 10
834.9951
 20
4.9784
 10
834.9369
 20
5.0497
 10
834.8751
 20
5.1174
 10
834.8097
 20
5.1815
 10
834.7407
 20
5.2419
 10
834.668
 20
5.2987
 10
834.5917
 20
5.3519
 10
834.5119
 20
5.4015
 10
834.4284
 20
5.4475
 10
834.3397
 20
5.4889
 10
834.2441
 20
5.5248
 10
834.1417
 20
5.5552
 10
834.0324
 20
5.5801
 10
833.9163
 20
5.5994
 10
833.7933
 20
5.6132
 10
833.6635
 20
5.6215
 10
833.5268
 20
5.6243
 10
833.3889
 20
5.6195
 10
833.2554
 20
5.6053
 10
833.1262
 20
5.5815
 10
833.0015
 20
5.5482
 10
832.881
 20
5.5053
 10
832.765
 20
5.4529
 10
832.6533
 20
5.391
 10
832.546
 20
5.3196
 10
832.4529
 20
5.2484
 10
832.364
 20
5.172
 10
832.2792
 20
5.0902
 10
832.1987
 20
5.0033
 10
832.1223
 20
4.9113
 10
832.0502
 20
4.8142
 10
831.9822
 20
4.712
 10
831.9185
 20
4.6048
 10
831.6932
 20
4.9784
 10
831.6351
 20
5.0497
 10
831.5733
 20
5.1174
 10
831.5079
 20
5.1815
 10
831.4389
 20
5.2419
 10
831.3662
 20
5.2987
 10
831.2899
 20
5.3519
 10
831.2101
 20
5.4015
 10
831.1266
 20
5.4475
 10
831.0379
 20
5.4889
 10
830.9423
 20
5.5248
 10
830.8399
 20
5.5552
 10
830.7306
 20
5.5801
 10
830.6145
 20
5.5994
 10
830.4915
 20
5.6132
 10
830.3617
 20
5.6215
 10
830.225
 20
5.6243
 10
830.0871
 20
5.6195
 10
829.9536
 20
5.6053
 10
829.8244
 20
5.5815
 10
829.6996
 20
5.5482
 10
829.5792
 20
5.5053
 10
829.4631
 20
5.4529
 10
829.3514
 20
5.391
 10
829.2441
 20
5.3196
 10
829.1554
 20
5.2519
 10
829.0705
 20
5.1795
 10
828.9894
 20
5.1025
 10
828.9121
 20
5.0208
 10
828.8386
 20
4.9345
 10
828.7689
 20
4.8434
 10
828.703
 20
4.7477
 10
828.6409
 20
4.6473
 10
828.6409
 20
5.5023
 10
827.7882
 20
5.5023
 10
827.7882
 20
0.1408
 10
828.6409
 20
0.1408
 10
828.6409
 20
2.8847
 10
828.6607
 20
3.0445
 10
828.6866
 20
3.1981
 10
828.7186
 20
3.3455
 10
828.7567
 20
3.4867
 10
828.8009
 20
3.6219
 10
828.8512
 20
3.7511
 10
828.9076
 20
3.8742
 10
828.9701
 20
3.9914
 10
829.0209
 20
4.0748
 10
829.0759
 20
4.1544
 10
829.1351
 20
4.2302
 10
829.1985
 20
4.3021
 10
829.2661
 20
4.3703
 10
829.3378
 20
4.4346
 10
829.4138
 20
4.4952
 10
829.4939
 20
4.5519
 10
829.5769
 20
4.6033
 10
829.6614
 20
4.6478
 10
829.7475
 20
4.6855
 10
829.8351
 20
4.7164
 10
829.9241
 20
4.7404
 10
830.0147
 20
4.7575
 10
830.1069
 20
4.7678
 10
830.2005
 20
4.7712
 10
830.3772
 20
4.764
 10
830.5296
 20
4.7423
 10
830.5966
 20
4.726
 10
830.6575
 20
4.7061
 10
830.7123
 20
4.6826
 10
830.7611
 20
4.6555
 10
830.8838
 20
4.5647
 10
830.9902
 20
4.4582
 10
831.0803
 20
4.3362
 10
831.154
 20
4.1985
 10
831.2113
 20
4.0453
 10
831.2522
 20
3.8764
 10
831.2768
 20
3.6919
 10
831.285
 20
3.4918
 10
831.285
 20
0.1408
 10
832.1377
 20
0.1408
 10
832.1377
 20
3.4918
 10
832.1317
 20
3.6969
 10
832.2719
 20
3.9914
 10
832.3227
 20
4.0748
 10
832.3777
 20
4.1544
 10
832.4369
 20
4.2302
 10
832.5003
 20
4.3021
 10
832.5679
 20
4.3703
 10
832.6396
 20
4.4346
 10
832.7156
 20
4.4952
 10
832.7957
 20
4.5519
 10
832.8787
 20
4.6033
 10
832.9632
 20
4.6478
 10
833.0493
 20
4.6855
 10
833.1369
 20
4.7164
 10
833.2259
 20
4.7404
 10
833.3165
 20
4.7575
 10
833.4087
 20
4.7678
 10
833.5023
 20
4.7712
 10
833.6791
 20
4.764
 10
833.8314
 20
4.7423
 10
833.8985
 20
4.726
 10
833.9594
 20
4.7061
 10
834.0142
 20
4.6826
 10
834.063
 20
4.6555
 10
834.1857
 20
4.5647
 10
834.2921
 20
4.4582
 10
834.3821
 20
4.3362
 10
834.4558
 20
4.1985
 10
834.5131
 20
4.0453
 10
834.554
 20
3.8764
 10
834.5786
 20
3.6919
 10
834.5868
 20
3.4918
 10
834.5868
 20
0.1408
  0
LWPOLYLINE
  5
73
330
1F
100
AcDbEntity
  8
Layer 1
 62
     7
100
AcDbPolyline
 90
        4
 70
     1
 43
0.0
 10
320.3797
 20
7.371
 10
320.3797
 20
-4.2102
 10
312.7185
 20
-4.2102
 10
320.3797
 20
7.371
  0
LWPOLYLINE
  5
74
330
1F
100
AcDbEntity
  8
Layer 1
 62
     7
100
AcDbPolyline
 90
       11
 70
     1
 43
0.0
 10
322.5303
 20
-6.332
 10
325.0647
 20
-6.332
 10
325.0647
 20
-4.2102
 10
322.5303
 20
-4.2102
 10
322.5012
 20
9.6109
 10
319.6134
 20
9.6109
 10
309.0649
 20
-6.332
 10
320.3797
 20
-6.332
 10
320.3797
 20
-10.4279
 10
322.5303
 20
-10.4279
 10
322.5303
 20
-6.332
  0
LWPOLYLINE
  5
75
330
1F
100
AcDbEntity
  8
Layer 1
 62
     7
100
AcDbPolyline
 90
      125
 70
     1
 43
0.0
 10
336.3056
 20
7.2826
 10
336.6457
 20
7.0515
 10
336.9629
 20
6.7891
 10
337.2571
 20
6.4953
 10
337.5282
 20
6.1702
 10
337.7764
 20
5.8138
 10
338.0016
 20
5.4261
 10
338.2037
 20
5.007
 10
338.3829
 20
4.5567
 10
338.5832
 20
3.9592
 10
338.7568
 20
3.353
 10
338.9037
 20
2.7381
 10
339.0239
 20
2.1145
 10
339.1174
 20
1.4821
 10
339.1842
 20
0.8411
 10
339.2242
 20
0.1913
 10
339.2376
 20
-0.4672
 10
339.232
 20
-0.7906
 10
339.2154
 20
-1.1415
 10
339.1878
 20
-1.52
 10
339.1492
 20
-1.9261
 10
339.047
 20
-2.7183
 10
338.9134
 20
-3.4667
 10
338.7485
 20
-4.1714
 10
338.5524
 20
-4.8324
 10
338.3249
 20
-5.4496
 10
338.0662
 20
-6.0231
 10
337.7762
 20
-6.5529
 10
337.455
 20
-7.039
 10
337.1616
 20
-7.4051
 10
336.8525
 20
-7.7224
 10
336.5279
 20
-7.9909
 10
336.1876
 20
-8.2105
 10
335.8317
 20
-8.3813
 10
335.4602
 20
-8.5033
 10
335.0729
 20
-8.5765
 10
334.67
 20
-8.6009
 10
334.2206
 20
-8.5767
 10
333.7927
 20
-8.5042
 10
333.3865
 20
-8.3833
 10
333.0019
 20
-8.2141
 10
332.6389
 20
-7.9965
 10
332.2975
 20
-7.7305
 10
331.9779
 20
-7.4162
 10
331.6799
 20
-7.0536
 10
331.5536
 20
-6.8777
 10
331.4329
 20
-6.6963
 10
331.3177
 20
-6.5094
 10
331.2081
 20
-6.3169
 10
331.104
 20
-6.119
 10
331.0055
 20
-5.9154
 10
330.9126
 20
-5.7063
 10
330.8252
 20
-5.4917
 10
330.7429
 20
-5.2738
 10
330.6658
 20
-5.0545
 10
330.5938
 20
-4.8338
 10
330.5268
 20
-4.6117
 10
330.4649
 20
-4.3881
 10
330.4081
 20
-4.1632
 10
330.3563
 20
-3.9367
 10
330.3095
 20
-3.7089
 10
330.2669
 20
-3.4815
 10
330.2275
 20
-3.256
 10
330.1914
 20
-3.0322
 10
330.1585
 20
-2.8102
 10
330.1288
 20
-2.5901
 10
330.1023
 20
-2.3718
 10
330.079
 20
-2.1553
 10
330.0589
 20
-1.9407
 10
330.0417
 20
-1.7231
 10
330.0268
 20
-1.4972
 10
330.0141
 20
-1.263
 10
330.0037
 20
-1.0208
 10
329.9956
 20
-0.7704
 10
329.9898
 20
-0.5119
 10
329.9863
 20
-0.2455
 10
329.9851
 20
0.0288
 10
329.9902
 20
0.3151
 10
330.0054
 20
0.6181
 10
330.0307
 20
0.9378
 10
330.0662
 20
1.2744
 10
330.1118
 20
1.6277
 10
330.1676
 20
1.9979
 10
330.2335
 20
2.385
 10
330.3095
 20
2.789
 10
330.3561
 20
3.0134
 10
330.4072
 20
3.2373
 10
330.4629
 20
3.4608
 10
330.5232
 20
3.6839
 10
330.5881
 20
3.9065
 10
330.6575
 20
4.1287
 10
330.7315
 20
4.3505
 10
330.8101
 20
4.5718
 10
330.8942
 20
4.7899
 10
330.9843
 20
5.0025
 10
331.0804
 20
5.2097
 10
331.1825
 20
5.4113
 10
331.2905
 20
5.6074
 10
331.4045
 20
5.798
 10
331.5244
 20
5.9831
 10
331.6503
 20
6.1627
 10
331.7824
 20
6.3352
 10
331.921
 20
6.4989
 10
332.066
 20
6.6539
 10
332.2175
 20
6.8002
 10
332.3754
 20
6.9376
 10
332.5397
 20
7.0663
 10
332.7104
 20
7.1861
 10
332.8875
 20
7.2971
 10
333.0722
 20
7.3973
 10
333.2651
 20
7.4841
 10
333.4664
 20
7.5576
 10
333.6759
 20
7.6177
 10
333.8937
 20
7.6644
 10
334.1198
 20
7.6978
 10
334.3542
 20
7.7178
 10
334.5968
 20
7.7245
 10
334.8395
 20
7.7176
 10
335.0738
 20
7.6969
 10
335.2998
 20
7.6624
 10
335.5175
 20
7.6141
 10
335.7269
 20
7.552
 10
335.928
 20
7.476
 10
336.1209
 20
7.3862
 10
336.3056
 20
7.2826
  0
LWPOLYLINE
  5
76
330
1F
100
AcDbEntity
  8
Layer 1
 62
     7
100
AcDbPolyline
 90
       65
 70
     1
 43
0.0
 10
334.6997
 20
-10.693
 10
335.5599
 20
-10.6384
 10
336.3653
 20
-10.4747
 10
337.116
 20
-10.2019
 10
337.8118
 20
-9.82
 10
338.4529
 20
-9.329
 10
339.0392
 20
-8.7288
 10
339.5707
 20
-8.0196
 10
340.0475
 20
-7.2013
 10
340.3825
 20
-6.487
 10
340.6728
 20
-5.7332
 10
340.9184
 20
-4.9399
 10
341.1194
 20
-4.1069
 10
341.2757
 20
-3.2344
 10
341.3873
 20
-2.3222
 10
341.4543
 20
-1.3703
 10
341.4766
 20
-0.3788
 10
341.4543
 20
0.6125
 10
341.3873
 20
1.5642
 10
341.2757
 20
2.4762
 10
341.1194
 20
3.3487
 10
340.9184
 20
4.1816
 10
340.6728
 20
4.9749
 10
340.3825
 20
5.7287
 10
340.0475
 20
6.443
 10
339.5707
 20
7.2613
 10
339.0392
 20
7.9705
 10
338.4529
 20
8.5707
 10
337.8118
 20
9.0617
 10
337.116
 20
9.4436
 10
336.3653
 20
9.7164
 10
335.5599
 20
9.8801
 10
334.6997
 20
9.9347
 10
333.8395
 20
9.8801
 10
333.0341
 20
9.7164
 10
332.2834
 20
9.4436
 10
331.5876
 20
9.0617
 10
330.9465
 20
8.5707
 10
330.3602
 20
7.9705
 10
329.8287
 20
7.2613
 10
329.352
 20
6.443
 10
329.017
 20
5.7287
 10
328.7267
 20
4.9749
 10
328.481
 20
4.1816
 10
328.2801
 20
3.3487
 10
328.1238
 20
2.4762
 10
328.0122
 20
1.5642
 10
327.9452
 20
0.6125
 10
327.9229
 20
-0.3788
 10
327.9452
 20
-1.3703
 10
328.0122
 20
-2.3222
 10
328.1238
 20
-3.2344
 10
328.2801
 20
-4.1069
 10
328.481
 20
-4.9399
 10
328.7267
 20
-5.7332
 10
329.017
 20
-6.487
 10
329.352
 20
-7.2013
 10
329.8287
 20
-8.0196
 10
330.3602
 20
-8.7288
 10
330.9465
 20
-9.329
 10
331.5876
 20
-9.82
 10
332.2834
 20
-10.2019
 10
333.0341
 20
-10.4747
 10
333.8395
 20
-10.6384
 10
334.6997
 20
-10.693
  0
LWPOLYLINE
  5
77
330
1F
100
AcDbEntity
  8
Layer 1
 62
     7
100
AcDbPolyline
 90
      136
 70
     1
 43
0.0
 10
348.2244
 20
2.1849
 10
349.5796
 20
7.5478
 10
356.828
 20
7.5478
 10
356.828
 20
9.6109
 10
348.018
 20
9.6109
 10
345.7197
 20
0.6231
 10
347.9586
 20
-0.3788
 10
348.2835
 20
-0.1579
 10
348.6245
 20
0.0336
 10
348.9816
 20
0.1956
 10
349.3548
 20
0.3281
 10
349.7441
 20
0.4312
 10
350.1496
 20
0.5048
 10
350.5711
 20
0.549
 10
351.0087
 20
0.5637
 10
351.4487
 20
0.5421
 10
351.874
 20
0.4771
 10
352.2846
 20
0.3689
 10
352.6805
 20
0.2174
 10
353.0617
 20
0.0226
 10
353.4281
 20
-0.2154
 10
353.7799
 20
-0.4968
 10
354.1169
 20
-0.8214
 10
354.4346
 20
-1.1835
 10
354.7099
 20
-1.559
 10
354.943
 20
-1.9478
 10
355.1337
 20
-2.3499
 10
355.282
 20
-2.7654
 10
355.388
 20
-3.1943
 10
355.4516
 20
-3.6365
 10
355.4728
 20
-4.0921
 10
355.4512
 20
-4.5635
 10
355.3862
 20
-5.0159
 10
355.278
 20
-5.4495
 10
355.1266
 20
-5.8641
 10
354.9318
 20
-6.2599
 10
354.6938
 20
-6.6368
 10
354.4125
 20
-6.9948
 10
354.0879
 20
-7.3339
 10
353.9227
 20
-7.4846
 10
353.7515
 20
-7.6275
 10
353.5744
 20
-7.7625
 10
353.3914
 20
-7.8898
 10
353.2023
 20
-8.0092
 10
353.0073
 20
-8.1209
 10
352.8064
 20
-8.2247
 10
352.5994
 20
-8.3206
 10
352.3835
 20
-8.4071
 10
352.1556
 20
-8.482
 10
351.9158
 20
-8.5454
 10
351.664
 20
-8.5972
 10
351.4003
 20
-8.6375
 10
351.1246
 20
-8.6663
 10
350.8369
 20
-8.6835
 10
350.5372
 20
-8.6893
 10
350.2318
 20
-8.6764
 10
349.9267
 20
-8.6377
 10
349.6222
 20
-8.5733
 10
349.3181
 20
-8.483
 10
349.0144
 20
-8.367
 10
348.7112
 20
-8.2252
 10
348.4085
 20
-8.0576
 10
348.1063
 20
-7.8642
 10
347.8154
 20
-7.6501
 10
347.5465
 20
-7.4203
 10
347.2998
 20
-7.1749
 10
347.0751
 20
-6.9138
 10
346.8724
 20
-6.6371
 10
346.6919
 20
-6.3446
 10
346.5334
 20
-6.0365
 10
346.397
 20
-5.7127
 10
344.3935
 20
-6.361
 10
344.5903
 20
-6.8462
 10
344.8199
 20
-7.3069
 10
345.082
 20
-7.7433
 10
345.3769
 20
-8.1552
 10
345.7045
 20
-8.5427
 10
346.0648
 20
-8.9057
 10
346.4579
 20
-9.2444
 10
346.8837
 20
-9.5586
 10
347.3361
 20
-9.8452
 10
347.7987
 20
-10.0936
 10
348.2715
 20
-10.3037
 10
348.7544
 20
-10.4757
 10
349.2475
 20
-10.6094
 10
349.7507
 20
-10.705
 10
350.2642
 20
-10.7623
 10
350.7878
 20
-10.7814
 10
351.4852
 20
-10.7499
 10
352.1559
 20
-10.6553
 10
352.7999
 20
-10.4976
 10
353.4173
 20
-10.2768
 10
354.0079
 20
-9.993
 10
354.5719
 20
-9.6461
 10
355.1092
 20
-9.2361
 10
355.6198
 20
-8.7631
 10
356.0826
 20
-8.2494
 10
356.4836
 20
-7.7103
 10
356.8229
 20
-7.146
 10
357.1004
 20
-6.5564
 10
357.3162
 20
-5.9415
 10
357.4704
 20
-5.3013
 10
357.5629
 20
-4.6358
 10
357.5937
 20
-3.9451
 10
357.5633
 20
-3.2579
 10
357.4723
 20
-2.5997
 10
357.3204
 20
-1.9705
 10
357.1078
 20
-1.3703
 10
356.8345
 20
-0.7991
 10
356.5003
 20
-0.2569
 10
356.1053
 20
0.2563
 10
355.6495
 20
0.7405
 10
355.4164
 20
0.9558
 10
355.1742
 20
1.1596
 10
354.9228
 20
1.3519
 10
354.6622
 20
1.5326
 10
354.3924
 20
1.7018
 10
354.1135
 20
1.8596
 10
353.8253
 20
2.0059
 10
353.528
 20
2.1407
 10
353.2246
 20
2.2615
 10
352.9185
 20
2.3661
 10
352.6098
 20
2.4547
 10
352.2984
 20
2.5271
 10
351.9845
 20
2.5834
 10
351.6681
 20
2.6236
 10
351.3492
 20
2.6478
 10
351.0279
 20
2.6558
 10
350.7007
 20
2.6484
 10
350.3669
 20
2.6264
 10
350.0265
 20
2.5896
 10
349.6796
 20
2.5381
 10
349.3259
 20
2.4718
 10
348.9655
 20
2.3909
 10
348.5984
 20
2.2953
 10
348.2244
 20
2.1849
  0
LWPOLYLINE
  5
78
330
1F
100
AcDbEntity
  8
Layer 1
 62
     7
100
AcDbPolyline
 90
      165
 70
     1
 43
0.0
 10
377.8068
 20
-10.3692
 10
379.869
 20
-10.3692
 10
379.869
 20
-2.2652
 10
379.8522
 20
-1.727
 10
379.8018
 20
-1.2142
 10
379.7179
 20
-0.7268
 10
379.6004
 20
-0.2647
 10
379.4492
 20
0.172
 10
379.2645
 20
0.5834
 10
379.0461
 20
0.9694
 10
378.7941
 20
1.3301
 10
378.6534
 20
1.5026
 10
378.504
 20
1.6662
 10
378.3458
 20
1.8212
 10
378.1789
 20
1.9673
 10
378.0032
 20
2.1047
 10
377.8188
 20
2.2334
 10
377.6256
 20
2.3533
 10
377.4237
 20
2.4645
 10
377.2092
 20
2.5647
 10
376.9781
 20
2.6515
 10
376.7304
 20
2.725
 10
376.4661
 20
2.7851
 10
376.1853
 20
2.8318
 10
375.8879
 20
2.8652
 10
375.5739
 20
2.8852
 10
375.2434
 20
2.8919
 10
374.9099
 20
2.8804
 10
374.5869
 20
2.8459
 10
374.2746
 20
2.7884
 10
373.9728
 20
2.7078
 10
373.6815
 20
2.6042
 10
373.4009
 20
2.4776
 10
373.1308
 20
2.3279
 10
372.8713
 20
2.1552
 10
372.6461
 20
1.983
 10
372.4311
 20
1.7981
 10
372.2262
 20
1.6005
 10
372.0314
 20
1.3903
 10
371.8468
 20
1.1677
 10
371.6723
 20
0.9328
 10
371.508
 20
0.6857
 10
371.3538
 20
0.4265
 10
371.2341
 20
0.6656
 10
371.1035
 20
0.8966
 10
370.9618
 20
1.1184
 10
370.8091
 20
1.3301
 10
370.6684
 20
1.5026
 10
370.519
 20
1.6662
 10
370.3608
 20
1.8212
 10
370.1939
 20
1.9673
 10
370.0182
 20
2.1047
 10
369.8338
 20
2.2334
 10
369.6406
 20
2.3533
 10
369.4387
 20
2.4645
 10
369.2241
 20
2.5647
 10
368.993
 20
2.6515
 10
368.7453
 20
2.725
 10
368.4811
 20
2.7851
 10
368.2003
 20
2.8318
 10
367.9029
 20
2.8652
 10
367.5889
 20
2.8852
 10
367.2584
 20
2.8919
 10
366.9249
 20
2.8804
 10
366.6019
 20
2.8459
 10
366.2895
 20
2.7884
 10
365.9877
 20
2.7078
 10
365.6965
 20
2.6042
 10
365.4158
 20
2.4776
 10
365.1457
 20
2.3279
 10
364.8862
 20
2.1552
 10
364.6717
 20
1.9913
 10
364.4664
 20
1.8163
 10
364.2703
 20
1.6301
 10
364.0834
 20
1.4326
 10
363.9057
 20
1.2238
 10
363.7371
 20
1.0037
 10
363.5777
 20
0.7723
 10
363.4275
 20
0.5294
 10
363.4275
 20
2.5971
 10
361.3653
 20
2.5971
 10
361.3653
 20
-10.3692
 10
363.4275
 20
-10.3692
 10
363.4275
 20
-3.7333
 10
363.4754
 20
-3.3469
 10
363.538
 20
-2.9755
 10
363.6154
 20
-2.619
 10
363.7075
 20
-2.2774
 10
363.8143
 20
-1.9504
 10
363.936
 20
-1.6381
 10
364.0723
 20
-1.3403
 10
364.2235
 20
-1.0568
 10
364.3463
 20
-0.8552
 10
364.4793
 20
-0.6627
 10
364.6225
 20
-0.4795
 10
364.7758
 20
-0.3055
 10
364.9392
 20
-0.1406
 10
365.1128
 20
0.015
 10
365.2965
 20
0.1614
 10
365.4903
 20
0.2986
 10
365.691
 20
0.4229
 10
365.8954
 20
0.5306
 10
366.1035
 20
0.6217
 10
366.3153
 20
0.6963
 10
366.5308
 20
0.7542
 10
366.7499
 20
0.7957
 10
366.9727
 20
0.8205
 10
367.1991
 20
0.8288
 10
367.4202
 20
0.8244
 10
367.6266
 20
0.8114
 10
367.8181
 20
0.7895
 10
367.995
 20
0.759
 10
368.1571
 20
0.7197
 10
368.3045
 20
0.6716
 10
368.4371
 20
0.6148
 10
368.555
 20
0.5492
 10
368.8518
 20
0.3295
 10
369.109
 20
0.0721
 10
369.3268
 20
-0.2231
 10
369.5049
 20
-0.556
 10
369.6435
 20
-0.9267
 10
369.7426
 20
-1.3351
 10
369.802
 20
-1.7813
 10
369.8218
 20
-2.2652
 10
369.8218
 20
-10.3692
 10
371.884
 20
-10.3692
 10
371.884
 20
-2.2652
 10
371.8695
 20
-1.7692
 10
371.9459
 20
-1.5813
 10
372.0279
 20
-1.4001
 10
372.1154
 20
-1.2254
 10
372.2085
 20
-1.0568
 10
372.3313
 20
-0.8552
 10
372.4643
 20
-0.6627
 10
372.6075
 20
-0.4795
 10
372.7608
 20
-0.3055
 10
372.9243
 20
-0.1406
 10
373.0979
 20
0.015
 10
373.2816
 20
0.1614
 10
373.4754
 20
0.2986
 10
373.6761
 20
0.4229
 10
373.8805
 20
0.5306
 10
374.0885
 20
0.6217
 10
374.3003
 20
0.6963
 10
374.5158
 20
0.7542
 10
374.7349
 20
0.7957
 10
374.9577
 20
0.8205
 10
375.1841
 20
0.8288
 10
375.4052
 20
0.8244
 10
375.6116
 20
0.8114
 10
375.8031
 20
0.7895
 10
375.98
 20
0.759
 10
376.1421
 20
0.7197
 10
376.2895
 20
0.6716
 10
376.4221
 20
0.6148
 10
376.54
 20
0.5492
 10
376.8368
 20
0.3295
 10
377.094
 20
0.0721
 10
377.3118
 20
-0.2231
 10
377.4899
 20
-0.556
 10
377.6285
 20
-0.9267
 10
377.7276
 20
-1.3351
 10
377.787
 20
-1.7813
 10
377.8068
 20
-2.2652
 10
377.8068
 20
-10.3692
  0
LWPOLYLINE
  5
79
330
1F
100
AcDbEntity
  8
Layer 1
 62
     7
100
AcDbPolyline
 90
      165
 70
     1
 43
0.0
 10
400.2886
 20
-10.3692
 10
402.3508
 20
-10.3692
 10
402.3508
 20
-2.2652
 10
402.334
 20
-1.727
 10
402.2836
 20
-1.2142
 10
402.1997
 20
-0.7268
 10
402.0822
 20
-0.2647
 10
401.931
 20
0.172
 10
401.7463
 20
0.5834
 10
401.5279
 20
0.9694
 10
401.2759
 20
1.3301
 10
401.1352
 20
1.5026
 10
400.9858
 20
1.6662
 10
400.8276
 20
1.8212
 10
400.6607
 20
1.9673
 10
400.485
 20
2.1047
 10
400.3006
 20
2.2334
 10
400.1074
 20
2.3533
 10
399.9055
 20
2.4645
 10
399.691
 20
2.5647
 10
399.4599
 20
2.6515
 10
399.2122
 20
2.725
 10
398.9479
 20
2.7851
 10
398.6671
 20
2.8318
 10
398.3697
 20
2.8652
 10
398.0557
 20
2.8852
 10
397.7252
 20
2.8919
 10
397.3917
 20
2.8804
 10
397.0687
 20
2.8459
 10
396.7564
 20
2.7884
 10
396.4546
 20
2.7078
 10
396.1633
 20
2.6042
 10
395.8827
 20
2.4776
 10
395.6126
 20
2.3279
 10
395.3531
 20
2.1552
 10
395.1279
 20
1.983
 10
394.9129
 20
1.7981
 10
394.708
 20
1.6005
 10
394.5132
 20
1.3903
 10
394.3286
 20
1.1677
 10
394.1541
 20
0.9328
 10
393.9898
 20
0.6857
 10
393.8356
 20
0.4265
 10
393.7159
 20
0.6656
 10
393.5852
 20
0.8966
 10
393.4436
 20
1.1184
 10
393.2909
 20
1.3301
 10
393.1502
 20
1.5026
 10
393.0008
 20
1.6662
 10
392.8426
 20
1.8212
 10
392.6757
 20
1.9673
 10
392.5
 20
2.1047
 10
392.3155
 20
2.2334
 10
392.1223
 20
2.3533
 10
391.9204
 20
2.4645
 10
391.7059
 20
2.5647
 10
391.4748
 20
2.6515
 10
391.2271
 20
2.725
 10
390.9629
 20
2.7851
 10
390.6821
 20
2.8318
 10
390.3847
 20
2.8652
 10
390.0707
 20
2.8852
 10
389.7402
 20
2.8919
 10
389.4067
 20
2.8804
 10
389.0837
 20
2.8459
 10
388.7713
 20
2.7884
 10
388.4695
 20
2.7078
 10
388.1783
 20
2.6042
 10
387.8976
 20
2.4776
 10
387.6275
 20
2.3279
 10
387.368
 20
2.1552
 10
387.1535
 20
1.9913
 10
386.9482
 20
1.8163
 10
386.7521
 20
1.6301
 10
386.5652
 20
1.4326
 10
386.3875
 20
1.2238
 10
386.2189
 20
1.0037
 10
386.0595
 20
0.7723
 10
385.9093
 20
0.5294
 10
385.9093
 20
2.5971
 10
383.8471
 20
2.5971
 10
383.8471
 20
-10.3692
 10
385.9093
 20
-10.3692
 10
385.9093
 20
-3.7333
 10
385.9572
 20
-3.3469
 10
386.0198
 20
-2.9755
 10
386.0972
 20
-2.619
 10
386.1893
 20
-2.2774
 10
386.2961
 20
-1.9504
 10
386.4178
 20
-1.6381
 10
386.5541
 20
-1.3403
 10
386.7053
 20
-1.0568
 10
386.8281
 20
-0.8552
 10
386.9611
 20
-0.6627
 10
387.1043
 20
-0.4795
 10
387.2576
 20
-0.3055
 10
387.421
 20
-0.1406
 10
387.5946
 20
0.015
 10
387.7783
 20
0.1614
 10
387.9721
 20
0.2986
 10
388.1728
 20
0.4229
 10
388.3772
 20
0.5306
 10
388.5852
 20
0.6217
 10
388.797
 20
0.6963
 10
389.0125
 20
0.7542
 10
389.2316
 20
0.7957
 10
389.4544
 20
0.8205
 10
389.6808
 20
0.8288
 10
389.9019
 20
0.8244
 10
390.1083
 20
0.8114
 10
390.2999
 20
0.7895
 10
390.4768
 20
0.759
 10
390.6389
 20
0.7197
 10
390.7862
 20
0.6716
 10
390.9188
 20
0.6148
 10
391.0367
 20
0.5492
 10
391.3335
 20
0.3295
 10
391.5908
 20
0.0721
 10
391.8085
 20
-0.2231
 10
391.9867
 20
-0.556
 10
392.1253
 20
-0.9267
 10
392.2244
 20
-1.3351
 10
392.2838
 20
-1.7813
 10
392.3036
 20
-2.2652
 10
392.3036
 20
-10.3692
 10
394.3658
 20
-10.3692
 10
394.3658
 20
-2.2652
 10
394.3513
 20
-1.7692
 10
394.4277
 20
-1.5813
 10
394.5097
 20
-1.4001
 10
394.5972
 20
-1.2254
 10
394.6903
 20
-1.0568
 10
394.8131
 20
-0.8552
 10
394.9461
 20
-0.6627
 10
395.0893
 20
-0.4795
 10
395.2426
 20
-0.3055
 10
395.406
 20
-0.1406
 10
395.5796
 20
0.015
 10
395.7633
 20
0.1614
 10
395.9571
 20
0.2986
 10
396.1578
 20
0.4229
 10
396.3622
 20
0.5306
 10
396.5703
 20
0.6217
 10
396.7821
 20
0.6963
 10
396.9976
 20
0.7542
 10
397.2167
 20
0.7957
 10
397.4395
 20
0.8205
 10
397.6659
 20
0.8288
 10
397.887
 20
0.8244
 10
398.0934
 20
0.8114
 10
398.2849
 20
0.7895
 10
398.4618
 20
0.759
 10
398.6239
 20
0.7197
 10
398.7713
 20
0.6716
 10
398.9039
 20
0.6148
 10
399.0218
 20
0.5492
 10
399.3186
 20
0.3295
 10
399.5758
 20
0.0721
 10
399.7936
 20
-0.2231
 10
399.9717
 20
-0.556
 10
400.1103
 20
-0.9267
 10
400.2094
 20
-1.3351
 10
400.2688
 20
-1.7813
 10
400.2886
 20
-2.2652
 10
400.2886
 20
-10.3692
  0
ENDSEC
  0
SECTION
  2
OBJECTS
  0
DICTIONARY
  5
C
330
0
100
AcDbDictionary
281
     1
  3
ACAD_DETAILVIEWSTYLE
350
81
  3
ACAD_GROUP
350
D
  3
ACAD_LAYOUT
350
1A
  3
ACAD_MATERIAL
350
43
  3
ACAD_MLEADERSTYLE
350
5B
  3
ACAD_MLINESTYLE
350
17
  3
ACAD_PLOTSETTINGS
350
19
  3
ACAD_PLOTSTYLENAME
350
E
  3
ACAD_SCALELIST
350
47
  3
ACAD_SECTIONVIEWSTYLE
350
82
  3
ACAD_TABLESTYLE
350
59
  3
ACAD_VISUALSTYLE
350
2A
  3
ACDB_RECOMPOSE_DATA
350
7E
  3
AcDbVariableDictionary
350
7A
  0
SUN
  5
5D
330
29
100
AcDbSun
 90
        1
290
     0
 63
     7
421
 16777215
 40
1.0
291
     1
 91
  2455826
 92
 54000000
292
     0
 70
     2
 71
   256
280
     1
  0
DICTIONARY
  5
81
102
{ACAD_REACTORS
330
C
102
}
330
C
100
AcDbDictionary
281
     1
  0
DICTIONARY
  5
D
102
{ACAD_REACTORS
330
C
102
}
330
C
100
AcDbDictionary
281
     1
  0
DICTIONARY
  5
1A
102
{ACAD_REACTORS
330
C
102
}
330
C
100
AcDbDictionary
281
     1
  3
Layout1
350
1E
  3
Layout2
350
26
  3
Model
350
22
  0
DICTIONARY
  5
43
102
{ACAD_REACTORS
330
C
102
}
330
C
100
AcDbDictionary
281
     1
  3
ByBlock
350
45
  3
ByLayer
350
44
  3
Global
350
46
  0
DICTIONARY
  5
5B
102
{ACAD_REACTORS
330
C
102
}
330
C
100
AcDbDictionary
281
     1
  3
Standard
350
5C
  0
DICTIONARY
  5
17
102
{ACAD_REACTORS
330
C
102
}
330
C
100
AcDbDictionary
281
     1
  3
Standard
350
18
  0
DICTIONARY
  5
19
102
{ACAD_REACTORS
330
C
102
}
330
C
100
AcDbDictionary
281
     1
  0
ACDBDICTIONARYWDFLT
  5
E
102
{ACAD_REACTORS
330
C
102
}
330
C
100
AcDbDictionary
281
     1
  3
Normal
350
F
100
AcDbDictionaryWithDefault
340
F
  0
DICTIONARY
  5
47
102
{ACAD_REACTORS
330
C
102
}
330
C
100
AcDbDictionary
281
     1
  3
A0
350
48
  3
A1
350
49
  3
A2
350
4A
  3
A3
350
4B
  3
A4
350
4C
  3
A5
350
4D
  3
A6
350
4E
  3
A7
350
4F
  3
A8
350
50
  3
A9
350
51
  3
B1
350
52
  3
B2
350
53
  3
B3
350
54
  3
B4
350
55
  3
B5
350
56
  3
B6
350
57
  3
B7
350
58
  0
DICTIONARY
  5
82
102
{ACAD_REACTORS
330
C
102
}
330
C
100
AcDbDictionary
281
     1
  0
DICTIONARY
  5
59
102
{ACAD_REACTORS
330
C
102
}
330
C
100
AcDbDictionary
281
     1
  3
Standard
350
5A
  0
DICTIONARY
  5
2A
102
{ACAD_REACTORS
330
C
102
}
330
C
100
AcDbDictionary
281
     1
  3
2dWireframe
350
2F
  3
Basic
350
32
  3
Brighten
350
36
  3
ColorChange
350
3A
  3
Conceptual
350
34
  3
Dim
350
35
  3
EdgeColorOff
350
3D
  3
Facepattern
350
39
  3
Flat
350
2B
  3
FlatWithEdges
350
2C
  3
Gouraud
350
2D
  3
GouraudWithEdges
350
2E
  3
Hidden
350
31
  3
JitterOff
350
3B
  3
Linepattern
350
38
  3
OverhangOff
350
3C
  3
Realistic
350
33
  3
Shaded
350
42
  3
Shaded with edges
350
41
  3
Shades of Gray
350
3E
  3
Sketchy
350
3F
  3
Thicken
350
37
  3
Wireframe
350
30
  3
X-Ray
350
40
  0
XRECORD
  5
7E
102
{ACAD_REACTORS
330
C
102
}
330
C
100
AcDbXrecord
280
     1
 90
        1
330
5A
  0
DICTIONARY
  5
7A
102
{ACAD_REACTORS
330
C
102
}
330
C
100
AcDbDictionary
281
     1
  3
CANNOSCALE
350
7B
  3
CMLEADERSTYLE
350
80
  3
CTABLESTYLE
350
7F
  0
LAYOUT
  5
1E
102
{ACAD_REACTORS
330
1A
102
}
330
1A
100
AcDbPlotSettings
  1

  2
none_device
  4

  6

 40
0.0
 41
0.0
 42
0.0
 43
0.0
 44
0.0
 45
0.0
 46
0.0
 47
0.0
 48
0.0
 49
0.0
140
0.0
141
0.0
142
1.0
143
1.0
 70
   688
 72
     0
 73
     0
 74
     5
  7

 75
    16
 76
     0
 77
     2
 78
   300
147
1.0
148
0.0
149
0.0
100
AcDbLayout
  1
Layout1
 70
     1
 71
     1
 10
0.0
 20
0.0
 11
12.0
 21
9.0
 12
0.0
 22
0.0
 32
0.0
 14
1.000000000000000E+20
 24
1.000000000000000E+20
 34
1.000000000000000E+20
 15
-1.000000000000000E+20
 25
-1.000000000000000E+20
 35
-1.000000000000000E+20
146
0.0
 13
0.0
 23
0.0
 33
0.0
 16
1.0
 26
0.0
 36
0.0
 17
0.0
 27
1.0
 37
0.0
 76
     0
330
1B
  0
LAYOUT
  5
26
102
{ACAD_REACTORS
330
1A
102
}
330
1A
100
AcDbPlotSettings
  1

  2
none_device
  4

  6

 40
0.0
 41
0.0
 42
0.0
 43
0.0
 44
0.0
 45
0.0
 46
0.0
 47
0.0
 48
0.0
 49
0.0
140
0.0
141
0.0
142
1.0
143
1.0
 70
   688
 72
     0
 73
     0
 74
     5
  7

 75
    16
 76
     0
 77
     2
 78
   300
147
1.0
148
0.0
149
0.0
100
AcDbLayout
  1
Layout2
 70
     1
 71
     2
 10
0.0
 20
0.0
 11
0.0
 21
0.0
 12
0.0
 22
0.0
 32
0.0
 14
0.0
 24
0.0
 34
0.0
 15
0.0
 25
0.0
 35
0.0
146
0.0
 13
0.0
 23
0.0
 33
0.0
 16
1.0
 26
0.0
 36
0.0
 17
0.0
 27
1.0
 37
0.0
 76
     0
330
23
  0
LAYOUT
  5
22
102
{ACAD_REACTORS
330
1A
102
}
330
1A
100
AcDbPlotSettings
  1

  2
none_device
  4
Letter_(8.50_x_11.00_Inches)
  6

 40
6.35
 41
6.35
 42
6.35000508
 43
6.35000508
 44
215.9
 45
279.4
 46
0.0
 47
0.0
 48
0.0
 49
0.0
140
0.0
141
0.0
142
1.0
143
1.0
 70
  1712
 72
     0
 73
     0
 74
     0
  7

 75
     0
 76
     0
 77
     2
 78
   300
147
1.0
148
0.0
149
0.0
100
AcDbLayout
  1
Model
 70
     1
 71
     0
 10
0.0
 20
0.0
 11
12.0
 21
9.0
 12
0.0
 22
0.0
 32
0.0
 14
285.4605
 24
-153.0176
 34
0.0
 15
1017.3043
 25
168.2402
 35
0.0
146
0.0
 13
0.0
 23
0.0
 33
0.0
 16
1.0
 26
0.0
 36
0.0
 17
0.0
 27
1.0
 37
0.0
 76
     0
330
1F
331
29
  0
MATERIAL
  5
45
102
{ACAD_REACTORS
330
43
102
}
330
43
100
AcDbMaterial
  1
ByBlock
 72
     1
 94
      127
  0
MATERIAL
  5
44
102
{ACAD_REACTORS
330
43
102
}
330
43
100
AcDbMaterial
  1
ByLayer
 72
     1
 94
      127
  0
MATERIAL
  5
46
102
{ACAD_REACTORS
330
43
102
}
330
43
100
AcDbMaterial
  1
Global
 72
     1
 94
      127
  0
MLEADERSTYLE
  5
5C
102
{ACAD_REACTORS
330
5B
102
}
330
5B
100
AcDbMLeaderStyle
179
     2
170
     2
171
     1
172
     0
 90
        2
 40
0.0
 41
0.0
173
     1
 91
-1056964608
340
14
 92
       -2
290
     1
 42
0.09
291
     1
 43
0.36
  3
Standard
341
0
 44
0.18
300

342
11
174
     1
178
     6
175
     1
176
     0
 93
-1056964608
 45
0.18
292
     0
297
     0
 46
0.18
343
0
 94
-1056964608
 47
1.0
 49
1.0
140
1.0
293
     1
141
0.0
294
     1
177
     0
142
1.0
295
     0
296
     0
143
0.125
271
     0
272
     9
273
     9
298
     0
  0
MLINESTYLE
  5
18
102
{ACAD_REACTORS
330
17
102
}
330
17
100
AcDbMlineStyle
  2
Standard
 70
     0
  3

 62
   256
 51
90.0
 52
90.0
 71
     2
 49
0.5
 62
   256
  6
BYLAYER
 49
-0.5
 62
   256
  6
BYLAYER
  0
ACDBPLACEHOLDER
  5
F
102
{ACAD_REACTORS
330
E
102
}
330
E
  0
SCALE
  5
48
102
{ACAD_REACTORS
330
47
102
}
330
47
100
AcDbScale
 70
     0
300
1:1
140
1.0
141
1.0
290
     1
  0
SCALE
  5
49
102
{ACAD_REACTORS
330
47
102
}
330
47
100
AcDbScale
 70
     0
300
1/128" = 1'-0"
140
0.0078125
141
12.0
290
     0
  0
SCALE
  5
4A
102
{ACAD_REACTORS
330
47
102
}
330
47
100
AcDbScale
 70
     0
300
1/64" = 1'-0"
140
0.015625
141
12.0
290
     0
  0
SCALE
  5
4B
102
{ACAD_REACTORS
330
47
102
}
330
47
100
AcDbScale
 70
     0
300
1/32" = 1'-0"
140
0.03125
141
12.0
290
     0
  0
SCALE
  5
4C
102
{ACAD_REACTORS
330
47
102
}
330
47
100
AcDbScale
 70
     0
300
1/16" = 1'-0"
140
0.0625
141
12.0
290
     0
  0
SCALE
  5
4D
102
{ACAD_REACTORS
330
47
102
}
330
47
100
AcDbScale
 70
     0
300
3/32" = 1'-0"
140
0.09375
141
12.0
290
     0
  0
SCALE
  5
4E
102
{ACAD_REACTORS
330
47
102
}
330
47
100
AcDbScale
 70
     0
300
1/8" = 1'-0"
140
0.125
141
12.0
290
     0
  0
SCALE
  5
4F
102
{ACAD_REACTORS
330
47
102
}
330
47
100
AcDbScale
 70
     0
300
3/16" = 1'-0"
140
0.1875
141
12.0
290
     0
  0
SCALE
  5
50
102
{ACAD_REACTORS
330
47
102
}
330
47
100
AcDbScale
 70
     0
300
1/4" = 1'-0"
140
0.25
141
12.0
290
     0
  0
SCALE
  5
51
102
{ACAD_REACTORS
330
47
102
}
330
47
100
AcDbScale
 70
     0
300
3/8" = 1'-0"
140
0.375
141
12.0
290
     0
  0
SCALE
  5
52
102
{ACAD_REACTORS
330
47
102
}
330
47
100
AcDbScale
 70
     0
300
1/2" = 1'-0"
140
0.5
141
12.0
290
     0
  0
SCALE
  5
53
102
{ACAD_REACTORS
330
47
102
}
330
47
100
AcDbScale
 70
     0
300
3/4" = 1'-0"
140
0.75
141
12.0
290
     0
  0
SCALE
  5
54
102
{ACAD_REACTORS
330
47
102
}
330
47
100
AcDbScale
 70
     0
300
1" = 1'-0"
140
1.0
141
12.0
290
     0
  0
SCALE
  5
55
102
{ACAD_REACTORS
330
47
102
}
330
47
100
AcDbScale
 70
     0
300
1-1/2" = 1'-0"
140
1.5
141
12.0
290
     0
  0
SCALE
  5
56
102
{ACAD_REACTORS
330
47
102
}
330
47
100
AcDbScale
 70
     0
300
3" = 1'-0"
140
3.0
141
12.0
290
     0
  0
SCALE
  5
57
102
{ACAD_REACTORS
330
47
102
}
330
47
100
AcDbScale
 70
     0
300
6" = 1'-0"
140
6.0
141
12.0
290
     0
  0
SCALE
  5
58
102
{ACAD_REACTORS
330
47
102
}
330
47
100
AcDbScale
 70
     0
300
1'-0" = 1'-0"
140
12.0
141
12.0
290
     0
  0
TABLESTYLE
  5
5A
102
{ACAD_REACTORS
330
59
102
}
102
{ACAD_XDICTIONARY
360
7C
102
}
330
59
100
AcDbTableStyle
  3
Standard
 70
     0
 71
     0
 40
0.06
 41
0.06
280
     0
281
     0
  7
Standard
140
0.18
170
     2
 62
     0
 63
   257
283
     0
 90
        4
 91
        0
  1

274
    -2
284
     1
 64
     0
275
    -2
285
     1
 65
     0
276
    -2
286
     1
 66
     0
277
    -2
287
     1
 67
     0
278
    -2
288
     1
 68
     0
279
    -2
289
     1
 69
     0
  7
Standard
140
0.25
170
     5
 62
     0
 63
   257
283
     0
 90
        4
 91
        0
  1

274
    -2
284
     1
 64
     0
275
    -2
285
     1
 65
     0
276
    -2
286
     1
 66
     0
277
    -2
287
     1
 67
     0
278
    -2
288
     1
 68
     0
279
    -2
289
     1
 69
     0
  7
Standard
140
0.18
170
     5
 62
     0
 63
   257
283
     0
 90
        4
 91
        0
  1

274
    -2
284
     1
 64
     0
275
    -2
285
     1
 65
     0
276
    -2
286
     1
 66
     0
277
    -2
287
     1
 67
     0
278
    -2
288
     1
 68
     0
279
    -2
289
     1
 69
     0
  0
VISUALSTYLE
  5
2F
102
{ACAD_REACTORS
330
2A
102
}
330
2A
100
AcDbVisualStyle
  2
2dWireframe
 70
     4
177
     3
291
     0
 70
    58
 90
        0
176
     1
 90
        2
176
     1
 90
        0
176
     1
 90
        0
176
     1
 40
0.6
176
     1
 40
30.0
176
     1
 62
     7
420
 16777215
176
     1
 90
        1
176
     1
 90
        4
176
     1
 62
     7
176
     1
 62
   257
176
     1
 90
        1
176
     1
 90
        1
176
     1
 40
1.0
176
     1
 90
        0
176
     1
 62
   257
176
     1
 40
1.0
176
     1
 90
        1
176
     1
 90
        6
176
     1
 90
        2
176
     1
 62
     7
176
     1
 90
        5
176
     1
 90
        0
176
     1
 90
        0
176
     1
290
     0
176
     1
 90
        1
176
     1
 40
0.0
176
     1
 90
        0
176
     1
290
     1
176
     1
290
     1
176
     1
290
     0
176
     1
290
     0
176
     1
290
     0
176
     1
290
     0
176
     1
290
     0
176
     1
290
     0
176
     1
290
     0
176
     1
 90
       50
176
     1
 40
0.0
176
     1
 40
1.0
176
     1
 90
        0
176
     1
 62
    18
420
        0
176
     1
 90
       50
176
     1
 90
        3
176
     1
 62
     5
420
      255
176
     1
290
     0
176
     1
 90
       50
176
     1
 90
       50
176
     1
 90
       50
176
     1
290
     0
176
     1
 90
       50
176
     1
 62
   256
176
     0
 40
1.0
176
     0
 90
        2
176
     1
  1
strokes_ogs.tif
176
     1
290
     0
176
     1
 40
1.0
176
     1
 40
1.0
176
     1
  0
VISUALSTYLE
  5
32
102
{ACAD_REACTORS
330
2A
102
}
330
2A
100
AcDbVisualStyle
  2
Basic
 70
     7
177
     3
291
     1
 70
    58
 90
        1
176
     1
 90
        0
176
     1
 90
        1
176
     1
 90
        0
176
     1
 40
0.6
176
     1
 40
30.0
176
     1
 62
     7
420
 16777215
176
     1
 90
        0
176
     1
 90
        4
176
     1
 62
     7
176
     1
 62
   257
176
     1
 90
        1
176
     1
 90
        1
176
     1
 40
1.0
176
     1
 90
        8
176
     1
 62
     7
176
     1
 40
1.0
176
     1
 90
        1
176
     1
 90
        6
176
     1
 90
        2
176
     1
 62
     7
176
     1
 90
        5
176
     1
 90
        0
176
     1
 90
        0
176
     1
290
     0
176
     1
 90
        1
176
     1
 40
0.0
176
     1
 90
        0
176
     1
290
     0
176
     1
290
     1
176
     1
290
     1
176
     1
290
     0
176
     1
290
     0
176
     1
290
     0
176
     1
290
     0
176
     1
290
     0
176
     1
290
     0
176
     1
 90
       50
176
     1
 40
0.0
176
     1
 40
1.0
176
     1
 90
        0
176
     1
 62
    18
420
        0
176
     1
 90
       50
176
     1
 90
        3
176
     1
 62
     5
420
      255
176
     1
290
     0
176
     1
 90
       50
176
     1
 90
       50
176
     1
 90
       50
176
     1
290
     0
176
     1
 90
       50
176
     1
 62
   256
176
     0
 40
1.0
176
     0
 90
        2
176
     1
  1
strokes_ogs.tif
176
     1
290
     0
176
     1
 40
1.0
176
     1
 40
1.0
176
     1
  0
VISUALSTYLE
  5
36
102
{ACAD_REACTORS
330
2A
102
}
330
2A
100
AcDbVisualStyle
  2
Brighten
 70
    12
177
     3
291
     1
 70
    58
 90
        2
176
     1
 90
        2
176
     1
 90
        0
176
     1
 90
        0
176
     1
 40
0.6
176
     1
 40
30.0
176
     1
 62
     7
420
 16777215
176
     1
 90
        1
176
     1
 90
        4
176
     1
 62
     7
176
     1
 62
   257
176
     1
 90
        1
176
     1
 90
        1
176
     1
 40
1.0
176
     1
 90
        8
176
     1
 62
     7
176
     1
 40
1.0
176
     1
 90
        1
176
     1
 90
        6
176
     1
 90
        2
176
     1
 62
     7
176
     1
 90
        5
176
     1
 90
        0
176
     1
 90
        0
176
     1
290
     0
176
     1
 90
        1
176
     1
 40
50.0
176
     1
 90
        0
176
     1
290
     0
176
     1
290
     1
176
     1
290
     1
176
     1
290
     0
176
     1
290
     0
176
     1
290
     0
176
     1
290
     0
176
     1
290
     0
176
     1
290
     0
176
     1
 90
       50
176
     1
 40
0.0
176
     1
 40
1.0
176
     1
 90
        0
176
     1
 62
    18
420
        0
176
     1
 90
       50
176
     1
 90
        3
176
     1
 62
     5
420
      255
176
     1
290
     0
176
     1
 90
       50
176
     1
 90
       50
176
     1
 90
       50
176
     1
290
     0
176
     1
 90
       50
176
     1
 62
   256
176
     0
 40
1.0
176
     0
 90
        2
176
     1
  1
strokes_ogs.tif
176
     1
290
     0
176
     1
 40
1.0
176
     1
 40
1.0
176
     1
  0
VISUALSTYLE
  5
3A
102
{ACAD_REACTORS
330
2A
102
}
330
2A
100
AcDbVisualStyle
  2
ColorChange
 70
    16
177
     3
291
     1
 70
    58
 90
        2
176
     1
 90
        2
176
     1
 90
        3
176
     1
 90
        0
176
     1
 40
0.6
176
     1
 40
30.0
176
     1
 62
     8
420
  8421504
176
     1
 90
        1
176
     1
 90
        4
176
     1
 62
     7
176
     1
 62
   257
176
     1
 90
        1
176
     1
 90
        1
176
     1
 40
1.0
176
     1
 90
        8
176
     1
 62
     8
420
  8421504
176
     1
 40
1.0
176
     1
 90
        1
176
     1
 90
        6
176
     1
 90
        2
176
     1
 62
     7
176
     1
 90
        5
176
     1
 90
        0
176
     1
 90
        0
176
     1
290
     0
176
     1
 90
        1
176
     1
 40
0.0
176
     1
 90
        0
176
     1
290
     0
176
     1
290
     1
176
     1
290
     1
176
     1
290
     0
176
     1
290
     0
176
     1
290
     0
176
     1
290
     0
176
     1
290
     0
176
     1
290
     0
176
     1
 90
       50
176
     1
 40
0.0
176
     1
 40
1.0
176
     1
 90
        0
176
     1
 62
    18
420
        0
176
     1
 90
       50
176
     1
 90
        3
176
     1
 62
     5
420
      255
176
     1
290
     0
176
     1
 90
       50
176
     1
 90
       50
176
     1
 90
       50
176
     1
290
     0
176
     1
 90
       50
176
     1
 62
   256
176
     0
 40
1.0
176
     0
 90
        2
176
     1
  1
strokes_ogs.tif
176
     1
290
     0
176
     1
 40
1.0
176
     1
 40
1.0
176
     1
  0
VISUALSTYLE
  5
34
102
{ACAD_REACTORS
330
2A
102
}
330
2A
100
AcDbVisualStyle
  2
Conceptual
 70
     9
177
     3
291
     0
 70
    58
 90
        3
176
     1
 90
        2
176
     1
 90
        0
176
     1
 90
        0
176
     1
 40
0.6
176
     1
 40
30.0
176
     1
 62
     7
420
 16777215
176
     1
 90
        2
176
     1
 90
        2
176
     1
 62
     7
176
     1
 62
   257
176
     1
 90
        1
176
     1
 90
        1
176
     1
 40
179.0
176
     1
 90
        8
176
     1
 62
     7
176
     1
 40
1.0
176
     1
 90
        1
176
     1
 90
        6
176
     1
 90
        2
176
     1
 62
     7
176
     1
 90
        3
176
     1
 90
        0
176
     1
 90
        0
176
     1
290
     0
176
     1
 90
        1
176
     1
 40
0.0
176
     1
 90
        0
176
     1
290
     0
176
     1
290
     1
176
     1
290
     1
176
     1
290
     0
176
     1
290
     0
176
     1
290
     0
176
     1
290
     0
176
     1
290
     0
176
     1
290
     0
176
     1
 90
       50
176
     1
 40
0.0
176
     1
 40
1.0
176
     1
 90
        0
176
     1
 62
    18
420
        0
176
     1
 90
       50
176
     1
 90
        3
176
     1
 62
     5
420
      255
176
     1
290
     0
176
     1
 90
       50
176
     1
 90
       50
176
     1
 90
       50
176
     1
290
     0
176
     1
 90
       50
176
     1
 62
   256
176
     0
 40
1.0
176
     0
 90
        2
176
     1
  1
strokes_ogs.tif
176
     1
290
     0
176
     1
 40
1.0
176
     1
 40
1.0
176
     1
  0
VISUALSTYLE
  5
35
102
{ACAD_REACTORS
330
2A
102
}
330
2A
100
AcDbVisualStyle
  2
Dim
 70
    11
177
     3
291
     1
 70
    58
 90
        2
176
     1
 90
        2
176
     1
 90
        0
176
     1
 90
        0
176
     1
 40
0.6
176
     1
 40
30.0
176
     1
 62
     7
420
 16777215
176
     1
 90
        1
176
     1
 90
        4
176
     1
 62
     7
176
     1
 62
   257
176
     1
 90
        1
176
     1
 90
        1
176
     1
 40
1.0
176
     1
 90
        8
176
     1
 62
     7
176
     1
 40
1.0
176
     1
 90
        1
176
     1
 90
        6
176
     1
 90
        2
176
     1
 62
     7
176
     1
 90
        5
176
     1
 90
        0
176
     1
 90
        0
176
     1
290
     0
176
     1
 90
        1
176
     1
 40
-50.0
176
     1
 90
        0
176
     1
290
     0
176
     1
290
     1
176
     1
290
     1
176
     1
290
     0
176
     1
290
     0
176
     1
290
     0
176
     1
290
     0
176
     1
290
     0
176
     1
290
     0
176
     1
 90
       50
176
     1
 40
0.0
176
     1
 40
1.0
176
     1
 90
        0
176
     1
 62
    18
420
        0
176
     1
 90
       50
176
     1
 90
        3
176
     1
 62
     5
420
      255
176
     1
290
     0
176
     1
 90
       50
176
     1
 90
       50
176
     1
 90
       50
176
     1
290
     0
176
     1
 90
       50
176
     1
 62
   256
176
     0
 40
1.0
176
     0
 90
        2
176
     1
  1
strokes_ogs.tif
176
     1
290
     0
176
     1
 40
1.0
176
     1
 40
1.0
176
     1
  0
VISUALSTYLE
  5
3D
102
{ACAD_REACTORS
330
2A
102
}
330
2A
100
AcDbVisualStyle
  2
EdgeColorOff
 70
    22
177
     3
291
     1
 70
    58
 90
        2
176
     0
 90
        2
176
     0
 90
        0
176
     0
 90
        0
176
     0
 40
0.6
176
     0
 40
30.0
176
     0
 62
     7
420
 16777215
176
     0
 90
        1
176
     0
 90
        4
176
     0
 62
     7
176
     0
 62
   257
176
     0
 90
        1
176
     0
 90
        1
176
     0
 40
1.0
176
     0
 90
        8
176
     2
 62
     7
176
     0
 40
1.0
176
     0
 90
        1
176
     0
 90
        6
176
     0
 90
        2
176
     0
 62
     7
176
     0
 90
        5
176
     0
 90
        0
176
     0
 90
        0
176
     0
290
     0
176
     0
 90
        1
176
     0
 40
0.0
176
     0
 90
        0
176
     0
290
     0
176
     0
290
     1
176
     0
290
     1
176
     0
290
     0
176
     0
290
     0
176
     0
290
     0
176
     0
290
     0
176
     0
290
     0
176
     0
290
     0
176
     0
 90
       50
176
     0
 40
0.0
176
     0
 40
1.0
176
     0
 90
        0
176
     0
 62
    18
420
        0
176
     0
 90
       50
176
     0
 90
        3
176
     0
 62
     5
420
      255
176
     0
290
     0
176
     0
 90
       50
176
     0
 90
       50
176
     0
 90
       50
176
     0
290
     0
176
     0
 90
       50
176
     0
 62
   256
176
     0
 40
1.0
176
     0
 90
        2
176
     0
  1
strokes_ogs.tif
176
     0
290
     0
176
     0
 40
1.0
176
     0
 40
1.0
176
     0
  0
VISUALSTYLE
  5
39
102
{ACAD_REACTORS
330
2A
102
}
330
2A
100
AcDbVisualStyle
  2
Facepattern
 70
    15
177
     3
291
     1
 70
    58
 90
        2
176
     1
 90
        2
176
     1
 90
        0
176
     1
 90
        0
176
     1
 40
0.6
176
     1
 40
30.0
176
     1
 62
     7
420
 16777215
176
     1
 90
        1
176
     1
 90
        4
176
     1
 62
     7
176
     1
 62
   257
176
     1
 90
        1
176
     1
 90
        1
176
     1
 40
1.0
176
     1
 90
        8
176
     1
 62
     7
176
     1
 40
1.0
176
     1
 90
        1
176
     1
 90
        6
176
     1
 90
        2
176
     1
 62
     7
176
     1
 90
        5
176
     1
 90
        0
176
     1
 90
        0
176
     1
290
     0
176
     1
 90
        1
176
     1
 40
0.0
176
     1
 90
        0
176
     1
290
     0
176
     1
290
     1
176
     1
290
     1
176
     1
290
     0
176
     1
290
     0
176
     1
290
     0
176
     1
290
     0
176
     1
290
     0
176
     1
290
     0
176
     1
 90
       50
176
     1
 40
0.0
176
     1
 40
1.0
176
     1
 90
        0
176
     1
 62
    18
420
        0
176
     1
 90
       50
176
     1
 90
        3
176
     1
 62
     5
420
      255
176
     1
290
     0
176
     1
 90
       50
176
     1
 90
       50
176
     1
 90
       50
176
     1
290
     0
176
     1
 90
       50
176
     1
 62
   256
176
     0
 40
1.0
176
     0
 90
        2
176
     1
  1
strokes_ogs.tif
176
     1
290
     0
176
     1
 40
1.0
176
     1
 40
1.0
176
     1
  0
VISUALSTYLE
  5
2B
102
{ACAD_REACTORS
330
2A
102
}
330
2A
100
AcDbVisualStyle
  2
Flat
 70
     0
177
     3
291
     1
 70
    58
 90
        2
176
     1
 90
        1
176
     1
 90
        1
176
     1
 90
        2
176
     1
 40
0.6
176
     1
 40
30.0
176
     1
 62
     7
420
 16777215
176
     1
 90
        0
176
     1
 90
        0
176
     1
 62
     7
176
     1
 62
   257
176
     1
 90
        1
176
     1
 90
        1
176
     1
 40
1.0
176
     1
 90
        8
176
     1
 62
     7
176
     1
 40
1.0
176
     1
 90
        1
176
     1
 90
        6
176
     1
 90
        2
176
     1
 62
     7
176
     1
 90
        5
176
     1
 90
        0
176
     1
 90
        0
176
     1
290
     0
176
     1
 90
       13
176
     1
 40
0.0
176
     1
 90
        0
176
     1
290
     0
176
     1
290
     1
176
     1
290
     1
176
     1
290
     0
176
     1
290
     0
176
     1
290
     0
176
     1
290
     0
176
     1
290
     0
176
     1
290
     0
176
     1
 90
       50
176
     1
 40
0.0
176
     1
 40
1.0
176
     1
 90
        0
176
     1
 62
    18
420
        0
176
     1
 90
       50
176
     1
 90
        3
176
     1
 62
     5
420
      255
176
     1
290
     0
176
     1
 90
       50
176
     1
 90
       50
176
     1
 90
       50
176
     1
290
     0
176
     1
 90
       50
176
     1
 62
   256
176
     0
 40
1.0
176
     0
 90
        2
176
     1
  1
strokes_ogs.tif
176
     1
290
     0
176
     1
 40
1.0
176
     1
 40
1.0
176
     1
  0
VISUALSTYLE
  5
2C
102
{ACAD_REACTORS
330
2A
102
}
330
2A
100
AcDbVisualStyle
  2
FlatWithEdges
 70
     1
177
     3
291
     1
 70
    58
 90
        2
176
     1
 90
        1
176
     1
 90
        1
176
     1
 90
        2
176
     1
 40
0.6
176
     1
 40
30.0
176
     1
 62
     7
420
 16777215
176
     1
 90
        1
176
     1
 90
        0
176
     1
 62
     7
176
     1
 62
   257
176
     1
 90
        1
176
     1
 90
        1
176
     1
 40
1.0
176
     1
 90
        0
176
     1
 62
   257
176
     1
 40
1.0
176
     1
 90
        1
176
     1
 90
        6
176
     1
 90
        2
176
     1
 62
     7
176
     1
 90
        5
176
     1
 90
        0
176
     1
 90
        0
176
     1
290
     0
176
     1
 90
       13
176
     1
 40
0.0
176
     1
 90
        0
176
     1
290
     0
176
     1
290
     1
176
     1
290
     1
176
     1
290
     0
176
     1
290
     0
176
     1
290
     0
176
     1
290
     0
176
     1
290
     0
176
     1
290
     0
176
     1
 90
       50
176
     1
 40
0.0
176
     1
 40
1.0
176
     1
 90
        0
176
     1
 62
    18
420
        0
176
     1
 90
       50
176
     1
 90
        3
176
     1
 62
     5
420
      255
176
     1
290
     0
176
     1
 90
       50
176
     1
 90
       50
176
     1
 90
       50
176
     1
290
     0
176
     1
 90
       50
176
     1
 62
   256
176
     0
 40
1.0
176
     0
 90
        2
176
     1
  1
strokes_ogs.tif
176
     1
290
     0
176
     1
 40
1.0
176
     1
 40
1.0
176
     1
  0
VISUALSTYLE
  5
2D
102
{ACAD_REACTORS
330
2A
102
}
330
2A
100
AcDbVisualStyle
  2
Gouraud
 70
     2
177
     3
291
     1
 70
    58
 90
        2
176
     1
 90
        2
176
     1
 90
        1
176
     1
 90
        2
176
     1
 40
0.6
176
     1
 40
30.0
176
     1
 62
     7
420
 16777215
176
     1
 90
        0
176
     1
 90
        0
176
     1
 62
     7
176
     1
 62
   257
176
     1
 90
        1
176
     1
 90
        1
176
     1
 40
1.0
176
     1
 90
        0
176
     1
 62
     7
176
     1
 40
1.0
176
     1
 90
        1
176
     1
 90
        6
176
     1
 90
        2
176
     1
 62
     7
176
     1
 90
        5
176
     1
 90
        0
176
     1
 90
        0
176
     1
290
     0
176
     1
 90
       13
176
     1
 40
0.0
176
     1
 90
        0
176
     1
290
     0
176
     1
290
     1
176
     1
290
     1
176
     1
290
     0
176
     1
290
     0
176
     1
290
     0
176
     1
290
     0
176
     1
290
     0
176
     1
290
     0
176
     1
 90
       50
176
     1
 40
0.0
176
     1
 40
1.0
176
     1
 90
        0
176
     1
 62
    18
420
        0
176
     1
 90
       50
176
     1
 90
        3
176
     1
 62
     5
420
      255
176
     1
290
     0
176
     1
 90
       50
176
     1
 90
       50
176
     1
 90
       50
176
     1
290
     0
176
     1
 90
       50
176
     1
 62
   256
176
     0
 40
1.0
176
     0
 90
        2
176
     1
  1
strokes_ogs.tif
176
     1
290
     0
176
     1
 40
1.0
176
     1
 40
1.0
176
     1
  0
VISUALSTYLE
  5
2E
102
{ACAD_REACTORS
330
2A
102
}
330
2A
100
AcDbVisualStyle
  2
GouraudWithEdges
 70
     3
177
     3
291
     1
 70
    58
 90
        2
176
     1
 90
        2
176
     1
 90
        1
176
     1
 90
        2
176
     1
 40
0.6
176
     1
 40
30.0
176
     1
 62
     7
420
 16777215
176
     1
 90
        1
176
     1
 90
        0
176
     1
 62
     7
176
     1
 62
   257
176
     1
 90
        1
176
     1
 90
        1
176
     1
 40
1.0
176
     1
 90
        0
176
     1
 62
   257
176
     1
 40
1.0
176
     1
 90
        1
176
     1
 90
        6
176
     1
 90
        2
176
     1
 62
     7
176
     1
 90
        5
176
     1
 90
        0
176
     1
 90
        0
176
     1
290
     0
176
     1
 90
       13
176
     1
 40
0.0
176
     1
 90
        0
176
     1
290
     0
176
     1
290
     1
176
     1
290
     1
176
     1
290
     0
176
     1
290
     0
176
     1
290
     0
176
     1
290
     0
176
     1
290
     0
176
     1
290
     0
176
     1
 90
       50
176
     1
 40
0.0
176
     1
 40
1.0
176
     1
 90
        0
176
     1
 62
    18
420
        0
176
     1
 90
       50
176
     1
 90
        3
176
     1
 62
     5
420
      255
176
     1
290
     0
176
     1
 90
       50
176
     1
 90
       50
176
     1
 90
       50
176
     1
290
     0
176
     1
 90
       50
176
     1
 62
   256
176
     0
 40
1.0
176
     0
 90
        2
176
     1
  1
strokes_ogs.tif
176
     1
290
     0
176
     1
 40
1.0
176
     1
 40
1.0
176
     1
  0
VISUALSTYLE
  5
31
102
{ACAD_REACTORS
330
2A
102
}
330
2A
100
AcDbVisualStyle
  2
Hidden
 70
     6
177
     3
291
     0
 70
    58
 90
        1
176
     1
 90
        2
176
     1
 90
        2
176
     1
 90
        0
176
     1
 40
0.6
176
     1
 40
30.0
176
     1
 62
     7
420
 16777215
176
     1
 90
        2
176
     1
 90
        2
176
     1
 62
     7
176
     1
 62
   257
176
     1
 90
        2
176
     1
 90
        1
176
     1
 40
40.0
176
     1
 90
        0
176
     1
 62
   257
176
     1
 40
1.0
176
     1
 90
        1
176
     1
 90
        6
176
     1
 90
        2
176
     1
 62
     7
176
     1
 90
        3
176
     1
 90
        0
176
     1
 90
        0
176
     1
290
     0
176
     1
 90
        1
176
     1
 40
0.0
176
     1
 90
        0
176
     1
290
     0
176
     1
290
     1
176
     1
290
     1
176
     1
290
     0
176
     1
290
     0
176
     1
290
     0
176
     1
290
     0
176
     1
290
     0
176
     1
290
     0
176
     1
 90
       50
176
     1
 40
0.0
176
     1
 40
1.0
176
     1
 90
        0
176
     1
 62
    18
420
        0
176
     1
 90
       50
176
     1
 90
        3
176
     1
 62
     5
420
      255
176
     1
290
     0
176
     1
 90
       50
176
     1
 90
       50
176
     1
 90
       50
176
     1
290
     0
176
     1
 90
       50
176
     1
 62
   256
176
     0
 40
1.0
176
     0
 90
        2
176
     1
  1
strokes_ogs.tif
176
     1
290
     0
176
     1
 40
1.0
176
     1
 40
1.0
176
     1
  0
VISUALSTYLE
  5
3B
102
{ACAD_REACTORS
330
2A
102
}
330
2A
100
AcDbVisualStyle
  2
JitterOff
 70
    20
177
     3
291
     1
 70
    58
 90
        2
176
     0
 90
        2
176
     0
 90
        0
176
     0
 90
        0
176
     0
 40
0.6
176
     0
 40
30.0
176
     0
 62
     7
420
 16777215
176
     0
 90
        1
176
     0
 90
        4
176
     0
 62
     7
176
     0
 62
   257
176
     0
 90
        1
176
     0
 90
        1
176
     0
 40
1.0
176
     0
 90
       10
176
     2
 62
     7
176
     0
 40
1.0
176
     0
 90
        1
176
     0
 90
        6
176
     0
 90
        2
176
     0
 62
     7
176
     0
 90
        5
176
     0
 90
        0
176
     0
 90
        0
176
     0
290
     0
176
     0
 90
        1
176
     0
 40
0.0
176
     0
 90
        0
176
     0
290
     0
176
     0
290
     1
176
     0
290
     1
176
     0
290
     0
176
     0
290
     0
176
     0
290
     0
176
     0
290
     0
176
     0
290
     0
176
     0
290
     0
176
     0
 90
       50
176
     0
 40
0.0
176
     0
 40
1.0
176
     0
 90
        0
176
     0
 62
    18
420
        0
176
     0
 90
       50
176
     0
 90
        3
176
     0
 62
     5
420
      255
176
     0
290
     0
176
     0
 90
       50
176
     0
 90
       50
176
     0
 90
       50
176
     0
290
     0
176
     0
 90
       50
176
     0
 62
   256
176
     0
 40
1.0
176
     0
 90
        2
176
     0
  1
strokes_ogs.tif
176
     0
290
     0
176
     0
 40
1.0
176
     0
 40
1.0
176
     0
  0
VISUALSTYLE
  5
38
102
{ACAD_REACTORS
330
2A
102
}
330
2A
100
AcDbVisualStyle
  2
Linepattern
 70
    14
177
     3
291
     1
 70
    58
 90
        2
176
     1
 90
        2
176
     1
 90
        0
176
     1
 90
        0
176
     1
 40
0.6
176
     1
 40
30.0
176
     1
 62
     7
420
 16777215
176
     1
 90
        1
176
     1
 90
        4
176
     1
 62
     7
176
     1
 62
   257
176
     1
 90
        7
176
     1
 90
        7
176
     1
 40
1.0
176
     1
 90
        8
176
     1
 62
     7
176
     1
 40
1.0
176
     1
 90
        1
176
     1
 90
        6
176
     1
 90
        2
176
     1
 62
     7
176
     1
 90
        5
176
     1
 90
        0
176
     1
 90
        0
176
     1
290
     0
176
     1
 90
        1
176
     1
 40
0.0
176
     1
 90
        0
176
     1
290
     0
176
     1
290
     1
176
     1
290
     1
176
     1
290
     0
176
     1
290
     0
176
     1
290
     0
176
     1
290
     0
176
     1
290
     0
176
     1
290
     0
176
     1
 90
       50
176
     1
 40
0.0
176
     1
 40
1.0
176
     1
 90
        0
176
     1
 62
    18
420
        0
176
     1
 90
       50
176
     1
 90
        3
176
     1
 62
     5
420
      255
176
     1
290
     0
176
     1
 90
       50
176
     1
 90
       50
176
     1
 90
       50
176
     1
290
     0
176
     1
 90
       50
176
     1
 62
   256
176
     0
 40
1.0
176
     0
 90
        2
176
     1
  1
strokes_ogs.tif
176
     1
290
     0
176
     1
 40
1.0
176
     1
 40
1.0
176
     1
  0
VISUALSTYLE
  5
3C
102
{ACAD_REACTORS
330
2A
102
}
330
2A
100
AcDbVisualStyle
  2
OverhangOff
 70
    21
177
     3
291
     1
 70
    58
 90
        2
176
     0
 90
        2
176
     0
 90
        0
176
     0
 90
        0
176
     0
 40
0.6
176
     0
 40
30.0
176
     0
 62
     7
420
 16777215
176
     0
 90
        1
176
     0
 90
        4
176
     0
 62
     7
176
     0
 62
   257
176
     0
 90
        1
176
     0
 90
        1
176
     0
 40
1.0
176
     0
 90
        9
176
     2
 62
     7
176
     0
 40
1.0
176
     0
 90
        1
176
     0
 90
        6
176
     0
 90
        2
176
     0
 62
     7
176
     0
 90
        5
176
     0
 90
        0
176
     0
 90
        0
176
     0
290
     0
176
     0
 90
        1
176
     0
 40
0.0
176
     0
 90
        0
176
     0
290
     0
176
     0
290
     1
176
     0
290
     1
176
     0
290
     0
176
     0
290
     0
176
     0
290
     0
176
     0
290
     0
176
     0
290
     0
176
     0
290
     0
176
     0
 90
       50
176
     0
 40
0.0
176
     0
 40
1.0
176
     0
 90
        0
176
     0
 62
    18
420
        0
176
     0
 90
       50
176
     0
 90
        3
176
     0
 62
     5
420
      255
176
     0
290
     0
176
     0
 90
       50
176
     0
 90
       50
176
     0
 90
       50
176
     0
290
     0
176
     0
 90
       50
176
     0
 62
   256
176
     0
 40
1.0
176
     0
 90
        2
176
     0
  1
strokes_ogs.tif
176
     0
290
     0
176
     0
 40
1.0
176
     0
 40
1.0
176
     0
  0
VISUALSTYLE
  5
33
102
{ACAD_REACTORS
330
2A
102
}
330
2A
100
AcDbVisualStyle
  2
Realistic
 70
     8
177
     3
291
     0
 70
    58
 90
        2
176
     1
 90
        3
176
     1
 90
        0
176
     1
 90
        2
176
     1
 40
0.6
176
     1
 40
30.0
176
     1
 62
     7
420
 16777215
176
     1
 90
        0
176
     1
 90
        0
176
     1
 62
     7
176
     1
 62
   257
176
     1
 90
        1
176
     1
 90
        1
176
     1
 40
1.0
176
     1
 90
        8
176
     1
 62
   257
176
     1
 40
1.0
176
     1
 90
        1
176
     1
 90
        6
176
     1
 90
        2
176
     1
 62
     7
176
     1
 90
        3
176
     1
 90
        0
176
     1
 90
        0
176
     1
290
     0
176
     1
 90
       13
176
     1
 40
0.0
176
     1
 90
        0
176
     1
290
     0
176
     1
290
     1
176
     1
290
     1
176
     1
290
     0
176
     1
290
     0
176
     1
290
     0
176
     1
290
     0
176
     1
290
     0
176
     1
290
     0
176
     1
 90
       50
176
     1
 40
0.0
176
     1
 40
1.0
176
     1
 90
        0
176
     1
 62
    18
420
        0
176
     1
 90
       50
176
     1
 90
        3
176
     1
 62
     5
420
      255
176
     1
290
     0
176
     1
 90
       50
176
     1
 90
       50
176
     1
 90
       50
176
     1
290
     0
176
     1
 90
       50
176
     1
 62
   256
176
     0
 40
1.0
176
     0
 90
        2
176
     1
  1
strokes_ogs.tif
176
     1
290
     0
176
     1
 40
1.0
176
     1
 40
1.0
176
     1
  0
VISUALSTYLE
  5
42
102
{ACAD_REACTORS
330
2A
102
}
330
2A
100
AcDbVisualStyle
  2
Shaded
 70
    27
177
     3
291
     0
 70
    58
 90
        2
176
     1
 90
        2
176
     1
 90
        1
176
     1
 90
        2
176
     1
 40
0.6
176
     1
 40
30.0
176
     1
 62
     7
420
 16777215
176
     1
 90
        0
176
     1
 90
        4
176
     1
 62
     7
176
     1
 62
   257
176
     1
 90
        1
176
     1
 90
        1
176
     1
 40
1.0
176
     1
 90
        8
176
     1
 62
   257
176
     1
 40
1.0
176
     1
 90
        1
176
     1
 90
        6
176
     1
 90
        2
176
     1
 62
     8
420
  7895160
176
     1
 90
        3
176
     1
 90
        0
176
     1
 90
        0
176
     1
290
     0
176
     1
 90
        5
176
     1
 40
0.0
176
     1
 90
        0
176
     1
290
     0
176
     1
290
     1
176
     1
290
     1
176
     1
290
     0
176
     1
290
     0
176
     1
290
     0
176
     1
290
     0
176
     1
290
     0
176
     1
290
     0
176
     1
 90
       50
176
     1
 40
0.0
176
     1
 40
1.0
176
     1
 90
        0
176
     1
 62
    18
420
        0
176
     1
 90
       50
176
     1
 90
        3
176
     1
 62
     5
420
      255
176
     1
290
     0
176
     1
 90
       50
176
     1
 90
       50
176
     1
 90
       50
176
     1
290
     0
176
     1
 90
       50
176
     1
 62
   256
176
     0
 40
1.0
176
     0
 90
        2
176
     1
  1
strokes_ogs.tif
176
     1
290
     0
176
     1
 40
1.0
176
     1
 40
1.0
176
     1
  0
VISUALSTYLE
  5
41
102
{ACAD_REACTORS
330
2A
102
}
330
2A
100
AcDbVisualStyle
  2
Shaded with edges
 70
    26
177
     3
291
     0
 70
    58
 90
        2
176
     1
 90
        2
176
     1
 90
        1
176
     1
 90
        2
176
     1
 40
0.6
176
     1
 40
30.0
176
     1
 62
     7
420
 16777215
176
     1
 90
        1
176
     1
 90
       10
176
     1
 62
     7
176
     1
 62
   257
176
     1
 90
        2
176
     1
 90
        1
176
     1
 40
1.0
176
     1
 90
        8
176
     1
 62
   257
176
     1
 40
1.0
176
     1
 90
        1
176
     1
 90
        6
176
     1
 90
        2
176
     1
 62
     7
176
     1
 90
        3
176
     1
 90
        0
176
     1
 90
        0
176
     1
290
     0
176
     1
 90
        5
176
     1
 40
0.0
176
     1
 90
        0
176
     1
290
     0
176
     1
290
     1
176
     1
290
     1
176
     1
290
     0
176
     1
290
     0
176
     1
290
     0
176
     1
290
     0
176
     1
290
     0
176
     1
290
     0
176
     1
 90
       50
176
     1
 40
0.0
176
     1
 40
1.0
176
     1
 90
        0
176
     1
 62
    18
420
        0
176
     1
 90
       50
176
     1
 90
        3
176
     1
 62
     5
420
      255
176
     1
290
     0
176
     1
 90
       50
176
     1
 90
       50
176
     1
 90
       50
176
     1
290
     0
176
     1
 90
       50
176
     1
 62
   256
176
     0
 40
1.0
176
     0
 90
        2
176
     1
  1
strokes_ogs.tif
176
     1
290
     0
176
     1
 40
1.0
176
     1
 40
1.0
176
     1
  0
VISUALSTYLE
  5
3E
102
{ACAD_REACTORS
330
2A
102
}
330
2A
100
AcDbVisualStyle
  2
Shades of Gray
 70
    23
177
     3
291
     0
 70
    58
 90
        2
176
     1
 90
        2
176
     1
 90
        3
176
     1
 90
        0
176
     1
 40
0.6
176
     1
 40
30.0
176
     1
 62
     7
420
 16777215
176
     1
 90
        2
176
     1
 90
        2
176
     1
 62
     7
176
     1
 62
     7
176
     1
 90
        1
176
     1
 90
        1
176
     1
 40
40.0
176
     1
 90
        8
176
     1
 62
     7
176
     1
 40
1.0
176
     1
 90
        1
176
     1
 90
        6
176
     1
 90
        2
176
     1
 62
     7
176
     1
 90
        3
176
     1
 90
        0
176
     1
 90
        0
176
     1
290
     0
176
     1
 90
        1
176
     1
 40
0.0
176
     1
 90
        0
176
     1
290
     0
176
     1
290
     1
176
     1
290
     1
176
     1
290
     0
176
     1
290
     0
176
     1
290
     0
176
     1
290
     0
176
     1
290
     0
176
     1
290
     0
176
     1
 90
       50
176
     1
 40
0.0
176
     1
 40
1.0
176
     1
 90
        0
176
     1
 62
    18
420
        0
176
     1
 90
       50
176
     1
 90
        3
176
     1
 62
     5
420
      255
176
     1
290
     0
176
     1
 90
       50
176
     1
 90
       50
176
     1
 90
       50
176
     1
290
     0
176
     1
 90
       50
176
     1
 62
   256
176
     0
 40
1.0
176
     0
 90
        2
176
     1
  1
strokes_ogs.tif
176
     1
290
     0
176
     1
 40
1.0
176
     1
 40
1.0
176
     1
  0
VISUALSTYLE
  5
3F
102
{ACAD_REACTORS
330
2A
102
}
330
2A
100
AcDbVisualStyle
  2
Sketchy
 70
    24
177
     3
291
     0
 70
    58
 90
        1
176
     1
 90
        2
176
     1
 90
        2
176
     1
 90
        0
176
     1
 40
0.6
176
     1
 40
30.0
176
     1
 62
     7
420
 16777215
176
     1
 90
        2
176
     1
 90
        2
176
     1
 62
     7
176
     1
 62
     7
176
     1
 90
        1
176
     1
 90
        1
176
     1
 40
40.0
176
     1
 90
       11
176
     1
 62
     7
176
     1
 40
1.0
176
     1
 90
        1
176
     1
 90
        6
176
     1
 90
        2
176
     1
 62
     7
176
     1
 90
        6
176
     1
 90
        0
176
     1
 90
        0
176
     1
290
     0
176
     1
 90
        1
176
     1
 40
0.0
176
     1
 90
        0
176
     1
290
     0
176
     1
290
     1
176
     1
290
     1
176
     1
290
     0
176
     1
290
     0
176
     1
290
     0
176
     1
290
     0
176
     1
290
     0
176
     1
290
     0
176
     1
 90
       50
176
     1
 40
0.0
176
     1
 40
1.0
176
     1
 90
        0
176
     1
 62
    18
420
        0
176
     1
 90
       50
176
     1
 90
        3
176
     1
 62
     5
420
      255
176
     1
290
     0
176
     1
 90
       50
176
     1
 90
       50
176
     1
 90
       50
176
     1
290
     0
176
     1
 90
       50
176
     1
 62
   256
176
     0
 40
1.0
176
     0
 90
        2
176
     1
  1
strokes_ogs.tif
176
     1
290
     0
176
     1
 40
1.0
176
     1
 40
1.0
176
     1
  0
VISUALSTYLE
  5
37
102
{ACAD_REACTORS
330
2A
102
}
330
2A
100
AcDbVisualStyle
  2
Thicken
 70
    13
177
     3
291
     1
 70
    58
 90
        2
176
     1
 90
        2
176
     1
 90
        0
176
     1
 90
        0
176
     1
 40
0.6
176
     1
 40
30.0
176
     1
 62
     7
420
 16777215
176
     1
 90
        1
176
     1
 90
        4
176
     1
 62
     7
176
     1
 62
   257
176
     1
 90
        1
176
     1
 90
        1
176
     1
 40
1.0
176
     1
 90
       12
176
     1
 62
     7
176
     1
 40
1.0
176
     1
 90
        1
176
     1
 90
        6
176
     1
 90
        2
176
     1
 62
     7
176
     1
 90
        5
176
     1
 90
        0
176
     1
 90
        0
176
     1
290
     0
176
     1
 90
        1
176
     1
 40
0.0
176
     1
 90
        0
176
     1
290
     0
176
     1
290
     1
176
     1
290
     1
176
     1
290
     0
176
     1
290
     0
176
     1
290
     0
176
     1
290
     0
176
     1
290
     0
176
     1
290
     0
176
     1
 90
       50
176
     1
 40
0.0
176
     1
 40
1.0
176
     1
 90
        0
176
     1
 62
    18
420
        0
176
     1
 90
       50
176
     1
 90
        3
176
     1
 62
     5
420
      255
176
     1
290
     0
176
     1
 90
       50
176
     1
 90
       50
176
     1
 90
       50
176
     1
290
     0
176
     1
 90
       50
176
     1
 62
   256
176
     0
 40
1.0
176
     0
 90
        2
176
     1
  1
strokes_ogs.tif
176
     1
290
     0
176
     1
 40
1.0
176
     1
 40
1.0
176
     1
  0
VISUALSTYLE
  5
30
102
{ACAD_REACTORS
330
2A
102
}
330
2A
100
AcDbVisualStyle
  2
Wireframe
 70
     5
177
     3
291
     0
 70
    58
 90
        0
176
     1
 90
        2
176
     1
 90
        0
176
     1
 90
        0
176
     1
 40
0.6
176
     1
 40
30.0
176
     1
 62
     7
420
 16777215
176
     1
 90
        1
176
     1
 90
        4
176
     1
 62
     7
176
     1
 62
   257
176
     1
 90
        1
176
     1
 90
        1
176
     1
 40
1.0
176
     1
 90
        0
176
     1
 62
   257
176
     1
 40
1.0
176
     1
 90
        1
176
     1
 90
        6
176
     1
 90
        2
176
     1
 62
     7
176
     1
 90
        3
176
     1
 90
        0
176
     1
 90
        0
176
     1
290
     0
176
     1
 90
        1
176
     1
 40
0.0
176
     1
 90
        0
176
     1
290
     0
176
     1
290
     1
176
     1
290
     1
176
     1
290
     0
176
     1
290
     0
176
     1
290
     0
176
     1
290
     0
176
     1
290
     0
176
     1
290
     0
176
     1
 90
       50
176
     1
 40
0.0
176
     1
 40
1.0
176
     1
 90
        0
176
     1
 62
    18
420
        0
176
     1
 90
       50
176
     1
 90
        3
176
     1
 62
     5
420
      255
176
     1
290
     0
176
     1
 90
       50
176
     1
 90
       50
176
     1
 90
       50
176
     1
290
     0
176
     1
 90
       50
176
     1
 62
   256
176
     0
 40
1.0
176
     0
 90
        2
176
     1
  1
strokes_ogs.tif
176
     1
290
     0
176
     1
 40
1.0
176
     1
 40
1.0
176
     1
  0
VISUALSTYLE
  5
40
102
{ACAD_REACTORS
330
2A
102
}
330
2A
100
AcDbVisualStyle
  2
X-Ray
 70
    25
177
     3
291
     0
 70
    58
 90
        2
176
     1
 90
        2
176
     1
 90
        1
176
     1
 90
        1
176
     1
 40
0.5
176
     1
 40
30.0
176
     1
 62
     7
420
 16777215
176
     1
 90
        1
176
     1
 90
        0
176
     1
 62
     7
176
     1
 62
   257
176
     1
 90
        1
176
     1
 90
        1
176
     1
 40
1.0
176
     1
 90
        8
176
     1
 62
     7
176
     1
 40
1.0
176
     1
 90
        1
176
     1
 90
        6
176
     1
 90
        2
176
     1
 62
     7
176
     1
 90
        3
176
     1
 90
        0
176
     1
 90
        0
176
     1
290
     0
176
     1
 90
       13
176
     1
 40
0.0
176
     1
 90
        0
176
     1
290
     0
176
     1
290
     1
176
     1
290
     1
176
     1
290
     0
176
     1
290
     0
176
     1
290
     0
176
     1
290
     0
176
     1
290
     0
176
     1
290
     0
176
     1
 90
       50
176
     1
 40
0.0
176
     1
 40
1.0
176
     1
 90
        0
176
     1
 62
    18
420
        0
176
     1
 90
       50
176
     1
 90
        3
176
     1
 62
     5
420
      255
176
     1
290
     0
176
     1
 90
       50
176
     1
 90
       50
176
     1
 90
       50
176
     1
290
     0
176
     1
 90
       50
176
     1
 62
   256
176
     0
 40
1.0
176
     0
 90
        2
176
     1
  1
strokes_ogs.tif
176
     1
290
     0
176
     1
 40
1.0
176
     1
 40
1.0
176
     1
  0
DICTIONARYVAR
  5
7B
102
{ACAD_REACTORS
330
7A
102
}
330
7A
100
DictionaryVariables
280
     0
  1
1:1
  0
DICTIONARYVAR
  5
80
102
{ACAD_REACTORS
330
7A
102
}
330
7A
100
DictionaryVariables
280
     0
  1
Standard
  0
DICTIONARYVAR
  5
7F
102
{ACAD_REACTORS
330
7A
102
}
330
7A
100
DictionaryVariables
280
     0
  1
Standard
  0
DICTIONARY
  5
7C
330
5A
100
AcDbDictionary
280
     1
281
     1
  3
ACAD_ROUNDTRIP_2008_TABLESTYLE_CELLSTYLEMAP
360
7D
  0
CELLSTYLEMAP
  5
7D
102
{ACAD_REACTORS
330
7C
102
}
330
7C
100
AcDbCellStyleMap
 90
        3
300
CELLSTYLE
  1
TABLEFORMAT_BEGIN
 90
        5
170
     1
 91
        0
 92
    32768
 62
   257
 93
        1
300
CONTENTFORMAT
  1
CONTENTFORMAT_BEGIN
 90
        0
 91
        0
 92
        4
 93
        0
300

 40
0.0
140
1.0
 94
        5
 62
     0
340
11
144
0.25
309
CONTENTFORMAT_END
171
     1
301
MARGIN
  1
CELLMARGIN_BEGIN
 40
0.06
 40
0.06
 40
0.06
 40
0.06
 40
0.06
 40
0.06
309
CELLMARGIN_END
 94
        6
 95
        1
302
GRIDFORMAT
  1
GRIDFORMAT_BEGIN
 90
        0
 91
        1
 62
     0
 92
       -2
340
14
 93
        0
 40
0.045
309
GRIDFORMAT_END
 95
        2
302
GRIDFORMAT
  1
GRIDFORMAT_BEGIN
 90
        0
 91
        1
 62
     0
 92
       -2
340
14
 93
        0
 40
0.045
309
GRIDFORMAT_END
 95
        4
302
GRIDFORMAT
  1
GRIDFORMAT_BEGIN
 90
        0
 91
        1
 62
     0
 92
       -2
340
14
 93
        0
 40
0.045
309
GRIDFORMAT_END
 95
        8
302
GRIDFORMAT
  1
GRIDFORMAT_BEGIN
 90
        0
 91
        1
 62
     0
 92
       -2
340
14
 93
        0
 40
0.045
309
GRIDFORMAT_END
 95
       16
302
GRIDFORMAT
  1
GRIDFORMAT_BEGIN
 90
        0
 91
        1
 62
     0
 92
       -2
340
14
 93
        0
 40
0.045
309
GRIDFORMAT_END
 95
       32
302
GRIDFORMAT
  1
GRIDFORMAT_BEGIN
 90
        0
 91
        1
 62
     0
 92
       -2
340
14
 93
        0
 40
0.045
309
GRIDFORMAT_END
309
TABLEFORMAT_END
  1
CELLSTYLE_BEGIN
 90
        1
 91
        1
300
_TITLE
309
CELLSTYLE_END
300
CELLSTYLE
  1
TABLEFORMAT_BEGIN
 90
        5
170
     1
 91
        0
 92
        0
 62
   257
 93
        1
300
CONTENTFORMAT
  1
CONTENTFORMAT_BEGIN
 90
        0
 91
        0
 92
        4
 93
        0
300

 40
0.0
140
1.0
 94
        5
 62
     0
340
11
144
0.18
309
CONTENTFORMAT_END
171
     1
301
MARGIN
  1
CELLMARGIN_BEGIN
 40
0.06
 40
0.06
 40
0.06
 40
0.06
 40
0.06
 40
0.06
309
CELLMARGIN_END
 94
        6
 95
        1
302
GRIDFORMAT
  1
GRIDFORMAT_BEGIN
 90
        0
 91
        1
 62
     0
 92
       -2
340
14
 93
        0
 40
0.045
309
GRIDFORMAT_END
 95
        2
302
GRIDFORMAT
  1
GRIDFORMAT_BEGIN
 90
        0
 91
        1
 62
     0
 92
       -2
340
14
 93
        0
 40
0.045
309
GRIDFORMAT_END
 95
        4
302
GRIDFORMAT
  1
GRIDFORMAT_BEGIN
 90
        0
 91
        1
 62
     0
 92
       -2
340
14
 93
        0
 40
0.045
309
GRIDFORMAT_END
 95
        8
302
GRIDFORMAT
  1
GRIDFORMAT_BEGIN
 90
        0
 91
        1
 62
     0
 92
       -2
340
14
 93
        0
 40
0.045
309
GRIDFORMAT_END
 95
       16
302
GRIDFORMAT
  1
GRIDFORMAT_BEGIN
 90
        0
 91
        1
 62
     0
 92
       -2
340
14
 93
        0
 40
0.045
309
GRIDFORMAT_END
 95
       32
302
GRIDFORMAT
  1
GRIDFORMAT_BEGIN
 90
        0
 91
        1
 62
     0
 92
       -2
340
14
 93
        0
 40
0.045
309
GRIDFORMAT_END
309
TABLEFORMAT_END
  1
CELLSTYLE_BEGIN
 90
        2
 91
        1
300
_HEADER
309
CELLSTYLE_END
300
CELLSTYLE
  1
TABLEFORMAT_BEGIN
 90
        5
170
     1
 91
        0
 92
        0
 62
   257
 93
        1
300
CONTENTFORMAT
  1
CONTENTFORMAT_BEGIN
 90
        0
 91
        0
 92
        4
 93
        0
300

 40
0.0
140
1.0
 94
        2
 62
     0
340
11
144
0.18
309
CONTENTFORMAT_END
171
     1
301
MARGIN
  1
CELLMARGIN_BEGIN
 40
0.06
 40
0.06
 40
0.06
 40
0.06
 40
0.06
 40
0.06
309
CELLMARGIN_END
 94
        6
 95
        1
302
GRIDFORMAT
  1
GRIDFORMAT_BEGIN
 90
        0
 91
        1
 62
     0
 92
       -2
340
14
 93
        0
 40
0.045
309
GRIDFORMAT_END
 95
        2
302
GRIDFORMAT
  1
GRIDFORMAT_BEGIN
 90
        0
 91
        1
 62
     0
 92
       -2
340
14
 93
        0
 40
0.045
309
GRIDFORMAT_END
 95
        4
302
GRIDFORMAT
  1
GRIDFORMAT_BEGIN
 90
        0
 91
        1
 62
     0
 92
       -2
340
14
 93
        0
 40
0.045
309
GRIDFORMAT_END
 95
        8
302
GRIDFORMAT
  1
GRIDFORMAT_BEGIN
 90
        0
 91
        1
 62
     0
 92
       -2
340
14
 93
        0
 40
0.045
309
GRIDFORMAT_END
 95
       16
302
GRIDFORMAT
  1
GRIDFORMAT_BEGIN
 90
        0
 91
        1
 62
     0
 92
       -2
340
14
 93
        0
 40
0.045
309
GRIDFORMAT_END
 95
       32
302
GRIDFORMAT
  1
GRIDFORMAT_BEGIN
 90
        0
 91
        1
 62
     0
 92
       -2
340
14
 93
        0
 40
0.045
309
GRIDFORMAT_END
309
TABLEFORMAT_END
  1
CELLSTYLE_BEGIN
 90
        3
 91
        2
300
_DATA
309
CELLSTYLE_END
  0
ENDSEC
  0
EOF
