  0
SECTION
  2
HEADER
  9
$ACADVER
  1
AC1027
  9
$ACADMAINTVER
 70
   105
  9
$DWGCODEPAGE
  3
ANSI_1252
  9
$LASTSAVEDBY
  1
Office Desk
  9
$REQUIREDVERSIONS
160
                 0
  9
$INSBASE
 10
0.0
 20
0.0
 30
0.0
  9
$EXTMIN
 10
191.1858
 20
-153.0176
 30
0.0
  9
$EXTMAX
 10
1111.579
 20
168.2402
 30
0.0
  9
$LIMMIN
 10
0.0
 20
0.0
  9
$LIMMAX
 10
12.0
 20
9.0
  9
$ORTHOMODE
 70
     0
  9
$REGENMODE
 70
     1
  9
$FILLMODE
 70
     1
  9
$QTEXTMODE
 70
     0
  9
$MIRRTEXT
 70
     1
  9
$LTSCALE
 40
1.0
  9
$ATTMODE
 70
     1
  9
$TEXTSIZE
 40
0.2
  9
$TRACEWID
 40
0.05
  9
$TEXTSTYLE
  7
Standard
  9
$CLAYER
  8
0
  9
$CELTYPE
  6
ByLayer
  9
$CECOLOR
 62
   256
  9
$CELTSCALE
 40
1.0
  9
$DISPSILH
 70
     0
  9
$DIMSCALE
 40
1.0
  9
$DIMASZ
 40
0.18
  9
$DIMEXO
 40
0.0625
  9
$DIMDLI
 40
0.38
  9
$DIMRND
 40
0.0
  9
$DIMDLE
 40
0.0
  9
$DIMEXE
 40
0.18
  9
$DIMTP
 40
0.0
  9
$DIMTM
 40
0.0
  9
$DIMTXT
 40
0.18
  9
$DIMCEN
 40
0.09
  9
$DIMTSZ
 40
0.0
  9
$DIMTOL
 70
     0
  9
$DIMLIM
 70
     0
  9
$DIMTIH
 70
     1
  9
$DIMTOH
 70
     1
  9
$DIMSE1
 70
     0
  9
$DIMSE2
 70
     0
  9
$DIMTAD
 70
     0
  9
$DIMZIN
 70
     0
  9
$DIMBLK
  1

  9
$DIMASO
 70
     1
  9
$DIMSHO
 70
     1
  9
$DIMPOST
  1

  9
$DIMAPOST
  1

  9
$DIMALT
 70
     0
  9
$DIMALTD
 70
     2
  9
$DIMALTF
 40
25.4
  9
$DIMLFAC
 40
1.0
  9
$DIMTOFL
 70
     0
  9
$DIMTVP
 40
0.0
  9
$DIMTIX
 70
     0
  9
$DIMSOXD
 70
     0
  9
$DIMSAH
 70
     0
  9
$DIMBLK1
  1

  9
$DIMBLK2
  1

  9
$DIMSTYLE
  2
Standard
  9
$DIMCLRD
 70
     0
  9
$DIMCLRE
 70
     0
  9
$DIMCLRT
 70
     0
  9
$DIMTFAC
 40
1.0
  9
$DIMGAP
 40
0.09
  9
$DIMJUST
 70
     0
  9
$DIMSD1
 70
     0
  9
$DIMSD2
 70
     0
  9
$DIMTOLJ
 70
     1
  9
$DIMTZIN
 70
     0
  9
$DIMALTZ
 70
     0
  9
$DIMALTTZ
 70
     0
  9
$DIMUPT
 70
     0
  9
$DIMDEC
 70
     4
  9
$DIMTDEC
 70
     4
  9
$DIMALTU
 70
     2
  9
$DIMALTTD
 70
     2
  9
$DIMTXSTY
  7
Standard
  9
$DIMAUNIT
 70
     0
  9
$DIMADEC
 70
     0
  9
$DIMALTRND
 40
0.0
  9
$DIMAZIN
 70
     0
  9
$DIMDSEP
 70
    46
  9
$DIMATFIT
 70
     3
  9
$DIMFRAC
 70
     0
  9
$DIMLDRBLK
  1

  9
$DIMLUNIT
 70
     2
  9
$DIMLWD
 70
    -2
  9
$DIMLWE
 70
    -2
  9
$DIMTMOVE
 70
     0
  9
$DIMFXL
 40
1.0
  9
$DIMFXLON
 70
     0
  9
$DIMJOGANG
 40
0.7853981633974483
  9
$DIMTFILL
 70
     0
  9
$DIMTFILLCLR
 70
     0
  9
$DIMARCSYM
 70
     0
  9
$DIMLTYPE
  6

  9
$DIMLTEX1
  6

  9
$DIMLTEX2
  6

  9
$DIMTXTDIRECTION
 70
     0
  9
$LUNITS
 70
     2
  9
$LUPREC
 70
     4
  9
$SKETCHINC
 40
0.1
  9
$FILLETRAD
 40
0.0
  9
$AUNITS
 70
     0
  9
$AUPREC
 70
     0
  9
$MENU
  1
.
  9
$ELEVATION
 40
0.0
  9
$PELEVATION
 40
0.0
  9
$THICKNESS
 40
0.0
  9
$LIMCHECK
 70
     0
  9
$CHAMFERA
 40
0.0
  9
$CHAMFERB
 40
0.0
  9
$CHAMFERC
 40
0.0
  9
$CHAMFERD
 40
0.0
  9
$SKPOLY
 70
     0
  9
$TDCREATE
 40
2461012.654196736
  9
$TDUCREATE
 40
2461012.42503007
  9
$TDUPDATE
 40
2461012.654196794
  9
$TDUUPDATE
 40
2461012.425030127
  9
$TDINDWG
 40
0.0000000116
  9
$TDUSRTIMER
 40
0.0000000116
  9
$USRTIMER
 70
     1
  9
$ANGBASE
 50
0.0
  9
$ANGDIR
 70
     0
  9
$PDMODE
 70
     0
  9
$PDSIZE
 40
0.0
  9
$PLINEWID
 40
0.0
  9
$SPLFRAME
 70
     0
  9
$SPLINETYPE
 70
     6
  9
$SPLINESEGS
 70
     8
  9
$HANDSEED
  5
8F
  9
$SURFTAB1
 70
     6
  9
$SURFTAB2
 70
     6
  9
$SURFTYPE
 70
     6
  9
$SURFU
 70
     6
  9
$SURFV
 70
     6
  9
$UCSBASE
  2

  9
$UCSNAME
  2

  9
$UCSORG
 10
0.0
 20
0.0
 30
0.0
  9
$UCSXDIR
 10
1.0
 20
0.0
 30
0.0
  9
$UCSYDIR
 10
0.0
 20
1.0
 30
0.0
  9
$UCSORTHOREF
  2

  9
$UCSORTHOVIEW
 70
     0
  9
$UCSORGTOP
 10
0.0
 20
0.0
 30
0.0
  9
$UCSORGBOTTOM
 10
0.0
 20
0.0
 30
0.0
  9
$UCSORGLEFT
 10
0.0
 20
0.0
 30
0.0
  9
$UCSORGRIGHT
 10
0.0
 20
0.0
 30
0.0
  9
$UCSORGFRONT
 10
0.0
 20
0.0
 30
0.0
  9
$UCSORGBACK
 10
0.0
 20
0.0
 30
0.0
  9
$PUCSBASE
  2

  9
$PUCSNAME
  2

  9
$PUCSORG
 10
0.0
 20
0.0
 30
0.0
  9
$PUCSXDIR
 10
1.0
 20
0.0
 30
0.0
  9
$PUCSYDIR
 10
0.0
 20
1.0
 30
0.0
  9
$PUCSORTHOREF
  2

  9
$PUCSORTHOVIEW
 70
     0
  9
$PUCSORGTOP
 10
0.0
 20
0.0
 30
0.0
  9
$PUCSORGBOTTOM
 10
0.0
 20
0.0
 30
0.0
  9
$PUCSORGLEFT
 10
0.0
 20
0.0
 30
0.0
  9
$PUCSORGRIGHT
 10
0.0
 20
0.0
 30
0.0
  9
$PUCSORGFRONT
 10
0.0
 20
0.0
 30
0.0
  9
$PUCSORGBACK
 10
0.0
 20
0.0
 30
0.0
  9
$USERI1
 70
     0
  9
$USERI2
 70
     0
  9
$USERI3
 70
     0
  9
$USERI4
 70
     0
  9
$USERI5
 70
     0
  9
$USERR1
 40
0.0
  9
$USERR2
 40
0.0
  9
$USERR3
 40
0.0
  9
$USERR4
 40
0.0
  9
$USERR5
 40
0.0
  9
$WORLDVIEW
 70
     1
  9
$SHADEDGE
 70
     3
  9
$SHADEDIF
 70
    70
  9
$TILEMODE
 70
     1
  9
$MAXACTVP
 70
    64
  9
$PINSBASE
 10
0.0
 20
0.0
 30
0.0
  9
$PLIMCHECK
 70
     0
  9
$PEXTMIN
 10
1.000000000000000E+20
 20
1.000000000000000E+20
 30
1.000000000000000E+20
  9
$PEXTMAX
 10
-1.000000000000000E+20
 20
-1.000000000000000E+20
 30
-1.000000000000000E+20
  9
$PLIMMIN
 10
0.0
 20
0.0
  9
$PLIMMAX
 10
12.0
 20
9.0
  9
$UNITMODE
 70
     0
  9
$VISRETAIN
 70
     1
  9
$PLINEGEN
 70
     0
  9
$PSLTSCALE
 70
     1
  9
$TREEDEPTH
 70
  3020
  9
$CMLSTYLE
  2
Standard
  9
$CMLJUST
 70
     0
  9
$CMLSCALE
 40
1.0
  9
$PROXYGRAPHICS
 70
     1
  9
$MEASUREMENT
 70
     0
  9
$CELWEIGHT
370
    -1
  9
$ENDCAPS
280
     0
  9
$JOINSTYLE
280
     0
  9
$LWDISPLAY
290
     0
  9
$INSUNITS
 70
     4
  9
$HYPERLINKBASE
  1

  9
$STYLESHEET
  1

  9
$XEDIT
290
     1
  9
$CEPSNTYPE
380
     0
  9
$PSTYLEMODE
290
     1
  9
$FINGERPRINTGUID
  2
{cdcbefcf-344a-48a4-a17d-64b5803a78f2}
  9
$VERSIONGUID
  2
{FAEB1C32-E019-11D5-929B-00C0DF256EC4}
  9
$EXTNAMES
290
     1
  9
$PSVPSCALE
 40
0.0
  9
$OLESTARTUP
290
     0
  9
$SORTENTS
280
   127
  9
$INDEXCTL
280
     0
  9
$HIDETEXT
280
     1
  9
$XCLIPFRAME
280
     2
  9
$HALOGAP
280
     0
  9
$OBSCOLOR
 70
   257
  9
$OBSLTYPE
280
     0
  9
$INTERSECTIONDISPLAY
280
     0
  9
$INTERSECTIONCOLOR
 70
   257
  9
$DIMASSOC
280
     2
  9
$PROJECTNAME
  1

  9
$CAMERADISPLAY
290
     0
  9
$LENSLENGTH
 40
50.0
  9
$CAMERAHEIGHT
 40
0.0
  9
$STEPSPERSEC
 40
2.0
  9
$STEPSIZE
 40
6.0
  9
$3DDWFPREC
 40
2.0
  9
$PSOLWIDTH
 40
0.25
  9
$PSOLHEIGHT
 40
4.0
  9
$LOFTANG1
 40
1.570796326794897
  9
$LOFTANG2
 40
1.570796326794897
  9
$LOFTMAG1
 40
0.0
  9
$LOFTMAG2
 40
0.0
  9
$LOFTPARAM
 70
     7
  9
$LOFTNORMALS
280
     1
  9
$LATITUDE
 40
37.795
  9
$LONGITUDE
 40
-122.394
  9
$NORTHDIRECTION
 40
0.0
  9
$TIMEZONE
 70
 -8000
  9
$LIGHTGLYPHDISPLAY
280
     1
  9
$TILEMODELIGHTSYNCH
280
     1
  9
$CMATERIAL
347
44
  9
$SOLIDHIST
280
     0
  9
$SHOWHIST
280
     1
  9
$DWFFRAME
280
     2
  9
$DGNFRAME
280
     2
  9
$REALWORLDSCALE
290
     1
  9
$INTERFERECOLOR
 62
   256
  9
$CSHADOW
280
     0
  9
$SHADOWPLANELOCATION
 40
0.0
  0
ENDSEC
  0
SECTION
  2
CLASSES
  0
CLASS
  1
ACDBDICTIONARYWDFLT
  2
AcDbDictionaryWithDefault
  3
ObjectDBX Classes
 90
        0
 91
        3
280
     0
281
     0
  0
CLASS
  1
VISUALSTYLE
  2
AcDbVisualStyle
  3
ObjectDBX Classes
 90
     4095
 91
        3
280
     0
281
     0
  0
CLASS
  1
MATERIAL
  2
AcDbMaterial
  3
ObjectDBX Classes
 90
     1153
 91
        3
280
     0
281
     0
  0
CLASS
  1
SCALE
  2
AcDbScale
  3
ObjectDBX Classes
 90
     1153
 91
        3
280
     0
281
     0
  0
CLASS
  1
TABLESTYLE
  2
AcDbTableStyle
  3
ObjectDBX Classes
 90
     4095
 91
        3
280
     0
281
     0
  0
CLASS
  1
MLEADERSTYLE
  2
AcDbMLeaderStyle
  3
ACDB_MLEADERSTYLE_CLASS
 90
     4095
 91
        3
280
     0
281
     0
  0
CLASS
  1
SUN
  2
AcDbSun
  3
SCENEOE
 90
     1153
 91
        3
280
     0
281
     0
  0
CLASS
  1
DICTIONARYVAR
  2
AcDbDictionaryVar
  3
ObjectDBX Classes
 90
        0
 91
        3
280
     0
281
     0
  0
CLASS
  1
CELLSTYLEMAP
  2
AcDbCellStyleMap
  3
ObjectDBX Classes
 90
     1152
 91
        3
280
     0
281
     0
  0
ENDSEC
  0
SECTION
  2
TABLES
  0
TABLE
  2
VPORT
  5
8
330
0
100
AcDbSymbolTable
 70
     1
  0
VPORT
  5
29
330
8
100
AcDbSymbolTableRecord
100
AcDbViewportTableRecord
  2
*Active
 70
     0
 10
0.0
 20
0.0
 11
1.0
 21
1.0
 12
10.42990654205607
 22
4.5
 13
0.0
 23
0.0
 14
0.5
 24
0.5
 15
0.5
 25
0.5
 16
0.0
 26
0.0
 36
1.0
 17
0.0
 27
0.0
 37
0.0
 40
9.0
 41
1.972972972850329
 42
50.0
 43
0.0
 44
0.0
 50
0.0
 51
0.0
 71
     0
 72
   100
 73
     1
 74
     3
 75
     0
 76
     0
 77
     0
 78
     0
281
     0
 65
     1
110
0.0
120
0.0
130
0.0
111
1.0
121
0.0
131
0.0
112
0.0
122
1.0
132
0.0
 79
     0
146
0.0
348
2F
 60
     3
 61
     5
292
     1
282
     1
141
0.0
142
0.0
 63
   250
361
5D
  0
ENDTAB
  0
TABLE
  2
LTYPE
  5
5
330
0
100
AcDbSymbolTable
 70
     1
  0
LTYPE
  5
14
330
5
100
AcDbSymbolTableRecord
100
AcDbLinetypeTableRecord
  2
ByBlock
 70
     0
  3

 72
    65
 73
     0
 40
0.0
  0
LTYPE
  5
15
330
5
100
AcDbSymbolTableRecord
100
AcDbLinetypeTableRecord
  2
ByLayer
 70
     0
  3

 72
    65
 73
     0
 40
0.0
  0
LTYPE
  5
16
330
5
100
AcDbSymbolTableRecord
100
AcDbLinetypeTableRecord
  2
Continuous
 70
     0
  3
Solid line
 72
    65
 73
     0
 40
0.0
  0
ENDTAB
  0
TABLE
  2
LAYER
  5
2
330
0
100
AcDbSymbolTable
 70
     2
  0
LAYER
  5
10
330
2
100
AcDbSymbolTableRecord
100
AcDbLayerTableRecord
  2
0
 70
     0
 62
     7
  6
Continuous
370
    -3
390
F
347
46
348
0
  0
LAYER
  5
5F
330
2
100
AcDbSymbolTableRecord
100
AcDbLayerTableRecord
  2
Layer 1
 70
     0
 62
     7
  6
Continuous
370
    -3
390
F
347
46
348
0
  0
ENDTAB
  0
TABLE
  2
STYLE
  5
3
330
0
100
AcDbSymbolTable
 70
     1
  0
STYLE
  5
11
330
3
100
AcDbSymbolTableRecord
100
AcDbTextStyleTableRecord
  2
Standard
 70
     0
 40
0.0
 41
1.0
 50
0.0
 71
     0
 42
0.2
  3
txt
  4

  0
ENDTAB
  0
TABLE
  2
VIEW
  5
6
330
0
100
AcDbSymbolTable
 70
     0
  0
ENDTAB
  0
TABLE
  2
UCS
  5
7
330
0
100
AcDbSymbolTable
 70
     0
  0
ENDTAB
  0
TABLE
  2
APPID
  5
9
330
0
100
AcDbSymbolTable
 70
     2
  0
APPID
  5
12
330
9
100
AcDbSymbolTableRecord
100
AcDbRegAppTableRecord
  2
ACAD
 70
     0
  0
APPID
  5
5E
330
9
100
AcDbSymbolTableRecord
100
AcDbRegAppTableRecord
  2
ODA
 70
     0
  0
ENDTAB
  0
TABLE
  2
DIMSTYLE
  5
A
330
0
100
AcDbSymbolTable
 70
     1
100
AcDbDimStyleTable
  0
DIMSTYLE
105
27
330
A
100
AcDbSymbolTableRecord
100
AcDbDimStyleTableRecord
  2
Standard
 70
     0
178
     0
340
11
  0
ENDTAB
  0
TABLE
  2
BLOCK_RECORD
  5
1
330
0
100
AcDbSymbolTable
 70
     1
  0
BLOCK_RECORD
  5
1F
330
1
100
AcDbSymbolTableRecord
100
AcDbBlockTableRecord
  2
*Model_Space
340
22
 70
     0
280
     1
281
     0
  0
BLOCK_RECORD
  5
1B
330
1
100
AcDbSymbolTableRecord
100
AcDbBlockTableRecord
  2
*Paper_Space
340
1E
 70
     0
280
     1
281
     0
  0
BLOCK_RECORD
  5
23
330
1
100
AcDbSymbolTableRecord
100
AcDbBlockTableRecord
  2
*Paper_Space0
340
26
 70
     0
280
     1
281
     0
  0
ENDTAB
  0
ENDSEC
  0
SECTION
  2
BLOCKS
  0
BLOCK
  5
20
330
1F
100
AcDbEntity
  8
0
100
AcDbBlockBegin
  2
*Model_Space
 70
     0
 10
0.0
 20
0.0
 30
0.0
  3
*Model_Space
  1

  0
ENDBLK
  5
21
330
1F
100
AcDbEntity
  8
0
100
AcDbBlockEnd
  0
BLOCK
  5
1C
330
1B
100
AcDbEntity
 67
     1
  8
0
100
AcDbBlockBegin
  2
*Paper_Space
 70
     0
 10
0.0
 20
0.0
 30
0.0
  3
*Paper_Space
  1

  0
ENDBLK
  5
1D
330
1B
100
AcDbEntity
 67
     1
  8
0
100
AcDbBlockEnd
  0
BLOCK
  5
24
330
23
100
AcDbEntity
  8
0
100
AcDbBlockBegin
  2
*Paper_Space0
 70
     0
 10
0.0
 20
0.0
 30
0.0
  3
*Paper_Space0
  1

  0
ENDBLK
  5
25
330
23
100
AcDbEntity
  8
0
100
AcDbBlockEnd
  0
ENDSEC
  0
SECTION
  2
ENTITIES
  0
LWPOLYLINE
  5
60
330
1F
100
AcDbEntity
  8
Layer 1
 62
   250
370
    18
100
AcDbPolyline
 90
        5
 70
     1
 43
0.0
 10
191.274
 20
-152.9294
 10
1111.4908
 20
-152.9294
 10
1111.4908
 20
168.152
 10
191.274
 20
168.152
 10
191.274
 20
-152.9294
  0
LWPOLYLINE
  5
61
330
1F
100
AcDbEntity
  8
Layer 1
 62
     7
370
    35
100
AcDbPolyline
 90
       33
 70
     1
 43
0.0
 10
496.9435
 20
135.8657
 10
525.1845
 20
133.2027
 10
551.4883
 20
125.5651
 10
575.2914
 20
113.4799
 10
596.0303
 20
97.4743
 10
613.1415
 20
78.0753
 10
626.0614
 20
55.81
 10
634.2266
 20
31.2054
 10
637.0736
 20
4.7887
 10
634.2266
 20
-21.6282
 10
626.0614
 20
-46.2329
 10
613.1415
 20
-68.4983
 10
596.0303
 20
-87.8974
 10
575.2914
 20
-103.903
 10
551.4883
 20
-115.9882
 10
525.1845
 20
-123.6258
 10
496.9435
 20
-126.2888
 10
468.7021
 20
-123.6258
 10
442.3979
 20
-115.9882
 10
418.5946
 20
-103.903
 10
397.8555
 20
-87.8974
 10
380.7442
 20
-68.4983
 10
367.8242
 20
-46.2329
 10
359.659
 20
-21.6282
 10
356.812
 20
4.7887
 10
359.659
 20
31.2054
 10
367.8242
 20
55.81
 10
380.7442
 20
78.0753
 10
397.8555
 20
97.4743
 10
418.5946
 20
113.4799
 10
442.3979
 20
125.5651
 10
468.7021
 20
133.2027
 10
496.9435
 20
135.8657
  0
LWPOLYLINE
  5
62
330
1F
100
AcDbEntity
  8
Layer 1
 62
     7
370
    35
100
AcDbPolyline
 90
       33
 70
     1
 43
0.0
 10
496.9435
 20
121.3619
 10
522.0597
 20
118.9936
 10
545.4529
 20
112.201
 10
566.622
 20
101.4531
 10
585.0659
 20
87.2185
 10
600.2835
 20
69.966
 10
611.7736
 20
50.1644
 10
619.0352
 20
28.2824
 10
621.5671
 20
4.7887
 10
619.0352
 20
-18.7047
 10
611.7736
 20
-40.5867
 10
600.2835
 20
-60.3883
 10
585.0659
 20
-77.6408
 10
566.622
 20
-91.8755
 10
545.4529
 20
-102.6235
 10
522.0597
 20
-109.416
 10
496.9435
 20
-111.7844
 10
471.8273
 20
-109.416
 10
448.4339
 20
-102.6235
 10
427.2646
 20
-91.8755
 10
408.8204
 20
-77.6408
 10
393.6025
 20
-60.3883
 10
382.1122
 20
-40.5867
 10
374.8504
 20
-18.7047
 10
372.3185
 20
4.7887
 10
374.8504
 20
28.2824
 10
382.1122
 20
50.1644
 10
393.6025
 20
69.966
 10
408.8204
 20
87.2185
 10
427.2646
 20
101.4531
 10
448.4339
 20
112.201
 10
471.8273
 20
118.9936
 10
496.9435
 20
121.3619
  0
LWPOLYLINE
  5
63
330
1F
100
AcDbEntity
  8
Layer 1
 62
     7
370
    35
100
AcDbPolyline
 90
       33
 70
     1
 43
0.0
 10
496.9435
 20
22.8683
 10
500.8388
 20
22.501
 10
504.4668
 20
21.4475
 10
507.7499
 20
19.7806
 10
510.6103
 20
17.5729
 10
512.9703
 20
14.8971
 10
514.7523
 20
11.8261
 10
515.8784
 20
8.4323
 10
516.2711
 20
4.7887
 10
515.8784
 20
1.1451
 10
514.7523
 20
-2.2486
 10
512.9703
 20
-5.3197
 10
510.6103
 20
-7.9954
 10
507.7499
 20
-10.2031
 10
504.4668
 20
-11.87
 10
500.8388
 20
-12.9235
 10
496.9435
 20
-13.2908
 10
493.048
 20
-12.9235
 10
489.4197
 20
-11.87
 10
486.1364
 20
-10.2031
 10
483.2758
 20
-7.9954
 10
480.9156
 20
-5.3197
 10
479.1335
 20
-2.2486
 10
478.0073
 20
1.1451
 10
477.6146
 20
4.7887
 10
478.0073
 20
8.4323
 10
479.1335
 20
11.8261
 10
480.9156
 20
14.8971
 10
483.2758
 20
17.5729
 10
486.1364
 20
19.7806
 10
489.4197
 20
21.4475
 10
493.048
 20
22.501
 10
496.9435
 20
22.8683
  0
LWPOLYLINE
  5
64
330
1F
100
AcDbEntity
  8
Layer 1
 62
     7
370
    35
100
AcDbPolyline
 90
       33
 70
     1
 43
0.0
 10
496.9435
 20
15.1585
 10
499.1775
 20
14.9478
 10
501.2582
 20
14.3436
 10
503.1412
 20
13.3875
 10
504.7819
 20
12.1212
 10
506.1356
 20
10.5865
 10
507.1577
 20
8.8251
 10
507.8037
 20
6.8786
 10
508.0289
 20
4.7887
 10
507.8037
 20
2.6987
 10
507.1577
 20
0.7521
 10
506.1356
 20
-1.0093
 10
504.7819
 20
-2.544
 10
503.1412
 20
-3.8101
 10
501.2582
 20
-4.7662
 10
499.1775
 20
-5.3703
 10
496.9435
 20
-5.581
 10
494.7092
 20
-5.3703
 10
492.6282
 20
-4.7662
 10
490.7452
 20
-3.8101
 10
489.1046
 20
-2.544
 10
487.7511
 20
-1.0093
 10
486.7291
 20
0.7521
 10
486.0833
 20
2.6987
 10
485.8581
 20
4.7887
 10
486.0833
 20
6.8786
 10
486.7291
 20
8.8251
 10
487.7511
 20
10.5865
 10
489.1046
 20
12.1212
 10
490.7452
 20
13.3875
 10
492.6282
 20
14.3436
 10
494.7092
 20
14.9478
 10
496.9435
 20
15.1585
  0
LWPOLYLINE
  5
65
330
1F
100
AcDbEntity
  8
Layer 1
 62
     7
370
    35
100
AcDbPolyline
 90
        4
 70
     0
 43
0.0
 10
372.4135
 20
-124.8021
 10
313.3515
 20
-124.8021
 10
313.3515
 20
135.8657
 10
370.052
 20
135.8657
  0
LWPOLYLINE
  5
66
330
1F
100
AcDbEntity
  8
Layer 1
 62
     7
370
    35
100
AcDbPolyline
 90
        2
 70
     0
 43
0.0
 10
317.0688
 20
-121.8099
 10
310.5406
 20
-127.0875
  0
LWPOLYLINE
  5
67
330
1F
100
AcDbEntity
  8
Layer 1
 62
     7
370
    35
100
AcDbPolyline
 90
        2
 70
     0
 43
0.0
 10
317.1416
 20
138.5048
 10
310.6134
 20
133.2272
  0
LWPOLYLINE
  5
68
330
1F
100
AcDbEntity
  8
Layer 1
 62
     7
370
    35
100
AcDbPolyline
 90
       33
 70
     1
 43
0.0
 10
496.9435
 20
116.6956
 10
521.0541
 20
114.422
 10
543.5108
 20
107.9014
 10
563.8326
 20
97.5836
 10
581.5384
 20
83.9187
 10
596.1469
 20
67.3568
 10
607.1773
 20
48.3478
 10
614.1483
 20
27.3418
 10
616.5789
 20
4.7887
 10
614.1483
 20
-17.7643
 10
607.1773
 20
-38.7702
 10
596.1469
 20
-57.7791
 10
581.5384
 20
-74.3409
 10
563.8326
 20
-88.0057
 10
543.5108
 20
-98.3234
 10
521.0541
 20
-104.844
 10
496.9435
 20
-107.1175
 10
472.8327
 20
-104.844
 10
450.3759
 20
-98.3234
 10
430.054
 20
-88.0057
 10
412.3483
 20
-74.3409
 10
397.7398
 20
-57.7791
 10
386.7095
 20
-38.7702
 10
379.7386
 20
-17.7643
 10
377.308
 20
4.7887
 10
379.7386
 20
27.3418
 10
386.7095
 20
48.3478
 10
397.7398
 20
67.3568
 10
412.3483
 20
83.9187
 10
430.054
 20
97.5836
 10
450.3759
 20
107.9014
 10
472.8327
 20
114.422
 10
496.9435
 20
116.6956
  0
LWPOLYLINE
  5
69
330
1F
100
AcDbEntity
  8
Layer 1
 62
     7
370
    35
100
AcDbPolyline
 90
        4
 70
     0
 43
0.0
 10
796.272
 20
-74.3643
 10
767.6959
 20
-74.3643
 10
767.6959
 20
52.3601
 10
795.1296
 20
52.3601
  0
LWPOLYLINE
  5
6A
330
1F
100
AcDbEntity
  8
Layer 1
 62
     7
370
    35
100
AcDbPolyline
 90
        2
 70
     0
 43
0.0
 10
769.494
 20
-72.9096
 10
766.3356
 20
-75.4756
  0
LWPOLYLINE
  5
6B
330
1F
100
AcDbEntity
  8
Layer 1
 62
     7
370
    35
100
AcDbPolyline
 90
        2
 70
     0
 43
0.0
 10
769.5291
 20
53.6428
 10
766.3713
 20
51.0781
  0
LWPOLYLINE
  5
6C
330
1F
100
AcDbEntity
  8
Layer 1
 62
     7
370
    35
100
AcDbPolyline
 90
       27
 70
     0
 43
0.0
 10
939.4674
 20
-72.5545
 10
932.7419
 20
-72.566
 10
926.096
 20
-72.5575
 10
919.5534
 20
-72.5379
 10
913.1376
 20
-72.5161
 10
906.8722
 20
-72.5008
 10
900.7808
 20
-72.5009
 10
894.887
 20
-72.5252
 10
889.2144
 20
-72.5826
 10
886.1552
 20
-69.7797
 10
879.1807
 20
-62.1049
 10
869.3496
 20
-50.6901
 10
857.7206
 20
-36.6671
 10
845.3523
 20
-21.1678
 10
833.3034
 20
-5.324
 10
822.6326
 20
9.7325
 10
814.3986
 20
22.8697
 10
813.1853
 20
26.288
 10
812.9334
 20
30.2727
 10
813.5337
 20
34.6125
 10
814.8769
 20
39.0961
 10
816.8537
 20
43.5122
 10
819.355
 20
47.6495
 10
822.2716
 20
51.2968
 10
825.4942
 20
54.2427
 10
854.5243
 20
54.2427
 10
939.9571
 20
54.2427
  0
LWPOLYLINE
  5
6D
330
1F
100
AcDbEntity
  8
Layer 1
 62
     7
370
    35
100
AcDbPolyline
 90
       27
 70
     0
 43
0.0
 10
938.2775
 20
-72.5545
 10
945.003
 20
-72.566
 10
951.6488
 20
-72.5575
 10
958.1914
 20
-72.5379
 10
964.6071
 20
-72.5161
 10
970.8724
 20
-72.5008
 10
976.9637
 20
-72.5009
 10
982.8574
 20
-72.5252
 10
988.5298
 20
-72.5826
 10
991.5894
 20
-69.7797
 10
998.5641
 20
-62.1049
 10
1008.3953
 20
-50.6901
 10
1020.0243
 20
-36.6671
 10
1032.3925
 20
-21.1678
 10
1044.4412
 20
-5.324
 10
1055.1119
 20
9.7325
 10
1063.3457
 20
22.8697
 10
1064.5591
 20
26.288
 10
1064.8112
 20
30.2727
 10
1064.211
 20
34.6125
 10
1062.868
 20
39.0961
 10
1060.8912
 20
43.5122
 10
1058.39
 20
47.6495
 10
1055.4736
 20
51.2968
 10
1052.2512
 20
54.2427
 10
1023.2194
 20
54.2427
 10
937.7883
 20
54.2427
  0
LWPOLYLINE
  5
6E
330
1F
100
AcDbEntity
  8
Layer 1
 62
     7
370
    35
100
AcDbPolyline
 90
        4
 70
     0
 43
0.0
 10
825.4849
 20
60.4613
 10
825.4849
 20
76.4223
 10
1052.7925
 20
76.4223
 10
1052.7925
 20
61.1002
  0
LWPOLYLINE
  5
6F
330
1F
100
AcDbEntity
  8
Layer 1
 62
     7
370
    35
100
AcDbPolyline
 90
        2
 70
     0
 43
0.0
 10
828.0937
 20
75.4173
 10
823.4923
 20
77.1819
  0
LWPOLYLINE
  5
70
330
1F
100
AcDbEntity
  8
Layer 1
 62
     7
370
    35
100
AcDbPolyline
 90
        2
 70
     0
 43
0.0
 10
1055.0926
 20
75.3981
 10
1050.4913
 20
77.1621
  0
LWPOLYLINE
  5
71
330
1F
100
AcDbEntity
  8
Layer 1
 62
     7
100
AcDbPolyline
 90
        7
 70
     1
 43
0.0
 10
667.398
 20
-28.664
 10
669.2306
 20
-28.664
 10
669.2306
 20
-7.5908
 10
664.8331
 20
-8.142
 10
664.8331
 20
-10.0101
 10
667.398
 20
-10.0101
 10
667.398
 20
-28.664
  0
LWPOLYLINE
  5
72
330
1F
100
AcDbEntity
  8
Layer 1
 62
     7
100
AcDbPolyline
 90
       73
 70
     1
 43
0.0
 10
677.6987
 20
-19.1993
 10
677.2811
 20
-19.1768
 10
676.8791
 20
-19.1093
 10
676.4926
 20
-18.9968
 10
676.1216
 20
-18.8394
 10
675.7661
 20
-18.6369
 10
675.4262
 20
-18.3895
 10
675.1017
 20
-18.097
 10
674.7928
 20
-17.7596
 10
674.5137
 20
-17.3949
 10
674.2719
 20
-17.013
 10
674.0672
 20
-16.6139
 10
673.8998
 20
-16.1976
 10
673.7697
 20
-15.764
 10
673.6767
 20
-15.3132
 10
673.6209
 20
-14.8452
 10
673.6023
 20
-14.3599
 10
673.6211
 20
-13.8855
 10
673.6775
 20
-13.4275
 10
673.7716
 20
-12.9857
 10
673.9033
 20
-12.5603
 10
674.0726
 20
-12.1511
 10
674.2795
 20
-11.7582
 10
674.524
 20
-11.3816
 10
674.8062
 20
-11.0213
 10
675.1092
 20
-10.6983
 10
675.4294
 20
-10.4183
 10
675.7668
 20
-10.1814
 10
676.1213
 20
-9.9875
 10
676.4931
 20
-9.8366
 10
676.882
 20
-9.7288
 10
677.2882
 20
-9.6642
 10
677.7115
 20
-9.6426
 10
678.1266
 20
-9.6649
 10
678.5278
 20
-9.7317
 10
678.9151
 20
-9.843
 10
679.2885
 20
-9.9988
 10
679.648
 20
-10.1992
 10
679.9937
 20
-10.444
 10
680.3254
 20
-10.7334
 10
680.6432
 20
-11.0672
 10
680.9316
 20
-11.4283
 10
681.1815
 20
-11.8071
 10
681.3929
 20
-12.2036
 10
681.5659
 20
-12.6179
 10
681.7005
 20
-13.0498
 10
681.7966
 20
-13.4995
 10
681.8543
 20
-13.9668
 10
681.8735
 20
-14.4518
 10
681.8541
 20
-14.9228
 10
681.7958
 20
-15.3785
 10
681.6987
 20
-15.8188
 10
681.5628
 20
-16.2438
 10
681.388
 20
-16.6534
 10
681.1743
 20
-17.0477
 10
680.9217
 20
-17.4267
 10
680.6303
 20
-17.7904
 10
680.4864
 20
-17.947
 10
680.3365
 20
-18.0956
 10
680.1804
 20
-18.236
 10
680.0182
 20
-18.3684
 10
679.85
 20
-18.4926
 10
679.6756
 20
-18.6087
 10
679.4952
 20
-18.7168
 10
679.3086
 20
-18.8167
 10
679.1173
 20
-18.9064
 10
678.9232
 20
-18.9841
 10
678.7263
 20
-19.0498
 10
678.5265
 20
-19.1036
 10
678.3238
 20
-19.1455
 10
678.1183
 20
-19.1754
 10
677.9099
 20
-19.1933
 10
677.6987
 20
-19.1993
  0
LWPOLYLINE
  5
73
330
1F
100
AcDbEntity
  8
Layer 1
 62
     7
100
AcDbPolyline
 90
       69
 70
     1
 43
0.0
 10
671.7434
 20
-14.5128
 10
671.772
 20
-15.2503
 10
671.858
 20
-15.9544
 10
672.0011
 20
-16.6249
 10
672.2016
 20
-17.262
 10
672.4593
 20
-17.8655
 10
672.7743
 20
-18.4355
 10
673.1465
 20
-18.9719
 10
673.5759
 20
-19.4748
 10
674.015
 20
-19.8986
 10
674.4848
 20
-20.2703
 10
674.9853
 20
-20.5897
 10
675.5163
 20
-20.857
 10
676.078
 20
-21.0721
 10
676.6704
 20
-21.2351
 10
677.2934
 20
-21.346
 10
677.9471
 20
-21.4047
 10
678.4708
 20
-21.0064
 10
673.0264
 20
-28.664
 10
675.4343
 20
-28.664
 10
682.3973
 20
-18.8318
 10
682.7101
 20
-18.353
 10
682.9813
 20
-17.8546
 10
683.2106
 20
-17.3366
 10
683.3983
 20
-16.7989
 10
683.5443
 20
-16.2415
 10
683.6485
 20
-15.6646
 10
683.7111
 20
-15.068
 10
683.7319
 20
-14.4518
 10
683.7045
 20
-13.7418
 10
683.6223
 20
-13.0591
 10
683.4853
 20
-12.4036
 10
683.2935
 20
-11.7755
 10
683.0469
 20
-11.1746
 10
682.7455
 20
-10.6011
 10
682.3893
 20
-10.0548
 10
681.9784
 20
-9.5357
 10
681.5256
 20
-9.0583
 10
681.0507
 20
-8.6445
 10
680.5538
 20
-8.2944
 10
680.0348
 20
-8.008
 10
679.4937
 20
-7.7853
 10
678.9306
 20
-7.6262
 10
678.3453
 20
-7.5307
 10
677.7379
 20
-7.4989
 10
677.1219
 20
-7.5305
 10
676.5304
 20
-7.6253
 10
675.9635
 20
-7.7832
 10
675.4212
 20
-8.0043
 10
674.9035
 20
-8.2886
 10
674.4103
 20
-8.6361
 10
673.9416
 20
-9.0468
 10
673.4974
 20
-9.5206
 10
673.2998
 20
-9.7627
 10
673.1128
 20
-10.0144
 10
672.9366
 20
-10.2756
 10
672.771
 20
-10.5465
 10
672.616
 20
-10.8269
 10
672.4717
 20
-11.117
 10
672.3381
 20
-11.4167
 10
672.215
 20
-11.726
 10
672.1044
 20
-12.0442
 10
672.0086
 20
-12.371
 10
671.9275
 20
-12.7065
 10
671.8612
 20
-13.0505
 10
671.8097
 20
-13.4032
 10
671.7728
 20
-13.7644
 10
671.7508
 20
-14.1343
 10
671.7434
 20
-14.5128
  0
LWPOLYLINE
  5
74
330
1F
100
AcDbEntity
  8
Layer 1
 62
     7
100
AcDbPolyline
 90
      129
 70
     1
 43
0.0
 10
693.1947
 20
-10.2555
 10
693.4969
 20
-10.4957
 10
693.7787
 20
-10.7685
 10
694.04
 20
-11.0738
 10
694.2809
 20
-11.4118
 10
694.5014
 20
-11.7822
 10
694.7014
 20
-12.1853
 10
694.881
 20
-12.6208
 10
695.0402
 20
-13.0889
 10
695.2182
 20
-13.7099
 10
695.3724
 20
-14.34
 10
695.5029
 20
-14.9792
 10
695.6097
 20
-15.6274
 10
695.6927
 20
-16.2846
 10
695.752
 20
-16.951
 10
695.7876
 20
-17.6263
 10
695.7995
 20
-18.3108
 10
695.7983
 20
-18.4753
 10
695.7946
 20
-18.6469
 10
695.7884
 20
-18.8257
 10
695.7798
 20
-19.0117
 10
695.7687
 20
-19.2048
 10
695.7552
 20
-19.4051
 10
695.7393
 20
-19.6125
 10
695.721
 20
-19.8272
 10
695.6302
 20
-20.6506
 10
695.5115
 20
-21.4285
 10
695.365
 20
-22.1609
 10
695.1908
 20
-22.8479
 10
694.9887
 20
-23.4895
 10
694.7588
 20
-24.0856
 10
694.5012
 20
-24.6363
 10
694.2159
 20
-25.1416
 10
693.9552
 20
-25.5222
 10
693.6807
 20
-25.8519
 10
693.3923
 20
-26.131
 10
693.09
 20
-26.3592
 10
692.7738
 20
-26.5368
 10
692.4437
 20
-26.6636
 10
692.0997
 20
-26.7396
 10
691.7418
 20
-26.765
 10
691.3425
 20
-26.7399
 10
690.9624
 20
-26.6645
 10
690.6015
 20
-26.5388
 10
690.2599
 20
-26.3629
 10
689.9374
 20
-26.1368
 10
689.6342
 20
-25.8603
 10
689.3502
 20
-25.5336
 10
689.0855
 20
-25.1567
 10
688.9733
 20
-24.9739
 10
688.866
 20
-24.7853
 10
688.7637
 20
-24.591
 10
688.6663
 20
-24.391
 10
688.5739
 20
-24.1852
 10
688.4864
 20
-23.9737
 10
688.4038
 20
-23.7564
 10
688.3262
 20
-23.5333
 10
688.2531
 20
-23.3068
 10
688.1846
 20
-23.0789
 10
688.1206
 20
-22.8495
 10
688.0611
 20
-22.6186
 10
688.0061
 20
-22.3862
 10
687.9556
 20
-22.1524
 10
687.9096
 20
-21.9171
 10
687.8681
 20
-21.6803
 10
687.8302
 20
-21.4439
 10
687.7952
 20
-21.2094
 10
687.7631
 20
-20.9768
 10
687.7339
 20
-20.7461
 10
687.7075
 20
-20.5173
 10
687.684
 20
-20.2904
 10
687.6633
 20
-20.0654
 10
687.6454
 20
-19.8423
 10
687.6301
 20
-19.6161
 10
687.6169
 20
-19.3813
 10
687.6056
 20
-19.138
 10
687.5964
 20
-18.8861
 10
687.5891
 20
-18.6259
 10
687.584
 20
-18.3573
 10
687.5808
 20
-18.0803
 10
687.5798
 20
-17.7952
 10
687.5843
 20
-17.4976
 10
687.5978
 20
-17.1827
 10
687.6203
 20
-16.8503
 10
687.6519
 20
-16.5006
 10
687.6924
 20
-16.1333
 10
687.742
 20
-15.7485
 10
687.8005
 20
-15.3462
 10
687.8681
 20
-14.9262
 10
687.9094
 20
-14.693
 10
687.9548
 20
-14.4602
 10
688.0043
 20
-14.2279
 10
688.0579
 20
-13.9961
 10
688.1155
 20
-13.7647
 10
688.1771
 20
-13.5337
 10
688.2429
 20
-13.3032
 10
688.3127
 20
-13.0732
 10
688.3874
 20
-12.8465
 10
688.4675
 20
-12.6255
 10
688.5529
 20
-12.4102
 10
688.6435
 20
-12.2007
 10
688.7395
 20
-11.9968
 10
688.8407
 20
-11.7987
 10
688.9473
 20
-11.6063
 10
689.0591
 20
-11.4196
 10
689.1765
 20
-11.2403
 10
689.2996
 20
-11.0701
 10
689.4284
 20
-10.909
 10
689.563
 20
-10.757
 10
689.7032
 20
-10.6141
 10
689.8492
 20
-10.4804
 10
690.0009
 20
-10.3558
 10
690.1582
 20
-10.2404
 10
690.3223
 20
-10.1363
 10
690.4937
 20
-10.0461
 10
690.6725
 20
-9.9697
 10
690.8586
 20
-9.9073
 10
691.0521
 20
-9.8587
 10
691.253
 20
-9.824
 10
691.4612
 20
-9.8031
 10
691.6768
 20
-9.7962
 10
691.8923
 20
-9.8034
 10
692.1005
 20
-9.8249
 10
692.3012
 20
-9.8607
 10
692.4946
 20
-9.911
 10
692.6806
 20
-9.9755
 10
692.8593
 20
-10.0545
 10
693.0307
 20
-10.1478
 10
693.1947
 20
-10.2555
  0
LWPOLYLINE
  5
75
330
1F
100
AcDbEntity
  8
Layer 1
 62
     7
100
AcDbPolyline
 90
       65
 70
     1
 43
0.0
 10
691.7681
 20
-28.9396
 10
692.5323
 20
-28.8829
 10
693.2478
 20
-28.7127
 10
693.9146
 20
-28.4292
 10
694.5328
 20
-28.0322
 10
695.1023
 20
-27.5218
 10
695.6232
 20
-26.898
 10
696.0954
 20
-26.1609
 10
696.5189
 20
-25.3103
 10
696.8165
 20
-24.5679
 10
697.0744
 20
-23.7843
 10
697.2927
 20
-22.9597
 10
697.4712
 20
-22.0939
 10
697.61
 20
-21.1869
 10
697.7092
 20
-20.2388
 10
697.7687
 20
-19.2495
 10
697.7885
 20
-18.2189
 10
697.7687
 20
-17.1886
 10
697.7092
 20
-16.1994
 10
697.61
 20
-15.2514
 10
697.4712
 20
-14.3445
 10
697.2927
 20
-13.4788
 10
697.0744
 20
-12.6542
 10
696.8165
 20
-11.8706
 10
696.5189
 20
-11.1282
 10
696.0954
 20
-10.2776
 10
695.6232
 20
-9.5405
 10
695.1023
 20
-8.9167
 10
694.5328
 20
-8.4063
 10
693.9146
 20
-8.0093
 10
693.2478
 20
-7.7258
 10
692.5323
 20
-7.5556
 10
691.7681
 20
-7.4989
 10
691.004
 20
-7.5556
 10
690.2885
 20
-7.7258
 10
689.6216
 20
-8.0093
 10
689.0035
 20
-8.4063
 10
688.434
 20
-8.9167
 10
687.9131
 20
-9.5405
 10
687.4409
 20
-10.2776
 10
687.0174
 20
-11.1282
 10
686.7198
 20
-11.8706
 10
686.4619
 20
-12.6542
 10
686.2436
 20
-13.4788
 10
686.0651
 20
-14.3445
 10
685.9263
 20
-15.2514
 10
685.8271
 20
-16.1994
 10
685.7676
 20
-17.1886
 10
685.7478
 20
-18.2189
 10
685.7676
 20
-19.2495
 10
685.8271
 20
-20.2388
 10
685.9263
 20
-21.1869
 10
686.0651
 20
-22.0939
 10
686.2436
 20
-22.9597
 10
686.4619
 20
-23.7843
 10
686.7198
 20
-24.5679
 10
687.0174
 20
-25.3103
 10
687.4409
 20
-26.1609
 10
687.9131
 20
-26.898
 10
688.434
 20
-27.5218
 10
689.0035
 20
-28.0322
 10
689.6216
 20
-28.4292
 10
690.2885
 20
-28.7127
 10
691.004
 20
-28.8829
 10
691.7681
 20
-28.9396
  0
LWPOLYLINE
  5
76
330
1F
100
AcDbEntity
  8
Layer 1
 62
     7
100
AcDbPolyline
 90
      162
 70
     1
 43
0.0
 10
715.6667
 20
-28.603
 10
717.4986
 20
-28.603
 10
717.4986
 20
-20.1796
 10
717.4837
 20
-19.6203
 10
717.4389
 20
-19.0873
 10
717.3644
 20
-18.5806
 10
717.26
 20
-18.1003
 10
717.1257
 20
-17.6464
 10
716.9616
 20
-17.2188
 10
716.7676
 20
-16.8175
 10
716.5437
 20
-16.4426
 10
716.4188
 20
-16.2634
 10
716.286
 20
-16.0933
 10
716.1455
 20
-15.9322
 10
715.9972
 20
-15.7803
 10
715.8411
 20
-15.6375
 10
715.6773
 20
-15.5038
 10
715.5057
 20
-15.3791
 10
715.3263
 20
-15.2635
 10
715.1357
 20
-15.1594
 10
714.9304
 20
-15.0691
 10
714.7104
 20
-14.9928
 10
714.4756
 20
-14.9303
 10
714.2261
 20
-14.8817
 10
713.9619
 20
-14.8471
 10
713.683
 20
-14.8262
 10
713.3894
 20
-14.8193
 10
713.0931
 20
-14.8313
 10
712.8062
 20
-14.8671
 10
712.5287
 20
-14.9269
 10
712.2606
 20
-15.0106
 10
712.0019
 20
-15.1183
 10
711.7526
 20
-15.2499
 10
711.5126
 20
-15.4055
 10
711.2821
 20
-15.585
 10
711.082
 20
-15.7639
 10
710.891
 20
-15.9562
 10
710.709
 20
-16.1616
 10
710.536
 20
-16.3801
 10
710.372
 20
-16.6115
 10
710.217
 20
-16.8556
 10
710.071
 20
-17.1125
 10
709.934
 20
-17.3819
 10
709.8277
 20
-17.1333
 10
709.7116
 20
-16.8932
 10
709.5857
 20
-16.6626
 10
709.4501
 20
-16.4426
 10
709.3252
 20
-16.2634
 10
709.1924
 20
-16.0933
 10
709.0519
 20
-15.9322
 10
708.9036
 20
-15.7803
 10
708.7475
 20
-15.6375
 10
708.5836
 20
-15.5038
 10
708.412
 20
-15.3791
 10
708.2326
 20
-15.2635
 10
708.042
 20
-15.1594
 10
707.8367
 20
-15.0691
 10
707.6167
 20
-14.9928
 10
707.382
 20
-14.9303
 10
707.1325
 20
-14.8817
 10
706.8683
 20
-14.8471
 10
706.5894
 20
-14.8262
 10
706.2958
 20
-14.8193
 10
705.9995
 20
-14.8313
 10
705.7126
 20
-14.8671
 10
705.4351
 20
-14.9269
 10
705.167
 20
-15.0106
 10
704.9082
 20
-15.1183
 10
704.6589
 20
-15.2499
 10
704.419
 20
-15.4055
 10
704.1884
 20
-15.585
 10
703.9979
 20
-15.7553
 10
703.8155
 20
-15.9373
 10
703.6413
 20
-16.1309
 10
703.4752
 20
-16.3361
 10
703.3173
 20
-16.5531
 10
703.1676
 20
-16.7819
 10
703.026
 20
-17.0225
 10
702.8925
 20
-17.2749
 10
702.8925
 20
-15.1257
 10
701.0605
 20
-15.1257
 10
701.0605
 20
-28.603
 10
702.8925
 20
-28.603
 10
702.8925
 20
-21.7056
 10
702.9351
 20
-21.3039
 10
702.9907
 20
-20.9179
 10
703.0595
 20
-20.5474
 10
703.1413
 20
-20.1923
 10
703.2362
 20
-19.8524
 10
703.3442
 20
-19.5278
 10
703.4653
 20
-19.2183
 10
703.5996
 20
-18.9237
 10
703.7087
 20
-18.7141
 10
703.8269
 20
-18.514
 10
703.9541
 20
-18.3235
 10
704.0903
 20
-18.1426
 10
704.2355
 20
-17.9713
 10
704.3898
 20
-17.8096
 10
704.5529
 20
-17.6574
 10
704.7251
 20
-17.5148
 10
704.9034
 20
-17.3856
 10
705.0849
 20
-17.2737
 10
705.2698
 20
-17.179
 10
705.4579
 20
-17.1015
 10
705.6493
 20
-17.0412
 10
705.844
 20
-16.9981
 10
706.0419
 20
-16.9723
 10
706.2431
 20
-16.9637
 10
706.4395
 20
-16.9682
 10
706.6228
 20
-16.9818
 10
706.793
 20
-17.0045
 10
706.9501
 20
-17.0363
 10
707.0941
 20
-17.0771
 10
707.225
 20
-17.1271
 10
707.3429
 20
-17.1861
 10
707.4476
 20
-17.2543
 10
707.7113
 20
-17.4827
 10
707.9398
 20
-17.7502
 10
708.1332
 20
-18.057
 10
708.2915
 20
-18.4031
 10
708.4146
 20
-18.7883
 10
708.5026
 20
-19.2128
 10
708.5554
 20
-19.6766
 10
708.573
 20
-20.1796
 10
708.573
 20
-28.603
 10
710.405
 20
-28.603
 10
710.405
 20
-20.1796
 10
710.3921
 20
-19.6641
 10
710.6933
 20
-18.9237
 10
710.8024
 20
-18.7141
 10
710.9205
 20
-18.514
 10
711.0477
 20
-18.3235
 10
711.1839
 20
-18.1426
 10
711.3291
 20
-17.9713
 10
711.4834
 20
-17.8096
 10
711.6465
 20
-17.6574
 10
711.8187
 20
-17.5148
 10
711.997
 20
-17.3856
 10
712.1785
 20
-17.2737
 10
712.3634
 20
-17.179
 10
712.5515
 20
-17.1015
 10
712.7429
 20
-17.0412
 10
712.9376
 20
-16.9981
 10
713.1355
 20
-16.9723
 10
713.3367
 20
-16.9637
 10
713.5331
 20
-16.9682
 10
713.7164
 20
-16.9818
 10
713.8866
 20
-17.0045
 10
714.0437
 20
-17.0363
 10
714.1877
 20
-17.0771
 10
714.3186
 20
-17.1271
 10
714.4365
 20
-17.1861
 10
714.5412
 20
-17.2543
 10
714.8049
 20
-17.4827
 10
715.0334
 20
-17.7502
 10
715.2269
 20
-18.057
 10
715.3852
 20
-18.4031
 10
715.5083
 20
-18.7883
 10
715.5963
 20
-19.2128
 10
715.6491
 20
-19.6766
 10
715.6667
 20
-20.1796
 10
715.6667
 20
-28.603
  0
LWPOLYLINE
  5
77
330
1F
100
AcDbEntity
  8
Layer 1
 62
     7
100
AcDbPolyline
 90
      162
 70
     1
 43
0.0
 10
735.6387
 20
-28.603
 10
737.4707
 20
-28.603
 10
737.4707
 20
-20.1796
 10
737.4558
 20
-19.6203
 10
737.411
 20
-19.0873
 10
737.3365
 20
-18.5806
 10
737.232
 20
-18.1003
 10
737.0978
 20
-17.6464
 10
736.9336
 20
-17.2188
 10
736.7396
 20
-16.8175
 10
736.5157
 20
-16.4426
 10
736.3908
 20
-16.2634
 10
736.258
 20
-16.0933
 10
736.1175
 20
-15.9322
 10
735.9692
 20
-15.7803
 10
735.8131
 20
-15.6375
 10
735.6493
 20
-15.5038
 10
735.4777
 20
-15.3791
 10
735.2983
 20
-15.2635
 10
735.1077
 20
-15.1594
 10
734.9024
 20
-15.0691
 10
734.6824
 20
-14.9928
 10
734.4477
 20
-14.9303
 10
734.1982
 20
-14.8817
 10
733.934
 20
-14.8471
 10
733.6551
 20
-14.8262
 10
733.3615
 20
-14.8193
 10
733.0652
 20
-14.8313
 10
732.7783
 20
-14.8671
 10
732.5008
 20
-14.9269
 10
732.2327
 20
-15.0106
 10
731.9739
 20
-15.1183
 10
731.7246
 20
-15.2499
 10
731.4847
 20
-15.4055
 10
731.2541
 20
-15.585
 10
731.0541
 20
-15.7639
 10
730.8631
 20
-15.9562
 10
730.681
 20
-16.1616
 10
730.508
 20
-16.3801
 10
730.344
 20
-16.6115
 10
730.189
 20
-16.8556
 10
730.043
 20
-17.1125
 10
729.906
 20
-17.3819
 10
729.7997
 20
-17.1333
 10
729.6836
 20
-16.8932
 10
729.5578
 20
-16.6626
 10
729.4221
 20
-16.4426
 10
729.2972
 20
-16.2634
 10
729.1644
 20
-16.0933
 10
729.0239
 20
-15.9322
 10
728.8756
 20
-15.7803
 10
728.7195
 20
-15.6375
 10
728.5557
 20
-15.5038
 10
728.3841
 20
-15.3791
 10
728.2047
 20
-15.2635
 10
728.0141
 20
-15.1594
 10
727.8088
 20
-15.0691
 10
727.5888
 20
-14.9928
 10
727.354
 20
-14.9303
 10
727.1046
 20
-14.8817
 10
726.8404
 20
-14.8471
 10
726.5614
 20
-14.8262
 10
726.2678
 20
-14.8193
 10
725.9715
 20
-14.8313
 10
725.6846
 20
-14.8671
 10
725.4071
 20
-14.9269
 10
725.139
 20
-15.0106
 10
724.8803
 20
-15.1183
 10
724.631
 20
-15.2499
 10
724.3911
 20
-15.4055
 10
724.1605
 20
-15.585
 10
723.9699
 20
-15.7553
 10
723.7875
 20
-15.9373
 10
723.6133
 20
-16.1309
 10
723.4473
 20
-16.3361
 10
723.2894
 20
-16.5531
 10
723.1396
 20
-16.7819
 10
722.998
 20
-17.0225
 10
722.8646
 20
-17.2749
 10
722.8646
 20
-15.1257
 10
721.0326
 20
-15.1257
 10
721.0326
 20
-28.603
 10
722.8646
 20
-28.603
 10
722.8646
 20
-21.7056
 10
722.9071
 20
-21.3039
 10
722.9628
 20
-20.9179
 10
723.0315
 20
-20.5474
 10
723.1133
 20
-20.1923
 10
723.2083
 20
-19.8524
 10
723.3163
 20
-19.5278
 10
723.4374
 20
-19.2183
 10
723.5717
 20
-18.9237
 10
723.6808
 20
-18.7141
 10
723.799
 20
-18.514
 10
723.9262
 20
-18.3235
 10
724.0624
 20
-18.1426
 10
724.2076
 20
-17.9713
 10
724.3618
 20
-17.8096
 10
724.525
 20
-17.6574
 10
724.6971
 20
-17.5148
 10
724.8754
 20
-17.3856
 10
725.057
 20
-17.2737
 10
725.2419
 20
-17.179
 10
725.43
 20
-17.1015
 10
725.6214
 20
-17.0412
 10
725.8161
 20
-16.9981
 10
726.014
 20
-16.9723
 10
726.2151
 20
-16.9637
 10
726.4115
 20
-16.9682
 10
726.5948
 20
-16.9818
 10
726.7651
 20
-17.0045
 10
726.9222
 20
-17.0363
 10
727.0662
 20
-17.0771
 10
727.1971
 20
-17.1271
 10
727.3149
 20
-17.1861
 10
727.4196
 20
-17.2543
 10
727.6833
 20
-17.4827
 10
727.9119
 20
-17.7502
 10
728.1053
 20
-18.057
 10
728.2636
 20
-18.4031
 10
728.3867
 20
-18.7883
 10
728.4747
 20
-19.2128
 10
728.5275
 20
-19.6766
 10
728.5451
 20
-20.1796
 10
728.5451
 20
-28.603
 10
730.3771
 20
-28.603
 10
730.3771
 20
-20.1796
 10
730.3642
 20
-19.6641
 10
730.6653
 20
-18.9237
 10
730.7744
 20
-18.7141
 10
730.8926
 20
-18.514
 10
731.0198
 20
-18.3235
 10
731.156
 20
-18.1426
 10
731.3012
 20
-17.9713
 10
731.4554
 20
-17.8096
 10
731.6186
 20
-17.6574
 10
731.7908
 20
-17.5148
 10
731.9691
 20
-17.3856
 10
732.1506
 20
-17.2737
 10
732.3355
 20
-17.179
 10
732.5236
 20
-17.1015
 10
732.715
 20
-17.0412
 10
732.9097
 20
-16.9981
 10
733.1076
 20
-16.9723
 10
733.3087
 20
-16.9637
 10
733.5052
 20
-16.9682
 10
733.6885
 20
-16.9818
 10
733.8587
 20
-17.0045
 10
734.0158
 20
-17.0363
 10
734.1598
 20
-17.0771
 10
734.2907
 20
-17.1271
 10
734.4086
 20
-17.1861
 10
734.5133
 20
-17.2543
 10
734.777
 20
-17.4827
 10
735.0055
 20
-17.7502
 10
735.1989
 20
-18.057
 10
735.3572
 20
-18.4031
 10
735.4803
 20
-18.7883
 10
735.5683
 20
-19.2128
 10
735.6211
 20
-19.6766
 10
735.6387
 20
-20.1796
 10
735.6387
 20
-28.603
  0
LWPOLYLINE
  5
78
330
1F
100
AcDbEntity
  8
Layer 1
 62
     7
100
AcDbPolyline
 90
        4
 70
     1
 43
0.0
 10
212.9329
 20
1.8977
 10
212.9329
 20
-9.215
 10
205.58
 20
-9.215
 10
212.9329
 20
1.8977
  0
LWPOLYLINE
  5
79
330
1F
100
AcDbEntity
  8
Layer 1
 62
     7
100
AcDbPolyline
 90
       11
 70
     1
 43
0.0
 10
214.997
 20
-11.251
 10
217.4294
 20
-11.251
 10
217.4294
 20
-9.215
 10
214.997
 20
-9.215
 10
214.9691
 20
4.047
 10
212.1975
 20
4.047
 10
202.0735
 20
-11.251
 10
212.9329
 20
-11.251
 10
212.9329
 20
-15.1812
 10
214.997
 20
-15.1812
 10
214.997
 20
-11.251
  0
LWPOLYLINE
  5
7A
330
1F
100
AcDbEntity
  8
Layer 1
 62
     7
100
AcDbPolyline
 90
      137
 70
     1
 43
0.0
 10
228.8401
 20
-14.9692
 10
229.129
 20
-14.8398
 10
229.4092
 20
-14.6989
 10
229.6804
 20
-14.5465
 10
229.9429
 20
-14.3826
 10
230.1966
 20
-14.2071
 10
230.4414
 20
-14.0202
 10
230.6775
 20
-13.8217
 10
230.9048
 20
-13.6117
 10
231.3521
 20
-13.1373
 10
231.7397
 20
-12.6363
 10
232.0677
 20
-12.1087
 10
232.336
 20
-11.5547
 10
232.5447
 20
-10.9741
 10
232.6938
 20
-10.367
 10
232.7833
 20
-9.7334
 10
232.8131
 20
-9.0733
 10
232.7828
 20
-8.4128
 10
232.6921
 20
-7.7779
 10
232.5407
 20
-7.1687
 10
232.3289
 20
-6.5851
 10
232.0565
 20
-6.0271
 10
231.7237
 20
-5.4948
 10
231.3302
 20
-4.9881
 10
230.8763
 20
-4.507
 10
230.407
 20
-4.0915
 10
229.9076
 20
-3.7256
 10
229.3783
 20
-3.4092
 10
228.8189
 20
-3.1423
 10
228.2295
 20
-2.9249
 10
227.61
 20
-2.757
 10
226.9606
 20
-2.6387
 10
226.2811
 20
-2.5698
 10
225.4323
 20
-3.0786
 10
231.4561
 20
4.047
 10
221.1055
 20
4.047
 10
221.1055
 20
2.0674
 10
227.44
 20
2.0674
 10
221.615
 20
-4.719
 10
223.1138
 20
-5.9348
 10
223.461
 20
-5.6166
 10
223.8241
 20
-5.3409
 10
224.2032
 20
-5.1076
 10
224.5982
 20
-4.9167
 10
225.0091
 20
-4.7682
 10
225.436
 20
-4.6621
 10
225.8787
 20
-4.5985
 10
226.3374
 20
-4.5773
 10
226.7954
 20
-4.5979
 10
227.2362
 20
-4.6595
 10
227.6597
 20
-4.7623
 10
228.0659
 20
-4.9062
 10
228.4549
 20
-5.0911
 10
228.8267
 20
-5.3171
 10
229.1813
 20
-5.5842
 10
229.5186
 20
-5.8924
 10
229.8268
 20
-6.2293
 10
230.0939
 20
-6.5825
 10
230.32
 20
-6.9522
 10
230.505
 20
-7.3381
 10
230.6489
 20
-7.7405
 10
230.7517
 20
-8.1591
 10
230.8133
 20
-8.5941
 10
230.8339
 20
-9.0454
 10
230.8129
 20
-9.4867
 10
230.75
 20
-9.913
 10
230.6451
 20
-10.3243
 10
230.4982
 20
-10.7205
 10
230.3093
 20
-11.1018
 10
230.0785
 20
-11.468
 10
229.8056
 20
-11.8192
 10
229.4908
 20
-12.1554
 10
229.3353
 20
-12.3002
 10
229.1733
 20
-12.4375
 10
229.0047
 20
-12.5672
 10
228.8294
 20
-12.6894
 10
228.6476
 20
-12.8041
 10
228.4591
 20
-12.9112
 10
228.264
 20
-13.0108
 10
228.0622
 20
-13.1028
 10
227.852
 20
-13.1856
 10
227.6312
 20
-13.2574
 10
227.3997
 20
-13.3182
 10
227.1576
 20
-13.368
 10
226.9048
 20
-13.4068
 10
226.6415
 20
-13.4344
 10
226.3675
 20
-13.4511
 10
226.083
 20
-13.4566
 10
225.7932
 20
-13.4444
 10
225.5033
 20
-13.408
 10
225.2134
 20
-13.3472
 10
224.9235
 20
-13.2621
 10
224.6335
 20
-13.1527
 10
224.3436
 20
-13.019
 10
224.0537
 20
-12.861
 10
223.7639
 20
-12.6788
 10
223.4847
 20
-12.4758
 10
223.2267
 20
-12.2555
 10
222.9898
 20
-12.018
 10
222.7742
 20
-11.7633
 10
222.5798
 20
-11.4913
 10
222.4066
 20
-11.202
 10
222.2546
 20
-10.8956
 10
222.1239
 20
-10.5719
 10
220.201
 20
-11.2225
 10
220.3837
 20
-11.6833
 10
220.5995
 20
-12.122
 10
220.8485
 20
-12.5386
 10
221.1306
 20
-12.9332
 10
221.4458
 20
-13.3057
 10
221.7942
 20
-13.6561
 10
222.1757
 20
-13.9845
 10
222.5904
 20
-14.2908
 10
222.7944
 20
-14.4247
 10
223.0032
 20
-14.5512
 10
223.2168
 20
-14.6702
 10
223.4353
 20
-14.7818
 10
223.6586
 20
-14.8858
 10
223.8868
 20
-14.9824
 10
224.1198
 20
-15.0713
 10
224.3576
 20
-15.1527
 10
224.6014
 20
-15.2257
 10
224.8518
 20
-15.2889
 10
225.1088
 20
-15.3425
 10
225.3724
 20
-15.3863
 10
225.6427
 20
-15.4203
 10
225.9196
 20
-15.4446
 10
226.203
 20
-15.4592
 10
226.4931
 20
-15.4641
 10
226.7865
 20
-15.4564
 10
227.0799
 20
-15.4331
 10
227.3733
 20
-15.3944
 10
227.6666
 20
-15.3403
 10
227.96
 20
-15.2707
 10
228.2534
 20
-15.1856
 10
228.5467
 20
-15.0851
 10
228.8401
 20
-14.9692
  0
LWPOLYLINE
  5
7B
330
1F
100
AcDbEntity
  8
Layer 1
 62
     7
100
AcDbPolyline
 90
      136
 70
     1
 43
0.0
 10
238.5261
 20
-3.0786
 10
239.8268
 20
2.0674
 10
246.7834
 20
2.0674
 10
246.7834
 20
4.047
 10
238.3279
 20
4.047
 10
236.1221
 20
-4.5773
 10
238.271
 20
-5.5386
 10
238.5828
 20
-5.3266
 10
238.9101
 20
-5.1429
 10
239.2528
 20
-4.9874
 10
239.611
 20
-4.8602
 10
239.9847
 20
-4.7613
 10
240.3738
 20
-4.6907
 10
240.7783
 20
-4.6483
 10
241.1983
 20
-4.6342
 10
241.6206
 20
-4.655
 10
242.0288
 20
-4.7173
 10
242.4229
 20
-4.8211
 10
242.8028
 20
-4.9665
 10
243.1687
 20
-5.1534
 10
243.5204
 20
-5.3818
 10
243.8579
 20
-5.6518
 10
244.1814
 20
-5.9633
 10
244.4863
 20
-6.3107
 10
244.7505
 20
-6.671
 10
244.9742
 20
-7.0441
 10
245.1572
 20
-7.43
 10
245.2996
 20
-7.8287
 10
245.4013
 20
-8.2403
 10
245.4623
 20
-8.6646
 10
245.4827
 20
-9.1018
 10
245.4619
 20
-9.5541
 10
245.3996
 20
-9.9882
 10
245.2958
 20
-10.4042
 10
245.1504
 20
-10.8021
 10
244.9635
 20
-11.1818
 10
244.7351
 20
-11.5434
 10
244.4651
 20
-11.887
 10
244.1536
 20
-12.2124
 10
243.995
 20
-12.357
 10
243.8308
 20
-12.4941
 10
243.6608
 20
-12.6237
 10
243.4851
 20
-12.7458
 10
243.3037
 20
-12.8604
 10
243.1165
 20
-12.9675
 10
242.9236
 20
-13.0671
 10
242.725
 20
-13.1592
 10
242.5178
 20
-13.2422
 10
242.299
 20
-13.314
 10
242.0689
 20
-13.3748
 10
241.8272
 20
-13.4246
 10
241.5741
 20
-13.4632
 10
241.3095
 20
-13.4908
 10
241.0334
 20
-13.5074
 10
240.7458
 20
-13.5129
 10
240.4526
 20
-13.5005
 10
240.1599
 20
-13.4634
 10
239.8676
 20
-13.4016
 10
239.5757
 20
-13.315
 10
239.2843
 20
-13.2036
 10
238.9933
 20
-13.0676
 10
238.7028
 20
-12.9068
 10
238.4128
 20
-12.7212
 10
238.1336
 20
-12.5158
 10
237.8755
 20
-12.2953
 10
237.6387
 20
-12.0598
 10
237.423
 20
-11.8093
 10
237.2285
 20
-11.5437
 10
237.0552
 20
-11.2631
 10
236.9031
 20
-10.9674
 10
236.7722
 20
-10.6567
 10
234.8493
 20
-11.2789
 10
235.0382
 20
-11.7444
 10
235.2585
 20
-12.1866
 10
235.5101
 20
-12.6052
 10
235.7932
 20
-13.0005
 10
236.1076
 20
-13.3723
 10
236.4534
 20
-13.7206
 10
236.8306
 20
-14.0456
 10
237.2393
 20
-14.3471
 10
237.6735
 20
-14.6221
 10
238.1175
 20
-14.8604
 10
238.5712
 20
-15.0621
 10
239.0347
 20
-15.2271
 10
239.508
 20
-15.3554
 10
239.991
 20
-15.4471
 10
240.4837
 20
-15.5021
 10
240.9863
 20
-15.5204
 10
241.6556
 20
-15.4901
 10
242.2994
 20
-15.3994
 10
242.9174
 20
-15.2481
 10
243.5099
 20
-15.0363
 10
244.0768
 20
-14.7639
 10
244.6181
 20
-14.4311
 10
245.1338
 20
-14.0377
 10
245.6239
 20
-13.5838
 10
246.068
 20
-13.0908
 10
246.4529
 20
-12.5736
 10
246.7785
 20
-12.0321
 10
247.0449
 20
-11.4663
 10
247.252
 20
-10.8763
 10
247.4
 20
-10.262
 10
247.4887
 20
-9.6234
 10
247.5183
 20
-8.9606
 10
247.4892
 20
-8.3012
 10
247.4017
 20
-7.6696
 10
247.256
 20
-7.0659
 10
247.052
 20
-6.49
 10
246.7896
 20
-5.9419
 10
246.4689
 20
-5.4217
 10
246.0898
 20
-4.9292
 10
245.6524
 20
-4.4646
 10
245.4287
 20
-4.258
 10
245.1962
 20
-4.0624
 10
244.9549
 20
-3.878
 10
244.7048
 20
-3.7045
 10
244.4459
 20
-3.5421
 10
244.1781
 20
-3.3908
 10
243.9016
 20
-3.2504
 10
243.6162
 20
-3.121
 10
243.3251
 20
-3.0051
 10
243.0313
 20
-2.9047
 10
242.735
 20
-2.8197
 10
242.4362
 20
-2.7502
 10
242.1349
 20
-2.6962
 10
241.8312
 20
-2.6576
 10
241.5251
 20
-2.6344
 10
241.2167
 20
-2.6267
 10
240.9026
 20
-2.6338
 10
240.5823
 20
-2.655
 10
240.2556
 20
-2.6903
 10
239.9226
 20
-2.7397
 10
239.5832
 20
-2.8033
 10
239.2373
 20
-2.8809
 10
238.885
 20
-2.9727
 10
238.5261
 20
-3.0786
  0
LWPOLYLINE
  5
7C
330
1F
100
AcDbEntity
  8
Layer 1
 62
     7
100
AcDbPolyline
 90
      165
 70
     1
 43
0.0
 10
266.9181
 20
-15.1249
 10
268.8973
 20
-15.1249
 10
268.8973
 20
-7.3487
 10
268.8812
 20
-6.8323
 10
268.8328
 20
-6.3402
 10
268.7523
 20
-5.8725
 10
268.6395
 20
-5.4291
 10
268.4944
 20
-5.0101
 10
268.3171
 20
-4.6153
 10
268.1075
 20
-4.2449
 10
267.8656
 20
-3.8988
 10
267.7306
 20
-3.7333
 10
267.5872
 20
-3.5763
 10
267.4353
 20
-3.4276
 10
267.2751
 20
-3.2874
 10
267.1065
 20
-3.1555
 10
266.9295
 20
-3.0321
 10
266.7441
 20
-2.917
 10
266.5503
 20
-2.8103
 10
266.3444
 20
-2.7142
 10
266.1226
 20
-2.6309
 10
265.8849
 20
-2.5604
 10
265.6313
 20
-2.5027
 10
265.3617
 20
-2.4579
 10
265.0763
 20
-2.4258
 10
264.775
 20
-2.4066
 10
264.4578
 20
-2.4002
 10
264.1377
 20
-2.4112
 10
263.8278
 20
-2.4443
 10
263.528
 20
-2.4995
 10
263.2383
 20
-2.5768
 10
262.9588
 20
-2.6762
 10
262.6894
 20
-2.7977
 10
262.4302
 20
-2.9414
 10
262.1811
 20
-3.1071
 10
261.965
 20
-3.2723
 10
261.7586
 20
-3.4497
 10
261.562
 20
-3.6394
 10
261.3751
 20
-3.8411
 10
261.1979
 20
-4.0547
 10
261.0304
 20
-4.2801
 10
260.8727
 20
-4.5172
 10
260.7247
 20
-4.7659
 10
260.6098
 20
-4.5364
 10
260.4844
 20
-4.3148
 10
260.3485
 20
-4.1019
 10
260.2019
 20
-3.8988
 10
260.0669
 20
-3.7333
 10
259.9235
 20
-3.5763
 10
259.7716
 20
-3.4276
 10
259.6114
 20
-3.2874
 10
259.4428
 20
-3.1555
 10
259.2658
 20
-3.0321
 10
259.0804
 20
-2.917
 10
258.8866
 20
-2.8103
 10
258.6807
 20
-2.7142
 10
258.4589
 20
-2.6309
 10
258.2212
 20
-2.5604
 10
257.9676
 20
-2.5027
 10
257.698
 20
-2.4579
 10
257.4126
 20
-2.4258
 10
257.1113
 20
-2.4066
 10
256.7941
 20
-2.4002
 10
256.474
 20
-2.4112
 10
256.1641
 20
-2.4443
 10
255.8643
 20
-2.4995
 10
255.5746
 20
-2.5768
 10
255.2951
 20
-2.6762
 10
255.0257
 20
-2.7977
 10
254.7665
 20
-2.9414
 10
254.5174
 20
-3.1071
 10
254.3115
 20
-3.2643
 10
254.1145
 20
-3.4323
 10
253.9263
 20
-3.611
 10
253.7469
 20
-3.8005
 10
253.5763
 20
-4.0008
 10
253.4145
 20
-4.212
 10
253.2615
 20
-4.4341
 10
253.1173
 20
-4.6671
 10
253.1173
 20
-2.6831
 10
251.1381
 20
-2.6831
 10
251.1381
 20
-15.1249
 10
253.1173
 20
-15.1249
 10
253.1173
 20
-8.7575
 10
253.1633
 20
-8.3867
 10
253.2234
 20
-8.0303
 10
253.2977
 20
-7.6882
 10
253.3861
 20
-7.3604
 10
253.4886
 20
-7.0467
 10
253.6054
 20
-6.747
 10
253.7362
 20
-6.4612
 10
253.8813
 20
-6.1892
 10
253.9992
 20
-5.9957
 10
254.1268
 20
-5.811
 10
254.2642
 20
-5.6352
 10
254.4114
 20
-5.4682
 10
254.5683
 20
-5.3101
 10
254.7349
 20
-5.1608
 10
254.9112
 20
-5.0203
 10
255.0972
 20
-4.8887
 10
255.2898
 20
-4.7694
 10
255.486
 20
-4.666
 10
255.6857
 20
-4.5786
 10
255.8889
 20
-4.507
 10
256.0957
 20
-4.4514
 10
256.306
 20
-4.4116
 10
256.5198
 20
-4.3878
 10
256.7371
 20
-4.3798
 10
256.9493
 20
-4.384
 10
257.1474
 20
-4.3966
 10
257.3313
 20
-4.4175
 10
257.501
 20
-4.4468
 10
257.6566
 20
-4.4846
 10
257.798
 20
-4.5307
 10
257.9253
 20
-4.5852
 10
258.0385
 20
-4.6482
 10
258.3233
 20
-4.859
 10
258.5702
 20
-5.106
 10
258.7792
 20
-5.3892
 10
258.9502
 20
-5.7087
 10
259.0833
 20
-6.0643
 10
259.1783
 20
-6.4562
 10
259.2354
 20
-6.8843
 10
259.2544
 20
-7.3487
 10
259.2544
 20
-15.1249
 10
261.2336
 20
-15.1249
 10
261.2336
 20
-7.3487
 10
261.2197
 20
-6.8727
 10
261.293
 20
-6.6924
 10
261.3717
 20
-6.5186
 10
261.4556
 20
-6.351
 10
261.545
 20
-6.1892
 10
261.6629
 20
-5.9957
 10
261.7905
 20
-5.811
 10
261.9279
 20
-5.6352
 10
262.0751
 20
-5.4682
 10
262.232
 20
-5.3101
 10
262.3986
 20
-5.1608
 10
262.5749
 20
-5.0203
 10
262.7609
 20
-4.8887
 10
262.9535
 20
-4.7694
 10
263.1497
 20
-4.666
 10
263.3494
 20
-4.5786
 10
263.5526
 20
-4.507
 10
263.7594
 20
-4.4514
 10
263.9697
 20
-4.4116
 10
264.1835
 20
-4.3878
 10
264.4008
 20
-4.3798
 10
264.613
 20
-4.384
 10
264.8111
 20
-4.3966
 10
264.995
 20
-4.4175
 10
265.1647
 20
-4.4468
 10
265.3203
 20
-4.4846
 10
265.4617
 20
-4.5307
 10
265.589
 20
-4.5852
 10
265.7022
 20
-4.6482
 10
265.987
 20
-4.859
 10
266.2339
 20
-5.106
 10
266.4429
 20
-5.3892
 10
266.6139
 20
-5.7087
 10
266.747
 20
-6.0643
 10
266.842
 20
-6.4562
 10
266.8991
 20
-6.8843
 10
266.9181
 20
-7.3487
 10
266.9181
 20
-15.1249
  0
LWPOLYLINE
  5
7D
330
1F
100
AcDbEntity
  8
Layer 1
 62
     7
100
AcDbPolyline
 90
      165
 70
     1
 43
0.0
 10
288.4951
 20
-15.1249
 10
290.4744
 20
-15.1249
 10
290.4744
 20
-7.3487
 10
290.4583
 20
-6.8323
 10
290.4099
 20
-6.3402
 10
290.3294
 20
-5.8725
 10
290.2166
 20
-5.4291
 10
290.0715
 20
-5.0101
 10
289.8942
 20
-4.6153
 10
289.6846
 20
-4.2449
 10
289.4427
 20
-3.8988
 10
289.3077
 20
-3.7333
 10
289.1643
 20
-3.5763
 10
289.0124
 20
-3.4276
 10
288.8522
 20
-3.2874
 10
288.6836
 20
-3.1555
 10
288.5066
 20
-3.0321
 10
288.3212
 20
-2.917
 10
288.1274
 20
-2.8103
 10
287.9215
 20
-2.7142
 10
287.6997
 20
-2.6309
 10
287.462
 20
-2.5604
 10
287.2084
 20
-2.5027
 10
286.9388
 20
-2.4579
 10
286.6534
 20
-2.4258
 10
286.3521
 20
-2.4066
 10
286.0349
 20
-2.4002
 10
285.7148
 20
-2.4112
 10
285.4048
 20
-2.4443
 10
285.105
 20
-2.4995
 10
284.8153
 20
-2.5768
 10
284.5358
 20
-2.6762
 10
284.2665
 20
-2.7977
 10
284.0073
 20
-2.9414
 10
283.7582
 20
-3.1071
 10
283.5421
 20
-3.2723
 10
283.3357
 20
-3.4497
 10
283.139
 20
-3.6394
 10
282.9521
 20
-3.8411
 10
282.7749
 20
-4.0547
 10
282.6075
 20
-4.2801
 10
282.4498
 20
-4.5172
 10
282.3018
 20
-4.7659
 10
282.1869
 20
-4.5364
 10
282.0615
 20
-4.3148
 10
281.9256
 20
-4.1019
 10
281.779
 20
-3.8988
 10
281.644
 20
-3.7333
 10
281.5006
 20
-3.5763
 10
281.3487
 20
-3.4276
 10
281.1885
 20
-3.2874
 10
281.0199
 20
-3.1555
 10
280.8429
 20
-3.0321
 10
280.6575
 20
-2.917
 10
280.4637
 20
-2.8103
 10
280.2578
 20
-2.7142
 10
280.036
 20
-2.6309
 10
279.7983
 20
-2.5604
 10
279.5447
 20
-2.5027
 10
279.2751
 20
-2.4579
 10
278.9897
 20
-2.4258
 10
278.6884
 20
-2.4066
 10
278.3712
 20
-2.4002
 10
278.0511
 20
-2.4112
 10
277.7412
 20
-2.4443
 10
277.4414
 20
-2.4995
 10
277.1517
 20
-2.5768
 10
276.8722
 20
-2.6762
 10
276.6028
 20
-2.7977
 10
276.3436
 20
-2.9414
 10
276.0945
 20
-3.1071
 10
275.8886
 20
-3.2643
 10
275.6916
 20
-3.4323
 10
275.5034
 20
-3.611
 10
275.324
 20
-3.8005
 10
275.1534
 20
-4.0008
 10
274.9916
 20
-4.212
 10
274.8386
 20
-4.4341
 10
274.6944
 20
-4.6671
 10
274.6944
 20
-2.6831
 10
272.7152
 20
-2.6831
 10
272.7152
 20
-15.1249
 10
274.6944
 20
-15.1249
 10
274.6944
 20
-8.7575
 10
274.7404
 20
-8.3867
 10
274.8005
 20
-8.0303
 10
274.8748
 20
-7.6882
 10
274.9632
 20
-7.3604
 10
275.0657
 20
-7.0467
 10
275.1825
 20
-6.747
 10
275.3133
 20
-6.4612
 10
275.4584
 20
-6.1892
 10
275.5763
 20
-5.9957
 10
275.7039
 20
-5.811
 10
275.8413
 20
-5.6352
 10
275.9885
 20
-5.4682
 10
276.1454
 20
-5.3101
 10
276.312
 20
-5.1608
 10
276.4883
 20
-5.0203
 10
276.6743
 20
-4.8887
 10
276.8669
 20
-4.7694
 10
277.0631
 20
-4.666
 10
277.2628
 20
-4.5786
 10
277.466
 20
-4.507
 10
277.6728
 20
-4.4514
 10
277.8831
 20
-4.4116
 10
278.0969
 20
-4.3878
 10
278.3142
 20
-4.3798
 10
278.5264
 20
-4.384
 10
278.7245
 20
-4.3966
 10
278.9084
 20
-4.4175
 10
279.0781
 20
-4.4468
 10
279.2337
 20
-4.4846
 10
279.3751
 20
-4.5307
 10
279.5024
 20
-4.5852
 10
279.6156
 20
-4.6482
 10
279.9004
 20
-4.859
 10
280.1473
 20
-5.106
 10
280.3563
 20
-5.3892
 10
280.5273
 20
-5.7087
 10
280.6603
 20
-6.0643
 10
280.7554
 20
-6.4562
 10
280.8124
 20
-6.8843
 10
280.8314
 20
-7.3487
 10
280.8314
 20
-15.1249
 10
282.8107
 20
-15.1249
 10
282.8107
 20
-7.3487
 10
282.7967
 20
-6.8727
 10
282.8701
 20
-6.6924
 10
282.9487
 20
-6.5186
 10
283.0327
 20
-6.351
 10
283.1221
 20
-6.1892
 10
283.24
 20
-5.9957
 10
283.3676
 20
-5.811
 10
283.505
 20
-5.6352
 10
283.6522
 20
-5.4682
 10
283.8091
 20
-5.3101
 10
283.9757
 20
-5.1608
 10
284.152
 20
-5.0203
 10
284.338
 20
-4.8887
 10
284.5306
 20
-4.7694
 10
284.7267
 20
-4.666
 10
284.9264
 20
-4.5786
 10
285.1297
 20
-4.507
 10
285.3365
 20
-4.4514
 10
285.5468
 20
-4.4116
 10
285.7606
 20
-4.3878
 10
285.9779
 20
-4.3798
 10
286.1901
 20
-4.384
 10
286.3882
 20
-4.3966
 10
286.5721
 20
-4.4175
 10
286.7418
 20
-4.4468
 10
286.8974
 20
-4.4846
 10
287.0388
 20
-4.5307
 10
287.1661
 20
-4.5852
 10
287.2793
 20
-4.6482
 10
287.5641
 20
-4.859
 10
287.811
 20
-5.106
 10
288.02
 20
-5.3892
 10
288.191
 20
-5.7087
 10
288.324
 20
-6.0643
 10
288.4191
 20
-6.4562
 10
288.4761
 20
-6.8843
 10
288.4951
 20
-7.3487
 10
288.4951
 20
-15.1249
  0
LWPOLYLINE
  5
7E
330
1F
100
AcDbEntity
  8
Layer 1
 62
     7
100
AcDbPolyline
 90
        4
 70
     1
 43
0.0
 10
909.0968
 20
111.8599
 10
909.0968
 20
99.8223
 10
902.2909
 20
99.8223
 10
909.0968
 20
111.8599
  0
LWPOLYLINE
  5
7F
330
1F
100
AcDbEntity
  8
Layer 1
 62
     7
100
AcDbPolyline
 90
       11
 70
     1
 43
0.0
 10
911.0073
 20
97.6169
 10
913.2588
 20
97.6169
 10
913.2588
 20
99.8223
 10
911.0073
 20
99.8223
 10
910.9816
 20
114.1881
 10
908.4161
 20
114.1881
 10
899.0452
 20
97.6169
 10
909.0968
 20
97.6169
 10
909.0968
 20
93.3596
 10
911.0073
 20
93.3596
 10
911.0073
 20
97.6169
  0
LWPOLYLINE
  5
80
330
1F
100
AcDbEntity
  8
Layer 1
 62
     7
100
AcDbPolyline
 90
      129
 70
     1
 43
0.0
 10
923.2448
 20
111.7681
 10
923.547
 20
111.5279
 10
923.8288
 20
111.2551
 10
924.0901
 20
110.9498
 10
924.331
 20
110.6118
 10
924.5515
 20
110.2414
 10
924.7515
 20
109.8383
 10
924.9311
 20
109.4028
 10
925.0903
 20
108.9347
 10
925.2683
 20
108.3137
 10
925.4225
 20
107.6836
 10
925.553
 20
107.0444
 10
925.6598
 20
106.3962
 10
925.7428
 20
105.739
 10
925.8021
 20
105.0726
 10
925.8377
 20
104.3973
 10
925.8496
 20
103.7128
 10
925.8484
 20
103.5483
 10
925.8447
 20
103.3767
 10
925.8385
 20
103.1979
 10
925.8299
 20
103.0119
 10
925.8188
 20
102.8188
 10
925.8053
 20
102.6185
 10
925.7894
 20
102.4111
 10
925.7711
 20
102.1964
 10
925.6803
 20
101.373
 10
925.5616
 20
100.5951
 10
925.4151
 20
99.8627
 10
925.2409
 20
99.1757
 10
925.0388
 20
98.5341
 10
924.8089
 20
97.938
 10
924.5513
 20
97.3873
 10
924.266
 20
96.882
 10
924.0053
 20
96.5014
 10
923.7308
 20
96.1717
 10
923.4424
 20
95.8926
 10
923.1401
 20
95.6644
 10
922.8239
 20
95.4868
 10
922.4938
 20
95.36
 10
922.1498
 20
95.284
 10
921.7919
 20
95.2586
 10
921.3926
 20
95.2837
 10
921.0125
 20
95.3591
 10
920.6516
 20
95.4848
 10
920.31
 20
95.6607
 10
919.9875
 20
95.8868
 10
919.6843
 20
96.1633
 10
919.4003
 20
96.49
 10
919.1356
 20
96.8669
 10
919.0234
 20
97.0497
 10
918.9161
 20
97.2383
 10
918.8138
 20
97.4326
 10
918.7164
 20
97.6326
 10
918.624
 20
97.8384
 10
918.5365
 20
98.0499
 10
918.4539
 20
98.2672
 10
918.3763
 20
98.4903
 10
918.3032
 20
98.7168
 10
918.2347
 20
98.9447
 10
918.1707
 20
99.1741
 10
918.1112
 20
99.405
 10
918.0562
 20
99.6374
 10
918.0057
 20
99.8712
 10
917.9597
 20
100.1065
 10
917.9182
 20
100.3433
 10
917.8803
 20
100.5797
 10
917.8453
 20
100.8142
 10
917.8132
 20
101.0468
 10
917.784
 20
101.2775
 10
917.7576
 20
101.5063
 10
917.7341
 20
101.7332
 10
917.7134
 20
101.9582
 10
917.6955
 20
102.1813
 10
917.6802
 20
102.4075
 10
917.667
 20
102.6423
 10
917.6557
 20
102.8856
 10
917.6465
 20
103.1375
 10
917.6392
 20
103.3977
 10
917.6341
 20
103.6663
 10
917.6309
 20
103.9433
 10
917.6299
 20
104.2284
 10
917.6344
 20
104.526
 10
917.6479
 20
104.8409
 10
917.6704
 20
105.1733
 10
917.702
 20
105.523
 10
917.7425
 20
105.8903
 10
917.7921
 20
106.2751
 10
917.8506
 20
106.6774
 10
917.9182
 20
107.0974
 10
917.9595
 20
107.3306
 10
918.005
 20
107.5634
 10
918.0544
 20
107.7957
 10
918.108
 20
108.0276
 10
918.1656
 20
108.259
 10
918.2273
 20
108.4899
 10
918.293
 20
108.7204
 10
918.3628
 20
108.9505
 10
918.4375
 20
109.1772
 10
918.5176
 20
109.3982
 10
918.603
 20
109.6135
 10
918.6936
 20
109.823
 10
918.7896
 20
110.0268
 10
918.8908
 20
110.2249
 10
918.9974
 20
110.4173
 10
919.1092
 20
110.604
 10
919.2266
 20
110.7833
 10
919.3497
 20
110.9535
 10
919.4785
 20
111.1146
 10
919.6131
 20
111.2666
 10
919.7533
 20
111.4095
 10
919.8993
 20
111.5432
 10
920.051
 20
111.6678
 10
920.2083
 20
111.7832
 10
920.3724
 20
111.8873
 10
920.5438
 20
111.9775
 10
920.7226
 20
112.0539
 10
920.9087
 20
112.1163
 10
921.1022
 20
112.1649
 10
921.3031
 20
112.1996
 10
921.5113
 20
112.2205
 10
921.7269
 20
112.2274
 10
921.9424
 20
112.2202
 10
922.1506
 20
112.1987
 10
922.3513
 20
112.1629
 10
922.5447
 20
112.1127
 10
922.7307
 20
112.0481
 10
922.9094
 20
111.9691
 10
923.0808
 20
111.8758
 10
923.2448
 20
111.7681
  0
LWPOLYLINE
  5
81
330
1F
100
AcDbEntity
  8
Layer 1
 62
     7
100
AcDbPolyline
 90
       65
 70
     1
 43
0.0
 10
921.8183
 20
93.084
 10
922.5824
 20
93.1407
 10
923.2979
 20
93.3109
 10
923.9648
 20
93.5944
 10
924.5829
 20
93.9914
 10
925.1524
 20
94.5018
 10
925.6733
 20
95.1256
 10
926.1455
 20
95.8627
 10
926.569
 20
96.7133
 10
926.8666
 20
97.4557
 10
927.1245
 20
98.2393
 10
927.3428
 20
99.0639
 10
927.5213
 20
99.9297
 10
927.6601
 20
100.8367
 10
927.7593
 20
101.7848
 10
927.8188
 20
102.7741
 10
927.8386
 20
103.8047
 10
927.8188
 20
104.835
 10
927.7593
 20
105.8242
 10
927.6601
 20
106.7722
 10
927.5213
 20
107.6791
 10
927.3428
 20
108.5448
 10
927.1245
 20
109.3694
 10
926.8666
 20
110.153
 10
926.569
 20
110.8954
 10
926.1455
 20
111.746
 10
925.6733
 20
112.4831
 10
925.1524
 20
113.1069
 10
924.5829
 20
113.6173
 10
923.9648
 20
114.0143
 10
923.2979
 20
114.2978
 10
922.5824
 20
114.468
 10
921.8183
 20
114.5247
 10
921.0541
 20
114.468
 10
920.3386
 20
114.2978
 10
919.6718
 20
114.0143
 10
919.0536
 20
113.6173
 10
918.4841
 20
113.1069
 10
917.9632
 20
112.4831
 10
917.491
 20
111.746
 10
917.0675
 20
110.8954
 10
916.7699
 20
110.153
 10
916.512
 20
109.3694
 10
916.2937
 20
108.5448
 10
916.1152
 20
107.6791
 10
915.9764
 20
106.7722
 10
915.8772
 20
105.8242
 10
915.8177
 20
104.835
 10
915.7979
 20
103.8047
 10
915.8177
 20
102.7741
 10
915.8772
 20
101.7848
 10
915.9764
 20
100.8367
 10
916.1152
 20
99.9297
 10
916.2937
 20
99.0639
 10
916.512
 20
98.2393
 10
916.7699
 20
97.4557
 10
917.0675
 20
96.7133
 10
917.491
 20
95.8627
 10
917.9632
 20
95.1256
 10
918.4841
 20
94.5018
 10
919.0536
 20
93.9914
 10
919.6718
 20
93.5944
 10
920.3386
 20
93.3109
 10
921.0541
 20
93.1407
 10
921.8183
 20
93.084
  0
LWPOLYLINE
  5
82
330
1F
100
AcDbEntity
  8
Layer 1
 62
     7
100
AcDbPolyline
 90
      129
 70
     1
 43
0.0
 10
937.9031
 20
111.7681
 10
938.2053
 20
111.5279
 10
938.4871
 20
111.2551
 10
938.7484
 20
110.9498
 10
938.9893
 20
110.6118
 10
939.2098
 20
110.2414
 10
939.4098
 20
109.8383
 10
939.5894
 20
109.4028
 10
939.7486
 20
108.9347
 10
939.9266
 20
108.3137
 10
940.0808
 20
107.6836
 10
940.2113
 20
107.0444
 10
940.3181
 20
106.3962
 10
940.4011
 20
105.739
 10
940.4604
 20
105.0726
 10
940.496
 20
104.3973
 10
940.5079
 20
103.7128
 10
940.5067
 20
103.5483
 10
940.503
 20
103.3767
 10
940.4968
 20
103.1979
 10
940.4882
 20
103.0119
 10
940.4771
 20
102.8188
 10
940.4636
 20
102.6185
 10
940.4477
 20
102.4111
 10
940.4294
 20
102.1964
 10
940.3386
 20
101.373
 10
940.2199
 20
100.5951
 10
940.0734
 20
99.8627
 10
939.8992
 20
99.1757
 10
939.6971
 20
98.5341
 10
939.4672
 20
97.938
 10
939.2096
 20
97.3873
 10
938.9243
 20
96.882
 10
938.6636
 20
96.5014
 10
938.3891
 20
96.1717
 10
938.1007
 20
95.8926
 10
937.7984
 20
95.6644
 10
937.4822
 20
95.4868
 10
937.1521
 20
95.36
 10
936.8081
 20
95.284
 10
936.4502
 20
95.2586
 10
936.0509
 20
95.2837
 10
935.6708
 20
95.3591
 10
935.3099
 20
95.4848
 10
934.9683
 20
95.6607
 10
934.6458
 20
95.8868
 10
934.3426
 20
96.1633
 10
934.0586
 20
96.49
 10
933.7939
 20
96.8669
 10
933.6817
 20
97.0497
 10
933.5744
 20
97.2383
 10
933.4721
 20
97.4326
 10
933.3747
 20
97.6326
 10
933.2823
 20
97.8384
 10
933.1948
 20
98.0499
 10
933.1122
 20
98.2672
 10
933.0346
 20
98.4903
 10
932.9615
 20
98.7168
 10
932.893
 20
98.9447
 10
932.829
 20
99.1741
 10
932.7695
 20
99.405
 10
932.7145
 20
99.6374
 10
932.664
 20
99.8712
 10
932.618
 20
100.1065
 10
932.5764
 20
100.3433
 10
932.5386
 20
100.5797
 10
932.5036
 20
100.8142
 10
932.4715
 20
101.0468
 10
932.4423
 20
101.2775
 10
932.4159
 20
101.5063
 10
932.3924
 20
101.7332
 10
932.3717
 20
101.9582
 10
932.3538
 20
102.1813
 10
932.3385
 20
102.4075
 10
932.3253
 20
102.6423
 10
932.314
 20
102.8856
 10
932.3048
 20
103.1375
 10
932.2975
 20
103.3977
 10
932.2924
 20
103.6663
 10
932.2892
 20
103.9433
 10
932.2882
 20
104.2284
 10
932.2927
 20
104.526
 10
932.3062
 20
104.8409
 10
932.3287
 20
105.1733
 10
932.3603
 20
105.523
 10
932.4008
 20
105.8903
 10
932.4503
 20
106.2751
 10
932.5089
 20
106.6774
 10
932.5764
 20
107.0974
 10
932.6178
 20
107.3306
 10
932.6632
 20
107.5634
 10
932.7127
 20
107.7957
 10
932.7662
 20
108.0276
 10
932.8239
 20
108.259
 10
932.8855
 20
108.4899
 10
932.9513
 20
108.7204
 10
933.0211
 20
108.9505
 10
933.0958
 20
109.1772
 10
933.1759
 20
109.3982
 10
933.2613
 20
109.6135
 10
933.3519
 20
109.823
 10
933.4479
 20
110.0268
 10
933.5491
 20
110.2249
 10
933.6557
 20
110.4173
 10
933.7675
 20
110.604
 10
933.8848
 20
110.7833
 10
934.0079
 20
110.9535
 10
934.1368
 20
111.1146
 10
934.2713
 20
111.2666
 10
934.4116
 20
111.4095
 10
934.5576
 20
111.5432
 10
934.7093
 20
111.6678
 10
934.8666
 20
111.7832
 10
935.0307
 20
111.8873
 10
935.2021
 20
111.9775
 10
935.3809
 20
112.0539
 10
935.567
 20
112.1163
 10
935.7605
 20
112.1649
 10
935.9614
 20
112.1996
 10
936.1696
 20
112.2205
 10
936.3851
 20
112.2274
 10
936.6007
 20
112.2202
 10
936.8088
 20
112.1987
 10
937.0096
 20
112.1629
 10
937.203
 20
112.1127
 10
937.389
 20
112.0481
 10
937.5677
 20
111.9691
 10
937.7391
 20
111.8758
 10
937.9031
 20
111.7681
  0
LWPOLYLINE
  5
83
330
1F
100
AcDbEntity
  8
Layer 1
 62
     7
100
AcDbPolyline
 90
       65
 70
     1
 43
0.0
 10
936.4765
 20
93.084
 10
937.2407
 20
93.1407
 10
937.9562
 20
93.3109
 10
938.623
 20
93.5944
 10
939.2412
 20
93.9914
 10
939.8107
 20
94.5018
 10
940.3316
 20
95.1256
 10
940.8038
 20
95.8627
 10
941.2273
 20
96.7133
 10
941.5249
 20
97.4557
 10
941.7828
 20
98.2393
 10
942.0011
 20
99.0639
 10
942.1796
 20
99.9297
 10
942.3184
 20
100.8367
 10
942.4176
 20
101.7848
 10
942.4771
 20
102.7741
 10
942.4969
 20
103.8047
 10
942.4771
 20
104.835
 10
942.4176
 20
105.8242
 10
942.3184
 20
106.7722
 10
942.1796
 20
107.6791
 10
942.0011
 20
108.5448
 10
941.7828
 20
109.3694
 10
941.5249
 20
110.153
 10
941.2273
 20
110.8954
 10
940.8038
 20
111.746
 10
940.3316
 20
112.4831
 10
939.8107
 20
113.1069
 10
939.2412
 20
113.6173
 10
938.623
 20
114.0143
 10
937.9562
 20
114.2978
 10
937.2407
 20
114.468
 10
936.4765
 20
114.5247
 10
935.7124
 20
114.468
 10
934.9969
 20
114.2978
 10
934.33
 20
114.0143
 10
933.7119
 20
113.6173
 10
933.1424
 20
113.1069
 10
932.6215
 20
112.4831
 10
932.1493
 20
111.746
 10
931.7258
 20
110.8954
 10
931.4282
 20
110.153
 10
931.1703
 20
109.3694
 10
930.952
 20
108.5448
 10
930.7735
 20
107.6791
 10
930.6347
 20
106.7722
 10
930.5355
 20
105.8242
 10
930.476
 20
104.835
 10
930.4562
 20
103.8047
 10
930.476
 20
102.7741
 10
930.5355
 20
101.7848
 10
930.6347
 20
100.8367
 10
930.7735
 20
99.9297
 10
930.952
 20
99.0639
 10
931.1703
 20
98.2393
 10
931.4282
 20
97.4557
 10
931.7258
 20
96.7133
 10
932.1493
 20
95.8627
 10
932.6215
 20
95.1256
 10
933.1424
 20
94.5018
 10
933.7119
 20
93.9914
 10
934.33
 20
93.5944
 10
934.9969
 20
93.3109
 10
935.7124
 20
93.1407
 10
936.4765
 20
93.084
  0
LWPOLYLINE
  5
84
330
1F
100
AcDbEntity
  8
Layer 1
 62
     7
100
AcDbPolyline
 90
      162
 70
     1
 43
0.0
 10
960.375
 20
93.4206
 10
962.207
 20
93.4206
 10
962.207
 20
101.844
 10
962.1921
 20
102.4033
 10
962.1473
 20
102.9363
 10
962.0728
 20
103.443
 10
961.9684
 20
103.9233
 10
961.8341
 20
104.3772
 10
961.67
 20
104.8048
 10
961.476
 20
105.2061
 10
961.2521
 20
105.581
 10
961.1272
 20
105.7602
 10
960.9944
 20
105.9304
 10
960.8539
 20
106.0914
 10
960.7056
 20
106.2433
 10
960.5495
 20
106.3861
 10
960.3857
 20
106.5199
 10
960.2141
 20
106.6445
 10
960.0347
 20
106.7601
 10
959.8441
 20
106.8642
 10
959.6388
 20
106.9545
 10
959.4188
 20
107.0308
 10
959.184
 20
107.0933
 10
958.9345
 20
107.1419
 10
958.6703
 20
107.1766
 10
958.3914
 20
107.1975
 10
958.0978
 20
107.2044
 10
957.8015
 20
107.1924
 10
957.5146
 20
107.1566
 10
957.2371
 20
107.0968
 10
956.969
 20
107.013
 10
956.7103
 20
106.9053
 10
956.461
 20
106.7737
 10
956.221
 20
106.6181
 10
955.9905
 20
106.4386
 10
955.7904
 20
106.2597
 10
955.5994
 20
106.0674
 10
955.4174
 20
105.862
 10
955.2444
 20
105.6436
 10
955.0804
 20
105.4122
 10
954.9254
 20
105.168
 10
954.7794
 20
104.9112
 10
954.6424
 20
104.6418
 10
954.536
 20
104.8903
 10
954.42
 20
105.1304
 10
954.2941
 20
105.361
 10
954.1585
 20
105.581
 10
954.0335
 20
105.7602
 10
953.9008
 20
105.9304
 10
953.7602
 20
106.0914
 10
953.6119
 20
106.2433
 10
953.4558
 20
106.3861
 10
953.292
 20
106.5199
 10
953.1204
 20
106.6445
 10
952.941
 20
106.7601
 10
952.7504
 20
106.8642
 10
952.5451
 20
106.9545
 10
952.3251
 20
107.0308
 10
952.0904
 20
107.0933
 10
951.8409
 20
107.1419
 10
951.5767
 20
107.1766
 10
951.2978
 20
107.1975
 10
951.0042
 20
107.2044
 10
950.7079
 20
107.1924
 10
950.421
 20
107.1566
 10
950.1435
 20
107.0968
 10
949.8754
 20
107.013
 10
949.6166
 20
106.9053
 10
949.3673
 20
106.7737
 10
949.1274
 20
106.6181
 10
948.8968
 20
106.4386
 10
948.7063
 20
106.2683
 10
948.5239
 20
106.0863
 10
948.3497
 20
105.8927
 10
948.1836
 20
105.6875
 10
948.0257
 20
105.4705
 10
947.876
 20
105.2417
 10
947.7344
 20
105.0011
 10
947.6009
 20
104.7487
 10
947.6009
 20
106.8979
 10
945.7689
 20
106.8979
 10
945.7689
 20
93.4206
 10
947.6009
 20
93.4206
 10
947.6009
 20
100.318
 10
947.6435
 20
100.7197
 10
947.6991
 20
101.1057
 10
947.7679
 20
101.4762
 10
947.8497
 20
101.8314
 10
947.9446
 20
102.1712
 10
948.0526
 20
102.4958
 10
948.1737
 20
102.8054
 10
948.308
 20
103.1
 10
948.4171
 20
103.3096
 10
948.5353
 20
103.5096
 10
948.6625
 20
103.7001
 10
948.7987
 20
103.881
 10
948.9439
 20
104.0523
 10
949.0981
 20
104.214
 10
949.2613
 20
104.3662
 10
949.4335
 20
104.5088
 10
949.6118
 20
104.638
 10
949.7933
 20
104.7499
 10
949.9782
 20
104.8446
 10
950.1663
 20
104.9221
 10
950.3577
 20
104.9824
 10
950.5524
 20
105.0255
 10
950.7503
 20
105.0513
 10
950.9514
 20
105.0599
 10
951.1479
 20
105.0554
 10
951.3312
 20
105.0418
 10
951.5014
 20
105.0191
 10
951.6585
 20
104.9874
 10
951.8025
 20
104.9465
 10
951.9334
 20
104.8966
 10
952.0513
 20
104.8375
 10
952.156
 20
104.7693
 10
952.4197
 20
104.5409
 10
952.6482
 20
104.2734
 10
952.8416
 20
103.9666
 10
952.9999
 20
103.6206
 10
953.123
 20
103.2353
 10
953.211
 20
102.8108
 10
953.2638
 20
102.347
 10
953.2814
 20
101.844
 10
953.2814
 20
93.4206
 10
955.1134
 20
93.4206
 10
955.1134
 20
101.844
 10
955.1005
 20
102.3596
 10
955.4017
 20
103.1
 10
955.5108
 20
103.3096
 10
955.6289
 20
103.5096
 10
955.7561
 20
103.7001
 10
955.8923
 20
103.881
 10
956.0375
 20
104.0523
 10
956.1918
 20
104.214
 10
956.3549
 20
104.3662
 10
956.5271
 20
104.5088
 10
956.7054
 20
104.638
 10
956.8869
 20
104.7499
 10
957.0718
 20
104.8446
 10
957.2599
 20
104.9221
 10
957.4513
 20
104.9824
 10
957.646
 20
105.0255
 10
957.8439
 20
105.0513
 10
958.0451
 20
105.0599
 10
958.2415
 20
105.0554
 10
958.4248
 20
105.0418
 10
958.595
 20
105.0191
 10
958.7521
 20
104.9874
 10
958.8961
 20
104.9465
 10
959.027
 20
104.8966
 10
959.1449
 20
104.8375
 10
959.2496
 20
104.7693
 10
959.5133
 20
104.5409
 10
959.7418
 20
104.2734
 10
959.9352
 20
103.9666
 10
960.0935
 20
103.6206
 10
960.2166
 20
103.2353
 10
960.3046
 20
102.8108
 10
960.3574
 20
102.347
 10
960.375
 20
101.844
 10
960.375
 20
93.4206
  0
LWPOLYLINE
  5
85
330
1F
100
AcDbEntity
  8
Layer 1
 62
     7
100
AcDbPolyline
 90
      162
 70
     1
 43
0.0
 10
980.3471
 20
93.4206
 10
982.1791
 20
93.4206
 10
982.1791
 20
101.844
 10
982.1642
 20
102.4033
 10
982.1194
 20
102.9363
 10
982.0449
 20
103.443
 10
981.9404
 20
103.9233
 10
981.8062
 20
104.3772
 10
981.642
 20
104.8048
 10
981.448
 20
105.2061
 10
981.2241
 20
105.581
 10
981.0992
 20
105.7602
 10
980.9664
 20
105.9304
 10
980.8259
 20
106.0914
 10
980.6776
 20
106.2433
 10
980.5215
 20
106.3861
 10
980.3577
 20
106.5199
 10
980.1861
 20
106.6445
 10
980.0067
 20
106.7601
 10
979.8161
 20
106.8642
 10
979.6108
 20
106.9545
 10
979.3908
 20
107.0308
 10
979.1561
 20
107.0933
 10
978.9066
 20
107.1419
 10
978.6424
 20
107.1766
 10
978.3635
 20
107.1975
 10
978.0699
 20
107.2044
 10
977.7736
 20
107.1924
 10
977.4867
 20
107.1566
 10
977.2092
 20
107.0968
 10
976.9411
 20
107.013
 10
976.6823
 20
106.9053
 10
976.433
 20
106.7737
 10
976.1931
 20
106.6181
 10
975.9625
 20
106.4386
 10
975.7625
 20
106.2597
 10
975.5715
 20
106.0674
 10
975.3894
 20
105.862
 10
975.2164
 20
105.6436
 10
975.0524
 20
105.4122
 10
974.8974
 20
105.168
 10
974.7514
 20
104.9112
 10
974.6144
 20
104.6418
 10
974.5081
 20
104.8903
 10
974.392
 20
105.1304
 10
974.2662
 20
105.361
 10
974.1305
 20
105.581
 10
974.0056
 20
105.7602
 10
973.8728
 20
105.9304
 10
973.7323
 20
106.0914
 10
973.584
 20
106.2433
 10
973.4279
 20
106.3861
 10
973.2641
 20
106.5199
 10
973.0925
 20
106.6445
 10
972.9131
 20
106.7601
 10
972.7225
 20
106.8642
 10
972.5172
 20
106.9545
 10
972.2972
 20
107.0308
 10
972.0624
 20
107.0933
 10
971.813
 20
107.1419
 10
971.5488
 20
107.1766
 10
971.2698
 20
107.1975
 10
970.9762
 20
107.2044
 10
970.6799
 20
107.1924
 10
970.393
 20
107.1566
 10
970.1155
 20
107.0968
 10
969.8474
 20
107.013
 10
969.5887
 20
106.9053
 10
969.3394
 20
106.7737
 10
969.0995
 20
106.6181
 10
968.8689
 20
106.4386
 10
968.6783
 20
106.2683
 10
968.4959
 20
106.0863
 10
968.3217
 20
105.8927
 10
968.1557
 20
105.6875
 10
967.9978
 20
105.4705
 10
967.848
 20
105.2417
 10
967.7064
 20
105.0011
 10
967.573
 20
104.7487
 10
967.573
 20
106.8979
 10
965.741
 20
106.8979
 10
965.741
 20
93.4206
 10
967.573
 20
93.4206
 10
967.573
 20
100.318
 10
967.6155
 20
100.7197
 10
967.6712
 20
101.1057
 10
967.7399
 20
101.4762
 10
967.8217
 20
101.8314
 10
967.9167
 20
102.1712
 10
968.0247
 20
102.4958
 10
968.1458
 20
102.8054
 10
968.2801
 20
103.1
 10
968.3892
 20
103.3096
 10
968.5074
 20
103.5096
 10
968.6346
 20
103.7001
 10
968.7708
 20
103.881
 10
968.916
 20
104.0523
 10
969.0702
 20
104.214
 10
969.2334
 20
104.3662
 10
969.4055
 20
104.5088
 10
969.5838
 20
104.638
 10
969.7654
 20
104.7499
 10
969.9503
 20
104.8446
 10
970.1384
 20
104.9221
 10
970.3298
 20
104.9824
 10
970.5245
 20
105.0255
 10
970.7224
 20
105.0513
 10
970.9235
 20
105.0599
 10
971.1199
 20
105.0554
 10
971.3032
 20
105.0418
 10
971.4735
 20
105.0191
 10
971.6306
 20
104.9874
 10
971.7746
 20
104.9465
 10
971.9055
 20
104.8966
 10
972.0233
 20
104.8375
 10
972.128
 20
104.7693
 10
972.3917
 20
104.5409
 10
972.6202
 20
104.2734
 10
972.8137
 20
103.9666
 10
972.972
 20
103.6206
 10
973.0951
 20
103.2353
 10
973.1831
 20
102.8108
 10
973.2359
 20
102.347
 10
973.2535
 20
101.844
 10
973.2535
 20
93.4206
 10
975.0855
 20
93.4206
 10
975.0855
 20
101.844
 10
975.0726
 20
102.3596
 10
975.3737
 20
103.1
 10
975.4828
 20
103.3096
 10
975.601
 20
103.5096
 10
975.7282
 20
103.7001
 10
975.8644
 20
103.881
 10
976.0096
 20
104.0523
 10
976.1638
 20
104.214
 10
976.327
 20
104.3662
 10
976.4992
 20
104.5088
 10
976.6775
 20
104.638
 10
976.859
 20
104.7499
 10
977.0439
 20
104.8446
 10
977.232
 20
104.9221
 10
977.4234
 20
104.9824
 10
977.6181
 20
105.0255
 10
977.816
 20
105.0513
 10
978.0171
 20
105.0599
 10
978.2136
 20
105.0554
 10
978.3969
 20
105.0418
 10
978.5671
 20
105.0191
 10
978.7242
 20
104.9874
 10
978.8682
 20
104.9465
 10
978.9991
 20
104.8966
 10
979.117
 20
104.8375
 10
979.2217
 20
104.7693
 10
979.4854
 20
104.5409
 10
979.7139
 20
104.2734
 10
979.9073
 20
103.9666
 10
980.0656
 20
103.6206
 10
980.1887
 20
103.2353
 10
980.2767
 20
102.8108
 10
980.3295
 20
102.347
 10
980.3471
 20
101.844
 10
980.3471
 20
93.4206
  0
ENDSEC
  0
SECTION
  2
OBJECTS
  0
DICTIONARY
  5
C
330
0
100
AcDbDictionary
281
     1
  3
ACAD_DETAILVIEWSTYLE
350
8D
  3
ACAD_GROUP
350
D
  3
ACAD_LAYOUT
350
1A
  3
ACAD_MATERIAL
350
43
  3
ACAD_MLEADERSTYLE
350
5B
  3
ACAD_MLINESTYLE
350
17
  3
ACAD_PLOTSETTINGS
350
19
  3
ACAD_PLOTSTYLENAME
350
E
  3
ACAD_SCALELIST
350
47
  3
ACAD_SECTIONVIEWSTYLE
350
8E
  3
ACAD_TABLESTYLE
350
59
  3
ACAD_VISUALSTYLE
350
2A
  3
ACDB_RECOMPOSE_DATA
350
8A
  3
AcDbVariableDictionary
350
86
  0
SUN
  5
5D
330
29
100
AcDbSun
 90
        1
290
     0
 63
     7
421
 16777215
 40
1.0
291
     1
 91
  2455826
 92
 54000000
292
     0
 70
     2
 71
   256
280
     1
  0
DICTIONARY
  5
8D
102
{ACAD_REACTORS
330
C
102
}
330
C
100
AcDbDictionary
281
     1
  0
DICTIONARY
  5
D
102
{ACAD_REACTORS
330
C
102
}
330
C
100
AcDbDictionary
281
     1
  0
DICTIONARY
  5
1A
102
{ACAD_REACTORS
330
C
102
}
330
C
100
AcDbDictionary
281
     1
  3
Layout1
350
1E
  3
Layout2
350
26
  3
Model
350
22
  0
DICTIONARY
  5
43
102
{ACAD_REACTORS
330
C
102
}
330
C
100
AcDbDictionary
281
     1
  3
ByBlock
350
45
  3
ByLayer
350
44
  3
Global
350
46
  0
DICTIONARY
  5
5B
102
{ACAD_REACTORS
330
C
102
}
330
C
100
AcDbDictionary
281
     1
  3
Standard
350
5C
  0
DICTIONARY
  5
17
102
{ACAD_REACTORS
330
C
102
}
330
C
100
AcDbDictionary
281
     1
  3
Standard
350
18
  0
DICTIONARY
  5
19
102
{ACAD_REACTORS
330
C
102
}
330
C
100
AcDbDictionary
281
     1
  0
ACDBDICTIONARYWDFLT
  5
E
102
{ACAD_REACTORS
330
C
102
}
330
C
100
AcDbDictionary
281
     1
  3
Normal
350
F
100
AcDbDictionaryWithDefault
340
F
  0
DICTIONARY
  5
47
102
{ACAD_REACTORS
330
C
102
}
330
C
100
AcDbDictionary
281
     1
  3
A0
350
48
  3
A1
350
49
  3
A2
350
4A
  3
A3
350
4B
  3
A4
350
4C
  3
A5
350
4D
  3
A6
350
4E
  3
A7
350
4F
  3
A8
350
50
  3
A9
350
51
  3
B1
350
52
  3
B2
350
53
  3
B3
350
54
  3
B4
350
55
  3
B5
350
56
  3
B6
350
57
  3
B7
350
58
  0
DICTIONARY
  5
8E
102
{ACAD_REACTORS
330
C
102
}
330
C
100
AcDbDictionary
281
     1
  0
DICTIONARY
  5
59
102
{ACAD_REACTORS
330
C
102
}
330
C
100
AcDbDictionary
281
     1
  3
Standard
350
5A
  0
DICTIONARY
  5
2A
102
{ACAD_REACTORS
330
C
102
}
330
C
100
AcDbDictionary
281
     1
  3
2dWireframe
350
2F
  3
Basic
350
32
  3
Brighten
350
36
  3
ColorChange
350
3A
  3
Conceptual
350
34
  3
Dim
350
35
  3
EdgeColorOff
350
3D
  3
Facepattern
350
39
  3
Flat
350
2B
  3
FlatWithEdges
350
2C
  3
Gouraud
350
2D
  3
GouraudWithEdges
350
2E
  3
Hidden
350
31
  3
JitterOff
350
3B
  3
Linepattern
350
38
  3
OverhangOff
350
3C
  3
Realistic
350
33
  3
Shaded
350
42
  3
Shaded with edges
350
41
  3
Shades of Gray
350
3E
  3
Sketchy
350
3F
  3
Thicken
350
37
  3
Wireframe
350
30
  3
X-Ray
350
40
  0
XRECORD
  5
8A
102
{ACAD_REACTORS
330
C
102
}
330
C
100
AcDbXrecord
280
     1
 90
        1
330
5A
  0
DICTIONARY
  5
86
102
{ACAD_REACTORS
330
C
102
}
330
C
100
AcDbDictionary
281
     1
  3
CANNOSCALE
350
87
  3
CMLEADERSTYLE
350
8C
  3
CTABLESTYLE
350
8B
  0
LAYOUT
  5
1E
102
{ACAD_REACTORS
330
1A
102
}
330
1A
100
AcDbPlotSettings
  1

  2
none_device
  4

  6

 40
0.0
 41
0.0
 42
0.0
 43
0.0
 44
0.0
 45
0.0
 46
0.0
 47
0.0
 48
0.0
 49
0.0
140
0.0
141
0.0
142
1.0
143
1.0
 70
   688
 72
     0
 73
     0
 74
     5
  7

 75
    16
 76
     0
 77
     2
 78
   300
147
1.0
148
0.0
149
0.0
100
AcDbLayout
  1
Layout1
 70
     1
 71
     1
 10
0.0
 20
0.0
 11
12.0
 21
9.0
 12
0.0
 22
0.0
 32
0.0
 14
1.000000000000000E+20
 24
1.000000000000000E+20
 34
1.000000000000000E+20
 15
-1.000000000000000E+20
 25
-1.000000000000000E+20
 35
-1.000000000000000E+20
146
0.0
 13
0.0
 23
0.0
 33
0.0
 16
1.0
 26
0.0
 36
0.0
 17
0.0
 27
1.0
 37
0.0
 76
     0
330
1B
  0
LAYOUT
  5
26
102
{ACAD_REACTORS
330
1A
102
}
330
1A
100
AcDbPlotSettings
  1

  2
none_device
  4

  6

 40
0.0
 41
0.0
 42
0.0
 43
0.0
 44
0.0
 45
0.0
 46
0.0
 47
0.0
 48
0.0
 49
0.0
140
0.0
141
0.0
142
1.0
143
1.0
 70
   688
 72
     0
 73
     0
 74
     5
  7

 75
    16
 76
     0
 77
     2
 78
   300
147
1.0
148
0.0
149
0.0
100
AcDbLayout
  1
Layout2
 70
     1
 71
     2
 10
0.0
 20
0.0
 11
0.0
 21
0.0
 12
0.0
 22
0.0
 32
0.0
 14
0.0
 24
0.0
 34
0.0
 15
0.0
 25
0.0
 35
0.0
146
0.0
 13
0.0
 23
0.0
 33
0.0
 16
1.0
 26
0.0
 36
0.0
 17
0.0
 27
1.0
 37
0.0
 76
     0
330
23
  0
LAYOUT
  5
22
102
{ACAD_REACTORS
330
1A
102
}
330
1A
100
AcDbPlotSettings
  1

  2
none_device
  4
Letter_(8.50_x_11.00_Inches)
  6

 40
6.35
 41
6.35
 42
6.35000508
 43
6.35000508
 44
215.9
 45
279.4
 46
0.0
 47
0.0
 48
0.0
 49
0.0
140
0.0
141
0.0
142
1.0
143
1.0
 70
  1712
 72
     0
 73
     0
 74
     0
  7

 75
     0
 76
     0
 77
     2
 78
   300
147
1.0
148
0.0
149
0.0
100
AcDbLayout
  1
Model
 70
     1
 71
     0
 10
0.0
 20
0.0
 11
12.0
 21
9.0
 12
0.0
 22
0.0
 32
0.0
 14
191.1858
 24
-153.0176
 34
0.0
 15
1111.579
 25
168.2402
 35
0.0
146
0.0
 13
0.0
 23
0.0
 33
0.0
 16
1.0
 26
0.0
 36
0.0
 17
0.0
 27
1.0
 37
0.0
 76
     0
330
1F
331
29
  0
MATERIAL
  5
45
102
{ACAD_REACTORS
330
43
102
}
330
43
100
AcDbMaterial
  1
ByBlock
 72
     1
 94
      127
  0
MATERIAL
  5
44
102
{ACAD_REACTORS
330
43
102
}
330
43
100
AcDbMaterial
  1
ByLayer
 72
     1
 94
      127
  0
MATERIAL
  5
46
102
{ACAD_REACTORS
330
43
102
}
330
43
100
AcDbMaterial
  1
Global
 72
     1
 94
      127
  0
MLEADERSTYLE
  5
5C
102
{ACAD_REACTORS
330
5B
102
}
330
5B
100
AcDbMLeaderStyle
179
     2
170
     2
171
     1
172
     0
 90
        2
 40
0.0
 41
0.0
173
     1
 91
-1056964608
340
14
 92
       -2
290
     1
 42
0.09
291
     1
 43
0.36
  3
Standard
341
0
 44
0.18
300

342
11
174
     1
178
     6
175
     1
176
     0
 93
-1056964608
 45
0.18
292
     0
297
     0
 46
0.18
343
0
 94
-1056964608
 47
1.0
 49
1.0
140
1.0
293
     1
141
0.0
294
     1
177
     0
142
1.0
295
     0
296
     0
143
0.125
271
     0
272
     9
273
     9
298
     0
  0
MLINESTYLE
  5
18
102
{ACAD_REACTORS
330
17
102
}
330
17
100
AcDbMlineStyle
  2
Standard
 70
     0
  3

 62
   256
 51
90.0
 52
90.0
 71
     2
 49
0.5
 62
   256
  6
BYLAYER
 49
-0.5
 62
   256
  6
BYLAYER
  0
ACDBPLACEHOLDER
  5
F
102
{ACAD_REACTORS
330
E
102
}
330
E
  0
SCALE
  5
48
102
{ACAD_REACTORS
330
47
102
}
330
47
100
AcDbScale
 70
     0
300
1:1
140
1.0
141
1.0
290
     1
  0
SCALE
  5
49
102
{ACAD_REACTORS
330
47
102
}
330
47
100
AcDbScale
 70
     0
300
1/128" = 1'-0"
140
0.0078125
141
12.0
290
     0
  0
SCALE
  5
4A
102
{ACAD_REACTORS
330
47
102
}
330
47
100
AcDbScale
 70
     0
300
1/64" = 1'-0"
140
0.015625
141
12.0
290
     0
  0
SCALE
  5
4B
102
{ACAD_REACTORS
330
47
102
}
330
47
100
AcDbScale
 70
     0
300
1/32" = 1'-0"
140
0.03125
141
12.0
290
     0
  0
SCALE
  5
4C
102
{ACAD_REACTORS
330
47
102
}
330
47
100
AcDbScale
 70
     0
300
1/16" = 1'-0"
140
0.0625
141
12.0
290
     0
  0
SCALE
  5
4D
102
{ACAD_REACTORS
330
47
102
}
330
47
100
AcDbScale
 70
     0
300
3/32" = 1'-0"
140
0.09375
141
12.0
290
     0
  0
SCALE
  5
4E
102
{ACAD_REACTORS
330
47
102
}
330
47
100
AcDbScale
 70
     0
300
1/8" = 1'-0"
140
0.125
141
12.0
290
     0
  0
SCALE
  5
4F
102
{ACAD_REACTORS
330
47
102
}
330
47
100
AcDbScale
 70
     0
300
3/16" = 1'-0"
140
0.1875
141
12.0
290
     0
  0
SCALE
  5
50
102
{ACAD_REACTORS
330
47
102
}
330
47
100
AcDbScale
 70
     0
300
1/4" = 1'-0"
140
0.25
141
12.0
290
     0
  0
SCALE
  5
51
102
{ACAD_REACTORS
330
47
102
}
330
47
100
AcDbScale
 70
     0
300
3/8" = 1'-0"
140
0.375
141
12.0
290
     0
  0
SCALE
  5
52
102
{ACAD_REACTORS
330
47
102
}
330
47
100
AcDbScale
 70
     0
300
1/2" = 1'-0"
140
0.5
141
12.0
290
     0
  0
SCALE
  5
53
102
{ACAD_REACTORS
330
47
102
}
330
47
100
AcDbScale
 70
     0
300
3/4" = 1'-0"
140
0.75
141
12.0
290
     0
  0
SCALE
  5
54
102
{ACAD_REACTORS
330
47
102
}
330
47
100
AcDbScale
 70
     0
300
1" = 1'-0"
140
1.0
141
12.0
290
     0
  0
SCALE
  5
55
102
{ACAD_REACTORS
330
47
102
}
330
47
100
AcDbScale
 70
     0
300
1-1/2" = 1'-0"
140
1.5
141
12.0
290
     0
  0
SCALE
  5
56
102
{ACAD_REACTORS
330
47
102
}
330
47
100
AcDbScale
 70
     0
300
3" = 1'-0"
140
3.0
141
12.0
290
     0
  0
SCALE
  5
57
102
{ACAD_REACTORS
330
47
102
}
330
47
100
AcDbScale
 70
     0
300
6" = 1'-0"
140
6.0
141
12.0
290
     0
  0
SCALE
  5
58
102
{ACAD_REACTORS
330
47
102
}
330
47
100
AcDbScale
 70
     0
300
1'-0" = 1'-0"
140
12.0
141
12.0
290
     0
  0
TABLESTYLE
  5
5A
102
{ACAD_REACTORS
330
59
102
}
102
{ACAD_XDICTIONARY
360
88
102
}
330
59
100
AcDbTableStyle
  3
Standard
 70
     0
 71
     0
 40
0.06
 41
0.06
280
     0
281
     0
  7
Standard
140
0.18
170
     2
 62
     0
 63
   257
283
     0
 90
        4
 91
        0
  1

274
    -2
284
     1
 64
     0
275
    -2
285
     1
 65
     0
276
    -2
286
     1
 66
     0
277
    -2
287
     1
 67
     0
278
    -2
288
     1
 68
     0
279
    -2
289
     1
 69
     0
  7
Standard
140
0.25
170
     5
 62
     0
 63
   257
283
     0
 90
        4
 91
        0
  1

274
    -2
284
     1
 64
     0
275
    -2
285
     1
 65
     0
276
    -2
286
     1
 66
     0
277
    -2
287
     1
 67
     0
278
    -2
288
     1
 68
     0
279
    -2
289
     1
 69
     0
  7
Standard
140
0.18
170
     5
 62
     0
 63
   257
283
     0
 90
        4
 91
        0
  1

274
    -2
284
     1
 64
     0
275
    -2
285
     1
 65
     0
276
    -2
286
     1
 66
     0
277
    -2
287
     1
 67
     0
278
    -2
288
     1
 68
     0
279
    -2
289
     1
 69
     0
  0
VISUALSTYLE
  5
2F
102
{ACAD_REACTORS
330
2A
102
}
330
2A
100
AcDbVisualStyle
  2
2dWireframe
 70
     4
177
     3
291
     0
 70
    58
 90
        0
176
     1
 90
        2
176
     1
 90
        0
176
     1
 90
        0
176
     1
 40
0.6
176
     1
 40
30.0
176
     1
 62
     7
420
 16777215
176
     1
 90
        1
176
     1
 90
        4
176
     1
 62
     7
176
     1
 62
   257
176
     1
 90
        1
176
     1
 90
        1
176
     1
 40
1.0
176
     1
 90
        0
176
     1
 62
   257
176
     1
 40
1.0
176
     1
 90
        1
176
     1
 90
        6
176
     1
 90
        2
176
     1
 62
     7
176
     1
 90
        5
176
     1
 90
        0
176
     1
 90
        0
176
     1
290
     0
176
     1
 90
        1
176
     1
 40
0.0
176
     1
 90
        0
176
     1
290
     1
176
     1
290
     1
176
     1
290
     0
176
     1
290
     0
176
     1
290
     0
176
     1
290
     0
176
     1
290
     0
176
     1
290
     0
176
     1
290
     0
176
     1
 90
       50
176
     1
 40
0.0
176
     1
 40
1.0
176
     1
 90
        0
176
     1
 62
    18
420
        0
176
     1
 90
       50
176
     1
 90
        3
176
     1
 62
     5
420
      255
176
     1
290
     0
176
     1
 90
       50
176
     1
 90
       50
176
     1
 90
       50
176
     1
290
     0
176
     1
 90
       50
176
     1
 62
   256
176
     0
 40
1.0
176
     0
 90
        2
176
     1
  1
strokes_ogs.tif
176
     1
290
     0
176
     1
 40
1.0
176
     1
 40
1.0
176
     1
  0
VISUALSTYLE
  5
32
102
{ACAD_REACTORS
330
2A
102
}
330
2A
100
AcDbVisualStyle
  2
Basic
 70
     7
177
     3
291
     1
 70
    58
 90
        1
176
     1
 90
        0
176
     1
 90
        1
176
     1
 90
        0
176
     1
 40
0.6
176
     1
 40
30.0
176
     1
 62
     7
420
 16777215
176
     1
 90
        0
176
     1
 90
        4
176
     1
 62
     7
176
     1
 62
   257
176
     1
 90
        1
176
     1
 90
        1
176
     1
 40
1.0
176
     1
 90
        8
176
     1
 62
     7
176
     1
 40
1.0
176
     1
 90
        1
176
     1
 90
        6
176
     1
 90
        2
176
     1
 62
     7
176
     1
 90
        5
176
     1
 90
        0
176
     1
 90
        0
176
     1
290
     0
176
     1
 90
        1
176
     1
 40
0.0
176
     1
 90
        0
176
     1
290
     0
176
     1
290
     1
176
     1
290
     1
176
     1
290
     0
176
     1
290
     0
176
     1
290
     0
176
     1
290
     0
176
     1
290
     0
176
     1
290
     0
176
     1
 90
       50
176
     1
 40
0.0
176
     1
 40
1.0
176
     1
 90
        0
176
     1
 62
    18
420
        0
176
     1
 90
       50
176
     1
 90
        3
176
     1
 62
     5
420
      255
176
     1
290
     0
176
     1
 90
       50
176
     1
 90
       50
176
     1
 90
       50
176
     1
290
     0
176
     1
 90
       50
176
     1
 62
   256
176
     0
 40
1.0
176
     0
 90
        2
176
     1
  1
strokes_ogs.tif
176
     1
290
     0
176
     1
 40
1.0
176
     1
 40
1.0
176
     1
  0
VISUALSTYLE
  5
36
102
{ACAD_REACTORS
330
2A
102
}
330
2A
100
AcDbVisualStyle
  2
Brighten
 70
    12
177
     3
291
     1
 70
    58
 90
        2
176
     1
 90
        2
176
     1
 90
        0
176
     1
 90
        0
176
     1
 40
0.6
176
     1
 40
30.0
176
     1
 62
     7
420
 16777215
176
     1
 90
        1
176
     1
 90
        4
176
     1
 62
     7
176
     1
 62
   257
176
     1
 90
        1
176
     1
 90
        1
176
     1
 40
1.0
176
     1
 90
        8
176
     1
 62
     7
176
     1
 40
1.0
176
     1
 90
        1
176
     1
 90
        6
176
     1
 90
        2
176
     1
 62
     7
176
     1
 90
        5
176
     1
 90
        0
176
     1
 90
        0
176
     1
290
     0
176
     1
 90
        1
176
     1
 40
50.0
176
     1
 90
        0
176
     1
290
     0
176
     1
290
     1
176
     1
290
     1
176
     1
290
     0
176
     1
290
     0
176
     1
290
     0
176
     1
290
     0
176
     1
290
     0
176
     1
290
     0
176
     1
 90
       50
176
     1
 40
0.0
176
     1
 40
1.0
176
     1
 90
        0
176
     1
 62
    18
420
        0
176
     1
 90
       50
176
     1
 90
        3
176
     1
 62
     5
420
      255
176
     1
290
     0
176
     1
 90
       50
176
     1
 90
       50
176
     1
 90
       50
176
     1
290
     0
176
     1
 90
       50
176
     1
 62
   256
176
     0
 40
1.0
176
     0
 90
        2
176
     1
  1
strokes_ogs.tif
176
     1
290
     0
176
     1
 40
1.0
176
     1
 40
1.0
176
     1
  0
VISUALSTYLE
  5
3A
102
{ACAD_REACTORS
330
2A
102
}
330
2A
100
AcDbVisualStyle
  2
ColorChange
 70
    16
177
     3
291
     1
 70
    58
 90
        2
176
     1
 90
        2
176
     1
 90
        3
176
     1
 90
        0
176
     1
 40
0.6
176
     1
 40
30.0
176
     1
 62
     8
420
  8421504
176
     1
 90
        1
176
     1
 90
        4
176
     1
 62
     7
176
     1
 62
   257
176
     1
 90
        1
176
     1
 90
        1
176
     1
 40
1.0
176
     1
 90
        8
176
     1
 62
     8
420
  8421504
176
     1
 40
1.0
176
     1
 90
        1
176
     1
 90
        6
176
     1
 90
        2
176
     1
 62
     7
176
     1
 90
        5
176
     1
 90
        0
176
     1
 90
        0
176
     1
290
     0
176
     1
 90
        1
176
     1
 40
0.0
176
     1
 90
        0
176
     1
290
     0
176
     1
290
     1
176
     1
290
     1
176
     1
290
     0
176
     1
290
     0
176
     1
290
     0
176
     1
290
     0
176
     1
290
     0
176
     1
290
     0
176
     1
 90
       50
176
     1
 40
0.0
176
     1
 40
1.0
176
     1
 90
        0
176
     1
 62
    18
420
        0
176
     1
 90
       50
176
     1
 90
        3
176
     1
 62
     5
420
      255
176
     1
290
     0
176
     1
 90
       50
176
     1
 90
       50
176
     1
 90
       50
176
     1
290
     0
176
     1
 90
       50
176
     1
 62
   256
176
     0
 40
1.0
176
     0
 90
        2
176
     1
  1
strokes_ogs.tif
176
     1
290
     0
176
     1
 40
1.0
176
     1
 40
1.0
176
     1
  0
VISUALSTYLE
  5
34
102
{ACAD_REACTORS
330
2A
102
}
330
2A
100
AcDbVisualStyle
  2
Conceptual
 70
     9
177
     3
291
     0
 70
    58
 90
        3
176
     1
 90
        2
176
     1
 90
        0
176
     1
 90
        0
176
     1
 40
0.6
176
     1
 40
30.0
176
     1
 62
     7
420
 16777215
176
     1
 90
        2
176
     1
 90
        2
176
     1
 62
     7
176
     1
 62
   257
176
     1
 90
        1
176
     1
 90
        1
176
     1
 40
179.0
176
     1
 90
        8
176
     1
 62
     7
176
     1
 40
1.0
176
     1
 90
        1
176
     1
 90
        6
176
     1
 90
        2
176
     1
 62
     7
176
     1
 90
        3
176
     1
 90
        0
176
     1
 90
        0
176
     1
290
     0
176
     1
 90
        1
176
     1
 40
0.0
176
     1
 90
        0
176
     1
290
     0
176
     1
290
     1
176
     1
290
     1
176
     1
290
     0
176
     1
290
     0
176
     1
290
     0
176
     1
290
     0
176
     1
290
     0
176
     1
290
     0
176
     1
 90
       50
176
     1
 40
0.0
176
     1
 40
1.0
176
     1
 90
        0
176
     1
 62
    18
420
        0
176
     1
 90
       50
176
     1
 90
        3
176
     1
 62
     5
420
      255
176
     1
290
     0
176
     1
 90
       50
176
     1
 90
       50
176
     1
 90
       50
176
     1
290
     0
176
     1
 90
       50
176
     1
 62
   256
176
     0
 40
1.0
176
     0
 90
        2
176
     1
  1
strokes_ogs.tif
176
     1
290
     0
176
     1
 40
1.0
176
     1
 40
1.0
176
     1
  0
VISUALSTYLE
  5
35
102
{ACAD_REACTORS
330
2A
102
}
330
2A
100
AcDbVisualStyle
  2
Dim
 70
    11
177
     3
291
     1
 70
    58
 90
        2
176
     1
 90
        2
176
     1
 90
        0
176
     1
 90
        0
176
     1
 40
0.6
176
     1
 40
30.0
176
     1
 62
     7
420
 16777215
176
     1
 90
        1
176
     1
 90
        4
176
     1
 62
     7
176
     1
 62
   257
176
     1
 90
        1
176
     1
 90
        1
176
     1
 40
1.0
176
     1
 90
        8
176
     1
 62
     7
176
     1
 40
1.0
176
     1
 90
        1
176
     1
 90
        6
176
     1
 90
        2
176
     1
 62
     7
176
     1
 90
        5
176
     1
 90
        0
176
     1
 90
        0
176
     1
290
     0
176
     1
 90
        1
176
     1
 40
-50.0
176
     1
 90
        0
176
     1
290
     0
176
     1
290
     1
176
     1
290
     1
176
     1
290
     0
176
     1
290
     0
176
     1
290
     0
176
     1
290
     0
176
     1
290
     0
176
     1
290
     0
176
     1
 90
       50
176
     1
 40
0.0
176
     1
 40
1.0
176
     1
 90
        0
176
     1
 62
    18
420
        0
176
     1
 90
       50
176
     1
 90
        3
176
     1
 62
     5
420
      255
176
     1
290
     0
176
     1
 90
       50
176
     1
 90
       50
176
     1
 90
       50
176
     1
290
     0
176
     1
 90
       50
176
     1
 62
   256
176
     0
 40
1.0
176
     0
 90
        2
176
     1
  1
strokes_ogs.tif
176
     1
290
     0
176
     1
 40
1.0
176
     1
 40
1.0
176
     1
  0
VISUALSTYLE
  5
3D
102
{ACAD_REACTORS
330
2A
102
}
330
2A
100
AcDbVisualStyle
  2
EdgeColorOff
 70
    22
177
     3
291
     1
 70
    58
 90
        2
176
     0
 90
        2
176
     0
 90
        0
176
     0
 90
        0
176
     0
 40
0.6
176
     0
 40
30.0
176
     0
 62
     7
420
 16777215
176
     0
 90
        1
176
     0
 90
        4
176
     0
 62
     7
176
     0
 62
   257
176
     0
 90
        1
176
     0
 90
        1
176
     0
 40
1.0
176
     0
 90
        8
176
     2
 62
     7
176
     0
 40
1.0
176
     0
 90
        1
176
     0
 90
        6
176
     0
 90
        2
176
     0
 62
     7
176
     0
 90
        5
176
     0
 90
        0
176
     0
 90
        0
176
     0
290
     0
176
     0
 90
        1
176
     0
 40
0.0
176
     0
 90
        0
176
     0
290
     0
176
     0
290
     1
176
     0
290
     1
176
     0
290
     0
176
     0
290
     0
176
     0
290
     0
176
     0
290
     0
176
     0
290
     0
176
     0
290
     0
176
     0
 90
       50
176
     0
 40
0.0
176
     0
 40
1.0
176
     0
 90
        0
176
     0
 62
    18
420
        0
176
     0
 90
       50
176
     0
 90
        3
176
     0
 62
     5
420
      255
176
     0
290
     0
176
     0
 90
       50
176
     0
 90
       50
176
     0
 90
       50
176
     0
290
     0
176
     0
 90
       50
176
     0
 62
   256
176
     0
 40
1.0
176
     0
 90
        2
176
     0
  1
strokes_ogs.tif
176
     0
290
     0
176
     0
 40
1.0
176
     0
 40
1.0
176
     0
  0
VISUALSTYLE
  5
39
102
{ACAD_REACTORS
330
2A
102
}
330
2A
100
AcDbVisualStyle
  2
Facepattern
 70
    15
177
     3
291
     1
 70
    58
 90
        2
176
     1
 90
        2
176
     1
 90
        0
176
     1
 90
        0
176
     1
 40
0.6
176
     1
 40
30.0
176
     1
 62
     7
420
 16777215
176
     1
 90
        1
176
     1
 90
        4
176
     1
 62
     7
176
     1
 62
   257
176
     1
 90
        1
176
     1
 90
        1
176
     1
 40
1.0
176
     1
 90
        8
176
     1
 62
     7
176
     1
 40
1.0
176
     1
 90
        1
176
     1
 90
        6
176
     1
 90
        2
176
     1
 62
     7
176
     1
 90
        5
176
     1
 90
        0
176
     1
 90
        0
176
     1
290
     0
176
     1
 90
        1
176
     1
 40
0.0
176
     1
 90
        0
176
     1
290
     0
176
     1
290
     1
176
     1
290
     1
176
     1
290
     0
176
     1
290
     0
176
     1
290
     0
176
     1
290
     0
176
     1
290
     0
176
     1
290
     0
176
     1
 90
       50
176
     1
 40
0.0
176
     1
 40
1.0
176
     1
 90
        0
176
     1
 62
    18
420
        0
176
     1
 90
       50
176
     1
 90
        3
176
     1
 62
     5
420
      255
176
     1
290
     0
176
     1
 90
       50
176
     1
 90
       50
176
     1
 90
       50
176
     1
290
     0
176
     1
 90
       50
176
     1
 62
   256
176
     0
 40
1.0
176
     0
 90
        2
176
     1
  1
strokes_ogs.tif
176
     1
290
     0
176
     1
 40
1.0
176
     1
 40
1.0
176
     1
  0
VISUALSTYLE
  5
2B
102
{ACAD_REACTORS
330
2A
102
}
330
2A
100
AcDbVisualStyle
  2
Flat
 70
     0
177
     3
291
     1
 70
    58
 90
        2
176
     1
 90
        1
176
     1
 90
        1
176
     1
 90
        2
176
     1
 40
0.6
176
     1
 40
30.0
176
     1
 62
     7
420
 16777215
176
     1
 90
        0
176
     1
 90
        0
176
     1
 62
     7
176
     1
 62
   257
176
     1
 90
        1
176
     1
 90
        1
176
     1
 40
1.0
176
     1
 90
        8
176
     1
 62
     7
176
     1
 40
1.0
176
     1
 90
        1
176
     1
 90
        6
176
     1
 90
        2
176
     1
 62
     7
176
     1
 90
        5
176
     1
 90
        0
176
     1
 90
        0
176
     1
290
     0
176
     1
 90
       13
176
     1
 40
0.0
176
     1
 90
        0
176
     1
290
     0
176
     1
290
     1
176
     1
290
     1
176
     1
290
     0
176
     1
290
     0
176
     1
290
     0
176
     1
290
     0
176
     1
290
     0
176
     1
290
     0
176
     1
 90
       50
176
     1
 40
0.0
176
     1
 40
1.0
176
     1
 90
        0
176
     1
 62
    18
420
        0
176
     1
 90
       50
176
     1
 90
        3
176
     1
 62
     5
420
      255
176
     1
290
     0
176
     1
 90
       50
176
     1
 90
       50
176
     1
 90
       50
176
     1
290
     0
176
     1
 90
       50
176
     1
 62
   256
176
     0
 40
1.0
176
     0
 90
        2
176
     1
  1
strokes_ogs.tif
176
     1
290
     0
176
     1
 40
1.0
176
     1
 40
1.0
176
     1
  0
VISUALSTYLE
  5
2C
102
{ACAD_REACTORS
330
2A
102
}
330
2A
100
AcDbVisualStyle
  2
FlatWithEdges
 70
     1
177
     3
291
     1
 70
    58
 90
        2
176
     1
 90
        1
176
     1
 90
        1
176
     1
 90
        2
176
     1
 40
0.6
176
     1
 40
30.0
176
     1
 62
     7
420
 16777215
176
     1
 90
        1
176
     1
 90
        0
176
     1
 62
     7
176
     1
 62
   257
176
     1
 90
        1
176
     1
 90
        1
176
     1
 40
1.0
176
     1
 90
        0
176
     1
 62
   257
176
     1
 40
1.0
176
     1
 90
        1
176
     1
 90
        6
176
     1
 90
        2
176
     1
 62
     7
176
     1
 90
        5
176
     1
 90
        0
176
     1
 90
        0
176
     1
290
     0
176
     1
 90
       13
176
     1
 40
0.0
176
     1
 90
        0
176
     1
290
     0
176
     1
290
     1
176
     1
290
     1
176
     1
290
     0
176
     1
290
     0
176
     1
290
     0
176
     1
290
     0
176
     1
290
     0
176
     1
290
     0
176
     1
 90
       50
176
     1
 40
0.0
176
     1
 40
1.0
176
     1
 90
        0
176
     1
 62
    18
420
        0
176
     1
 90
       50
176
     1
 90
        3
176
     1
 62
     5
420
      255
176
     1
290
     0
176
     1
 90
       50
176
     1
 90
       50
176
     1
 90
       50
176
     1
290
     0
176
     1
 90
       50
176
     1
 62
   256
176
     0
 40
1.0
176
     0
 90
        2
176
     1
  1
strokes_ogs.tif
176
     1
290
     0
176
     1
 40
1.0
176
     1
 40
1.0
176
     1
  0
VISUALSTYLE
  5
2D
102
{ACAD_REACTORS
330
2A
102
}
330
2A
100
AcDbVisualStyle
  2
Gouraud
 70
     2
177
     3
291
     1
 70
    58
 90
        2
176
     1
 90
        2
176
     1
 90
        1
176
     1
 90
        2
176
     1
 40
0.6
176
     1
 40
30.0
176
     1
 62
     7
420
 16777215
176
     1
 90
        0
176
     1
 90
        0
176
     1
 62
     7
176
     1
 62
   257
176
     1
 90
        1
176
     1
 90
        1
176
     1
 40
1.0
176
     1
 90
        0
176
     1
 62
     7
176
     1
 40
1.0
176
     1
 90
        1
176
     1
 90
        6
176
     1
 90
        2
176
     1
 62
     7
176
     1
 90
        5
176
     1
 90
        0
176
     1
 90
        0
176
     1
290
     0
176
     1
 90
       13
176
     1
 40
0.0
176
     1
 90
        0
176
     1
290
     0
176
     1
290
     1
176
     1
290
     1
176
     1
290
     0
176
     1
290
     0
176
     1
290
     0
176
     1
290
     0
176
     1
290
     0
176
     1
290
     0
176
     1
 90
       50
176
     1
 40
0.0
176
     1
 40
1.0
176
     1
 90
        0
176
     1
 62
    18
420
        0
176
     1
 90
       50
176
     1
 90
        3
176
     1
 62
     5
420
      255
176
     1
290
     0
176
     1
 90
       50
176
     1
 90
       50
176
     1
 90
       50
176
     1
290
     0
176
     1
 90
       50
176
     1
 62
   256
176
     0
 40
1.0
176
     0
 90
        2
176
     1
  1
strokes_ogs.tif
176
     1
290
     0
176
     1
 40
1.0
176
     1
 40
1.0
176
     1
  0
VISUALSTYLE
  5
2E
102
{ACAD_REACTORS
330
2A
102
}
330
2A
100
AcDbVisualStyle
  2
GouraudWithEdges
 70
     3
177
     3
291
     1
 70
    58
 90
        2
176
     1
 90
        2
176
     1
 90
        1
176
     1
 90
        2
176
     1
 40
0.6
176
     1
 40
30.0
176
     1
 62
     7
420
 16777215
176
     1
 90
        1
176
     1
 90
        0
176
     1
 62
     7
176
     1
 62
   257
176
     1
 90
        1
176
     1
 90
        1
176
     1
 40
1.0
176
     1
 90
        0
176
     1
 62
   257
176
     1
 40
1.0
176
     1
 90
        1
176
     1
 90
        6
176
     1
 90
        2
176
     1
 62
     7
176
     1
 90
        5
176
     1
 90
        0
176
     1
 90
        0
176
     1
290
     0
176
     1
 90
       13
176
     1
 40
0.0
176
     1
 90
        0
176
     1
290
     0
176
     1
290
     1
176
     1
290
     1
176
     1
290
     0
176
     1
290
     0
176
     1
290
     0
176
     1
290
     0
176
     1
290
     0
176
     1
290
     0
176
     1
 90
       50
176
     1
 40
0.0
176
     1
 40
1.0
176
     1
 90
        0
176
     1
 62
    18
420
        0
176
     1
 90
       50
176
     1
 90
        3
176
     1
 62
     5
420
      255
176
     1
290
     0
176
     1
 90
       50
176
     1
 90
       50
176
     1
 90
       50
176
     1
290
     0
176
     1
 90
       50
176
     1
 62
   256
176
     0
 40
1.0
176
     0
 90
        2
176
     1
  1
strokes_ogs.tif
176
     1
290
     0
176
     1
 40
1.0
176
     1
 40
1.0
176
     1
  0
VISUALSTYLE
  5
31
102
{ACAD_REACTORS
330
2A
102
}
330
2A
100
AcDbVisualStyle
  2
Hidden
 70
     6
177
     3
291
     0
 70
    58
 90
        1
176
     1
 90
        2
176
     1
 90
        2
176
     1
 90
        0
176
     1
 40
0.6
176
     1
 40
30.0
176
     1
 62
     7
420
 16777215
176
     1
 90
        2
176
     1
 90
        2
176
     1
 62
     7
176
     1
 62
   257
176
     1
 90
        2
176
     1
 90
        1
176
     1
 40
40.0
176
     1
 90
        0
176
     1
 62
   257
176
     1
 40
1.0
176
     1
 90
        1
176
     1
 90
        6
176
     1
 90
        2
176
     1
 62
     7
176
     1
 90
        3
176
     1
 90
        0
176
     1
 90
        0
176
     1
290
     0
176
     1
 90
        1
176
     1
 40
0.0
176
     1
 90
        0
176
     1
290
     0
176
     1
290
     1
176
     1
290
     1
176
     1
290
     0
176
     1
290
     0
176
     1
290
     0
176
     1
290
     0
176
     1
290
     0
176
     1
290
     0
176
     1
 90
       50
176
     1
 40
0.0
176
     1
 40
1.0
176
     1
 90
        0
176
     1
 62
    18
420
        0
176
     1
 90
       50
176
     1
 90
        3
176
     1
 62
     5
420
      255
176
     1
290
     0
176
     1
 90
       50
176
     1
 90
       50
176
     1
 90
       50
176
     1
290
     0
176
     1
 90
       50
176
     1
 62
   256
176
     0
 40
1.0
176
     0
 90
        2
176
     1
  1
strokes_ogs.tif
176
     1
290
     0
176
     1
 40
1.0
176
     1
 40
1.0
176
     1
  0
VISUALSTYLE
  5
3B
102
{ACAD_REACTORS
330
2A
102
}
330
2A
100
AcDbVisualStyle
  2
JitterOff
 70
    20
177
     3
291
     1
 70
    58
 90
        2
176
     0
 90
        2
176
     0
 90
        0
176
     0
 90
        0
176
     0
 40
0.6
176
     0
 40
30.0
176
     0
 62
     7
420
 16777215
176
     0
 90
        1
176
     0
 90
        4
176
     0
 62
     7
176
     0
 62
   257
176
     0
 90
        1
176
     0
 90
        1
176
     0
 40
1.0
176
     0
 90
       10
176
     2
 62
     7
176
     0
 40
1.0
176
     0
 90
        1
176
     0
 90
        6
176
     0
 90
        2
176
     0
 62
     7
176
     0
 90
        5
176
     0
 90
        0
176
     0
 90
        0
176
     0
290
     0
176
     0
 90
        1
176
     0
 40
0.0
176
     0
 90
        0
176
     0
290
     0
176
     0
290
     1
176
     0
290
     1
176
     0
290
     0
176
     0
290
     0
176
     0
290
     0
176
     0
290
     0
176
     0
290
     0
176
     0
290
     0
176
     0
 90
       50
176
     0
 40
0.0
176
     0
 40
1.0
176
     0
 90
        0
176
     0
 62
    18
420
        0
176
     0
 90
       50
176
     0
 90
        3
176
     0
 62
     5
420
      255
176
     0
290
     0
176
     0
 90
       50
176
     0
 90
       50
176
     0
 90
       50
176
     0
290
     0
176
     0
 90
       50
176
     0
 62
   256
176
     0
 40
1.0
176
     0
 90
        2
176
     0
  1
strokes_ogs.tif
176
     0
290
     0
176
     0
 40
1.0
176
     0
 40
1.0
176
     0
  0
VISUALSTYLE
  5
38
102
{ACAD_REACTORS
330
2A
102
}
330
2A
100
AcDbVisualStyle
  2
Linepattern
 70
    14
177
     3
291
     1
 70
    58
 90
        2
176
     1
 90
        2
176
     1
 90
        0
176
     1
 90
        0
176
     1
 40
0.6
176
     1
 40
30.0
176
     1
 62
     7
420
 16777215
176
     1
 90
        1
176
     1
 90
        4
176
     1
 62
     7
176
     1
 62
   257
176
     1
 90
        7
176
     1
 90
        7
176
     1
 40
1.0
176
     1
 90
        8
176
     1
 62
     7
176
     1
 40
1.0
176
     1
 90
        1
176
     1
 90
        6
176
     1
 90
        2
176
     1
 62
     7
176
     1
 90
        5
176
     1
 90
        0
176
     1
 90
        0
176
     1
290
     0
176
     1
 90
        1
176
     1
 40
0.0
176
     1
 90
        0
176
     1
290
     0
176
     1
290
     1
176
     1
290
     1
176
     1
290
     0
176
     1
290
     0
176
     1
290
     0
176
     1
290
     0
176
     1
290
     0
176
     1
290
     0
176
     1
 90
       50
176
     1
 40
0.0
176
     1
 40
1.0
176
     1
 90
        0
176
     1
 62
    18
420
        0
176
     1
 90
       50
176
     1
 90
        3
176
     1
 62
     5
420
      255
176
     1
290
     0
176
     1
 90
       50
176
     1
 90
       50
176
     1
 90
       50
176
     1
290
     0
176
     1
 90
       50
176
     1
 62
   256
176
     0
 40
1.0
176
     0
 90
        2
176
     1
  1
strokes_ogs.tif
176
     1
290
     0
176
     1
 40
1.0
176
     1
 40
1.0
176
     1
  0
VISUALSTYLE
  5
3C
102
{ACAD_REACTORS
330
2A
102
}
330
2A
100
AcDbVisualStyle
  2
OverhangOff
 70
    21
177
     3
291
     1
 70
    58
 90
        2
176
     0
 90
        2
176
     0
 90
        0
176
     0
 90
        0
176
     0
 40
0.6
176
     0
 40
30.0
176
     0
 62
     7
420
 16777215
176
     0
 90
        1
176
     0
 90
        4
176
     0
 62
     7
176
     0
 62
   257
176
     0
 90
        1
176
     0
 90
        1
176
     0
 40
1.0
176
     0
 90
        9
176
     2
 62
     7
176
     0
 40
1.0
176
     0
 90
        1
176
     0
 90
        6
176
     0
 90
        2
176
     0
 62
     7
176
     0
 90
        5
176
     0
 90
        0
176
     0
 90
        0
176
     0
290
     0
176
     0
 90
        1
176
     0
 40
0.0
176
     0
 90
        0
176
     0
290
     0
176
     0
290
     1
176
     0
290
     1
176
     0
290
     0
176
     0
290
     0
176
     0
290
     0
176
     0
290
     0
176
     0
290
     0
176
     0
290
     0
176
     0
 90
       50
176
     0
 40
0.0
176
     0
 40
1.0
176
     0
 90
        0
176
     0
 62
    18
420
        0
176
     0
 90
       50
176
     0
 90
        3
176
     0
 62
     5
420
      255
176
     0
290
     0
176
     0
 90
       50
176
     0
 90
       50
176
     0
 90
       50
176
     0
290
     0
176
     0
 90
       50
176
     0
 62
   256
176
     0
 40
1.0
176
     0
 90
        2
176
     0
  1
strokes_ogs.tif
176
     0
290
     0
176
     0
 40
1.0
176
     0
 40
1.0
176
     0
  0
VISUALSTYLE
  5
33
102
{ACAD_REACTORS
330
2A
102
}
330
2A
100
AcDbVisualStyle
  2
Realistic
 70
     8
177
     3
291
     0
 70
    58
 90
        2
176
     1
 90
        3
176
     1
 90
        0
176
     1
 90
        2
176
     1
 40
0.6
176
     1
 40
30.0
176
     1
 62
     7
420
 16777215
176
     1
 90
        0
176
     1
 90
        0
176
     1
 62
     7
176
     1
 62
   257
176
     1
 90
        1
176
     1
 90
        1
176
     1
 40
1.0
176
     1
 90
        8
176
     1
 62
   257
176
     1
 40
1.0
176
     1
 90
        1
176
     1
 90
        6
176
     1
 90
        2
176
     1
 62
     7
176
     1
 90
        3
176
     1
 90
        0
176
     1
 90
        0
176
     1
290
     0
176
     1
 90
       13
176
     1
 40
0.0
176
     1
 90
        0
176
     1
290
     0
176
     1
290
     1
176
     1
290
     1
176
     1
290
     0
176
     1
290
     0
176
     1
290
     0
176
     1
290
     0
176
     1
290
     0
176
     1
290
     0
176
     1
 90
       50
176
     1
 40
0.0
176
     1
 40
1.0
176
     1
 90
        0
176
     1
 62
    18
420
        0
176
     1
 90
       50
176
     1
 90
        3
176
     1
 62
     5
420
      255
176
     1
290
     0
176
     1
 90
       50
176
     1
 90
       50
176
     1
 90
       50
176
     1
290
     0
176
     1
 90
       50
176
     1
 62
   256
176
     0
 40
1.0
176
     0
 90
        2
176
     1
  1
strokes_ogs.tif
176
     1
290
     0
176
     1
 40
1.0
176
     1
 40
1.0
176
     1
  0
VISUALSTYLE
  5
42
102
{ACAD_REACTORS
330
2A
102
}
330
2A
100
AcDbVisualStyle
  2
Shaded
 70
    27
177
     3
291
     0
 70
    58
 90
        2
176
     1
 90
        2
176
     1
 90
        1
176
     1
 90
        2
176
     1
 40
0.6
176
     1
 40
30.0
176
     1
 62
     7
420
 16777215
176
     1
 90
        0
176
     1
 90
        4
176
     1
 62
     7
176
     1
 62
   257
176
     1
 90
        1
176
     1
 90
        1
176
     1
 40
1.0
176
     1
 90
        8
176
     1
 62
   257
176
     1
 40
1.0
176
     1
 90
        1
176
     1
 90
        6
176
     1
 90
        2
176
     1
 62
     8
420
  7895160
176
     1
 90
        3
176
     1
 90
        0
176
     1
 90
        0
176
     1
290
     0
176
     1
 90
        5
176
     1
 40
0.0
176
     1
 90
        0
176
     1
290
     0
176
     1
290
     1
176
     1
290
     1
176
     1
290
     0
176
     1
290
     0
176
     1
290
     0
176
     1
290
     0
176
     1
290
     0
176
     1
290
     0
176
     1
 90
       50
176
     1
 40
0.0
176
     1
 40
1.0
176
     1
 90
        0
176
     1
 62
    18
420
        0
176
     1
 90
       50
176
     1
 90
        3
176
     1
 62
     5
420
      255
176
     1
290
     0
176
     1
 90
       50
176
     1
 90
       50
176
     1
 90
       50
176
     1
290
     0
176
     1
 90
       50
176
     1
 62
   256
176
     0
 40
1.0
176
     0
 90
        2
176
     1
  1
strokes_ogs.tif
176
     1
290
     0
176
     1
 40
1.0
176
     1
 40
1.0
176
     1
  0
VISUALSTYLE
  5
41
102
{ACAD_REACTORS
330
2A
102
}
330
2A
100
AcDbVisualStyle
  2
Shaded with edges
 70
    26
177
     3
291
     0
 70
    58
 90
        2
176
     1
 90
        2
176
     1
 90
        1
176
     1
 90
        2
176
     1
 40
0.6
176
     1
 40
30.0
176
     1
 62
     7
420
 16777215
176
     1
 90
        1
176
     1
 90
       10
176
     1
 62
     7
176
     1
 62
   257
176
     1
 90
        2
176
     1
 90
        1
176
     1
 40
1.0
176
     1
 90
        8
176
     1
 62
   257
176
     1
 40
1.0
176
     1
 90
        1
176
     1
 90
        6
176
     1
 90
        2
176
     1
 62
     7
176
     1
 90
        3
176
     1
 90
        0
176
     1
 90
        0
176
     1
290
     0
176
     1
 90
        5
176
     1
 40
0.0
176
     1
 90
        0
176
     1
290
     0
176
     1
290
     1
176
     1
290
     1
176
     1
290
     0
176
     1
290
     0
176
     1
290
     0
176
     1
290
     0
176
     1
290
     0
176
     1
290
     0
176
     1
 90
       50
176
     1
 40
0.0
176
     1
 40
1.0
176
     1
 90
        0
176
     1
 62
    18
420
        0
176
     1
 90
       50
176
     1
 90
        3
176
     1
 62
     5
420
      255
176
     1
290
     0
176
     1
 90
       50
176
     1
 90
       50
176
     1
 90
       50
176
     1
290
     0
176
     1
 90
       50
176
     1
 62
   256
176
     0
 40
1.0
176
     0
 90
        2
176
     1
  1
strokes_ogs.tif
176
     1
290
     0
176
     1
 40
1.0
176
     1
 40
1.0
176
     1
  0
VISUALSTYLE
  5
3E
102
{ACAD_REACTORS
330
2A
102
}
330
2A
100
AcDbVisualStyle
  2
Shades of Gray
 70
    23
177
     3
291
     0
 70
    58
 90
        2
176
     1
 90
        2
176
     1
 90
        3
176
     1
 90
        0
176
     1
 40
0.6
176
     1
 40
30.0
176
     1
 62
     7
420
 16777215
176
     1
 90
        2
176
     1
 90
        2
176
     1
 62
     7
176
     1
 62
     7
176
     1
 90
        1
176
     1
 90
        1
176
     1
 40
40.0
176
     1
 90
        8
176
     1
 62
     7
176
     1
 40
1.0
176
     1
 90
        1
176
     1
 90
        6
176
     1
 90
        2
176
     1
 62
     7
176
     1
 90
        3
176
     1
 90
        0
176
     1
 90
        0
176
     1
290
     0
176
     1
 90
        1
176
     1
 40
0.0
176
     1
 90
        0
176
     1
290
     0
176
     1
290
     1
176
     1
290
     1
176
     1
290
     0
176
     1
290
     0
176
     1
290
     0
176
     1
290
     0
176
     1
290
     0
176
     1
290
     0
176
     1
 90
       50
176
     1
 40
0.0
176
     1
 40
1.0
176
     1
 90
        0
176
     1
 62
    18
420
        0
176
     1
 90
       50
176
     1
 90
        3
176
     1
 62
     5
420
      255
176
     1
290
     0
176
     1
 90
       50
176
     1
 90
       50
176
     1
 90
       50
176
     1
290
     0
176
     1
 90
       50
176
     1
 62
   256
176
     0
 40
1.0
176
     0
 90
        2
176
     1
  1
strokes_ogs.tif
176
     1
290
     0
176
     1
 40
1.0
176
     1
 40
1.0
176
     1
  0
VISUALSTYLE
  5
3F
102
{ACAD_REACTORS
330
2A
102
}
330
2A
100
AcDbVisualStyle
  2
Sketchy
 70
    24
177
     3
291
     0
 70
    58
 90
        1
176
     1
 90
        2
176
     1
 90
        2
176
     1
 90
        0
176
     1
 40
0.6
176
     1
 40
30.0
176
     1
 62
     7
420
 16777215
176
     1
 90
        2
176
     1
 90
        2
176
     1
 62
     7
176
     1
 62
     7
176
     1
 90
        1
176
     1
 90
        1
176
     1
 40
40.0
176
     1
 90
       11
176
     1
 62
     7
176
     1
 40
1.0
176
     1
 90
        1
176
     1
 90
        6
176
     1
 90
        2
176
     1
 62
     7
176
     1
 90
        6
176
     1
 90
        0
176
     1
 90
        0
176
     1
290
     0
176
     1
 90
        1
176
     1
 40
0.0
176
     1
 90
        0
176
     1
290
     0
176
     1
290
     1
176
     1
290
     1
176
     1
290
     0
176
     1
290
     0
176
     1
290
     0
176
     1
290
     0
176
     1
290
     0
176
     1
290
     0
176
     1
 90
       50
176
     1
 40
0.0
176
     1
 40
1.0
176
     1
 90
        0
176
     1
 62
    18
420
        0
176
     1
 90
       50
176
     1
 90
        3
176
     1
 62
     5
420
      255
176
     1
290
     0
176
     1
 90
       50
176
     1
 90
       50
176
     1
 90
       50
176
     1
290
     0
176
     1
 90
       50
176
     1
 62
   256
176
     0
 40
1.0
176
     0
 90
        2
176
     1
  1
strokes_ogs.tif
176
     1
290
     0
176
     1
 40
1.0
176
     1
 40
1.0
176
     1
  0
VISUALSTYLE
  5
37
102
{ACAD_REACTORS
330
2A
102
}
330
2A
100
AcDbVisualStyle
  2
Thicken
 70
    13
177
     3
291
     1
 70
    58
 90
        2
176
     1
 90
        2
176
     1
 90
        0
176
     1
 90
        0
176
     1
 40
0.6
176
     1
 40
30.0
176
     1
 62
     7
420
 16777215
176
     1
 90
        1
176
     1
 90
        4
176
     1
 62
     7
176
     1
 62
   257
176
     1
 90
        1
176
     1
 90
        1
176
     1
 40
1.0
176
     1
 90
       12
176
     1
 62
     7
176
     1
 40
1.0
176
     1
 90
        1
176
     1
 90
        6
176
     1
 90
        2
176
     1
 62
     7
176
     1
 90
        5
176
     1
 90
        0
176
     1
 90
        0
176
     1
290
     0
176
     1
 90
        1
176
     1
 40
0.0
176
     1
 90
        0
176
     1
290
     0
176
     1
290
     1
176
     1
290
     1
176
     1
290
     0
176
     1
290
     0
176
     1
290
     0
176
     1
290
     0
176
     1
290
     0
176
     1
290
     0
176
     1
 90
       50
176
     1
 40
0.0
176
     1
 40
1.0
176
     1
 90
        0
176
     1
 62
    18
420
        0
176
     1
 90
       50
176
     1
 90
        3
176
     1
 62
     5
420
      255
176
     1
290
     0
176
     1
 90
       50
176
     1
 90
       50
176
     1
 90
       50
176
     1
290
     0
176
     1
 90
       50
176
     1
 62
   256
176
     0
 40
1.0
176
     0
 90
        2
176
     1
  1
strokes_ogs.tif
176
     1
290
     0
176
     1
 40
1.0
176
     1
 40
1.0
176
     1
  0
VISUALSTYLE
  5
30
102
{ACAD_REACTORS
330
2A
102
}
330
2A
100
AcDbVisualStyle
  2
Wireframe
 70
     5
177
     3
291
     0
 70
    58
 90
        0
176
     1
 90
        2
176
     1
 90
        0
176
     1
 90
        0
176
     1
 40
0.6
176
     1
 40
30.0
176
     1
 62
     7
420
 16777215
176
     1
 90
        1
176
     1
 90
        4
176
     1
 62
     7
176
     1
 62
   257
176
     1
 90
        1
176
     1
 90
        1
176
     1
 40
1.0
176
     1
 90
        0
176
     1
 62
   257
176
     1
 40
1.0
176
     1
 90
        1
176
     1
 90
        6
176
     1
 90
        2
176
     1
 62
     7
176
     1
 90
        3
176
     1
 90
        0
176
     1
 90
        0
176
     1
290
     0
176
     1
 90
        1
176
     1
 40
0.0
176
     1
 90
        0
176
     1
290
     0
176
     1
290
     1
176
     1
290
     1
176
     1
290
     0
176
     1
290
     0
176
     1
290
     0
176
     1
290
     0
176
     1
290
     0
176
     1
290
     0
176
     1
 90
       50
176
     1
 40
0.0
176
     1
 40
1.0
176
     1
 90
        0
176
     1
 62
    18
420
        0
176
     1
 90
       50
176
     1
 90
        3
176
     1
 62
     5
420
      255
176
     1
290
     0
176
     1
 90
       50
176
     1
 90
       50
176
     1
 90
       50
176
     1
290
     0
176
     1
 90
       50
176
     1
 62
   256
176
     0
 40
1.0
176
     0
 90
        2
176
     1
  1
strokes_ogs.tif
176
     1
290
     0
176
     1
 40
1.0
176
     1
 40
1.0
176
     1
  0
VISUALSTYLE
  5
40
102
{ACAD_REACTORS
330
2A
102
}
330
2A
100
AcDbVisualStyle
  2
X-Ray
 70
    25
177
     3
291
     0
 70
    58
 90
        2
176
     1
 90
        2
176
     1
 90
        1
176
     1
 90
        1
176
     1
 40
0.5
176
     1
 40
30.0
176
     1
 62
     7
420
 16777215
176
     1
 90
        1
176
     1
 90
        0
176
     1
 62
     7
176
     1
 62
   257
176
     1
 90
        1
176
     1
 90
        1
176
     1
 40
1.0
176
     1
 90
        8
176
     1
 62
     7
176
     1
 40
1.0
176
     1
 90
        1
176
     1
 90
        6
176
     1
 90
        2
176
     1
 62
     7
176
     1
 90
        3
176
     1
 90
        0
176
     1
 90
        0
176
     1
290
     0
176
     1
 90
       13
176
     1
 40
0.0
176
     1
 90
        0
176
     1
290
     0
176
     1
290
     1
176
     1
290
     1
176
     1
290
     0
176
     1
290
     0
176
     1
290
     0
176
     1
290
     0
176
     1
290
     0
176
     1
290
     0
176
     1
 90
       50
176
     1
 40
0.0
176
     1
 40
1.0
176
     1
 90
        0
176
     1
 62
    18
420
        0
176
     1
 90
       50
176
     1
 90
        3
176
     1
 62
     5
420
      255
176
     1
290
     0
176
     1
 90
       50
176
     1
 90
       50
176
     1
 90
       50
176
     1
290
     0
176
     1
 90
       50
176
     1
 62
   256
176
     0
 40
1.0
176
     0
 90
        2
176
     1
  1
strokes_ogs.tif
176
     1
290
     0
176
     1
 40
1.0
176
     1
 40
1.0
176
     1
  0
DICTIONARYVAR
  5
87
102
{ACAD_REACTORS
330
86
102
}
330
86
100
DictionaryVariables
280
     0
  1
1:1
  0
DICTIONARYVAR
  5
8C
102
{ACAD_REACTORS
330
86
102
}
330
86
100
DictionaryVariables
280
     0
  1
Standard
  0
DICTIONARYVAR
  5
8B
102
{ACAD_REACTORS
330
86
102
}
330
86
100
DictionaryVariables
280
     0
  1
Standard
  0
DICTIONARY
  5
88
330
5A
100
AcDbDictionary
280
     1
281
     1
  3
ACAD_ROUNDTRIP_2008_TABLESTYLE_CELLSTYLEMAP
360
89
  0
CELLSTYLEMAP
  5
89
102
{ACAD_REACTORS
330
88
102
}
330
88
100
AcDbCellStyleMap
 90
        3
300
CELLSTYLE
  1
TABLEFORMAT_BEGIN
 90
        5
170
     1
 91
        0
 92
    32768
 62
   257
 93
        1
300
CONTENTFORMAT
  1
CONTENTFORMAT_BEGIN
 90
        0
 91
        0
 92
        4
 93
        0
300

 40
0.0
140
1.0
 94
        5
 62
     0
340
11
144
0.25
309
CONTENTFORMAT_END
171
     1
301
MARGIN
  1
CELLMARGIN_BEGIN
 40
0.06
 40
0.06
 40
0.06
 40
0.06
 40
0.06
 40
0.06
309
CELLMARGIN_END
 94
        6
 95
        1
302
GRIDFORMAT
  1
GRIDFORMAT_BEGIN
 90
        0
 91
        1
 62
     0
 92
       -2
340
14
 93
        0
 40
0.045
309
GRIDFORMAT_END
 95
        2
302
GRIDFORMAT
  1
GRIDFORMAT_BEGIN
 90
        0
 91
        1
 62
     0
 92
       -2
340
14
 93
        0
 40
0.045
309
GRIDFORMAT_END
 95
        4
302
GRIDFORMAT
  1
GRIDFORMAT_BEGIN
 90
        0
 91
        1
 62
     0
 92
       -2
340
14
 93
        0
 40
0.045
309
GRIDFORMAT_END
 95
        8
302
GRIDFORMAT
  1
GRIDFORMAT_BEGIN
 90
        0
 91
        1
 62
     0
 92
       -2
340
14
 93
        0
 40
0.045
309
GRIDFORMAT_END
 95
       16
302
GRIDFORMAT
  1
GRIDFORMAT_BEGIN
 90
        0
 91
        1
 62
     0
 92
       -2
340
14
 93
        0
 40
0.045
309
GRIDFORMAT_END
 95
       32
302
GRIDFORMAT
  1
GRIDFORMAT_BEGIN
 90
        0
 91
        1
 62
     0
 92
       -2
340
14
 93
        0
 40
0.045
309
GRIDFORMAT_END
309
TABLEFORMAT_END
  1
CELLSTYLE_BEGIN
 90
        1
 91
        1
300
_TITLE
309
CELLSTYLE_END
300
CELLSTYLE
  1
TABLEFORMAT_BEGIN
 90
        5
170
     1
 91
        0
 92
        0
 62
   257
 93
        1
300
CONTENTFORMAT
  1
CONTENTFORMAT_BEGIN
 90
        0
 91
        0
 92
        4
 93
        0
300

 40
0.0
140
1.0
 94
        5
 62
     0
340
11
144
0.18
309
CONTENTFORMAT_END
171
     1
301
MARGIN
  1
CELLMARGIN_BEGIN
 40
0.06
 40
0.06
 40
0.06
 40
0.06
 40
0.06
 40
0.06
309
CELLMARGIN_END
 94
        6
 95
        1
302
GRIDFORMAT
  1
GRIDFORMAT_BEGIN
 90
        0
 91
        1
 62
     0
 92
       -2
340
14
 93
        0
 40
0.045
309
GRIDFORMAT_END
 95
        2
302
GRIDFORMAT
  1
GRIDFORMAT_BEGIN
 90
        0
 91
        1
 62
     0
 92
       -2
340
14
 93
        0
 40
0.045
309
GRIDFORMAT_END
 95
        4
302
GRIDFORMAT
  1
GRIDFORMAT_BEGIN
 90
        0
 91
        1
 62
     0
 92
       -2
340
14
 93
        0
 40
0.045
309
GRIDFORMAT_END
 95
        8
302
GRIDFORMAT
  1
GRIDFORMAT_BEGIN
 90
        0
 91
        1
 62
     0
 92
       -2
340
14
 93
        0
 40
0.045
309
GRIDFORMAT_END
 95
       16
302
GRIDFORMAT
  1
GRIDFORMAT_BEGIN
 90
        0
 91
        1
 62
     0
 92
       -2
340
14
 93
        0
 40
0.045
309
GRIDFORMAT_END
 95
       32
302
GRIDFORMAT
  1
GRIDFORMAT_BEGIN
 90
        0
 91
        1
 62
     0
 92
       -2
340
14
 93
        0
 40
0.045
309
GRIDFORMAT_END
309
TABLEFORMAT_END
  1
CELLSTYLE_BEGIN
 90
        2
 91
        1
300
_HEADER
309
CELLSTYLE_END
300
CELLSTYLE
  1
TABLEFORMAT_BEGIN
 90
        5
170
     1
 91
        0
 92
        0
 62
   257
 93
        1
300
CONTENTFORMAT
  1
CONTENTFORMAT_BEGIN
 90
        0
 91
        0
 92
        4
 93
        0
300

 40
0.0
140
1.0
 94
        2
 62
     0
340
11
144
0.18
309
CONTENTFORMAT_END
171
     1
301
MARGIN
  1
CELLMARGIN_BEGIN
 40
0.06
 40
0.06
 40
0.06
 40
0.06
 40
0.06
 40
0.06
309
CELLMARGIN_END
 94
        6
 95
        1
302
GRIDFORMAT
  1
GRIDFORMAT_BEGIN
 90
        0
 91
        1
 62
     0
 92
       -2
340
14
 93
        0
 40
0.045
309
GRIDFORMAT_END
 95
        2
302
GRIDFORMAT
  1
GRIDFORMAT_BEGIN
 90
        0
 91
        1
 62
     0
 92
       -2
340
14
 93
        0
 40
0.045
309
GRIDFORMAT_END
 95
        4
302
GRIDFORMAT
  1
GRIDFORMAT_BEGIN
 90
        0
 91
        1
 62
     0
 92
       -2
340
14
 93
        0
 40
0.045
309
GRIDFORMAT_END
 95
        8
302
GRIDFORMAT
  1
GRIDFORMAT_BEGIN
 90
        0
 91
        1
 62
     0
 92
       -2
340
14
 93
        0
 40
0.045
309
GRIDFORMAT_END
 95
       16
302
GRIDFORMAT
  1
GRIDFORMAT_BEGIN
 90
        0
 91
        1
 62
     0
 92
       -2
340
14
 93
        0
 40
0.045
309
GRIDFORMAT_END
 95
       32
302
GRIDFORMAT
  1
GRIDFORMAT_BEGIN
 90
        0
 91
        1
 62
     0
 92
       -2
340
14
 93
        0
 40
0.045
309
GRIDFORMAT_END
309
TABLEFORMAT_END
  1
CELLSTYLE_BEGIN
 90
        3
 91
        2
300
_DATA
309
CELLSTYLE_END
  0
ENDSEC
  0
EOF
