  0
SECTION
  2
HEADER
  9
$ACADVER
  1
AC1027
  9
$ACADMAINTVER
 70
   105
  9
$DWGCODEPAGE
  3
ANSI_1252
  9
$LASTSAVEDBY
  1
Office Desk
  9
$REQUIREDVERSIONS
160
                 0
  9
$INSBASE
 10
0.0
 20
0.0
 30
0.0
  9
$EXTMIN
 10
191.1858
 20
-153.0176
 30
0.0
  9
$EXTMAX
 10
1111.579
 20
168.2402
 30
0.0
  9
$LIMMIN
 10
0.0
 20
0.0
  9
$LIMMAX
 10
12.0
 20
9.0
  9
$ORTHOMODE
 70
     0
  9
$REGENMODE
 70
     1
  9
$FILLMODE
 70
     1
  9
$QTEXTMODE
 70
     0
  9
$MIRRTEXT
 70
     1
  9
$LTSCALE
 40
1.0
  9
$ATTMODE
 70
     1
  9
$TEXTSIZE
 40
0.2
  9
$TRACEWID
 40
0.05
  9
$TEXTSTYLE
  7
Standard
  9
$CLAYER
  8
0
  9
$CELTYPE
  6
ByLayer
  9
$CECOLOR
 62
   256
  9
$CELTSCALE
 40
1.0
  9
$DISPSILH
 70
     0
  9
$DIMSCALE
 40
1.0
  9
$DIMASZ
 40
0.18
  9
$DIMEXO
 40
0.0625
  9
$DIMDLI
 40
0.38
  9
$DIMRND
 40
0.0
  9
$DIMDLE
 40
0.0
  9
$DIMEXE
 40
0.18
  9
$DIMTP
 40
0.0
  9
$DIMTM
 40
0.0
  9
$DIMTXT
 40
0.18
  9
$DIMCEN
 40
0.09
  9
$DIMTSZ
 40
0.0
  9
$DIMTOL
 70
     0
  9
$DIMLIM
 70
     0
  9
$DIMTIH
 70
     1
  9
$DIMTOH
 70
     1
  9
$DIMSE1
 70
     0
  9
$DIMSE2
 70
     0
  9
$DIMTAD
 70
     0
  9
$DIMZIN
 70
     0
  9
$DIMBLK
  1

  9
$DIMASO
 70
     1
  9
$DIMSHO
 70
     1
  9
$DIMPOST
  1

  9
$DIMAPOST
  1

  9
$DIMALT
 70
     0
  9
$DIMALTD
 70
     2
  9
$DIMALTF
 40
25.4
  9
$DIMLFAC
 40
1.0
  9
$DIMTOFL
 70
     0
  9
$DIMTVP
 40
0.0
  9
$DIMTIX
 70
     0
  9
$DIMSOXD
 70
     0
  9
$DIMSAH
 70
     0
  9
$DIMBLK1
  1

  9
$DIMBLK2
  1

  9
$DIMSTYLE
  2
Standard
  9
$DIMCLRD
 70
     0
  9
$DIMCLRE
 70
     0
  9
$DIMCLRT
 70
     0
  9
$DIMTFAC
 40
1.0
  9
$DIMGAP
 40
0.09
  9
$DIMJUST
 70
     0
  9
$DIMSD1
 70
     0
  9
$DIMSD2
 70
     0
  9
$DIMTOLJ
 70
     1
  9
$DIMTZIN
 70
     0
  9
$DIMALTZ
 70
     0
  9
$DIMALTTZ
 70
     0
  9
$DIMUPT
 70
     0
  9
$DIMDEC
 70
     4
  9
$DIMTDEC
 70
     4
  9
$DIMALTU
 70
     2
  9
$DIMALTTD
 70
     2
  9
$DIMTXSTY
  7
Standard
  9
$DIMAUNIT
 70
     0
  9
$DIMADEC
 70
     0
  9
$DIMALTRND
 40
0.0
  9
$DIMAZIN
 70
     0
  9
$DIMDSEP
 70
    46
  9
$DIMATFIT
 70
     3
  9
$DIMFRAC
 70
     0
  9
$DIMLDRBLK
  1

  9
$DIMLUNIT
 70
     2
  9
$DIMLWD
 70
    -2
  9
$DIMLWE
 70
    -2
  9
$DIMTMOVE
 70
     0
  9
$DIMFXL
 40
1.0
  9
$DIMFXLON
 70
     0
  9
$DIMJOGANG
 40
0.7853981633974483
  9
$DIMTFILL
 70
     0
  9
$DIMTFILLCLR
 70
     0
  9
$DIMARCSYM
 70
     0
  9
$DIMLTYPE
  6

  9
$DIMLTEX1
  6

  9
$DIMLTEX2
  6

  9
$DIMTXTDIRECTION
 70
     0
  9
$LUNITS
 70
     2
  9
$LUPREC
 70
     4
  9
$SKETCHINC
 40
0.1
  9
$FILLETRAD
 40
0.0
  9
$AUNITS
 70
     0
  9
$AUPREC
 70
     0
  9
$MENU
  1
.
  9
$ELEVATION
 40
0.0
  9
$PELEVATION
 40
0.0
  9
$THICKNESS
 40
0.0
  9
$LIMCHECK
 70
     0
  9
$CHAMFERA
 40
0.0
  9
$CHAMFERB
 40
0.0
  9
$CHAMFERC
 40
0.0
  9
$CHAMFERD
 40
0.0
  9
$SKPOLY
 70
     0
  9
$TDCREATE
 40
2461012.655585243
  9
$TDUCREATE
 40
2461012.426418577
  9
$TDUPDATE
 40
2461012.655585336
  9
$TDUUPDATE
 40
2461012.426418669
  9
$TDINDWG
 40
0.0000000116
  9
$TDUSRTIMER
 40
0.0000000116
  9
$USRTIMER
 70
     1
  9
$ANGBASE
 50
0.0
  9
$ANGDIR
 70
     0
  9
$PDMODE
 70
     0
  9
$PDSIZE
 40
0.0
  9
$PLINEWID
 40
0.0
  9
$SPLFRAME
 70
     0
  9
$SPLINETYPE
 70
     6
  9
$SPLINESEGS
 70
     8
  9
$HANDSEED
  5
8F
  9
$SURFTAB1
 70
     6
  9
$SURFTAB2
 70
     6
  9
$SURFTYPE
 70
     6
  9
$SURFU
 70
     6
  9
$SURFV
 70
     6
  9
$UCSBASE
  2

  9
$UCSNAME
  2

  9
$UCSORG
 10
0.0
 20
0.0
 30
0.0
  9
$UCSXDIR
 10
1.0
 20
0.0
 30
0.0
  9
$UCSYDIR
 10
0.0
 20
1.0
 30
0.0
  9
$UCSORTHOREF
  2

  9
$UCSORTHOVIEW
 70
     0
  9
$UCSORGTOP
 10
0.0
 20
0.0
 30
0.0
  9
$UCSORGBOTTOM
 10
0.0
 20
0.0
 30
0.0
  9
$UCSORGLEFT
 10
0.0
 20
0.0
 30
0.0
  9
$UCSORGRIGHT
 10
0.0
 20
0.0
 30
0.0
  9
$UCSORGFRONT
 10
0.0
 20
0.0
 30
0.0
  9
$UCSORGBACK
 10
0.0
 20
0.0
 30
0.0
  9
$PUCSBASE
  2

  9
$PUCSNAME
  2

  9
$PUCSORG
 10
0.0
 20
0.0
 30
0.0
  9
$PUCSXDIR
 10
1.0
 20
0.0
 30
0.0
  9
$PUCSYDIR
 10
0.0
 20
1.0
 30
0.0
  9
$PUCSORTHOREF
  2

  9
$PUCSORTHOVIEW
 70
     0
  9
$PUCSORGTOP
 10
0.0
 20
0.0
 30
0.0
  9
$PUCSORGBOTTOM
 10
0.0
 20
0.0
 30
0.0
  9
$PUCSORGLEFT
 10
0.0
 20
0.0
 30
0.0
  9
$PUCSORGRIGHT
 10
0.0
 20
0.0
 30
0.0
  9
$PUCSORGFRONT
 10
0.0
 20
0.0
 30
0.0
  9
$PUCSORGBACK
 10
0.0
 20
0.0
 30
0.0
  9
$USERI1
 70
     0
  9
$USERI2
 70
     0
  9
$USERI3
 70
     0
  9
$USERI4
 70
     0
  9
$USERI5
 70
     0
  9
$USERR1
 40
0.0
  9
$USERR2
 40
0.0
  9
$USERR3
 40
0.0
  9
$USERR4
 40
0.0
  9
$USERR5
 40
0.0
  9
$WORLDVIEW
 70
     1
  9
$SHADEDGE
 70
     3
  9
$SHADEDIF
 70
    70
  9
$TILEMODE
 70
     1
  9
$MAXACTVP
 70
    64
  9
$PINSBASE
 10
0.0
 20
0.0
 30
0.0
  9
$PLIMCHECK
 70
     0
  9
$PEXTMIN
 10
1.000000000000000E+20
 20
1.000000000000000E+20
 30
1.000000000000000E+20
  9
$PEXTMAX
 10
-1.000000000000000E+20
 20
-1.000000000000000E+20
 30
-1.000000000000000E+20
  9
$PLIMMIN
 10
0.0
 20
0.0
  9
$PLIMMAX
 10
12.0
 20
9.0
  9
$UNITMODE
 70
     0
  9
$VISRETAIN
 70
     1
  9
$PLINEGEN
 70
     0
  9
$PSLTSCALE
 70
     1
  9
$TREEDEPTH
 70
  3020
  9
$CMLSTYLE
  2
Standard
  9
$CMLJUST
 70
     0
  9
$CMLSCALE
 40
1.0
  9
$PROXYGRAPHICS
 70
     1
  9
$MEASUREMENT
 70
     0
  9
$CELWEIGHT
370
    -1
  9
$ENDCAPS
280
     0
  9
$JOINSTYLE
280
     0
  9
$LWDISPLAY
290
     0
  9
$INSUNITS
 70
     4
  9
$HYPERLINKBASE
  1

  9
$STYLESHEET
  1

  9
$XEDIT
290
     1
  9
$CEPSNTYPE
380
     0
  9
$PSTYLEMODE
290
     1
  9
$FINGERPRINTGUID
  2
{98b7b734-7656-4eb6-a761-1a58a0144627}
  9
$VERSIONGUID
  2
{FAEB1C32-E019-11D5-929B-00C0DF256EC4}
  9
$EXTNAMES
290
     1
  9
$PSVPSCALE
 40
0.0
  9
$OLESTARTUP
290
     0
  9
$SORTENTS
280
   127
  9
$INDEXCTL
280
     0
  9
$HIDETEXT
280
     1
  9
$XCLIPFRAME
280
     2
  9
$HALOGAP
280
     0
  9
$OBSCOLOR
 70
   257
  9
$OBSLTYPE
280
     0
  9
$INTERSECTIONDISPLAY
280
     0
  9
$INTERSECTIONCOLOR
 70
   257
  9
$DIMASSOC
280
     2
  9
$PROJECTNAME
  1

  9
$CAMERADISPLAY
290
     0
  9
$LENSLENGTH
 40
50.0
  9
$CAMERAHEIGHT
 40
0.0
  9
$STEPSPERSEC
 40
2.0
  9
$STEPSIZE
 40
6.0
  9
$3DDWFPREC
 40
2.0
  9
$PSOLWIDTH
 40
0.25
  9
$PSOLHEIGHT
 40
4.0
  9
$LOFTANG1
 40
1.570796326794897
  9
$LOFTANG2
 40
1.570796326794897
  9
$LOFTMAG1
 40
0.0
  9
$LOFTMAG2
 40
0.0
  9
$LOFTPARAM
 70
     7
  9
$LOFTNORMALS
280
     1
  9
$LATITUDE
 40
37.795
  9
$LONGITUDE
 40
-122.394
  9
$NORTHDIRECTION
 40
0.0
  9
$TIMEZONE
 70
 -8000
  9
$LIGHTGLYPHDISPLAY
280
     1
  9
$TILEMODELIGHTSYNCH
280
     1
  9
$CMATERIAL
347
44
  9
$SOLIDHIST
280
     0
  9
$SHOWHIST
280
     1
  9
$DWFFRAME
280
     2
  9
$DGNFRAME
280
     2
  9
$REALWORLDSCALE
290
     1
  9
$INTERFERECOLOR
 62
   256
  9
$CSHADOW
280
     0
  9
$SHADOWPLANELOCATION
 40
0.0
  0
ENDSEC
  0
SECTION
  2
CLASSES
  0
CLASS
  1
ACDBDICTIONARYWDFLT
  2
AcDbDictionaryWithDefault
  3
ObjectDBX Classes
 90
        0
 91
        3
280
     0
281
     0
  0
CLASS
  1
VISUALSTYLE
  2
AcDbVisualStyle
  3
ObjectDBX Classes
 90
     4095
 91
        3
280
     0
281
     0
  0
CLASS
  1
MATERIAL
  2
AcDbMaterial
  3
ObjectDBX Classes
 90
     1153
 91
        3
280
     0
281
     0
  0
CLASS
  1
SCALE
  2
AcDbScale
  3
ObjectDBX Classes
 90
     1153
 91
        3
280
     0
281
     0
  0
CLASS
  1
TABLESTYLE
  2
AcDbTableStyle
  3
ObjectDBX Classes
 90
     4095
 91
        3
280
     0
281
     0
  0
CLASS
  1
MLEADERSTYLE
  2
AcDbMLeaderStyle
  3
ACDB_MLEADERSTYLE_CLASS
 90
     4095
 91
        3
280
     0
281
     0
  0
CLASS
  1
SUN
  2
AcDbSun
  3
SCENEOE
 90
     1153
 91
        3
280
     0
281
     0
  0
CLASS
  1
DICTIONARYVAR
  2
AcDbDictionaryVar
  3
ObjectDBX Classes
 90
        0
 91
        3
280
     0
281
     0
  0
CLASS
  1
CELLSTYLEMAP
  2
AcDbCellStyleMap
  3
ObjectDBX Classes
 90
     1152
 91
        3
280
     0
281
     0
  0
ENDSEC
  0
SECTION
  2
TABLES
  0
TABLE
  2
VPORT
  5
8
330
0
100
AcDbSymbolTable
 70
     1
  0
VPORT
  5
29
330
8
100
AcDbSymbolTableRecord
100
AcDbViewportTableRecord
  2
*Active
 70
     0
 10
0.0
 20
0.0
 11
1.0
 21
1.0
 12
10.42990654205607
 22
4.5
 13
0.0
 23
0.0
 14
0.5
 24
0.5
 15
0.5
 25
0.5
 16
0.0
 26
0.0
 36
1.0
 17
0.0
 27
0.0
 37
0.0
 40
9.0
 41
1.972972972850329
 42
50.0
 43
0.0
 44
0.0
 50
0.0
 51
0.0
 71
     0
 72
   100
 73
     1
 74
     3
 75
     0
 76
     0
 77
     0
 78
     0
281
     0
 65
     1
110
0.0
120
0.0
130
0.0
111
1.0
121
0.0
131
0.0
112
0.0
122
1.0
132
0.0
 79
     0
146
0.0
348
2F
 60
     3
 61
     5
292
     1
282
     1
141
0.0
142
0.0
 63
   250
361
5D
  0
ENDTAB
  0
TABLE
  2
LTYPE
  5
5
330
0
100
AcDbSymbolTable
 70
     1
  0
LTYPE
  5
14
330
5
100
AcDbSymbolTableRecord
100
AcDbLinetypeTableRecord
  2
ByBlock
 70
     0
  3

 72
    65
 73
     0
 40
0.0
  0
LTYPE
  5
15
330
5
100
AcDbSymbolTableRecord
100
AcDbLinetypeTableRecord
  2
ByLayer
 70
     0
  3

 72
    65
 73
     0
 40
0.0
  0
LTYPE
  5
16
330
5
100
AcDbSymbolTableRecord
100
AcDbLinetypeTableRecord
  2
Continuous
 70
     0
  3
Solid line
 72
    65
 73
     0
 40
0.0
  0
ENDTAB
  0
TABLE
  2
LAYER
  5
2
330
0
100
AcDbSymbolTable
 70
     2
  0
LAYER
  5
10
330
2
100
AcDbSymbolTableRecord
100
AcDbLayerTableRecord
  2
0
 70
     0
 62
     7
  6
Continuous
370
    -3
390
F
347
46
348
0
  0
LAYER
  5
5F
330
2
100
AcDbSymbolTableRecord
100
AcDbLayerTableRecord
  2
Layer 1
 70
     0
 62
     7
  6
Continuous
370
    -3
390
F
347
46
348
0
  0
ENDTAB
  0
TABLE
  2
STYLE
  5
3
330
0
100
AcDbSymbolTable
 70
     1
  0
STYLE
  5
11
330
3
100
AcDbSymbolTableRecord
100
AcDbTextStyleTableRecord
  2
Standard
 70
     0
 40
0.0
 41
1.0
 50
0.0
 71
     0
 42
0.2
  3
txt
  4

  0
ENDTAB
  0
TABLE
  2
VIEW
  5
6
330
0
100
AcDbSymbolTable
 70
     0
  0
ENDTAB
  0
TABLE
  2
UCS
  5
7
330
0
100
AcDbSymbolTable
 70
     0
  0
ENDTAB
  0
TABLE
  2
APPID
  5
9
330
0
100
AcDbSymbolTable
 70
     2
  0
APPID
  5
12
330
9
100
AcDbSymbolTableRecord
100
AcDbRegAppTableRecord
  2
ACAD
 70
     0
  0
APPID
  5
5E
330
9
100
AcDbSymbolTableRecord
100
AcDbRegAppTableRecord
  2
ODA
 70
     0
  0
ENDTAB
  0
TABLE
  2
DIMSTYLE
  5
A
330
0
100
AcDbSymbolTable
 70
     1
100
AcDbDimStyleTable
  0
DIMSTYLE
105
27
330
A
100
AcDbSymbolTableRecord
100
AcDbDimStyleTableRecord
  2
Standard
 70
     0
178
     0
340
11
  0
ENDTAB
  0
TABLE
  2
BLOCK_RECORD
  5
1
330
0
100
AcDbSymbolTable
 70
     1
  0
BLOCK_RECORD
  5
1F
330
1
100
AcDbSymbolTableRecord
100
AcDbBlockTableRecord
  2
*Model_Space
340
22
 70
     0
280
     1
281
     0
  0
BLOCK_RECORD
  5
1B
330
1
100
AcDbSymbolTableRecord
100
AcDbBlockTableRecord
  2
*Paper_Space
340
1E
 70
     0
280
     1
281
     0
  0
BLOCK_RECORD
  5
23
330
1
100
AcDbSymbolTableRecord
100
AcDbBlockTableRecord
  2
*Paper_Space0
340
26
 70
     0
280
     1
281
     0
  0
ENDTAB
  0
ENDSEC
  0
SECTION
  2
BLOCKS
  0
BLOCK
  5
20
330
1F
100
AcDbEntity
  8
0
100
AcDbBlockBegin
  2
*Model_Space
 70
     0
 10
0.0
 20
0.0
 30
0.0
  3
*Model_Space
  1

  0
ENDBLK
  5
21
330
1F
100
AcDbEntity
  8
0
100
AcDbBlockEnd
  0
BLOCK
  5
1C
330
1B
100
AcDbEntity
 67
     1
  8
0
100
AcDbBlockBegin
  2
*Paper_Space
 70
     0
 10
0.0
 20
0.0
 30
0.0
  3
*Paper_Space
  1

  0
ENDBLK
  5
1D
330
1B
100
AcDbEntity
 67
     1
  8
0
100
AcDbBlockEnd
  0
BLOCK
  5
24
330
23
100
AcDbEntity
  8
0
100
AcDbBlockBegin
  2
*Paper_Space0
 70
     0
 10
0.0
 20
0.0
 30
0.0
  3
*Paper_Space0
  1

  0
ENDBLK
  5
25
330
23
100
AcDbEntity
  8
0
100
AcDbBlockEnd
  0
ENDSEC
  0
SECTION
  2
ENTITIES
  0
LWPOLYLINE
  5
60
330
1F
100
AcDbEntity
  8
Layer 1
 62
   250
370
    18
100
AcDbPolyline
 90
        5
 70
     1
 43
0.0
 10
191.274
 20
-152.9294
 10
1111.4908
 20
-152.9294
 10
1111.4908
 20
168.152
 10
191.274
 20
168.152
 10
191.274
 20
-152.9294
  0
LWPOLYLINE
  5
61
330
1F
100
AcDbEntity
  8
Layer 1
 62
     7
370
    35
100
AcDbPolyline
 90
       33
 70
     1
 43
0.0
 10
488.5526
 20
133.9601
 10
515.909
 20
131.3802
 10
541.3889
 20
123.981
 10
564.4464
 20
112.2731
 10
584.5357
 20
96.767
 10
601.1108
 20
77.9736
 10
613.6261
 20
56.4033
 10
621.5355
 20
32.5669
 10
624.2933
 20
6.9749
 10
621.5355
 20
-18.6171
 10
613.6261
 20
-42.4535
 10
601.1108
 20
-64.0238
 10
584.5357
 20
-82.8172
 10
564.4464
 20
-98.3233
 10
541.3889
 20
-110.0312
 10
515.909
 20
-117.4304
 10
488.5526
 20
-120.0103
 10
461.1958
 20
-117.4304
 10
435.7156
 20
-110.0312
 10
412.6579
 20
-98.3233
 10
392.5685
 20
-82.8172
 10
375.9932
 20
-64.0238
 10
363.4779
 20
-42.4535
 10
355.5685
 20
-18.6171
 10
352.8107
 20
6.9749
 10
355.5685
 20
32.5669
 10
363.4779
 20
56.4033
 10
375.9932
 20
77.9736
 10
392.5685
 20
96.767
 10
412.6579
 20
112.2731
 10
435.7156
 20
123.981
 10
461.1958
 20
131.3802
 10
488.5526
 20
133.9601
  0
LWPOLYLINE
  5
62
330
1F
100
AcDbEntity
  8
Layer 1
 62
     7
370
    35
100
AcDbPolyline
 90
       33
 70
     1
 43
0.0
 10
488.5526
 20
127.0367
 10
514.4177
 20
124.5975
 10
538.5085
 20
117.6017
 10
560.3089
 20
106.5321
 10
579.3028
 20
91.8715
 10
594.9742
 20
74.1027
 10
606.8069
 20
53.7085
 10
614.285
 20
31.1716
 10
616.8924
 20
6.9749
 10
614.285
 20
-17.2219
 10
606.8069
 20
-39.7588
 10
594.9742
 20
-60.1532
 10
579.3028
 20
-77.9221
 10
560.3089
 20
-92.5828
 10
538.5085
 20
-103.6525
 10
514.4177
 20
-110.6484
 10
488.5526
 20
-113.0876
 10
462.6876
 20
-110.6484
 10
438.5968
 20
-103.6525
 10
416.7963
 20
-92.5828
 10
397.8021
 20
-77.9221
 10
382.1305
 20
-60.1532
 10
370.2975
 20
-39.7588
 10
362.8192
 20
-17.2219
 10
360.2117
 20
6.9749
 10
362.8192
 20
31.1716
 10
370.2975
 20
53.7085
 10
382.1305
 20
74.1027
 10
397.8021
 20
91.8715
 10
416.7963
 20
106.5321
 10
438.5968
 20
117.6017
 10
462.6876
 20
124.5975
 10
488.5526
 20
127.0367
  0
LWPOLYLINE
  5
63
330
1F
100
AcDbEntity
  8
Layer 1
 62
     7
370
    35
100
AcDbPolyline
 90
       33
 70
     1
 43
0.0
 10
488.5526
 20
24.4906
 10
492.3259
 20
24.1347
 10
495.8403
 20
23.1142
 10
499.0205
 20
21.4992
 10
501.7913
 20
19.3604
 10
504.0774
 20
16.7682
 10
505.8036
 20
13.7929
 10
506.8944
 20
10.505
 10
507.2748
 20
6.9749
 10
506.8944
 20
3.4448
 10
505.8036
 20
0.1569
 10
504.0774
 20
-2.8184
 10
501.7913
 20
-5.4107
 10
499.0205
 20
-7.5495
 10
495.8403
 20
-9.1644
 10
492.3259
 20
-10.185
 10
488.5526
 20
-10.5408
 10
484.7791
 20
-10.185
 10
481.2645
 20
-9.1644
 10
478.0841
 20
-7.5495
 10
475.3131
 20
-5.4107
 10
473.0268
 20
-2.8184
 10
471.3006
 20
0.1569
 10
470.2096
 20
3.4448
 10
469.8292
 20
6.9749
 10
470.2096
 20
10.505
 10
471.3006
 20
13.7929
 10
473.0268
 20
16.7682
 10
475.3131
 20
19.3604
 10
478.0841
 20
21.4992
 10
481.2645
 20
23.1142
 10
484.7791
 20
24.1347
 10
488.5526
 20
24.4906
  0
LWPOLYLINE
  5
64
330
1F
100
AcDbEntity
  8
Layer 1
 62
     7
370
    35
100
AcDbPolyline
 90
       33
 70
     1
 43
0.0
 10
488.5526
 20
17.0203
 10
490.7166
 20
16.8162
 10
492.7322
 20
16.2308
 10
494.5562
 20
15.3046
 10
496.1455
 20
14.0779
 10
497.4568
 20
12.5912
 10
498.4469
 20
10.8848
 10
499.0726
 20
8.9993
 10
499.2908
 20
6.9749
 10
499.0726
 20
4.9503
 10
498.4469
 20
3.0646
 10
497.4568
 20
1.3583
 10
496.1455
 20
-0.1284
 10
494.5562
 20
-1.355
 10
492.7322
 20
-2.2812
 10
490.7166
 20
-2.8665
 10
488.5526
 20
-3.0706
 10
486.3883
 20
-2.8665
 10
484.3725
 20
-2.2812
 10
482.5485
 20
-1.355
 10
480.9593
 20
-0.1284
 10
479.6482
 20
1.3583
 10
478.6582
 20
3.0646
 10
478.0326
 20
4.9503
 10
477.8145
 20
6.9749
 10
478.0326
 20
8.9993
 10
478.6582
 20
10.8848
 10
479.6482
 20
12.5912
 10
480.9593
 20
14.0779
 10
482.5485
 20
15.3046
 10
484.3725
 20
16.2308
 10
486.3883
 20
16.8162
 10
488.5526
 20
17.0203
  0
LWPOLYLINE
  5
65
330
1F
100
AcDbEntity
  8
Layer 1
 62
     7
370
    35
100
AcDbPolyline
 90
        4
 70
     0
 43
0.0
 10
367.9235
 20
-118.5695
 10
310.7116
 20
-118.5695
 10
310.7116
 20
133.9601
 10
365.6359
 20
133.9601
  0
LWPOLYLINE
  5
66
330
1F
100
AcDbEntity
  8
Layer 1
 62
     7
370
    35
100
AcDbPolyline
 90
        2
 70
     0
 43
0.0
 10
314.3124
 20
-115.6719
 10
307.9887
 20
-120.7841
  0
LWPOLYLINE
  5
67
330
1F
100
AcDbEntity
  8
Layer 1
 62
     7
370
    35
100
AcDbPolyline
 90
        2
 70
     0
 43
0.0
 10
314.3829
 20
136.5155
 10
308.0592
 20
131.4033
  0
LWPOLYLINE
  5
68
330
1F
100
AcDbEntity
  8
Layer 1
 62
     7
100
AcDbPolyline
 90
        4
 70
     1
 43
0.0
 10
232.8082
 20
13.2502
 10
232.8082
 20
4.5352
 10
227.0424
 20
4.5352
 10
232.8082
 20
13.2502
  0
LWPOLYLINE
  5
69
330
1F
100
AcDbEntity
  8
Layer 1
 62
     7
100
AcDbPolyline
 90
       11
 70
     1
 43
0.0
 10
234.4268
 20
2.9387
 10
236.3336
 20
2.9387
 10
236.3336
 20
4.5352
 10
234.4268
 20
4.5352
 10
234.4047
 20
14.9357
 10
232.2312
 20
14.9357
 10
224.2932
 20
2.9387
 10
232.8082
 20
2.9387
 10
232.8082
 20
-0.1435
 10
234.4268
 20
-0.1435
 10
234.4268
 20
2.9387
  0
LWPOLYLINE
  5
6A
330
1F
100
AcDbEntity
  8
Layer 1
 62
     7
100
AcDbPolyline
 90
      109
 70
     1
 43
0.0
 10
244.7934
 20
13.1833
 10
245.0494
 20
13.0094
 10
245.2881
 20
12.812
 10
245.5095
 20
12.591
 10
245.7136
 20
12.3464
 10
245.9004
 20
12.0783
 10
246.0698
 20
11.7866
 10
246.222
 20
11.4713
 10
246.3569
 20
11.1324
 10
246.5075
 20
10.6828
 10
246.6381
 20
10.2267
 10
246.7485
 20
9.7639
 10
246.8388
 20
9.2945
 10
246.9091
 20
8.8186
 10
246.9593
 20
8.3361
 10
246.9894
 20
7.847
 10
246.9994
 20
7.3513
 10
246.9953
 20
7.1082
 10
246.9828
 20
6.8442
 10
246.9621
 20
6.5594
 10
246.9332
 20
6.2538
 10
246.8563
 20
5.6577
 10
246.7558
 20
5.0946
 10
246.6318
 20
4.5643
 10
246.4841
 20
4.0669
 10
246.3129
 20
3.6024
 10
246.1181
 20
3.1709
 10
245.8998
 20
2.7722
 10
245.6579
 20
2.4065
 10
245.4372
 20
2.131
 10
245.2048
 20
1.8923
 10
244.9606
 20
1.6902
 10
244.7046
 20
1.525
 10
244.4369
 20
1.3964
 10
244.1573
 20
1.3046
 10
243.866
 20
1.2495
 10
243.5629
 20
1.2311
 10
243.2245
 20
1.2493
 10
242.9024
 20
1.3039
 10
242.5966
 20
1.3948
 10
242.3071
 20
1.5222
 10
242.0339
 20
1.6859
 10
241.777
 20
1.886
 10
241.5364
 20
2.1225
 10
241.3121
 20
2.3954
 10
241.2172
 20
2.5279
 10
241.1264
 20
2.6644
 10
241.0397
 20
2.8052
 10
240.9572
 20
2.95
 10
240.8789
 20
3.099
 10
240.8047
 20
3.2521
 10
240.7348
 20
3.4094
 10
240.669
 20
3.5708
 10
240.5492
 20
3.8999
 10
240.4446
 20
4.2333
 10
240.3552
 20
4.5708
 10
240.2809
 20
4.9123
 10
240.2191
 20
5.2534
 10
240.1671
 20
5.5888
 10
240.1248
 20
5.9186
 10
240.092
 20
6.2428
 10
240.0679
 20
6.5767
 10
240.0506
 20
6.9353
 10
240.0403
 20
7.3181
 10
240.0368
 20
7.7247
 10
240.0406
 20
7.9402
 10
240.0521
 20
8.1683
 10
240.0712
 20
8.4089
 10
240.0979
 20
8.6622
 10
240.1323
 20
8.9281
 10
240.1742
 20
9.2067
 10
240.2238
 20
9.498
 10
240.2809
 20
9.802
 10
240.3544
 20
10.1394
 10
240.4416
 20
10.4755
 10
240.5427
 20
10.8102
 10
240.6579
 20
11.1435
 10
240.7211
 20
11.3077
 10
240.7888
 20
11.4677
 10
240.8611
 20
11.6236
 10
240.9378
 20
11.7753
 10
241.019
 20
11.9229
 10
241.1047
 20
12.0664
 10
241.1948
 20
12.2057
 10
241.2894
 20
12.3409
 10
241.3889
 20
12.4707
 10
241.4932
 20
12.5939
 10
241.6024
 20
12.7105
 10
241.7165
 20
12.8205
 10
241.8353
 20
12.9239
 10
241.959
 20
13.0207
 10
242.0875
 20
13.1108
 10
242.2208
 20
13.1944
 10
242.3598
 20
13.2698
 10
242.505
 20
13.3352
 10
242.6564
 20
13.3906
 10
242.814
 20
13.4358
 10
242.9779
 20
13.471
 10
243.1481
 20
13.4962
 10
243.3245
 20
13.5113
 10
243.5071
 20
13.5163
 10
243.6897
 20
13.5111
 10
243.8661
 20
13.4955
 10
244.0362
 20
13.4695
 10
244.2001
 20
13.4331
 10
244.3578
 20
13.3862
 10
244.5092
 20
13.329
 10
244.6544
 20
13.2613
 10
244.7934
 20
13.1833
  0
LWPOLYLINE
  5
6B
330
1F
100
AcDbEntity
  8
Layer 1
 62
     7
100
AcDbPolyline
 90
       65
 70
     1
 43
0.0
 10
243.5849
 20
-0.3434
 10
244.2322
 20
-0.3023
 10
244.8384
 20
-0.1791
 10
245.4033
 20
0.0262
 10
245.9269
 20
0.3137
 10
246.4094
 20
0.6832
 10
246.8506
 20
1.1349
 10
247.2507
 20
1.6687
 10
247.6095
 20
2.2845
 10
247.8615
 20
2.822
 10
248.0799
 20
3.3893
 10
248.2647
 20
3.9863
 10
248.416
 20
4.6131
 10
248.5336
 20
5.2697
 10
248.6177
 20
5.9561
 10
248.6681
 20
6.6722
 10
248.6849
 20
7.4181
 10
248.6681
 20
8.164
 10
248.6177
 20
8.8802
 10
248.5336
 20
9.5666
 10
248.416
 20
10.2232
 10
248.2647
 20
10.85
 10
248.0799
 20
11.447
 10
247.8615
 20
12.0143
 10
247.6095
 20
12.5518
 10
247.2507
 20
13.1676
 10
246.8506
 20
13.7013
 10
246.4094
 20
14.1529
 10
245.9269
 20
14.5223
 10
245.4033
 20
14.8097
 10
244.8384
 20
15.0149
 10
244.2322
 20
15.1381
 10
243.5849
 20
15.1791
 10
242.9374
 20
15.1381
 10
242.3312
 20
15.0149
 10
241.7662
 20
14.8097
 10
241.2424
 20
14.5223
 10
240.7599
 20
14.1529
 10
240.3187
 20
13.7013
 10
239.9186
 20
13.1676
 10
239.5598
 20
12.5518
 10
239.3078
 20
12.0143
 10
239.0894
 20
11.447
 10
238.9046
 20
10.85
 10
238.7533
 20
10.2232
 10
238.6357
 20
9.5666
 10
238.5516
 20
8.8802
 10
238.5012
 20
8.164
 10
238.4844
 20
7.4181
 10
238.5012
 20
6.6722
 10
238.5516
 20
5.9561
 10
238.6357
 20
5.2697
 10
238.7533
 20
4.6131
 10
238.9046
 20
3.9863
 10
239.0894
 20
3.3893
 10
239.3078
 20
2.822
 10
239.5598
 20
2.2845
 10
239.9186
 20
1.6687
 10
240.3187
 20
1.1349
 10
240.7599
 20
0.6832
 10
241.2424
 20
0.3137
 10
241.7662
 20
0.0262
 10
242.3312
 20
-0.1791
 10
242.9374
 20
-0.3023
 10
243.5849
 20
-0.3434
  0
LWPOLYLINE
  5
6C
330
1F
100
AcDbEntity
  8
Layer 1
 62
     7
100
AcDbPolyline
 90
      109
 70
     1
 43
0.0
 10
257.2115
 20
13.1833
 10
257.4675
 20
13.0094
 10
257.7062
 20
12.812
 10
257.9275
 20
12.591
 10
258.1316
 20
12.3464
 10
258.3184
 20
12.0783
 10
258.4879
 20
11.7866
 10
258.64
 20
11.4713
 10
258.7749
 20
11.1324
 10
258.9256
 20
10.6828
 10
259.0561
 20
10.2267
 10
259.1666
 20
9.7639
 10
259.2569
 20
9.2945
 10
259.3272
 20
8.8186
 10
259.3774
 20
8.3361
 10
259.4075
 20
7.847
 10
259.4175
 20
7.3513
 10
259.4134
 20
7.1082
 10
259.4009
 20
6.8442
 10
259.3802
 20
6.5594
 10
259.3513
 20
6.2538
 10
259.2744
 20
5.6577
 10
259.1739
 20
5.0946
 10
259.0499
 20
4.5643
 10
258.9022
 20
4.0669
 10
258.731
 20
3.6024
 10
258.5362
 20
3.1709
 10
258.3179
 20
2.7722
 10
258.076
 20
2.4065
 10
257.8553
 20
2.131
 10
257.6229
 20
1.8923
 10
257.3787
 20
1.6902
 10
257.1227
 20
1.525
 10
256.855
 20
1.3964
 10
256.5754
 20
1.3046
 10
256.2841
 20
1.2495
 10
255.981
 20
1.2311
 10
255.6426
 20
1.2493
 10
255.3205
 20
1.3039
 10
255.0147
 20
1.3948
 10
254.7252
 20
1.5222
 10
254.452
 20
1.6859
 10
254.1951
 20
1.886
 10
253.9545
 20
2.1225
 10
253.7302
 20
2.3954
 10
253.6353
 20
2.5279
 10
253.5445
 20
2.6644
 10
253.4578
 20
2.8052
 10
253.3753
 20
2.95
 10
253.297
 20
3.099
 10
253.2228
 20
3.2521
 10
253.1529
 20
3.4094
 10
253.0871
 20
3.5708
 10
252.9673
 20
3.8999
 10
252.8627
 20
4.2333
 10
252.7732
 20
4.5708
 10
252.6989
 20
4.9123
 10
252.6372
 20
5.2534
 10
252.5852
 20
5.5888
 10
252.5429
 20
5.9186
 10
252.5101
 20
6.2428
 10
252.486
 20
6.5767
 10
252.4687
 20
6.9353
 10
252.4584
 20
7.3181
 10
252.4549
 20
7.7247
 10
252.4587
 20
7.9402
 10
252.4702
 20
8.1683
 10
252.4893
 20
8.4089
 10
252.516
 20
8.6622
 10
252.5503
 20
8.9281
 10
252.5923
 20
9.2067
 10
252.6418
 20
9.498
 10
252.6989
 20
9.802
 10
252.7724
 20
10.1394
 10
252.8597
 20
10.4755
 10
252.9608
 20
10.8102
 10
253.076
 20
11.1435
 10
253.1392
 20
11.3077
 10
253.2069
 20
11.4677
 10
253.2792
 20
11.6236
 10
253.3559
 20
11.7753
 10
253.4371
 20
11.9229
 10
253.5228
 20
12.0664
 10
253.6129
 20
12.2057
 10
253.7075
 20
12.3409
 10
253.807
 20
12.4707
 10
253.9113
 20
12.5939
 10
254.0205
 20
12.7105
 10
254.1346
 20
12.8205
 10
254.2534
 20
12.9239
 10
254.3771
 20
13.0207
 10
254.5056
 20
13.1108
 10
254.6389
 20
13.1944
 10
254.7779
 20
13.2698
 10
254.9231
 20
13.3352
 10
255.0745
 20
13.3906
 10
255.2321
 20
13.4358
 10
255.396
 20
13.471
 10
255.5662
 20
13.4962
 10
255.7426
 20
13.5113
 10
255.9252
 20
13.5163
 10
256.1078
 20
13.5111
 10
256.2842
 20
13.4955
 10
256.4543
 20
13.4695
 10
256.6182
 20
13.4331
 10
256.7759
 20
13.3862
 10
256.9273
 20
13.329
 10
257.0725
 20
13.2613
 10
257.2115
 20
13.1833
  0
LWPOLYLINE
  5
6D
330
1F
100
AcDbEntity
  8
Layer 1
 62
     7
100
AcDbPolyline
 90
       65
 70
     1
 43
0.0
 10
256.003
 20
-0.3434
 10
256.6503
 20
-0.3023
 10
257.2565
 20
-0.1791
 10
257.8214
 20
0.0262
 10
258.345
 20
0.3137
 10
258.8275
 20
0.6832
 10
259.2687
 20
1.1349
 10
259.6687
 20
1.6687
 10
260.0275
 20
2.2845
 10
260.2795
 20
2.822
 10
260.4979
 20
3.3893
 10
260.6828
 20
3.9863
 10
260.8341
 20
4.6131
 10
260.9517
 20
5.2697
 10
261.0358
 20
5.9561
 10
261.0862
 20
6.6722
 10
261.103
 20
7.4181
 10
261.0862
 20
8.164
 10
261.0358
 20
8.8802
 10
260.9517
 20
9.5666
 10
260.8341
 20
10.2232
 10
260.6828
 20
10.85
 10
260.4979
 20
11.447
 10
260.2795
 20
12.0143
 10
260.0275
 20
12.5518
 10
259.6687
 20
13.1676
 10
259.2687
 20
13.7013
 10
258.8275
 20
14.1529
 10
258.345
 20
14.5223
 10
257.8214
 20
14.8097
 10
257.2565
 20
15.0149
 10
256.6503
 20
15.1381
 10
256.003
 20
15.1791
 10
255.3555
 20
15.1381
 10
254.7493
 20
15.0149
 10
254.1843
 20
14.8097
 10
253.6605
 20
14.5223
 10
253.178
 20
14.1529
 10
252.7368
 20
13.7013
 10
252.3367
 20
13.1676
 10
251.9779
 20
12.5518
 10
251.7259
 20
12.0143
 10
251.5075
 20
11.447
 10
251.3227
 20
10.85
 10
251.1714
 20
10.2232
 10
251.0538
 20
9.5666
 10
250.9697
 20
8.8802
 10
250.9193
 20
8.164
 10
250.9025
 20
7.4181
 10
250.9193
 20
6.6722
 10
250.9697
 20
5.9561
 10
251.0538
 20
5.2697
 10
251.1714
 20
4.6131
 10
251.3227
 20
3.9863
 10
251.5075
 20
3.3893
 10
251.7259
 20
2.822
 10
251.9779
 20
2.2845
 10
252.3367
 20
1.6687
 10
252.7368
 20
1.1349
 10
253.178
 20
0.6832
 10
253.6605
 20
0.3137
 10
254.1843
 20
0.0262
 10
254.7493
 20
-0.1791
 10
255.3555
 20
-0.3023
 10
256.003
 20
-0.3434
  0
LWPOLYLINE
  5
6E
330
1F
100
AcDbEntity
  8
Layer 1
 62
     7
100
AcDbPolyline
 90
      162
 70
     1
 43
0.0
 10
276.2488
 20
-0.0994
 10
277.8006
 20
-0.0994
 10
277.8006
 20
5.9988
 10
277.788
 20
6.4038
 10
277.75
 20
6.7896
 10
277.6868
 20
7.1564
 10
277.5983
 20
7.5041
 10
277.4845
 20
7.8327
 10
277.3454
 20
8.1423
 10
277.181
 20
8.4329
 10
276.9913
 20
8.7045
 10
276.8855
 20
8.8341
 10
276.7731
 20
8.9572
 10
276.6542
 20
9.0737
 10
276.5287
 20
9.1837
 10
276.3965
 20
9.2871
 10
276.2579
 20
9.3839
 10
276.1126
 20
9.4742
 10
275.9607
 20
9.5579
 10
275.7991
 20
9.6333
 10
275.625
 20
9.6986
 10
275.4385
 20
9.7539
 10
275.2396
 20
9.799
 10
275.0282
 20
9.8341
 10
274.8044
 20
9.8592
 10
274.5681
 20
9.8742
 10
274.3193
 20
9.8792
 10
274.0683
 20
9.8706
 10
273.8253
 20
9.8446
 10
273.5903
 20
9.8013
 10
273.3633
 20
9.7407
 10
273.1442
 20
9.6628
 10
272.933
 20
9.5676
 10
272.7298
 20
9.455
 10
272.5345
 20
9.325
 10
272.365
 20
9.1955
 10
272.2031
 20
9.0564
 10
272.0489
 20
8.9078
 10
271.9023
 20
8.7497
 10
271.7633
 20
8.5822
 10
271.632
 20
8.4055
 10
271.5083
 20
8.2195
 10
271.3923
 20
8.0245
 10
271.3022
 20
8.2043
 10
271.2038
 20
8.378
 10
271.0971
 20
8.545
 10
270.9821
 20
8.7045
 10
270.8763
 20
8.8341
 10
270.7638
 20
8.9572
 10
270.6448
 20
9.0737
 10
270.5192
 20
9.1837
 10
270.3869
 20
9.2871
 10
270.2482
 20
9.3839
 10
270.1028
 20
9.4742
 10
269.9509
 20
9.5579
 10
269.7895
 20
9.6333
 10
269.6155
 20
9.6986
 10
269.4292
 20
9.7539
 10
269.2303
 20
9.799
 10
269.019
 20
9.8341
 10
268.7952
 20
9.8592
 10
268.5589
 20
9.8742
 10
268.3102
 20
9.8792
 10
268.0592
 20
9.8706
 10
267.8161
 20
9.8446
 10
267.581
 20
9.8013
 10
267.3538
 20
9.7407
 10
267.1346
 20
9.6628
 10
266.9233
 20
9.5676
 10
266.7201
 20
9.455
 10
266.5248
 20
9.325
 10
266.3634
 20
9.2017
 10
266.2089
 20
9.0701
 10
266.0613
 20
8.93
 10
265.9206
 20
8.7815
 10
265.7869
 20
8.6244
 10
265.6601
 20
8.4588
 10
265.5402
 20
8.2846
 10
265.4273
 20
8.1018
 10
265.4273
 20
9.6579
 10
263.8755
 20
9.6579
 10
263.8755
 20
-0.0994
 10
265.4273
 20
-0.0994
 10
265.4273
 20
4.8939
 10
265.4634
 20
5.1848
 10
265.5105
 20
5.4643
 10
265.5687
 20
5.7326
 10
265.638
 20
5.9897
 10
265.7184
 20
6.2357
 10
265.8099
 20
6.4707
 10
265.9125
 20
6.6948
 10
266.0263
 20
6.908
 10
266.1189
 20
7.0598
 10
266.219
 20
7.2046
 10
266.3267
 20
7.3426
 10
266.4421
 20
7.4736
 10
266.5651
 20
7.5977
 10
266.6956
 20
7.7148
 10
266.8339
 20
7.825
 10
266.9797
 20
7.9283
 10
267.1307
 20
8.0218
 10
267.2846
 20
8.1029
 10
267.4412
 20
8.1715
 10
267.6005
 20
8.2276
 10
267.7627
 20
8.2713
 10
267.9277
 20
8.3025
 10
268.0954
 20
8.3212
 10
268.266
 20
8.3274
 10
268.4322
 20
8.3241
 10
268.5874
 20
8.3142
 10
268.7315
 20
8.2977
 10
268.8646
 20
8.2746
 10
268.9865
 20
8.2449
 10
269.0973
 20
8.2087
 10
269.197
 20
8.1659
 10
269.2856
 20
8.1165
 10
269.5091
 20
7.9513
 10
269.7028
 20
7.7576
 10
269.8667
 20
7.5355
 10
270.0007
 20
7.2851
 10
270.105
 20
7.0061
 10
270.1794
 20
6.6988
 10
270.2241
 20
6.363
 10
270.239
 20
5.9988
 10
270.239
 20
-0.0994
 10
271.7914
 20
-0.0994
 10
271.7914
 20
5.9988
 10
271.7804
 20
6.3722
 10
272.0355
 20
6.908
 10
272.128
 20
7.0598
 10
272.2281
 20
7.2046
 10
272.3359
 20
7.3426
 10
272.4512
 20
7.4736
 10
272.5742
 20
7.5977
 10
272.7048
 20
7.7148
 10
272.843
 20
7.825
 10
272.9889
 20
7.9283
 10
273.1399
 20
8.0218
 10
273.2938
 20
8.1029
 10
273.4504
 20
8.1715
 10
273.6097
 20
8.2276
 10
273.7719
 20
8.2713
 10
273.9369
 20
8.3025
 10
274.1046
 20
8.3212
 10
274.2752
 20
8.3274
 10
274.4414
 20
8.3241
 10
274.5966
 20
8.3142
 10
274.7408
 20
8.2977
 10
274.8738
 20
8.2746
 10
274.9958
 20
8.2449
 10
275.1068
 20
8.2087
 10
275.2066
 20
8.1659
 10
275.2954
 20
8.1165
 10
275.5187
 20
7.9513
 10
275.7123
 20
7.7576
 10
275.8762
 20
7.5355
 10
276.0103
 20
7.2851
 10
276.1146
 20
7.0061
 10
276.1892
 20
6.6988
 10
276.2339
 20
6.363
 10
276.2488
 20
5.9988
 10
276.2488
 20
-0.0994
  0
LWPOLYLINE
  5
6F
330
1F
100
AcDbEntity
  8
Layer 1
 62
     7
100
AcDbPolyline
 90
      162
 70
     1
 43
0.0
 10
293.1678
 20
-0.0994
 10
294.7196
 20
-0.0994
 10
294.7196
 20
5.9988
 10
294.707
 20
6.4038
 10
294.669
 20
6.7896
 10
294.6058
 20
7.1564
 10
294.5173
 20
7.5041
 10
294.4035
 20
7.8327
 10
294.2644
 20
8.1423
 10
294.1
 20
8.4329
 10
293.9103
 20
8.7045
 10
293.8045
 20
8.8341
 10
293.6921
 20
8.9572
 10
293.5731
 20
9.0737
 10
293.4476
 20
9.1837
 10
293.3155
 20
9.2871
 10
293.1768
 20
9.3839
 10
293.0315
 20
9.4742
 10
292.8796
 20
9.5579
 10
292.718
 20
9.6333
 10
292.5439
 20
9.6986
 10
292.3575
 20
9.7539
 10
292.1586
 20
9.799
 10
291.9472
 20
9.8341
 10
291.7234
 20
9.8592
 10
291.4871
 20
9.8742
 10
291.2383
 20
9.8792
 10
290.9873
 20
9.8706
 10
290.7443
 20
9.8446
 10
290.5093
 20
9.8013
 10
290.2823
 20
9.7407
 10
290.0632
 20
9.6628
 10
289.852
 20
9.5676
 10
289.6488
 20
9.455
 10
289.4535
 20
9.325
 10
289.284
 20
9.1955
 10
289.1221
 20
9.0564
 10
288.9679
 20
8.9078
 10
288.8213
 20
8.7497
 10
288.6823
 20
8.5822
 10
288.551
 20
8.4055
 10
288.4273
 20
8.2195
 10
288.3113
 20
8.0245
 10
288.2212
 20
8.2043
 10
288.1228
 20
8.378
 10
288.0161
 20
8.545
 10
287.9011
 20
8.7045
 10
287.7953
 20
8.8341
 10
287.6828
 20
8.9572
 10
287.5638
 20
9.0737
 10
287.4382
 20
9.1837
 10
287.3059
 20
9.2871
 10
287.1672
 20
9.3839
 10
287.0218
 20
9.4742
 10
286.8699
 20
9.5579
 10
286.7085
 20
9.6333
 10
286.5345
 20
9.6986
 10
286.3482
 20
9.7539
 10
286.1493
 20
9.799
 10
285.938
 20
9.8341
 10
285.7142
 20
9.8592
 10
285.4779
 20
9.8742
 10
285.2292
 20
9.8792
 10
284.9782
 20
9.8706
 10
284.7351
 20
9.8446
 10
284.5
 20
9.8013
 10
284.2728
 20
9.7407
 10
284.0536
 20
9.6628
 10
283.8423
 20
9.5676
 10
283.6391
 20
9.455
 10
283.4438
 20
9.325
 10
283.2824
 20
9.2017
 10
283.1279
 20
9.0701
 10
282.9803
 20
8.93
 10
282.8396
 20
8.7815
 10
282.7059
 20
8.6244
 10
282.5791
 20
8.4588
 10
282.4592
 20
8.2846
 10
282.3463
 20
8.1018
 10
282.3463
 20
9.6579
 10
280.7945
 20
9.6579
 10
280.7945
 20
-0.0994
 10
282.3463
 20
-0.0994
 10
282.3463
 20
4.8939
 10
282.3824
 20
5.1848
 10
282.4295
 20
5.4643
 10
282.4877
 20
5.7326
 10
282.557
 20
5.9897
 10
282.6374
 20
6.2357
 10
282.7289
 20
6.4707
 10
282.8315
 20
6.6948
 10
282.9453
 20
6.908
 10
283.0379
 20
7.0598
 10
283.138
 20
7.2046
 10
283.2457
 20
7.3426
 10
283.3611
 20
7.4736
 10
283.4841
 20
7.5977
 10
283.6146
 20
7.7148
 10
283.7529
 20
7.825
 10
283.8987
 20
7.9283
 10
284.0497
 20
8.0218
 10
284.2036
 20
8.1029
 10
284.3602
 20
8.1715
 10
284.5195
 20
8.2276
 10
284.6817
 20
8.2713
 10
284.8467
 20
8.3025
 10
285.0144
 20
8.3212
 10
285.185
 20
8.3274
 10
285.3512
 20
8.3241
 10
285.5064
 20
8.3142
 10
285.6505
 20
8.2977
 10
285.7836
 20
8.2746
 10
285.9055
 20
8.2449
 10
286.0163
 20
8.2087
 10
286.116
 20
8.1659
 10
286.2046
 20
8.1165
 10
286.4281
 20
7.9513
 10
286.6218
 20
7.7576
 10
286.7857
 20
7.5355
 10
286.9197
 20
7.2851
 10
287.024
 20
7.0061
 10
287.0984
 20
6.6988
 10
287.1431
 20
6.363
 10
287.158
 20
5.9988
 10
287.158
 20
-0.0994
 10
288.7104
 20
-0.0994
 10
288.7104
 20
5.9988
 10
288.6994
 20
6.3722
 10
288.9545
 20
6.908
 10
289.047
 20
7.0598
 10
289.1471
 20
7.2046
 10
289.2549
 20
7.3426
 10
289.3702
 20
7.4736
 10
289.4932
 20
7.5977
 10
289.6238
 20
7.7148
 10
289.762
 20
7.825
 10
289.9079
 20
7.9283
 10
290.0589
 20
8.0218
 10
290.2128
 20
8.1029
 10
290.3694
 20
8.1715
 10
290.5287
 20
8.2276
 10
290.6909
 20
8.2713
 10
290.8559
 20
8.3025
 10
291.0236
 20
8.3212
 10
291.1942
 20
8.3274
 10
291.3604
 20
8.3241
 10
291.5156
 20
8.3142
 10
291.6598
 20
8.2977
 10
291.7928
 20
8.2746
 10
291.9148
 20
8.2449
 10
292.0258
 20
8.2087
 10
292.1256
 20
8.1659
 10
292.2144
 20
8.1165
 10
292.4377
 20
7.9513
 10
292.6313
 20
7.7576
 10
292.7952
 20
7.5355
 10
292.9293
 20
7.2851
 10
293.0336
 20
7.0061
 10
293.1082
 20
6.6988
 10
293.1529
 20
6.363
 10
293.1678
 20
5.9988
 10
293.1678
 20
-0.0994
  0
LWPOLYLINE
  5
70
330
1F
100
AcDbEntity
  8
Layer 1
 62
     7
370
    35
100
AcDbPolyline
 90
        4
 70
     0
 43
0.0
 10
773.6216
 20
-61.4121
 10
744.0188
 20
-61.4121
 10
744.0188
 20
49.5591
 10
772.4381
 20
49.5591
  0
LWPOLYLINE
  5
71
330
1F
100
AcDbEntity
  8
Layer 1
 62
     7
370
    35
100
AcDbPolyline
 90
        2
 70
     0
 43
0.0
 10
745.8814
 20
-60.139
 10
742.6095
 20
-62.3853
  0
LWPOLYLINE
  5
72
330
1F
100
AcDbEntity
  8
Layer 1
 62
     7
370
    35
100
AcDbPolyline
 90
        2
 70
     0
 43
0.0
 10
745.9178
 20
50.6822
 10
742.6466
 20
48.436
  0
LWPOLYLINE
  5
73
330
1F
100
AcDbEntity
  8
Layer 1
 62
     7
100
AcDbPolyline
 90
        7
 70
     1
 43
0.0
 10
662.6803
 20
-15.1611
 10
664.2164
 20
-15.1611
 10
664.2164
 20
0.7179
 10
660.5288
 20
0.3025
 10
660.5288
 20
-1.1053
 10
662.6803
 20
-1.1053
 10
662.6803
 20
-15.1611
  0
LWPOLYLINE
  5
74
330
1F
100
AcDbEntity
  8
Layer 1
 62
     7
100
AcDbPolyline
 90
       73
 70
     1
 43
0.0
 10
671.3834
 20
-6.5985
 10
671.7335
 20
-6.6155
 10
672.0706
 20
-6.6663
 10
672.3947
 20
-6.7511
 10
672.7058
 20
-6.8698
 10
673.0039
 20
-7.0223
 10
673.289
 20
-7.2088
 10
673.5611
 20
-7.4291
 10
673.8202
 20
-7.6833
 10
674.0542
 20
-7.9581
 10
674.257
 20
-8.2458
 10
674.4286
 20
-8.5465
 10
674.569
 20
-8.8602
 10
674.6782
 20
-9.1869
 10
674.7561
 20
-9.5265
 10
674.8029
 20
-9.8792
 10
674.8185
 20
-10.2448
 10
674.8027
 20
-10.6022
 10
674.7554
 20
-10.9474
 10
674.6766
 20
-11.2804
 10
674.5662
 20
-11.6011
 10
674.4242
 20
-11.9095
 10
674.2506
 20
-12.2056
 10
674.0454
 20
-12.4895
 10
673.8086
 20
-12.7611
 10
673.5545
 20
-13.0045
 10
673.2859
 20
-13.2154
 10
673.003
 20
-13.3938
 10
672.7057
 20
-13.5398
 10
672.394
 20
-13.6533
 10
672.0679
 20
-13.7344
 10
671.7274
 20
-13.7831
 10
671.3725
 20
-13.7993
 10
671.0244
 20
-13.7825
 10
670.688
 20
-13.7323
 10
670.3632
 20
-13.6485
 10
670.0501
 20
-13.5312
 10
669.7486
 20
-13.3802
 10
669.4587
 20
-13.1958
 10
669.1805
 20
-12.9777
 10
668.9139
 20
-12.726
 10
668.6721
 20
-12.4539
 10
668.4626
 20
-12.1685
 10
668.2852
 20
-11.8698
 10
668.1401
 20
-11.5577
 10
668.0272
 20
-11.2322
 10
667.9466
 20
-10.8935
 10
667.8982
 20
-10.5413
 10
667.8821
 20
-10.1759
 10
667.8982
 20
-9.8122
 10
667.9466
 20
-9.4626
 10
668.0272
 20
-9.1271
 10
668.1401
 20
-8.8056
 10
668.2852
 20
-8.4982
 10
668.4626
 20
-8.2049
 10
668.6721
 20
-7.9256
 10
668.9139
 20
-7.6603
 10
669.0371
 20
-7.5421
 10
669.1651
 20
-7.4301
 10
669.2979
 20
-7.3242
 10
669.4355
 20
-7.2246
 10
669.5779
 20
-7.131
 10
669.725
 20
-7.0435
 10
669.8769
 20
-6.9622
 10
670.0336
 20
-6.8869
 10
670.1939
 20
-6.8194
 10
670.3566
 20
-6.7608
 10
670.5217
 20
-6.7112
 10
670.6892
 20
-6.6707
 10
670.8591
 20
-6.6391
 10
671.0314
 20
-6.6165
 10
671.2062
 20
-6.603
 10
671.3834
 20
-6.5985
  0
LWPOLYLINE
  5
75
330
1F
100
AcDbEntity
  8
Layer 1
 62
     7
100
AcDbPolyline
 90
       69
 70
     1
 43
0.0
 10
676.3771
 20
-10.13
 10
676.3531
 20
-9.5743
 10
676.2811
 20
-9.0438
 10
676.161
 20
-8.5386
 10
675.9929
 20
-8.0586
 10
675.7768
 20
-7.6038
 10
675.5127
 20
-7.1743
 10
675.2006
 20
-6.7701
 10
674.8404
 20
-6.3911
 10
674.4723
 20
-6.0716
 10
674.0784
 20
-5.7915
 10
673.6588
 20
-5.5507
 10
673.2135
 20
-5.3492
 10
672.7424
 20
-5.1871
 10
672.2456
 20
-5.0642
 10
671.723
 20
-4.9808
 10
671.1746
 20
-4.9367
 10
670.7358
 20
-5.2367
 10
675.3016
 20
0.5335
 10
673.2818
 20
0.5335
 10
667.4433
 20
-6.8754
 10
667.1809
 20
-7.2363
 10
666.9535
 20
-7.6119
 10
666.7612
 20
-8.0023
 10
666.6038
 20
-8.4075
 10
666.4815
 20
-8.8274
 10
666.3941
 20
-9.2621
 10
666.3417
 20
-9.7116
 10
666.3242
 20
-10.1759
 10
666.3472
 20
-10.7108
 10
666.4161
 20
-11.2251
 10
666.5309
 20
-11.719
 10
666.6917
 20
-12.1923
 10
666.8985
 20
-12.6451
 10
667.1512
 20
-13.0774
 10
667.4499
 20
-13.4891
 10
667.7947
 20
-13.8804
 10
668.1743
 20
-14.24
 10
668.5724
 20
-14.5517
 10
668.9891
 20
-14.8155
 10
669.4243
 20
-15.0313
 10
669.8781
 20
-15.1992
 10
670.3504
 20
-15.3191
 10
670.8412
 20
-15.3911
 10
671.3506
 20
-15.4151
 10
671.867
 20
-15.3913
 10
672.3628
 20
-15.3199
 10
672.8381
 20
-15.2008
 10
673.2929
 20
-15.0342
 10
673.7271
 20
-14.82
 10
674.1408
 20
-14.5582
 10
674.5339
 20
-14.2488
 10
674.9065
 20
-13.8919
 10
675.0721
 20
-13.7093
 10
675.2288
 20
-13.5195
 10
675.3766
 20
-13.3225
 10
675.5155
 20
-13.1184
 10
675.6455
 20
-12.9071
 10
675.7666
 20
-12.6886
 10
675.8788
 20
-12.4629
 10
675.982
 20
-12.2301
 10
676.0746
 20
-11.9902
 10
676.1549
 20
-11.7438
 10
676.2228
 20
-11.491
 10
676.2783
 20
-11.2317
 10
676.3215
 20
-10.966
 10
676.3524
 20
-10.6938
 10
676.3709
 20
-10.4151
 10
676.3771
 20
-10.13
  0
LWPOLYLINE
  5
76
330
1F
100
AcDbEntity
  8
Layer 1
 62
     7
100
AcDbPolyline
 90
      113
 70
     1
 43
0.0
 10
684.3125
 20
-1.2904
 10
684.5659
 20
-1.4714
 10
684.8021
 20
-1.6769
 10
685.0213
 20
-1.9069
 10
685.2233
 20
-2.1615
 10
685.4082
 20
-2.4405
 10
685.5759
 20
-2.7442
 10
685.7266
 20
-3.0723
 10
685.8601
 20
-3.425
 10
686.0092
 20
-3.8929
 10
686.1385
 20
-4.3677
 10
686.2478
 20
-4.8494
 10
686.3372
 20
-5.3379
 10
686.4068
 20
-5.8332
 10
686.4565
 20
-6.3355
 10
686.4863
 20
-6.8445
 10
686.4962
 20
-7.3604
 10
686.4921
 20
-7.6135
 10
686.4798
 20
-7.8882
 10
686.4593
 20
-8.1847
 10
686.4306
 20
-8.5027
 10
686.3545
 20
-9.1231
 10
686.255
 20
-9.7093
 10
686.1322
 20
-10.2612
 10
685.986
 20
-10.7789
 10
685.8165
 20
-11.2623
 10
685.6237
 20
-11.7115
 10
685.4076
 20
-12.1264
 10
685.1682
 20
-12.5071
 10
684.9498
 20
-12.7938
 10
684.7198
 20
-13.0423
 10
684.478
 20
-13.2525
 10
684.2246
 20
-13.4246
 10
683.9596
 20
-13.5584
 10
683.6828
 20
-13.6539
 10
683.3945
 20
-13.7113
 10
683.0944
 20
-13.7304
 10
682.7595
 20
-13.7115
 10
682.4407
 20
-13.6547
 10
682.1379
 20
-13.56
 10
681.8514
 20
-13.4275
 10
681.5809
 20
-13.2571
 10
681.3266
 20
-13.0488
 10
681.0884
 20
-12.8026
 10
680.8664
 20
-12.5186
 10
680.7724
 20
-12.3807
 10
680.6825
 20
-12.2386
 10
680.5968
 20
-12.0921
 10
680.5151
 20
-11.9414
 10
680.4376
 20
-11.7863
 10
680.3642
 20
-11.6269
 10
680.2949
 20
-11.4632
 10
680.2298
 20
-11.2952
 10
680.1112
 20
-10.9527
 10
680.0077
 20
-10.6057
 10
679.9191
 20
-10.2545
 10
679.8456
 20
-9.899
 10
679.7845
 20
-9.544
 10
679.733
 20
-9.1949
 10
679.6911
 20
-8.8516
 10
679.6587
 20
-8.5142
 10
679.6459
 20
-8.3437
 10
679.6348
 20
-8.1667
 10
679.6254
 20
-7.9832
 10
679.6177
 20
-7.7935
 10
679.6117
 20
-7.5974
 10
679.6074
 20
-7.3951
 10
679.6049
 20
-7.1865
 10
679.604
 20
-6.9718
 10
679.6078
 20
-6.7475
 10
679.6191
 20
-6.5101
 10
679.638
 20
-6.2597
 10
679.6645
 20
-5.9961
 10
679.6985
 20
-5.7193
 10
679.74
 20
-5.4293
 10
679.7891
 20
-5.1261
 10
679.8456
 20
-4.8097
 10
679.9183
 20
-4.4586
 10
680.0047
 20
-4.1088
 10
680.1048
 20
-3.7604
 10
680.2188
 20
-3.4135
 10
680.2814
 20
-3.2426
 10
680.3484
 20
-3.0761
 10
680.42
 20
-2.9138
 10
680.4959
 20
-2.7559
 10
680.5763
 20
-2.6023
 10
680.6612
 20
-2.4529
 10
680.7504
 20
-2.3079
 10
680.844
 20
-2.1672
 10
680.9425
 20
-2.0321
 10
681.0457
 20
-1.9038
 10
681.1538
 20
-1.7825
 10
681.2667
 20
-1.668
 10
681.3844
 20
-1.5604
 10
681.5068
 20
-1.4597
 10
681.634
 20
-1.3659
 10
681.7659
 20
-1.2789
 10
681.9035
 20
-1.2004
 10
682.0472
 20
-1.1323
 10
682.1971
 20
-1.0747
 10
682.3532
 20
-1.0276
 10
682.5154
 20
-0.991
 10
682.6838
 20
-0.9648
 10
682.8584
 20
-0.9491
 10
683.0392
 20
-0.9439
 10
683.22
 20
-0.9493
 10
683.3946
 20
-0.9656
 10
683.563
 20
-0.9926
 10
683.7252
 20
-1.0305
 10
683.8813
 20
-1.0793
 10
684.0312
 20
-1.1388
 10
684.1749
 20
-1.2092
 10
684.3125
 20
-1.2904
  0
LWPOLYLINE
  5
77
330
1F
100
AcDbEntity
  8
Layer 1
 62
     7
100
AcDbPolyline
 90
       65
 70
     1
 43
0.0
 10
683.1163
 20
-15.3692
 10
683.757
 20
-15.3265
 10
684.357
 20
-15.1982
 10
684.9161
 20
-14.9845
 10
685.4345
 20
-14.6853
 10
685.9121
 20
-14.3007
 10
686.3489
 20
-13.8306
 10
686.7448
 20
-13.2751
 10
687.1
 20
-12.6341
 10
687.3494
 20
-12.0747
 10
687.5657
 20
-11.4842
 10
687.7486
 20
-10.8628
 10
687.8984
 20
-10.2104
 10
688.0148
 20
-9.527
 10
688.098
 20
-8.8126
 10
688.148
 20
-8.0673
 10
688.1646
 20
-7.2909
 10
688.148
 20
-6.5145
 10
688.098
 20
-5.7691
 10
688.0148
 20
-5.0547
 10
687.8984
 20
-4.3714
 10
687.7486
 20
-3.719
 10
687.5657
 20
-3.0975
 10
687.3494
 20
-2.5071
 10
687.1
 20
-1.9477
 10
686.7448
 20
-1.3067
 10
686.3489
 20
-0.7513
 10
685.9121
 20
-0.2813
 10
685.4345
 20
0.1033
 10
684.9161
 20
0.4023
 10
684.357
 20
0.6159
 10
683.757
 20
0.7441
 10
683.1163
 20
0.7868
 10
682.4753
 20
0.7441
 10
681.8752
 20
0.6159
 10
681.3159
 20
0.4023
 10
680.7975
 20
0.1033
 10
680.3199
 20
-0.2813
 10
679.8831
 20
-0.7513
 10
679.4871
 20
-1.3067
 10
679.1319
 20
-1.9477
 10
678.8825
 20
-2.5071
 10
678.6662
 20
-3.0975
 10
678.4833
 20
-3.719
 10
678.3335
 20
-4.3714
 10
678.2171
 20
-5.0547
 10
678.1339
 20
-5.7691
 10
678.0839
 20
-6.5145
 10
678.0673
 20
-7.2909
 10
678.0839
 20
-8.0673
 10
678.1339
 20
-8.8126
 10
678.2171
 20
-9.527
 10
678.3335
 20
-10.2104
 10
678.4833
 20
-10.8628
 10
678.6662
 20
-11.4842
 10
678.8825
 20
-12.0747
 10
679.1319
 20
-12.6341
 10
679.4871
 20
-13.2751
 10
679.8831
 20
-13.8306
 10
680.3199
 20
-14.3007
 10
680.7975
 20
-14.6853
 10
681.3159
 20
-14.9845
 10
681.8752
 20
-15.1982
 10
682.4753
 20
-15.3265
 10
683.1163
 20
-15.3692
  0
LWPOLYLINE
  5
78
330
1F
100
AcDbEntity
  8
Layer 1
 62
     7
100
AcDbPolyline
 90
      162
 70
     1
 43
0.0
 10
703.1571
 20
-15.1152
 10
704.6932
 20
-15.1152
 10
704.6932
 20
-8.7682
 10
704.6807
 20
-8.3467
 10
704.6431
 20
-7.9451
 10
704.5806
 20
-7.5633
 10
704.4929
 20
-7.2014
 10
704.3803
 20
-6.8594
 10
704.2426
 20
-6.5371
 10
704.0799
 20
-6.2347
 10
703.8921
 20
-5.952
 10
703.7873
 20
-5.8171
 10
703.6761
 20
-5.689
 10
703.5584
 20
-5.5678
 10
703.4341
 20
-5.4533
 10
703.3034
 20
-5.3457
 10
703.1661
 20
-5.2449
 10
703.0223
 20
-5.1509
 10
702.8719
 20
-5.0637
 10
702.7119
 20
-4.9852
 10
702.5396
 20
-4.9172
 10
702.355
 20
-4.8598
 10
702.1581
 20
-4.8128
 10
701.9488
 20
-4.7762
 10
701.7273
 20
-4.7501
 10
701.4934
 20
-4.7345
 10
701.2472
 20
-4.7293
 10
700.9987
 20
-4.7383
 10
700.7582
 20
-4.7653
 10
700.5255
 20
-4.8104
 10
700.3008
 20
-4.8735
 10
700.0839
 20
-4.9546
 10
699.8749
 20
-5.0537
 10
699.6738
 20
-5.1709
 10
699.4805
 20
-5.3062
 10
699.3127
 20
-5.441
 10
699.1524
 20
-5.5857
 10
698.9997
 20
-5.7404
 10
698.8546
 20
-5.905
 10
698.717
 20
-6.0792
 10
698.587
 20
-6.2632
 10
698.4646
 20
-6.4567
 10
698.3498
 20
-6.6597
 10
698.2606
 20
-6.4726
 10
698.1631
 20
-6.2918
 10
698.0575
 20
-6.118
 10
697.9437
 20
-5.952
 10
697.8389
 20
-5.8171
 10
697.7277
 20
-5.689
 10
697.6098
 20
-5.5678
 10
697.4855
 20
-5.4533
 10
697.3546
 20
-5.3457
 10
697.2172
 20
-5.2449
 10
697.0733
 20
-5.1509
 10
696.9229
 20
-5.0637
 10
696.7631
 20
-4.9852
 10
696.591
 20
-4.9172
 10
696.4065
 20
-4.8598
 10
696.2097
 20
-4.8128
 10
696.0005
 20
-4.7762
 10
695.7789
 20
-4.7501
 10
695.545
 20
-4.7345
 10
695.2988
 20
-4.7293
 10
695.0503
 20
-4.7383
 10
694.8097
 20
-4.7653
 10
694.577
 20
-4.8104
 10
694.3521
 20
-4.8735
 10
694.1351
 20
-4.9546
 10
693.926
 20
-5.0537
 10
693.7248
 20
-5.1709
 10
693.5315
 20
-5.3062
 10
693.3717
 20
-5.4345
 10
693.2188
 20
-5.5716
 10
693.0727
 20
-5.7173
 10
692.9334
 20
-5.872
 10
692.8011
 20
-6.0354
 10
692.6755
 20
-6.2077
 10
692.5569
 20
-6.389
 10
692.4451
 20
-6.5793
 10
692.4451
 20
-4.9597
 10
690.909
 20
-4.9597
 10
690.909
 20
-15.1152
 10
692.4451
 20
-15.1152
 10
692.4451
 20
-9.9181
 10
692.4808
 20
-9.6153
 10
692.5275
 20
-9.3244
 10
692.5851
 20
-9.0452
 10
692.6537
 20
-8.7776
 10
692.7333
 20
-8.5215
 10
692.8239
 20
-8.277
 10
692.9255
 20
-8.0437
 10
693.0381
 20
-7.8218
 10
693.1297
 20
-7.6638
 10
693.2288
 20
-7.5131
 10
693.3354
 20
-7.3695
 10
693.4496
 20
-7.2332
 10
693.5713
 20
-7.104
 10
693.7006
 20
-6.9821
 10
693.8374
 20
-6.8674
 10
693.9818
 20
-6.7599
 10
694.1313
 20
-6.6626
 10
694.2836
 20
-6.5782
 10
694.4386
 20
-6.5068
 10
694.5964
 20
-6.4484
 10
694.7569
 20
-6.4029
 10
694.9202
 20
-6.3705
 10
695.0863
 20
-6.351
 10
695.2551
 20
-6.3445
 10
695.4197
 20
-6.3479
 10
695.5733
 20
-6.3583
 10
695.7159
 20
-6.3754
 10
695.8476
 20
-6.3995
 10
695.9683
 20
-6.4303
 10
696.078
 20
-6.4681
 10
696.1767
 20
-6.5126
 10
696.2644
 20
-6.564
 10
696.4857
 20
-6.736
 10
696.6774
 20
-6.9376
 10
696.8396
 20
-7.1687
 10
696.9723
 20
-7.4294
 10
697.0755
 20
-7.7197
 10
697.1492
 20
-8.0396
 10
697.1935
 20
-8.3891
 10
697.2082
 20
-8.7682
 10
697.2082
 20
-15.1152
 10
698.7449
 20
-15.1152
 10
698.7449
 20
-8.7682
 10
698.734
 20
-8.3795
 10
698.9864
 20
-7.8218
 10
699.078
 20
-7.6638
 10
699.1772
 20
-7.5131
 10
699.2838
 20
-7.3695
 10
699.398
 20
-7.2332
 10
699.5197
 20
-7.104
 10
699.649
 20
-6.9821
 10
699.7858
 20
-6.8674
 10
699.9302
 20
-6.7599
 10
700.0797
 20
-6.6626
 10
700.232
 20
-6.5782
 10
700.387
 20
-6.5068
 10
700.5448
 20
-6.4484
 10
700.7053
 20
-6.4029
 10
700.8686
 20
-6.3705
 10
701.0346
 20
-6.351
 10
701.2035
 20
-6.3445
 10
701.368
 20
-6.3479
 10
701.5216
 20
-6.3583
 10
701.6643
 20
-6.3754
 10
701.7961
 20
-6.3995
 10
701.9168
 20
-6.4303
 10
702.0267
 20
-6.4681
 10
702.1255
 20
-6.5126
 10
702.2134
 20
-6.564
 10
702.4345
 20
-6.736
 10
702.6261
 20
-6.9376
 10
702.7883
 20
-7.1687
 10
702.921
 20
-7.4294
 10
703.0243
 20
-7.7197
 10
703.0981
 20
-8.0396
 10
703.1423
 20
-8.3891
 10
703.1571
 20
-8.7682
 10
703.1571
 20
-15.1152
  0
LWPOLYLINE
  5
79
330
1F
100
AcDbEntity
  8
Layer 1
 62
     7
100
AcDbPolyline
 90
      162
 70
     1
 43
0.0
 10
719.9049
 20
-15.1152
 10
721.441
 20
-15.1152
 10
721.441
 20
-8.7682
 10
721.4285
 20
-8.3467
 10
721.3909
 20
-7.9451
 10
721.3284
 20
-7.5633
 10
721.2407
 20
-7.2014
 10
721.1281
 20
-6.8594
 10
720.9904
 20
-6.5371
 10
720.8277
 20
-6.2347
 10
720.6399
 20
-5.952
 10
720.5351
 20
-5.8171
 10
720.4239
 20
-5.689
 10
720.3061
 20
-5.5678
 10
720.1819
 20
-5.4533
 10
720.0511
 20
-5.3457
 10
719.9138
 20
-5.2449
 10
719.77
 20
-5.1509
 10
719.6197
 20
-5.0637
 10
719.4597
 20
-4.9852
 10
719.2874
 20
-4.9172
 10
719.1028
 20
-4.8598
 10
718.9059
 20
-4.8128
 10
718.6966
 20
-4.7762
 10
718.4751
 20
-4.7501
 10
718.2412
 20
-4.7345
 10
717.995
 20
-4.7293
 10
717.7465
 20
-4.7383
 10
717.506
 20
-4.7653
 10
717.2733
 20
-4.8104
 10
717.0486
 20
-4.8735
 10
716.8317
 20
-4.9546
 10
716.6227
 20
-5.0537
 10
716.4215
 20
-5.1709
 10
716.2282
 20
-5.3062
 10
716.0604
 20
-5.441
 10
715.9001
 20
-5.5857
 10
715.7474
 20
-5.7404
 10
715.6023
 20
-5.905
 10
715.4648
 20
-6.0792
 10
715.3348
 20
-6.2632
 10
715.2124
 20
-6.4567
 10
715.0975
 20
-6.6597
 10
715.0083
 20
-6.4726
 10
714.9109
 20
-6.2918
 10
714.8053
 20
-6.118
 10
714.6915
 20
-5.952
 10
714.5867
 20
-5.8171
 10
714.4754
 20
-5.689
 10
714.3576
 20
-5.5678
 10
714.2332
 20
-5.4533
 10
714.1024
 20
-5.3457
 10
713.965
 20
-5.2449
 10
713.8211
 20
-5.1509
 10
713.6707
 20
-5.0637
 10
713.5109
 20
-4.9852
 10
713.3387
 20
-4.9172
 10
713.1543
 20
-4.8598
 10
712.9574
 20
-4.8128
 10
712.7482
 20
-4.7762
 10
712.5267
 20
-4.7501
 10
712.2928
 20
-4.7345
 10
712.0466
 20
-4.7293
 10
711.7981
 20
-4.7383
 10
711.5575
 20
-4.7653
 10
711.3247
 20
-4.8104
 10
711.0999
 20
-4.8735
 10
710.8829
 20
-4.9546
 10
710.6738
 20
-5.0537
 10
710.4726
 20
-5.1709
 10
710.2793
 20
-5.3062
 10
710.1195
 20
-5.4345
 10
709.9666
 20
-5.5716
 10
709.8205
 20
-5.7173
 10
709.6812
 20
-5.872
 10
709.5489
 20
-6.0354
 10
709.4233
 20
-6.2077
 10
709.3047
 20
-6.389
 10
709.1929
 20
-6.5793
 10
709.1929
 20
-4.9597
 10
707.6568
 20
-4.9597
 10
707.6568
 20
-15.1152
 10
709.1929
 20
-15.1152
 10
709.1929
 20
-9.9181
 10
709.2286
 20
-9.6153
 10
709.2753
 20
-9.3244
 10
709.3329
 20
-9.0452
 10
709.4015
 20
-8.7776
 10
709.4811
 20
-8.5215
 10
709.5717
 20
-8.277
 10
709.6732
 20
-8.0437
 10
709.7858
 20
-7.8218
 10
709.8774
 20
-7.6638
 10
709.9766
 20
-7.5131
 10
710.0832
 20
-7.3695
 10
710.1974
 20
-7.2332
 10
710.3191
 20
-7.104
 10
710.4484
 20
-6.9821
 10
710.5852
 20
-6.8674
 10
710.7296
 20
-6.7599
 10
710.8791
 20
-6.6626
 10
711.0314
 20
-6.5782
 10
711.1864
 20
-6.5068
 10
711.3442
 20
-6.4484
 10
711.5047
 20
-6.4029
 10
711.668
 20
-6.3705
 10
711.834
 20
-6.351
 10
712.0029
 20
-6.3445
 10
712.1675
 20
-6.3479
 10
712.3211
 20
-6.3583
 10
712.4637
 20
-6.3754
 10
712.5954
 20
-6.3995
 10
712.7161
 20
-6.4303
 10
712.8258
 20
-6.4681
 10
712.9245
 20
-6.5126
 10
713.0122
 20
-6.564
 10
713.2335
 20
-6.736
 10
713.4252
 20
-6.9376
 10
713.5874
 20
-7.1687
 10
713.7201
 20
-7.4294
 10
713.8233
 20
-7.7197
 10
713.897
 20
-8.0396
 10
713.9412
 20
-8.3891
 10
713.9559
 20
-8.7682
 10
713.9559
 20
-15.1152
 10
715.4926
 20
-15.1152
 10
715.4926
 20
-8.7682
 10
715.4817
 20
-8.3795
 10
715.7342
 20
-7.8218
 10
715.8258
 20
-7.6638
 10
715.9249
 20
-7.5131
 10
716.0316
 20
-7.3695
 10
716.1458
 20
-7.2332
 10
716.2675
 20
-7.104
 10
716.3967
 20
-6.9821
 10
716.5335
 20
-6.8674
 10
716.6779
 20
-6.7599
 10
716.8274
 20
-6.6626
 10
716.9797
 20
-6.5782
 10
717.1347
 20
-6.5068
 10
717.2925
 20
-6.4484
 10
717.4531
 20
-6.4029
 10
717.6164
 20
-6.3705
 10
717.7824
 20
-6.351
 10
717.9513
 20
-6.3445
 10
718.1158
 20
-6.3479
 10
718.2694
 20
-6.3583
 10
718.4121
 20
-6.3754
 10
718.5439
 20
-6.3995
 10
718.6646
 20
-6.4303
 10
718.7745
 20
-6.4681
 10
718.8733
 20
-6.5126
 10
718.9612
 20
-6.564
 10
719.1823
 20
-6.736
 10
719.3739
 20
-6.9376
 10
719.5361
 20
-7.1687
 10
719.6688
 20
-7.4294
 10
719.7721
 20
-7.7197
 10
719.8459
 20
-8.0396
 10
719.8901
 20
-8.3891
 10
719.9049
 20
-8.7682
 10
719.9049
 20
-15.1152
  0
LWPOLYLINE
  5
7A
330
1F
100
AcDbEntity
  8
Layer 1
 62
     7
370
    35
100
AcDbPolyline
 90
       33
 70
     1
 43
0.0
 10
488.5526
 20
122.2304
 10
513.3824
 20
119.8888
 10
536.5089
 20
113.1731
 10
557.4367
 20
102.5467
 10
575.6704
 20
88.4731
 10
590.7146
 20
71.4156
 10
602.0738
 20
51.8378
 10
609.2527
 20
30.2031
 10
611.7557
 20
6.9749
 10
609.2527
 20
-16.2531
 10
602.0738
 20
-37.8879
 10
590.7146
 20
-57.4658
 10
575.6704
 20
-74.5234
 10
557.4367
 20
-88.5973
 10
536.5089
 20
-99.2238
 10
513.3824
 20
-105.9397
 10
488.5526
 20
-108.2813
 10
463.7227
 20
-105.9397
 10
440.5962
 20
-99.2238
 10
419.6683
 20
-88.5973
 10
401.4347
 20
-74.5234
 10
386.3906
 20
-57.4658
 10
375.0314
 20
-37.8879
 10
367.8526
 20
-16.2531
 10
365.3496
 20
6.9749
 10
367.8526
 20
30.2031
 10
375.0314
 20
51.8378
 10
386.3906
 20
71.4156
 10
401.4347
 20
88.4731
 10
419.6683
 20
102.5467
 10
440.5962
 20
113.1731
 10
463.7227
 20
119.8888
 10
488.5526
 20
122.2304
  0
LWPOLYLINE
  5
7B
330
1F
100
AcDbEntity
  8
Layer 1
 62
     7
370
    35
100
AcDbPolyline
 90
        4
 70
     0
 43
0.0
 10
798.1973
 20
60.9175
 10
798.1973
 20
75.7742
 10
1045.0308
 20
75.7742
 10
1045.0308
 20
61.5116
  0
LWPOLYLINE
  5
7C
330
1F
100
AcDbEntity
  8
Layer 1
 62
     7
370
    35
100
AcDbPolyline
 90
        2
 70
     0
 43
0.0
 10
801.0298
 20
74.8386
 10
796.0325
 20
76.4812
  0
LWPOLYLINE
  5
7D
330
1F
100
AcDbEntity
  8
Layer 1
 62
     7
370
    35
100
AcDbPolyline
 90
        2
 70
     0
 43
0.0
 10
1047.5288
 20
74.8208
 10
1042.5321
 20
76.4627
  0
LWPOLYLINE
  5
7E
330
1F
100
AcDbEntity
  8
Layer 1
 62
     7
100
AcDbPolyline
 90
      137
 70
     1
 43
0.0
 10
895.4273
 20
81.8404
 10
895.6515
 20
81.9461
 10
895.8688
 20
82.0612
 10
896.0793
 20
82.1856
 10
896.283
 20
82.3194
 10
896.4799
 20
82.4626
 10
896.6699
 20
82.6151
 10
896.8531
 20
82.777
 10
897.0295
 20
82.9482
 10
897.3767
 20
83.3357
 10
897.6776
 20
83.7447
 10
897.9322
 20
84.1752
 10
898.1406
 20
84.6274
 10
898.3026
 20
85.1012
 10
898.4184
 20
85.5967
 10
898.4878
 20
86.1138
 10
898.511
 20
86.6527
 10
898.4875
 20
87.1919
 10
898.417
 20
87.7102
 10
898.2995
 20
88.2075
 10
898.1351
 20
88.6839
 10
897.9237
 20
89.1393
 10
897.6653
 20
89.5738
 10
897.36
 20
89.9874
 10
897.0077
 20
90.3801
 10
896.6433
 20
90.7191
 10
896.2556
 20
91.0177
 10
895.8446
 20
91.2759
 10
895.4104
 20
91.4937
 10
894.9528
 20
91.6711
 10
894.4719
 20
91.8081
 10
893.9677
 20
91.9047
 10
893.4402
 20
91.9608
 10
892.7817
 20
91.5453
 10
897.4574
 20
97.362
 10
889.4237
 20
97.362
 10
889.4237
 20
95.7462
 10
894.3403
 20
95.7462
 10
889.8188
 20
90.2071
 10
890.9822
 20
89.2148
 10
891.2517
 20
89.4744
 10
891.5336
 20
89.6994
 10
891.8278
 20
89.8898
 10
892.1344
 20
90.0456
 10
892.4533
 20
90.1668
 10
892.7846
 20
90.2533
 10
893.1284
 20
90.3053
 10
893.4845
 20
90.3226
 10
893.8399
 20
90.3058
 10
894.182
 20
90.2555
 10
894.5107
 20
90.1716
 10
894.826
 20
90.0542
 10
895.128
 20
89.9032
 10
895.4167
 20
89.7188
 10
895.6921
 20
89.5008
 10
895.9541
 20
89.2493
 10
896.1933
 20
88.9743
 10
896.4005
 20
88.686
 10
896.5759
 20
88.3843
 10
896.7193
 20
88.0692
 10
896.8309
 20
87.7408
 10
896.9106
 20
87.399
 10
896.9584
 20
87.044
 10
896.9743
 20
86.6756
 10
896.958
 20
86.3154
 10
896.9092
 20
85.9674
 10
896.8278
 20
85.6317
 10
896.7138
 20
85.3082
 10
896.5672
 20
84.997
 10
896.3879
 20
84.6981
 10
896.1761
 20
84.4115
 10
895.9316
 20
84.1371
 10
895.8111
 20
84.0191
 10
895.6855
 20
83.9071
 10
895.5546
 20
83.8013
 10
895.4187
 20
83.7016
 10
895.2776
 20
83.6079
 10
895.1313
 20
83.5204
 10
894.9799
 20
83.4389
 10
894.8234
 20
83.3636
 10
894.6602
 20
83.2961
 10
894.4887
 20
83.2375
 10
894.309
 20
83.188
 10
894.1211
 20
83.1474
 10
893.9248
 20
83.1158
 10
893.7204
 20
83.0933
 10
893.5077
 20
83.0797
 10
893.2867
 20
83.0752
 10
893.0618
 20
83.0851
 10
892.8369
 20
83.1149
 10
892.6119
 20
83.1646
 10
892.387
 20
83.234
 10
892.162
 20
83.3233
 10
891.937
 20
83.4325
 10
891.7121
 20
83.5614
 10
891.4872
 20
83.7102
 10
891.2703
 20
83.8759
 10
891.07
 20
84.0556
 10
890.8861
 20
84.2494
 10
890.7187
 20
84.4573
 10
890.5678
 20
84.6792
 10
890.4334
 20
84.9152
 10
890.3154
 20
85.1652
 10
890.2139
 20
85.4293
 10
888.7215
 20
84.8984
 10
888.8632
 20
84.5224
 10
889.0307
 20
84.1643
 10
889.2239
 20
83.8243
 10
889.4429
 20
83.5023
 10
889.6876
 20
83.1983
 10
889.9581
 20
82.9123
 10
890.2543
 20
82.6443
 10
890.5762
 20
82.3943
 10
890.7345
 20
82.2849
 10
890.8965
 20
82.1816
 10
891.0622
 20
82.0844
 10
891.2318
 20
81.9933
 10
891.4051
 20
81.9084
 10
891.5822
 20
81.8296
 10
891.7631
 20
81.7569
 10
891.9478
 20
81.6904
 10
892.137
 20
81.6309
 10
892.3313
 20
81.5794
 10
892.5308
 20
81.5357
 10
892.7354
 20
81.5
 10
892.9451
 20
81.4722
 10
893.16
 20
81.4523
 10
893.3801
 20
81.4404
 10
893.6053
 20
81.4364
 10
893.8329
 20
81.4427
 10
894.0606
 20
81.4617
 10
894.2883
 20
81.4932
 10
894.516
 20
81.5374
 10
894.7438
 20
81.5942
 10
894.9716
 20
81.6637
 10
895.1995
 20
81.7457
 10
895.4273
 20
81.8404
  0
LWPOLYLINE
  5
7F
330
1F
100
AcDbEntity
  8
Layer 1
 62
     7
100
AcDbPolyline
 90
       73
 70
     1
 43
0.0
 10
904.6026
 20
88.7994
 10
904.2523
 20
88.8163
 10
903.915
 20
88.8671
 10
903.5908
 20
88.9518
 10
903.2797
 20
89.0704
 10
902.9817
 20
89.2228
 10
902.6967
 20
89.4092
 10
902.4247
 20
89.6294
 10
902.1658
 20
89.8836
 10
901.9317
 20
90.1586
 10
901.7288
 20
90.4465
 10
901.5571
 20
90.7473
 10
901.4166
 20
91.0611
 10
901.3073
 20
91.3878
 10
901.2293
 20
91.7275
 10
901.1824
 20
92.0801
 10
901.1668
 20
92.4458
 10
901.1826
 20
92.8032
 10
901.23
 20
93.1483
 10
901.3089
 20
93.4811
 10
901.4194
 20
93.8017
 10
901.5614
 20
94.11
 10
901.735
 20
94.406
 10
901.9401
 20
94.6898
 10
902.1767
 20
94.9613
 10
902.4309
 20
95.2047
 10
902.6994
 20
95.4157
 10
902.9824
 20
95.5943
 10
903.2798
 20
95.7404
 10
903.5915
 20
95.8541
 10
903.9178
 20
95.9352
 10
904.2584
 20
95.984
 10
904.6135
 20
96.0002
 10
904.9616
 20
95.9834
 10
905.298
 20
95.9331
 10
905.6228
 20
95.8492
 10
905.9358
 20
95.7318
 10
906.2373
 20
95.5808
 10
906.527
 20
95.3964
 10
906.8051
 20
95.1784
 10
907.0715
 20
94.9269
 10
907.3134
 20
94.6548
 10
907.5231
 20
94.3694
 10
907.7004
 20
94.0706
 10
907.8455
 20
93.7585
 10
907.9583
 20
93.433
 10
908.0389
 20
93.0941
 10
908.0872
 20
92.7418
 10
908.1033
 20
92.3762
 10
908.087
 20
92.0215
 10
908.0381
 20
91.6783
 10
907.9566
 20
91.3465
 10
907.8425
 20
91.0263
 10
907.6959
 20
90.7175
 10
907.5167
 20
90.4203
 10
907.3049
 20
90.1347
 10
907.0606
 20
89.8606
 10
906.9401
 20
89.7426
 10
906.8145
 20
89.6306
 10
906.6836
 20
89.5248
 10
906.5477
 20
89.4252
 10
906.4066
 20
89.3316
 10
906.2603
 20
89.2442
 10
906.1089
 20
89.1629
 10
905.9524
 20
89.0878
 10
905.7921
 20
89.0201
 10
905.6293
 20
88.9614
 10
905.4642
 20
88.9119
 10
905.2966
 20
88.8713
 10
905.1266
 20
88.8398
 10
904.9543
 20
88.8174
 10
904.7796
 20
88.8039
 10
904.6026
 20
88.7994
  0
LWPOLYLINE
  5
80
330
1F
100
AcDbEntity
  8
Layer 1
 62
     7
100
AcDbPolyline
 90
       69
 70
     1
 43
0.0
 10
899.6089
 20
92.3302
 10
899.6329
 20
91.7745
 10
899.7048
 20
91.244
 10
899.8248
 20
90.7388
 10
899.9928
 20
90.2588
 10
900.2087
 20
89.804
 10
900.4728
 20
89.3745
 10
900.7849
 20
88.9703
 10
901.145
 20
88.5913
 10
901.5132
 20
88.2721
 10
901.9071
 20
87.9921
 10
902.3267
 20
87.7514
 10
902.7721
 20
87.55
 10
903.2433
 20
87.3879
 10
903.7401
 20
87.2651
 10
904.2626
 20
87.1817
 10
904.8108
 20
87.1376
 10
905.2496
 20
87.4376
 10
900.6843
 20
81.6675
 10
902.7035
 20
81.6675
 10
908.5421
 20
89.0763
 10
908.8045
 20
89.4369
 10
909.032
 20
89.8124
 10
909.2244
 20
90.2027
 10
909.3819
 20
90.6078
 10
909.5044
 20
91.0277
 10
909.5918
 20
91.4624
 10
909.6443
 20
91.9119
 10
909.6618
 20
92.3762
 10
909.6388
 20
92.9113
 10
909.5699
 20
93.4258
 10
909.4549
 20
93.9197
 10
909.2941
 20
94.393
 10
909.0873
 20
94.8458
 10
908.8345
 20
95.278
 10
908.5359
 20
95.6896
 10
908.1913
 20
96.0806
 10
907.8115
 20
96.4404
 10
907.4133
 20
96.7522
 10
906.9965
 20
97.016
 10
906.5613
 20
97.2319
 10
906.1075
 20
97.3997
 10
905.6353
 20
97.5195
 10
905.1446
 20
97.5914
 10
904.6354
 20
97.6154
 10
904.1188
 20
97.5916
 10
903.6228
 20
97.5203
 10
903.1474
 20
97.4013
 10
902.6926
 20
97.2348
 10
902.2584
 20
97.0206
 10
901.8448
 20
96.7587
 10
901.4518
 20
96.4493
 10
901.0794
 20
96.0921
 10
900.9137
 20
95.9097
 10
900.7569
 20
95.7201
 10
900.6091
 20
95.5232
 10
900.4703
 20
95.3192
 10
900.3403
 20
95.1078
 10
900.2193
 20
94.8893
 10
900.1072
 20
94.6634
 10
900.004
 20
94.4304
 10
899.9114
 20
94.1907
 10
899.8311
 20
93.9445
 10
899.7632
 20
93.6918
 10
899.7077
 20
93.4325
 10
899.6645
 20
93.1667
 10
899.6336
 20
92.8944
 10
899.6151
 20
92.6156
 10
899.6089
 20
92.3302
  0
LWPOLYLINE
  5
81
330
1F
100
AcDbEntity
  8
Layer 1
 62
     7
100
AcDbPolyline
 90
      136
 70
     1
 43
0.0
 10
914.1839
 20
91.5453
 10
915.1938
 20
95.7462
 10
920.5935
 20
95.7462
 10
920.5935
 20
97.362
 10
914.0304
 20
97.362
 10
912.3183
 20
90.3226
 10
913.9861
 20
89.5377
 10
914.2281
 20
89.7109
 10
914.4821
 20
89.8609
 10
914.7481
 20
89.9879
 10
915.0262
 20
90.0917
 10
915.3162
 20
90.1724
 10
915.6183
 20
90.23
 10
915.9323
 20
90.2646
 10
916.2584
 20
90.2761
 10
916.5861
 20
90.2592
 10
916.9029
 20
90.2084
 10
917.2088
 20
90.1237
 10
917.5037
 20
90.005
 10
917.7876
 20
89.8525
 10
918.0606
 20
89.666
 10
918.3227
 20
89.4456
 10
918.5737
 20
89.1912
 10
918.8103
 20
88.9076
 10
919.0155
 20
88.6136
 10
919.189
 20
88.3091
 10
919.3311
 20
87.9942
 10
919.4415
 20
87.6688
 10
919.5205
 20
87.3329
 10
919.5678
 20
86.9865
 10
919.5836
 20
86.6297
 10
919.5675
 20
86.2607
 10
919.5191
 20
85.9064
 10
919.4385
 20
85.5669
 10
919.3256
 20
85.2422
 10
919.1805
 20
84.9323
 10
919.0032
 20
84.6371
 10
918.7936
 20
84.3567
 10
918.5519
 20
84.0911
 10
918.429
 20
83.9729
 10
918.3017
 20
83.8608
 10
918.1698
 20
83.7549
 10
918.0335
 20
83.6551
 10
917.8927
 20
83.5615
 10
917.7475
 20
83.4741
 10
917.5978
 20
83.3928
 10
917.4437
 20
83.3177
 10
917.2829
 20
83.2502
 10
917.1131
 20
83.1916
 10
916.9344
 20
83.142
 10
916.7468
 20
83.1015
 10
916.5502
 20
83.0699
 10
916.3447
 20
83.0473
 10
916.1303
 20
83.0338
 10
915.9069
 20
83.0293
 10
915.6793
 20
83.0394
 10
915.4521
 20
83.0696
 10
915.2252
 20
83.1201
 10
914.9987
 20
83.1907
 10
914.7725
 20
83.2816
 10
914.5467
 20
83.3927
 10
914.3212
 20
83.5241
 10
914.0959
 20
83.6757
 10
913.8792
 20
83.8433
 10
913.679
 20
84.0233
 10
913.4952
 20
84.2155
 10
913.3278
 20
84.4199
 10
913.1769
 20
84.6366
 10
913.0425
 20
84.8656
 10
912.9246
 20
85.1069
 10
912.8232
 20
85.3604
 10
911.3302
 20
84.8524
 10
911.4769
 20
84.4726
 10
911.6479
 20
84.1118
 10
911.8433
 20
83.7701
 10
912.063
 20
83.4475
 10
912.307
 20
83.144
 10
912.5753
 20
82.8596
 10
912.868
 20
82.5944
 10
913.1849
 20
82.3484
 10
913.5221
 20
82.1238
 10
913.8668
 20
81.9292
 10
914.219
 20
81.7646
 10
914.5788
 20
81.6299
 10
914.9461
 20
81.5252
 10
915.3209
 20
81.4503
 10
915.7033
 20
81.4055
 10
916.0933
 20
81.3905
 10
916.613
 20
81.4152
 10
917.1127
 20
81.4893
 10
917.5925
 20
81.6128
 10
918.0525
 20
81.7858
 10
918.4925
 20
82.008
 10
918.9127
 20
82.2797
 10
919.313
 20
82.6008
 10
919.6935
 20
82.9712
 10
920.0381
 20
83.3735
 10
920.3367
 20
83.7957
 10
920.5895
 20
84.2377
 10
920.7963
 20
84.6995
 10
920.9571
 20
85.1812
 10
921.0721
 20
85.6826
 10
921.141
 20
86.204
 10
921.164
 20
86.7452
 10
921.1414
 20
87.2833
 10
921.0734
 20
87.7987
 10
920.9602
 20
88.2915
 10
920.8018
 20
88.7615
 10
920.598
 20
89.2088
 10
920.349
 20
89.6334
 10
920.0548
 20
90.0353
 10
919.7153
 20
90.4145
 10
919.5419
 20
90.5832
 10
919.3615
 20
90.7428
 10
919.1743
 20
90.8934
 10
918.9802
 20
91.035
 10
918.7792
 20
91.1675
 10
918.5713
 20
91.2909
 10
918.3566
 20
91.4054
 10
918.1349
 20
91.5109
 10
917.9088
 20
91.6056
 10
917.6808
 20
91.6876
 10
917.4508
 20
91.757
 10
917.2189
 20
91.8138
 10
916.9852
 20
91.858
 10
916.7496
 20
91.8896
 10
916.5121
 20
91.9085
 10
916.2729
 20
91.9148
 10
916.029
 20
91.909
 10
915.7803
 20
91.8917
 10
915.5268
 20
91.8629
 10
915.2683
 20
91.8225
 10
915.0048
 20
91.7705
 10
914.7362
 20
91.707
 10
914.4626
 20
91.6319
 10
914.1839
 20
91.5453
  0
LWPOLYLINE
  5
82
330
1F
100
AcDbEntity
  8
Layer 1
 62
     7
100
AcDbPolyline
 90
      162
 70
     1
 43
0.0
 10
936.2222
 20
81.7134
 10
937.7583
 20
81.7134
 10
937.7583
 20
88.0604
 10
937.7458
 20
88.4819
 10
937.7082
 20
88.8835
 10
937.6456
 20
89.2653
 10
937.558
 20
89.6272
 10
937.4453
 20
89.9692
 10
937.3076
 20
90.2914
 10
937.1449
 20
90.5938
 10
936.9571
 20
90.8765
 10
936.8523
 20
91.0114
 10
936.7411
 20
91.1395
 10
936.6234
 20
91.2608
 10
936.4991
 20
91.3753
 10
936.3684
 20
91.4829
 10
936.2311
 20
91.5837
 10
936.0873
 20
91.6777
 10
935.9369
 20
91.7648
 10
935.7769
 20
91.8433
 10
935.6046
 20
91.9113
 10
935.42
 20
91.9688
 10
935.2231
 20
92.0158
 10
935.0139
 20
92.0523
 10
934.7923
 20
92.0784
 10
934.5584
 20
92.094
 10
934.3122
 20
92.0992
 10
934.0637
 20
92.0902
 10
933.8232
 20
92.0632
 10
933.5905
 20
92.0182
 10
933.3658
 20
91.9551
 10
933.1489
 20
91.874
 10
932.9399
 20
91.7749
 10
932.7388
 20
91.6577
 10
932.5455
 20
91.5224
 10
932.3777
 20
91.3876
 10
932.2174
 20
91.2429
 10
932.0647
 20
91.0882
 10
931.9196
 20
90.9236
 10
931.7821
 20
90.7493
 10
931.6521
 20
90.5654
 10
931.5297
 20
90.3718
 10
931.4148
 20
90.1688
 10
931.3256
 20
90.356
 10
931.2282
 20
90.5368
 10
931.1226
 20
90.7106
 10
931.0088
 20
90.8765
 10
930.904
 20
91.0114
 10
930.7927
 20
91.1395
 10
930.6748
 20
91.2608
 10
930.5505
 20
91.3753
 10
930.4196
 20
91.4829
 10
930.2822
 20
91.5837
 10
930.1383
 20
91.6777
 10
929.9879
 20
91.7648
 10
929.8281
 20
91.8433
 10
929.656
 20
91.9113
 10
929.4715
 20
91.9688
 10
929.2747
 20
92.0158
 10
929.0655
 20
92.0523
 10
928.8439
 20
92.0784
 10
928.61
 20
92.094
 10
928.3638
 20
92.0992
 10
928.1153
 20
92.0902
 10
927.8748
 20
92.0632
 10
927.642
 20
92.0182
 10
927.4172
 20
91.9551
 10
927.2002
 20
91.874
 10
926.991
 20
91.7749
 10
926.7898
 20
91.6577
 10
926.5965
 20
91.5224
 10
926.4367
 20
91.3941
 10
926.2838
 20
91.257
 10
926.1377
 20
91.1112
 10
925.9985
 20
90.9566
 10
925.8661
 20
90.7932
 10
925.7405
 20
90.6208
 10
925.6219
 20
90.4395
 10
925.5101
 20
90.2492
 10
925.5101
 20
91.8689
 10
923.974
 20
91.8689
 10
923.974
 20
81.7134
 10
925.5101
 20
81.7134
 10
925.5101
 20
86.9105
 10
925.5459
 20
87.2133
 10
925.5925
 20
87.5042
 10
925.6502
 20
87.7834
 10
925.7188
 20
88.051
 10
925.7983
 20
88.3071
 10
925.8889
 20
88.5516
 10
925.9905
 20
88.7849
 10
926.1031
 20
89.0068
 10
926.1947
 20
89.1647
 10
926.2938
 20
89.3155
 10
926.4005
 20
89.459
 10
926.5147
 20
89.5954
 10
926.6364
 20
89.7245
 10
926.7656
 20
89.8465
 10
926.9024
 20
89.9612
 10
927.0468
 20
90.0687
 10
927.1963
 20
90.166
 10
927.3486
 20
90.2504
 10
927.5036
 20
90.3218
 10
927.6614
 20
90.3802
 10
927.8219
 20
90.4257
 10
927.9852
 20
90.4581
 10
928.1513
 20
90.4776
 10
928.3201
 20
90.4841
 10
928.4847
 20
90.4807
 10
928.6383
 20
90.4703
 10
928.7809
 20
90.4532
 10
928.9126
 20
90.4291
 10
929.0333
 20
90.3983
 10
929.143
 20
90.3605
 10
929.2417
 20
90.316
 10
929.3294
 20
90.2646
 10
929.5507
 20
90.0926
 10
929.7424
 20
89.891
 10
929.9046
 20
89.6599
 10
930.0373
 20
89.3992
 10
930.1405
 20
89.1089
 10
930.2142
 20
88.789
 10
930.2585
 20
88.4395
 10
930.2732
 20
88.0604
 10
930.2732
 20
81.7134
 10
931.8099
 20
81.7134
 10
931.8099
 20
88.0604
 10
931.799
 20
88.449
 10
932.0514
 20
89.0068
 10
932.143
 20
89.1647
 10
932.2422
 20
89.3155
 10
932.3488
 20
89.459
 10
932.463
 20
89.5954
 10
932.5847
 20
89.7245
 10
932.714
 20
89.8465
 10
932.8508
 20
89.9612
 10
932.9952
 20
90.0687
 10
933.1447
 20
90.166
 10
933.297
 20
90.2504
 10
933.452
 20
90.3218
 10
933.6098
 20
90.3802
 10
933.7703
 20
90.4257
 10
933.9336
 20
90.4581
 10
934.0996
 20
90.4776
 10
934.2685
 20
90.4841
 10
934.4331
 20
90.4807
 10
934.5867
 20
90.4703
 10
934.7294
 20
90.4532
 10
934.8611
 20
90.4291
 10
934.9819
 20
90.3983
 10
935.0917
 20
90.3605
 10
935.1905
 20
90.316
 10
935.2784
 20
90.2646
 10
935.4995
 20
90.0926
 10
935.6911
 20
89.891
 10
935.8534
 20
89.6599
 10
935.9861
 20
89.3992
 10
936.0894
 20
89.1089
 10
936.1632
 20
88.789
 10
936.2074
 20
88.4395
 10
936.2222
 20
88.0604
 10
936.2222
 20
81.7134
  0
LWPOLYLINE
  5
83
330
1F
100
AcDbEntity
  8
Layer 1
 62
     7
100
AcDbPolyline
 90
      162
 70
     1
 43
0.0
 10
952.9699
 20
81.7134
 10
954.506
 20
81.7134
 10
954.506
 20
88.0604
 10
954.4935
 20
88.4819
 10
954.4559
 20
88.8835
 10
954.3934
 20
89.2653
 10
954.3057
 20
89.6272
 10
954.1931
 20
89.9692
 10
954.0554
 20
90.2914
 10
953.8927
 20
90.5938
 10
953.7049
 20
90.8765
 10
953.6001
 20
91.0114
 10
953.4889
 20
91.1395
 10
953.3711
 20
91.2608
 10
953.2469
 20
91.3753
 10
953.1161
 20
91.4829
 10
952.9788
 20
91.5837
 10
952.835
 20
91.6777
 10
952.6847
 20
91.7648
 10
952.5247
 20
91.8433
 10
952.3524
 20
91.9113
 10
952.1678
 20
91.9688
 10
951.9709
 20
92.0158
 10
951.7616
 20
92.0523
 10
951.5401
 20
92.0784
 10
951.3062
 20
92.094
 10
951.06
 20
92.0992
 10
950.8115
 20
92.0902
 10
950.571
 20
92.0632
 10
950.3383
 20
92.0182
 10
950.1136
 20
91.9551
 10
949.8967
 20
91.874
 10
949.6877
 20
91.7749
 10
949.4865
 20
91.6577
 10
949.2932
 20
91.5224
 10
949.1254
 20
91.3876
 10
948.9651
 20
91.2429
 10
948.8125
 20
91.0882
 10
948.6673
 20
90.9236
 10
948.5298
 20
90.7493
 10
948.3998
 20
90.5654
 10
948.2774
 20
90.3718
 10
948.1626
 20
90.1688
 10
948.0734
 20
90.356
 10
947.9759
 20
90.5368
 10
947.8703
 20
90.7106
 10
947.7565
 20
90.8765
 10
947.6517
 20
91.0114
 10
947.5405
 20
91.1395
 10
947.4226
 20
91.2608
 10
947.2983
 20
91.3753
 10
947.1674
 20
91.4829
 10
947.03
 20
91.5837
 10
946.8861
 20
91.6777
 10
946.7357
 20
91.7648
 10
946.5759
 20
91.8433
 10
946.4037
 20
91.9113
 10
946.2193
 20
91.9688
 10
946.0224
 20
92.0158
 10
945.8132
 20
92.0523
 10
945.5917
 20
92.0784
 10
945.3578
 20
92.094
 10
945.1116
 20
92.0992
 10
944.8631
 20
92.0902
 10
944.6225
 20
92.0632
 10
944.3897
 20
92.0182
 10
944.1649
 20
91.9551
 10
943.9479
 20
91.874
 10
943.7388
 20
91.7749
 10
943.5376
 20
91.6577
 10
943.3443
 20
91.5224
 10
943.1845
 20
91.3941
 10
943.0316
 20
91.257
 10
942.8855
 20
91.1112
 10
942.7462
 20
90.9566
 10
942.6139
 20
90.7932
 10
942.4883
 20
90.6208
 10
942.3697
 20
90.4395
 10
942.2579
 20
90.2492
 10
942.2579
 20
91.8689
 10
940.7218
 20
91.8689
 10
940.7218
 20
81.7134
 10
942.2579
 20
81.7134
 10
942.2579
 20
86.9105
 10
942.2936
 20
87.2133
 10
942.3403
 20
87.5042
 10
942.3979
 20
87.7834
 10
942.4665
 20
88.051
 10
942.5461
 20
88.3071
 10
942.6367
 20
88.5516
 10
942.7383
 20
88.7849
 10
942.8509
 20
89.0068
 10
942.9425
 20
89.1647
 10
943.0416
 20
89.3155
 10
943.1482
 20
89.459
 10
943.2624
 20
89.5954
 10
943.3841
 20
89.7245
 10
943.5134
 20
89.8465
 10
943.6502
 20
89.9612
 10
943.7946
 20
90.0687
 10
943.9441
 20
90.166
 10
944.0964
 20
90.2504
 10
944.2514
 20
90.3218
 10
944.4092
 20
90.3802
 10
944.5697
 20
90.4257
 10
944.733
 20
90.4581
 10
944.899
 20
90.4776
 10
945.0679
 20
90.4841
 10
945.2325
 20
90.4807
 10
945.3861
 20
90.4703
 10
945.5287
 20
90.4532
 10
945.6604
 20
90.4291
 10
945.7811
 20
90.3983
 10
945.8908
 20
90.3605
 10
945.9895
 20
90.316
 10
946.0772
 20
90.2646
 10
946.2985
 20
90.0926
 10
946.4902
 20
89.891
 10
946.6524
 20
89.6599
 10
946.7851
 20
89.3992
 10
946.8883
 20
89.1089
 10
946.962
 20
88.789
 10
947.0063
 20
88.4395
 10
947.021
 20
88.0604
 10
947.021
 20
81.7134
 10
948.5577
 20
81.7134
 10
948.5577
 20
88.0604
 10
948.5467
 20
88.449
 10
948.7992
 20
89.0068
 10
948.8908
 20
89.1647
 10
948.99
 20
89.3155
 10
949.0966
 20
89.459
 10
949.2108
 20
89.5954
 10
949.3325
 20
89.7245
 10
949.4618
 20
89.8465
 10
949.5986
 20
89.9612
 10
949.743
 20
90.0687
 10
949.8925
 20
90.166
 10
950.0448
 20
90.2504
 10
950.1998
 20
90.3218
 10
950.3576
 20
90.3802
 10
950.5181
 20
90.4257
 10
950.6814
 20
90.4581
 10
950.8474
 20
90.4776
 10
951.0163
 20
90.4841
 10
951.1808
 20
90.4807
 10
951.3344
 20
90.4703
 10
951.4771
 20
90.4532
 10
951.6089
 20
90.4291
 10
951.7296
 20
90.3983
 10
951.8395
 20
90.3605
 10
951.9383
 20
90.316
 10
952.0262
 20
90.2646
 10
952.2473
 20
90.0926
 10
952.4389
 20
89.891
 10
952.6011
 20
89.6599
 10
952.7338
 20
89.3992
 10
952.8371
 20
89.1089
 10
952.9109
 20
88.789
 10
952.9551
 20
88.4395
 10
952.9699
 20
88.0604
 10
952.9699
 20
81.7134
  0
LWPOLYLINE
  5
84
330
1F
100
AcDbEntity
  8
Layer 1
 62
     7
370
    35
100
AcDbPolyline
 90
       35
 70
     0
 43
0.0
 10
921.5603
 20
-61.698
 10
912.7186
 20
-61.7157
 10
901.2943
 20
-61.7263
 10
888.432
 20
-61.7312
 10
875.2768
 20
-61.7319
 10
862.9733
 20
-61.7299
 10
852.6667
 20
-61.7266
 10
845.5015
 20
-61.7235
 10
842.6228
 20
-61.7222
 10
842.1684
 20
-61.3571
 10
841.5272
 20
-60.3947
 10
840.7196
 20
-59.0349
 10
839.7661
 20
-57.477
 10
838.6871
 20
-55.9209
 10
837.5031
 20
-54.5661
 10
836.2344
 20
-53.6123
 10
834.9016
 20
-53.2591
 10
830.9575
 20
-50.73
 10
823.0517
 20
-43.7225
 10
813.0019
 20
-33.1495
 10
802.6258
 20
-19.9238
 10
793.7409
 20
-4.9581
 10
788.1651
 20
10.8347
 10
787.7159
 20
26.5418
 10
794.2111
 20
41.2504
 10
795.219
 20
42.4348
 10
796.3178
 20
43.5602
 10
797.4116
 20
44.6552
 10
798.4044
 20
45.7487
 10
799.2002
 20
46.8694
 10
799.7032
 20
48.0461
 10
799.8172
 20
49.3077
 10
799.4464
 20
50.6829
 10
831.4477
 20
50.6829
 10
922.0805
 20
50.6829
  0
LWPOLYLINE
  5
85
330
1F
100
AcDbEntity
  8
Layer 1
 62
     7
370
    35
100
AcDbPolyline
 90
       35
 70
     0
 43
0.0
 10
921.13
 20
-61.698
 10
929.9718
 20
-61.7157
 10
941.3963
 20
-61.7263
 10
954.2588
 20
-61.7312
 10
967.4142
 20
-61.7319
 10
979.7179
 20
-61.7299
 10
990.0248
 20
-61.7266
 10
997.19
 20
-61.7235
 10
1000.0688
 20
-61.7222
 10
1000.5228
 20
-61.3571
 10
1001.1639
 20
-60.3947
 10
1001.9714
 20
-59.0349
 10
1002.9249
 20
-57.477
 10
1004.0039
 20
-55.9209
 10
1005.1879
 20
-54.5661
 10
1006.4563
 20
-53.6123
 10
1007.7888
 20
-53.2591
 10
1011.7332
 20
-50.73
 10
1019.6392
 20
-43.7225
 10
1029.6891
 20
-33.1495
 10
1040.0653
 20
-19.9238
 10
1048.9502
 20
-4.9581
 10
1054.5262
 20
10.8347
 10
1054.9757
 20
26.5418
 10
1048.4811
 20
41.2504
 10
1047.473
 20
42.4348
 10
1046.374
 20
43.5602
 10
1045.2799
 20
44.6552
 10
1044.2869
 20
45.7487
 10
1043.4908
 20
46.8694
 10
1042.9877
 20
48.0461
 10
1042.8734
 20
49.3077
 10
1043.244
 20
50.6829
 10
1011.2439
 20
50.6829
 10
920.6111
 20
50.6829
  0
ENDSEC
  0
SECTION
  2
OBJECTS
  0
DICTIONARY
  5
C
330
0
100
AcDbDictionary
281
     1
  3
ACAD_DETAILVIEWSTYLE
350
8D
  3
ACAD_GROUP
350
D
  3
ACAD_LAYOUT
350
1A
  3
ACAD_MATERIAL
350
43
  3
ACAD_MLEADERSTYLE
350
5B
  3
ACAD_MLINESTYLE
350
17
  3
ACAD_PLOTSETTINGS
350
19
  3
ACAD_PLOTSTYLENAME
350
E
  3
ACAD_SCALELIST
350
47
  3
ACAD_SECTIONVIEWSTYLE
350
8E
  3
ACAD_TABLESTYLE
350
59
  3
ACAD_VISUALSTYLE
350
2A
  3
ACDB_RECOMPOSE_DATA
350
8A
  3
AcDbVariableDictionary
350
86
  0
SUN
  5
5D
330
29
100
AcDbSun
 90
        1
290
     0
 63
     7
421
 16777215
 40
1.0
291
     1
 91
  2455826
 92
 54000000
292
     0
 70
     2
 71
   256
280
     1
  0
DICTIONARY
  5
8D
102
{ACAD_REACTORS
330
C
102
}
330
C
100
AcDbDictionary
281
     1
  0
DICTIONARY
  5
D
102
{ACAD_REACTORS
330
C
102
}
330
C
100
AcDbDictionary
281
     1
  0
DICTIONARY
  5
1A
102
{ACAD_REACTORS
330
C
102
}
330
C
100
AcDbDictionary
281
     1
  3
Layout1
350
1E
  3
Layout2
350
26
  3
Model
350
22
  0
DICTIONARY
  5
43
102
{ACAD_REACTORS
330
C
102
}
330
C
100
AcDbDictionary
281
     1
  3
ByBlock
350
45
  3
ByLayer
350
44
  3
Global
350
46
  0
DICTIONARY
  5
5B
102
{ACAD_REACTORS
330
C
102
}
330
C
100
AcDbDictionary
281
     1
  3
Standard
350
5C
  0
DICTIONARY
  5
17
102
{ACAD_REACTORS
330
C
102
}
330
C
100
AcDbDictionary
281
     1
  3
Standard
350
18
  0
DICTIONARY
  5
19
102
{ACAD_REACTORS
330
C
102
}
330
C
100
AcDbDictionary
281
     1
  0
ACDBDICTIONARYWDFLT
  5
E
102
{ACAD_REACTORS
330
C
102
}
330
C
100
AcDbDictionary
281
     1
  3
Normal
350
F
100
AcDbDictionaryWithDefault
340
F
  0
DICTIONARY
  5
47
102
{ACAD_REACTORS
330
C
102
}
330
C
100
AcDbDictionary
281
     1
  3
A0
350
48
  3
A1
350
49
  3
A2
350
4A
  3
A3
350
4B
  3
A4
350
4C
  3
A5
350
4D
  3
A6
350
4E
  3
A7
350
4F
  3
A8
350
50
  3
A9
350
51
  3
B1
350
52
  3
B2
350
53
  3
B3
350
54
  3
B4
350
55
  3
B5
350
56
  3
B6
350
57
  3
B7
350
58
  0
DICTIONARY
  5
8E
102
{ACAD_REACTORS
330
C
102
}
330
C
100
AcDbDictionary
281
     1
  0
DICTIONARY
  5
59
102
{ACAD_REACTORS
330
C
102
}
330
C
100
AcDbDictionary
281
     1
  3
Standard
350
5A
  0
DICTIONARY
  5
2A
102
{ACAD_REACTORS
330
C
102
}
330
C
100
AcDbDictionary
281
     1
  3
2dWireframe
350
2F
  3
Basic
350
32
  3
Brighten
350
36
  3
ColorChange
350
3A
  3
Conceptual
350
34
  3
Dim
350
35
  3
EdgeColorOff
350
3D
  3
Facepattern
350
39
  3
Flat
350
2B
  3
FlatWithEdges
350
2C
  3
Gouraud
350
2D
  3
GouraudWithEdges
350
2E
  3
Hidden
350
31
  3
JitterOff
350
3B
  3
Linepattern
350
38
  3
OverhangOff
350
3C
  3
Realistic
350
33
  3
Shaded
350
42
  3
Shaded with edges
350
41
  3
Shades of Gray
350
3E
  3
Sketchy
350
3F
  3
Thicken
350
37
  3
Wireframe
350
30
  3
X-Ray
350
40
  0
XRECORD
  5
8A
102
{ACAD_REACTORS
330
C
102
}
330
C
100
AcDbXrecord
280
     1
 90
        1
330
5A
  0
DICTIONARY
  5
86
102
{ACAD_REACTORS
330
C
102
}
330
C
100
AcDbDictionary
281
     1
  3
CANNOSCALE
350
87
  3
CMLEADERSTYLE
350
8C
  3
CTABLESTYLE
350
8B
  0
LAYOUT
  5
1E
102
{ACAD_REACTORS
330
1A
102
}
330
1A
100
AcDbPlotSettings
  1

  2
none_device
  4

  6

 40
0.0
 41
0.0
 42
0.0
 43
0.0
 44
0.0
 45
0.0
 46
0.0
 47
0.0
 48
0.0
 49
0.0
140
0.0
141
0.0
142
1.0
143
1.0
 70
   688
 72
     0
 73
     0
 74
     5
  7

 75
    16
 76
     0
 77
     2
 78
   300
147
1.0
148
0.0
149
0.0
100
AcDbLayout
  1
Layout1
 70
     1
 71
     1
 10
0.0
 20
0.0
 11
12.0
 21
9.0
 12
0.0
 22
0.0
 32
0.0
 14
1.000000000000000E+20
 24
1.000000000000000E+20
 34
1.000000000000000E+20
 15
-1.000000000000000E+20
 25
-1.000000000000000E+20
 35
-1.000000000000000E+20
146
0.0
 13
0.0
 23
0.0
 33
0.0
 16
1.0
 26
0.0
 36
0.0
 17
0.0
 27
1.0
 37
0.0
 76
     0
330
1B
  0
LAYOUT
  5
26
102
{ACAD_REACTORS
330
1A
102
}
330
1A
100
AcDbPlotSettings
  1

  2
none_device
  4

  6

 40
0.0
 41
0.0
 42
0.0
 43
0.0
 44
0.0
 45
0.0
 46
0.0
 47
0.0
 48
0.0
 49
0.0
140
0.0
141
0.0
142
1.0
143
1.0
 70
   688
 72
     0
 73
     0
 74
     5
  7

 75
    16
 76
     0
 77
     2
 78
   300
147
1.0
148
0.0
149
0.0
100
AcDbLayout
  1
Layout2
 70
     1
 71
     2
 10
0.0
 20
0.0
 11
0.0
 21
0.0
 12
0.0
 22
0.0
 32
0.0
 14
0.0
 24
0.0
 34
0.0
 15
0.0
 25
0.0
 35
0.0
146
0.0
 13
0.0
 23
0.0
 33
0.0
 16
1.0
 26
0.0
 36
0.0
 17
0.0
 27
1.0
 37
0.0
 76
     0
330
23
  0
LAYOUT
  5
22
102
{ACAD_REACTORS
330
1A
102
}
330
1A
100
AcDbPlotSettings
  1

  2
none_device
  4
Letter_(8.50_x_11.00_Inches)
  6

 40
6.35
 41
6.35
 42
6.35000508
 43
6.35000508
 44
215.9
 45
279.4
 46
0.0
 47
0.0
 48
0.0
 49
0.0
140
0.0
141
0.0
142
1.0
143
1.0
 70
  1712
 72
     0
 73
     0
 74
     0
  7

 75
     0
 76
     0
 77
     2
 78
   300
147
1.0
148
0.0
149
0.0
100
AcDbLayout
  1
Model
 70
     1
 71
     0
 10
0.0
 20
0.0
 11
12.0
 21
9.0
 12
0.0
 22
0.0
 32
0.0
 14
191.1858
 24
-153.0176
 34
0.0
 15
1111.579
 25
168.2402
 35
0.0
146
0.0
 13
0.0
 23
0.0
 33
0.0
 16
1.0
 26
0.0
 36
0.0
 17
0.0
 27
1.0
 37
0.0
 76
     0
330
1F
331
29
  0
MATERIAL
  5
45
102
{ACAD_REACTORS
330
43
102
}
330
43
100
AcDbMaterial
  1
ByBlock
 72
     1
 94
      127
  0
MATERIAL
  5
44
102
{ACAD_REACTORS
330
43
102
}
330
43
100
AcDbMaterial
  1
ByLayer
 72
     1
 94
      127
  0
MATERIAL
  5
46
102
{ACAD_REACTORS
330
43
102
}
330
43
100
AcDbMaterial
  1
Global
 72
     1
 94
      127
  0
MLEADERSTYLE
  5
5C
102
{ACAD_REACTORS
330
5B
102
}
330
5B
100
AcDbMLeaderStyle
179
     2
170
     2
171
     1
172
     0
 90
        2
 40
0.0
 41
0.0
173
     1
 91
-1056964608
340
14
 92
       -2
290
     1
 42
0.09
291
     1
 43
0.36
  3
Standard
341
0
 44
0.18
300

342
11
174
     1
178
     6
175
     1
176
     0
 93
-1056964608
 45
0.18
292
     0
297
     0
 46
0.18
343
0
 94
-1056964608
 47
1.0
 49
1.0
140
1.0
293
     1
141
0.0
294
     1
177
     0
142
1.0
295
     0
296
     0
143
0.125
271
     0
272
     9
273
     9
298
     0
  0
MLINESTYLE
  5
18
102
{ACAD_REACTORS
330
17
102
}
330
17
100
AcDbMlineStyle
  2
Standard
 70
     0
  3

 62
   256
 51
90.0
 52
90.0
 71
     2
 49
0.5
 62
   256
  6
BYLAYER
 49
-0.5
 62
   256
  6
BYLAYER
  0
ACDBPLACEHOLDER
  5
F
102
{ACAD_REACTORS
330
E
102
}
330
E
  0
SCALE
  5
48
102
{ACAD_REACTORS
330
47
102
}
330
47
100
AcDbScale
 70
     0
300
1:1
140
1.0
141
1.0
290
     1
  0
SCALE
  5
49
102
{ACAD_REACTORS
330
47
102
}
330
47
100
AcDbScale
 70
     0
300
1/128" = 1'-0"
140
0.0078125
141
12.0
290
     0
  0
SCALE
  5
4A
102
{ACAD_REACTORS
330
47
102
}
330
47
100
AcDbScale
 70
     0
300
1/64" = 1'-0"
140
0.015625
141
12.0
290
     0
  0
SCALE
  5
4B
102
{ACAD_REACTORS
330
47
102
}
330
47
100
AcDbScale
 70
     0
300
1/32" = 1'-0"
140
0.03125
141
12.0
290
     0
  0
SCALE
  5
4C
102
{ACAD_REACTORS
330
47
102
}
330
47
100
AcDbScale
 70
     0
300
1/16" = 1'-0"
140
0.0625
141
12.0
290
     0
  0
SCALE
  5
4D
102
{ACAD_REACTORS
330
47
102
}
330
47
100
AcDbScale
 70
     0
300
3/32" = 1'-0"
140
0.09375
141
12.0
290
     0
  0
SCALE
  5
4E
102
{ACAD_REACTORS
330
47
102
}
330
47
100
AcDbScale
 70
     0
300
1/8" = 1'-0"
140
0.125
141
12.0
290
     0
  0
SCALE
  5
4F
102
{ACAD_REACTORS
330
47
102
}
330
47
100
AcDbScale
 70
     0
300
3/16" = 1'-0"
140
0.1875
141
12.0
290
     0
  0
SCALE
  5
50
102
{ACAD_REACTORS
330
47
102
}
330
47
100
AcDbScale
 70
     0
300
1/4" = 1'-0"
140
0.25
141
12.0
290
     0
  0
SCALE
  5
51
102
{ACAD_REACTORS
330
47
102
}
330
47
100
AcDbScale
 70
     0
300
3/8" = 1'-0"
140
0.375
141
12.0
290
     0
  0
SCALE
  5
52
102
{ACAD_REACTORS
330
47
102
}
330
47
100
AcDbScale
 70
     0
300
1/2" = 1'-0"
140
0.5
141
12.0
290
     0
  0
SCALE
  5
53
102
{ACAD_REACTORS
330
47
102
}
330
47
100
AcDbScale
 70
     0
300
3/4" = 1'-0"
140
0.75
141
12.0
290
     0
  0
SCALE
  5
54
102
{ACAD_REACTORS
330
47
102
}
330
47
100
AcDbScale
 70
     0
300
1" = 1'-0"
140
1.0
141
12.0
290
     0
  0
SCALE
  5
55
102
{ACAD_REACTORS
330
47
102
}
330
47
100
AcDbScale
 70
     0
300
1-1/2" = 1'-0"
140
1.5
141
12.0
290
     0
  0
SCALE
  5
56
102
{ACAD_REACTORS
330
47
102
}
330
47
100
AcDbScale
 70
     0
300
3" = 1'-0"
140
3.0
141
12.0
290
     0
  0
SCALE
  5
57
102
{ACAD_REACTORS
330
47
102
}
330
47
100
AcDbScale
 70
     0
300
6" = 1'-0"
140
6.0
141
12.0
290
     0
  0
SCALE
  5
58
102
{ACAD_REACTORS
330
47
102
}
330
47
100
AcDbScale
 70
     0
300
1'-0" = 1'-0"
140
12.0
141
12.0
290
     0
  0
TABLESTYLE
  5
5A
102
{ACAD_REACTORS
330
59
102
}
102
{ACAD_XDICTIONARY
360
88
102
}
330
59
100
AcDbTableStyle
  3
Standard
 70
     0
 71
     0
 40
0.06
 41
0.06
280
     0
281
     0
  7
Standard
140
0.18
170
     2
 62
     0
 63
   257
283
     0
 90
        4
 91
        0
  1

274
    -2
284
     1
 64
     0
275
    -2
285
     1
 65
     0
276
    -2
286
     1
 66
     0
277
    -2
287
     1
 67
     0
278
    -2
288
     1
 68
     0
279
    -2
289
     1
 69
     0
  7
Standard
140
0.25
170
     5
 62
     0
 63
   257
283
     0
 90
        4
 91
        0
  1

274
    -2
284
     1
 64
     0
275
    -2
285
     1
 65
     0
276
    -2
286
     1
 66
     0
277
    -2
287
     1
 67
     0
278
    -2
288
     1
 68
     0
279
    -2
289
     1
 69
     0
  7
Standard
140
0.18
170
     5
 62
     0
 63
   257
283
     0
 90
        4
 91
        0
  1

274
    -2
284
     1
 64
     0
275
    -2
285
     1
 65
     0
276
    -2
286
     1
 66
     0
277
    -2
287
     1
 67
     0
278
    -2
288
     1
 68
     0
279
    -2
289
     1
 69
     0
  0
VISUALSTYLE
  5
2F
102
{ACAD_REACTORS
330
2A
102
}
330
2A
100
AcDbVisualStyle
  2
2dWireframe
 70
     4
177
     3
291
     0
 70
    58
 90
        0
176
     1
 90
        2
176
     1
 90
        0
176
     1
 90
        0
176
     1
 40
0.6
176
     1
 40
30.0
176
     1
 62
     7
420
 16777215
176
     1
 90
        1
176
     1
 90
        4
176
     1
 62
     7
176
     1
 62
   257
176
     1
 90
        1
176
     1
 90
        1
176
     1
 40
1.0
176
     1
 90
        0
176
     1
 62
   257
176
     1
 40
1.0
176
     1
 90
        1
176
     1
 90
        6
176
     1
 90
        2
176
     1
 62
     7
176
     1
 90
        5
176
     1
 90
        0
176
     1
 90
        0
176
     1
290
     0
176
     1
 90
        1
176
     1
 40
0.0
176
     1
 90
        0
176
     1
290
     1
176
     1
290
     1
176
     1
290
     0
176
     1
290
     0
176
     1
290
     0
176
     1
290
     0
176
     1
290
     0
176
     1
290
     0
176
     1
290
     0
176
     1
 90
       50
176
     1
 40
0.0
176
     1
 40
1.0
176
     1
 90
        0
176
     1
 62
    18
420
        0
176
     1
 90
       50
176
     1
 90
        3
176
     1
 62
     5
420
      255
176
     1
290
     0
176
     1
 90
       50
176
     1
 90
       50
176
     1
 90
       50
176
     1
290
     0
176
     1
 90
       50
176
     1
 62
   256
176
     0
 40
1.0
176
     0
 90
        2
176
     1
  1
strokes_ogs.tif
176
     1
290
     0
176
     1
 40
1.0
176
     1
 40
1.0
176
     1
  0
VISUALSTYLE
  5
32
102
{ACAD_REACTORS
330
2A
102
}
330
2A
100
AcDbVisualStyle
  2
Basic
 70
     7
177
     3
291
     1
 70
    58
 90
        1
176
     1
 90
        0
176
     1
 90
        1
176
     1
 90
        0
176
     1
 40
0.6
176
     1
 40
30.0
176
     1
 62
     7
420
 16777215
176
     1
 90
        0
176
     1
 90
        4
176
     1
 62
     7
176
     1
 62
   257
176
     1
 90
        1
176
     1
 90
        1
176
     1
 40
1.0
176
     1
 90
        8
176
     1
 62
     7
176
     1
 40
1.0
176
     1
 90
        1
176
     1
 90
        6
176
     1
 90
        2
176
     1
 62
     7
176
     1
 90
        5
176
     1
 90
        0
176
     1
 90
        0
176
     1
290
     0
176
     1
 90
        1
176
     1
 40
0.0
176
     1
 90
        0
176
     1
290
     0
176
     1
290
     1
176
     1
290
     1
176
     1
290
     0
176
     1
290
     0
176
     1
290
     0
176
     1
290
     0
176
     1
290
     0
176
     1
290
     0
176
     1
 90
       50
176
     1
 40
0.0
176
     1
 40
1.0
176
     1
 90
        0
176
     1
 62
    18
420
        0
176
     1
 90
       50
176
     1
 90
        3
176
     1
 62
     5
420
      255
176
     1
290
     0
176
     1
 90
       50
176
     1
 90
       50
176
     1
 90
       50
176
     1
290
     0
176
     1
 90
       50
176
     1
 62
   256
176
     0
 40
1.0
176
     0
 90
        2
176
     1
  1
strokes_ogs.tif
176
     1
290
     0
176
     1
 40
1.0
176
     1
 40
1.0
176
     1
  0
VISUALSTYLE
  5
36
102
{ACAD_REACTORS
330
2A
102
}
330
2A
100
AcDbVisualStyle
  2
Brighten
 70
    12
177
     3
291
     1
 70
    58
 90
        2
176
     1
 90
        2
176
     1
 90
        0
176
     1
 90
        0
176
     1
 40
0.6
176
     1
 40
30.0
176
     1
 62
     7
420
 16777215
176
     1
 90
        1
176
     1
 90
        4
176
     1
 62
     7
176
     1
 62
   257
176
     1
 90
        1
176
     1
 90
        1
176
     1
 40
1.0
176
     1
 90
        8
176
     1
 62
     7
176
     1
 40
1.0
176
     1
 90
        1
176
     1
 90
        6
176
     1
 90
        2
176
     1
 62
     7
176
     1
 90
        5
176
     1
 90
        0
176
     1
 90
        0
176
     1
290
     0
176
     1
 90
        1
176
     1
 40
50.0
176
     1
 90
        0
176
     1
290
     0
176
     1
290
     1
176
     1
290
     1
176
     1
290
     0
176
     1
290
     0
176
     1
290
     0
176
     1
290
     0
176
     1
290
     0
176
     1
290
     0
176
     1
 90
       50
176
     1
 40
0.0
176
     1
 40
1.0
176
     1
 90
        0
176
     1
 62
    18
420
        0
176
     1
 90
       50
176
     1
 90
        3
176
     1
 62
     5
420
      255
176
     1
290
     0
176
     1
 90
       50
176
     1
 90
       50
176
     1
 90
       50
176
     1
290
     0
176
     1
 90
       50
176
     1
 62
   256
176
     0
 40
1.0
176
     0
 90
        2
176
     1
  1
strokes_ogs.tif
176
     1
290
     0
176
     1
 40
1.0
176
     1
 40
1.0
176
     1
  0
VISUALSTYLE
  5
3A
102
{ACAD_REACTORS
330
2A
102
}
330
2A
100
AcDbVisualStyle
  2
ColorChange
 70
    16
177
     3
291
     1
 70
    58
 90
        2
176
     1
 90
        2
176
     1
 90
        3
176
     1
 90
        0
176
     1
 40
0.6
176
     1
 40
30.0
176
     1
 62
     8
420
  8421504
176
     1
 90
        1
176
     1
 90
        4
176
     1
 62
     7
176
     1
 62
   257
176
     1
 90
        1
176
     1
 90
        1
176
     1
 40
1.0
176
     1
 90
        8
176
     1
 62
     8
420
  8421504
176
     1
 40
1.0
176
     1
 90
        1
176
     1
 90
        6
176
     1
 90
        2
176
     1
 62
     7
176
     1
 90
        5
176
     1
 90
        0
176
     1
 90
        0
176
     1
290
     0
176
     1
 90
        1
176
     1
 40
0.0
176
     1
 90
        0
176
     1
290
     0
176
     1
290
     1
176
     1
290
     1
176
     1
290
     0
176
     1
290
     0
176
     1
290
     0
176
     1
290
     0
176
     1
290
     0
176
     1
290
     0
176
     1
 90
       50
176
     1
 40
0.0
176
     1
 40
1.0
176
     1
 90
        0
176
     1
 62
    18
420
        0
176
     1
 90
       50
176
     1
 90
        3
176
     1
 62
     5
420
      255
176
     1
290
     0
176
     1
 90
       50
176
     1
 90
       50
176
     1
 90
       50
176
     1
290
     0
176
     1
 90
       50
176
     1
 62
   256
176
     0
 40
1.0
176
     0
 90
        2
176
     1
  1
strokes_ogs.tif
176
     1
290
     0
176
     1
 40
1.0
176
     1
 40
1.0
176
     1
  0
VISUALSTYLE
  5
34
102
{ACAD_REACTORS
330
2A
102
}
330
2A
100
AcDbVisualStyle
  2
Conceptual
 70
     9
177
     3
291
     0
 70
    58
 90
        3
176
     1
 90
        2
176
     1
 90
        0
176
     1
 90
        0
176
     1
 40
0.6
176
     1
 40
30.0
176
     1
 62
     7
420
 16777215
176
     1
 90
        2
176
     1
 90
        2
176
     1
 62
     7
176
     1
 62
   257
176
     1
 90
        1
176
     1
 90
        1
176
     1
 40
179.0
176
     1
 90
        8
176
     1
 62
     7
176
     1
 40
1.0
176
     1
 90
        1
176
     1
 90
        6
176
     1
 90
        2
176
     1
 62
     7
176
     1
 90
        3
176
     1
 90
        0
176
     1
 90
        0
176
     1
290
     0
176
     1
 90
        1
176
     1
 40
0.0
176
     1
 90
        0
176
     1
290
     0
176
     1
290
     1
176
     1
290
     1
176
     1
290
     0
176
     1
290
     0
176
     1
290
     0
176
     1
290
     0
176
     1
290
     0
176
     1
290
     0
176
     1
 90
       50
176
     1
 40
0.0
176
     1
 40
1.0
176
     1
 90
        0
176
     1
 62
    18
420
        0
176
     1
 90
       50
176
     1
 90
        3
176
     1
 62
     5
420
      255
176
     1
290
     0
176
     1
 90
       50
176
     1
 90
       50
176
     1
 90
       50
176
     1
290
     0
176
     1
 90
       50
176
     1
 62
   256
176
     0
 40
1.0
176
     0
 90
        2
176
     1
  1
strokes_ogs.tif
176
     1
290
     0
176
     1
 40
1.0
176
     1
 40
1.0
176
     1
  0
VISUALSTYLE
  5
35
102
{ACAD_REACTORS
330
2A
102
}
330
2A
100
AcDbVisualStyle
  2
Dim
 70
    11
177
     3
291
     1
 70
    58
 90
        2
176
     1
 90
        2
176
     1
 90
        0
176
     1
 90
        0
176
     1
 40
0.6
176
     1
 40
30.0
176
     1
 62
     7
420
 16777215
176
     1
 90
        1
176
     1
 90
        4
176
     1
 62
     7
176
     1
 62
   257
176
     1
 90
        1
176
     1
 90
        1
176
     1
 40
1.0
176
     1
 90
        8
176
     1
 62
     7
176
     1
 40
1.0
176
     1
 90
        1
176
     1
 90
        6
176
     1
 90
        2
176
     1
 62
     7
176
     1
 90
        5
176
     1
 90
        0
176
     1
 90
        0
176
     1
290
     0
176
     1
 90
        1
176
     1
 40
-50.0
176
     1
 90
        0
176
     1
290
     0
176
     1
290
     1
176
     1
290
     1
176
     1
290
     0
176
     1
290
     0
176
     1
290
     0
176
     1
290
     0
176
     1
290
     0
176
     1
290
     0
176
     1
 90
       50
176
     1
 40
0.0
176
     1
 40
1.0
176
     1
 90
        0
176
     1
 62
    18
420
        0
176
     1
 90
       50
176
     1
 90
        3
176
     1
 62
     5
420
      255
176
     1
290
     0
176
     1
 90
       50
176
     1
 90
       50
176
     1
 90
       50
176
     1
290
     0
176
     1
 90
       50
176
     1
 62
   256
176
     0
 40
1.0
176
     0
 90
        2
176
     1
  1
strokes_ogs.tif
176
     1
290
     0
176
     1
 40
1.0
176
     1
 40
1.0
176
     1
  0
VISUALSTYLE
  5
3D
102
{ACAD_REACTORS
330
2A
102
}
330
2A
100
AcDbVisualStyle
  2
EdgeColorOff
 70
    22
177
     3
291
     1
 70
    58
 90
        2
176
     0
 90
        2
176
     0
 90
        0
176
     0
 90
        0
176
     0
 40
0.6
176
     0
 40
30.0
176
     0
 62
     7
420
 16777215
176
     0
 90
        1
176
     0
 90
        4
176
     0
 62
     7
176
     0
 62
   257
176
     0
 90
        1
176
     0
 90
        1
176
     0
 40
1.0
176
     0
 90
        8
176
     2
 62
     7
176
     0
 40
1.0
176
     0
 90
        1
176
     0
 90
        6
176
     0
 90
        2
176
     0
 62
     7
176
     0
 90
        5
176
     0
 90
        0
176
     0
 90
        0
176
     0
290
     0
176
     0
 90
        1
176
     0
 40
0.0
176
     0
 90
        0
176
     0
290
     0
176
     0
290
     1
176
     0
290
     1
176
     0
290
     0
176
     0
290
     0
176
     0
290
     0
176
     0
290
     0
176
     0
290
     0
176
     0
290
     0
176
     0
 90
       50
176
     0
 40
0.0
176
     0
 40
1.0
176
     0
 90
        0
176
     0
 62
    18
420
        0
176
     0
 90
       50
176
     0
 90
        3
176
     0
 62
     5
420
      255
176
     0
290
     0
176
     0
 90
       50
176
     0
 90
       50
176
     0
 90
       50
176
     0
290
     0
176
     0
 90
       50
176
     0
 62
   256
176
     0
 40
1.0
176
     0
 90
        2
176
     0
  1
strokes_ogs.tif
176
     0
290
     0
176
     0
 40
1.0
176
     0
 40
1.0
176
     0
  0
VISUALSTYLE
  5
39
102
{ACAD_REACTORS
330
2A
102
}
330
2A
100
AcDbVisualStyle
  2
Facepattern
 70
    15
177
     3
291
     1
 70
    58
 90
        2
176
     1
 90
        2
176
     1
 90
        0
176
     1
 90
        0
176
     1
 40
0.6
176
     1
 40
30.0
176
     1
 62
     7
420
 16777215
176
     1
 90
        1
176
     1
 90
        4
176
     1
 62
     7
176
     1
 62
   257
176
     1
 90
        1
176
     1
 90
        1
176
     1
 40
1.0
176
     1
 90
        8
176
     1
 62
     7
176
     1
 40
1.0
176
     1
 90
        1
176
     1
 90
        6
176
     1
 90
        2
176
     1
 62
     7
176
     1
 90
        5
176
     1
 90
        0
176
     1
 90
        0
176
     1
290
     0
176
     1
 90
        1
176
     1
 40
0.0
176
     1
 90
        0
176
     1
290
     0
176
     1
290
     1
176
     1
290
     1
176
     1
290
     0
176
     1
290
     0
176
     1
290
     0
176
     1
290
     0
176
     1
290
     0
176
     1
290
     0
176
     1
 90
       50
176
     1
 40
0.0
176
     1
 40
1.0
176
     1
 90
        0
176
     1
 62
    18
420
        0
176
     1
 90
       50
176
     1
 90
        3
176
     1
 62
     5
420
      255
176
     1
290
     0
176
     1
 90
       50
176
     1
 90
       50
176
     1
 90
       50
176
     1
290
     0
176
     1
 90
       50
176
     1
 62
   256
176
     0
 40
1.0
176
     0
 90
        2
176
     1
  1
strokes_ogs.tif
176
     1
290
     0
176
     1
 40
1.0
176
     1
 40
1.0
176
     1
  0
VISUALSTYLE
  5
2B
102
{ACAD_REACTORS
330
2A
102
}
330
2A
100
AcDbVisualStyle
  2
Flat
 70
     0
177
     3
291
     1
 70
    58
 90
        2
176
     1
 90
        1
176
     1
 90
        1
176
     1
 90
        2
176
     1
 40
0.6
176
     1
 40
30.0
176
     1
 62
     7
420
 16777215
176
     1
 90
        0
176
     1
 90
        0
176
     1
 62
     7
176
     1
 62
   257
176
     1
 90
        1
176
     1
 90
        1
176
     1
 40
1.0
176
     1
 90
        8
176
     1
 62
     7
176
     1
 40
1.0
176
     1
 90
        1
176
     1
 90
        6
176
     1
 90
        2
176
     1
 62
     7
176
     1
 90
        5
176
     1
 90
        0
176
     1
 90
        0
176
     1
290
     0
176
     1
 90
       13
176
     1
 40
0.0
176
     1
 90
        0
176
     1
290
     0
176
     1
290
     1
176
     1
290
     1
176
     1
290
     0
176
     1
290
     0
176
     1
290
     0
176
     1
290
     0
176
     1
290
     0
176
     1
290
     0
176
     1
 90
       50
176
     1
 40
0.0
176
     1
 40
1.0
176
     1
 90
        0
176
     1
 62
    18
420
        0
176
     1
 90
       50
176
     1
 90
        3
176
     1
 62
     5
420
      255
176
     1
290
     0
176
     1
 90
       50
176
     1
 90
       50
176
     1
 90
       50
176
     1
290
     0
176
     1
 90
       50
176
     1
 62
   256
176
     0
 40
1.0
176
     0
 90
        2
176
     1
  1
strokes_ogs.tif
176
     1
290
     0
176
     1
 40
1.0
176
     1
 40
1.0
176
     1
  0
VISUALSTYLE
  5
2C
102
{ACAD_REACTORS
330
2A
102
}
330
2A
100
AcDbVisualStyle
  2
FlatWithEdges
 70
     1
177
     3
291
     1
 70
    58
 90
        2
176
     1
 90
        1
176
     1
 90
        1
176
     1
 90
        2
176
     1
 40
0.6
176
     1
 40
30.0
176
     1
 62
     7
420
 16777215
176
     1
 90
        1
176
     1
 90
        0
176
     1
 62
     7
176
     1
 62
   257
176
     1
 90
        1
176
     1
 90
        1
176
     1
 40
1.0
176
     1
 90
        0
176
     1
 62
   257
176
     1
 40
1.0
176
     1
 90
        1
176
     1
 90
        6
176
     1
 90
        2
176
     1
 62
     7
176
     1
 90
        5
176
     1
 90
        0
176
     1
 90
        0
176
     1
290
     0
176
     1
 90
       13
176
     1
 40
0.0
176
     1
 90
        0
176
     1
290
     0
176
     1
290
     1
176
     1
290
     1
176
     1
290
     0
176
     1
290
     0
176
     1
290
     0
176
     1
290
     0
176
     1
290
     0
176
     1
290
     0
176
     1
 90
       50
176
     1
 40
0.0
176
     1
 40
1.0
176
     1
 90
        0
176
     1
 62
    18
420
        0
176
     1
 90
       50
176
     1
 90
        3
176
     1
 62
     5
420
      255
176
     1
290
     0
176
     1
 90
       50
176
     1
 90
       50
176
     1
 90
       50
176
     1
290
     0
176
     1
 90
       50
176
     1
 62
   256
176
     0
 40
1.0
176
     0
 90
        2
176
     1
  1
strokes_ogs.tif
176
     1
290
     0
176
     1
 40
1.0
176
     1
 40
1.0
176
     1
  0
VISUALSTYLE
  5
2D
102
{ACAD_REACTORS
330
2A
102
}
330
2A
100
AcDbVisualStyle
  2
Gouraud
 70
     2
177
     3
291
     1
 70
    58
 90
        2
176
     1
 90
        2
176
     1
 90
        1
176
     1
 90
        2
176
     1
 40
0.6
176
     1
 40
30.0
176
     1
 62
     7
420
 16777215
176
     1
 90
        0
176
     1
 90
        0
176
     1
 62
     7
176
     1
 62
   257
176
     1
 90
        1
176
     1
 90
        1
176
     1
 40
1.0
176
     1
 90
        0
176
     1
 62
     7
176
     1
 40
1.0
176
     1
 90
        1
176
     1
 90
        6
176
     1
 90
        2
176
     1
 62
     7
176
     1
 90
        5
176
     1
 90
        0
176
     1
 90
        0
176
     1
290
     0
176
     1
 90
       13
176
     1
 40
0.0
176
     1
 90
        0
176
     1
290
     0
176
     1
290
     1
176
     1
290
     1
176
     1
290
     0
176
     1
290
     0
176
     1
290
     0
176
     1
290
     0
176
     1
290
     0
176
     1
290
     0
176
     1
 90
       50
176
     1
 40
0.0
176
     1
 40
1.0
176
     1
 90
        0
176
     1
 62
    18
420
        0
176
     1
 90
       50
176
     1
 90
        3
176
     1
 62
     5
420
      255
176
     1
290
     0
176
     1
 90
       50
176
     1
 90
       50
176
     1
 90
       50
176
     1
290
     0
176
     1
 90
       50
176
     1
 62
   256
176
     0
 40
1.0
176
     0
 90
        2
176
     1
  1
strokes_ogs.tif
176
     1
290
     0
176
     1
 40
1.0
176
     1
 40
1.0
176
     1
  0
VISUALSTYLE
  5
2E
102
{ACAD_REACTORS
330
2A
102
}
330
2A
100
AcDbVisualStyle
  2
GouraudWithEdges
 70
     3
177
     3
291
     1
 70
    58
 90
        2
176
     1
 90
        2
176
     1
 90
        1
176
     1
 90
        2
176
     1
 40
0.6
176
     1
 40
30.0
176
     1
 62
     7
420
 16777215
176
     1
 90
        1
176
     1
 90
        0
176
     1
 62
     7
176
     1
 62
   257
176
     1
 90
        1
176
     1
 90
        1
176
     1
 40
1.0
176
     1
 90
        0
176
     1
 62
   257
176
     1
 40
1.0
176
     1
 90
        1
176
     1
 90
        6
176
     1
 90
        2
176
     1
 62
     7
176
     1
 90
        5
176
     1
 90
        0
176
     1
 90
        0
176
     1
290
     0
176
     1
 90
       13
176
     1
 40
0.0
176
     1
 90
        0
176
     1
290
     0
176
     1
290
     1
176
     1
290
     1
176
     1
290
     0
176
     1
290
     0
176
     1
290
     0
176
     1
290
     0
176
     1
290
     0
176
     1
290
     0
176
     1
 90
       50
176
     1
 40
0.0
176
     1
 40
1.0
176
     1
 90
        0
176
     1
 62
    18
420
        0
176
     1
 90
       50
176
     1
 90
        3
176
     1
 62
     5
420
      255
176
     1
290
     0
176
     1
 90
       50
176
     1
 90
       50
176
     1
 90
       50
176
     1
290
     0
176
     1
 90
       50
176
     1
 62
   256
176
     0
 40
1.0
176
     0
 90
        2
176
     1
  1
strokes_ogs.tif
176
     1
290
     0
176
     1
 40
1.0
176
     1
 40
1.0
176
     1
  0
VISUALSTYLE
  5
31
102
{ACAD_REACTORS
330
2A
102
}
330
2A
100
AcDbVisualStyle
  2
Hidden
 70
     6
177
     3
291
     0
 70
    58
 90
        1
176
     1
 90
        2
176
     1
 90
        2
176
     1
 90
        0
176
     1
 40
0.6
176
     1
 40
30.0
176
     1
 62
     7
420
 16777215
176
     1
 90
        2
176
     1
 90
        2
176
     1
 62
     7
176
     1
 62
   257
176
     1
 90
        2
176
     1
 90
        1
176
     1
 40
40.0
176
     1
 90
        0
176
     1
 62
   257
176
     1
 40
1.0
176
     1
 90
        1
176
     1
 90
        6
176
     1
 90
        2
176
     1
 62
     7
176
     1
 90
        3
176
     1
 90
        0
176
     1
 90
        0
176
     1
290
     0
176
     1
 90
        1
176
     1
 40
0.0
176
     1
 90
        0
176
     1
290
     0
176
     1
290
     1
176
     1
290
     1
176
     1
290
     0
176
     1
290
     0
176
     1
290
     0
176
     1
290
     0
176
     1
290
     0
176
     1
290
     0
176
     1
 90
       50
176
     1
 40
0.0
176
     1
 40
1.0
176
     1
 90
        0
176
     1
 62
    18
420
        0
176
     1
 90
       50
176
     1
 90
        3
176
     1
 62
     5
420
      255
176
     1
290
     0
176
     1
 90
       50
176
     1
 90
       50
176
     1
 90
       50
176
     1
290
     0
176
     1
 90
       50
176
     1
 62
   256
176
     0
 40
1.0
176
     0
 90
        2
176
     1
  1
strokes_ogs.tif
176
     1
290
     0
176
     1
 40
1.0
176
     1
 40
1.0
176
     1
  0
VISUALSTYLE
  5
3B
102
{ACAD_REACTORS
330
2A
102
}
330
2A
100
AcDbVisualStyle
  2
JitterOff
 70
    20
177
     3
291
     1
 70
    58
 90
        2
176
     0
 90
        2
176
     0
 90
        0
176
     0
 90
        0
176
     0
 40
0.6
176
     0
 40
30.0
176
     0
 62
     7
420
 16777215
176
     0
 90
        1
176
     0
 90
        4
176
     0
 62
     7
176
     0
 62
   257
176
     0
 90
        1
176
     0
 90
        1
176
     0
 40
1.0
176
     0
 90
       10
176
     2
 62
     7
176
     0
 40
1.0
176
     0
 90
        1
176
     0
 90
        6
176
     0
 90
        2
176
     0
 62
     7
176
     0
 90
        5
176
     0
 90
        0
176
     0
 90
        0
176
     0
290
     0
176
     0
 90
        1
176
     0
 40
0.0
176
     0
 90
        0
176
     0
290
     0
176
     0
290
     1
176
     0
290
     1
176
     0
290
     0
176
     0
290
     0
176
     0
290
     0
176
     0
290
     0
176
     0
290
     0
176
     0
290
     0
176
     0
 90
       50
176
     0
 40
0.0
176
     0
 40
1.0
176
     0
 90
        0
176
     0
 62
    18
420
        0
176
     0
 90
       50
176
     0
 90
        3
176
     0
 62
     5
420
      255
176
     0
290
     0
176
     0
 90
       50
176
     0
 90
       50
176
     0
 90
       50
176
     0
290
     0
176
     0
 90
       50
176
     0
 62
   256
176
     0
 40
1.0
176
     0
 90
        2
176
     0
  1
strokes_ogs.tif
176
     0
290
     0
176
     0
 40
1.0
176
     0
 40
1.0
176
     0
  0
VISUALSTYLE
  5
38
102
{ACAD_REACTORS
330
2A
102
}
330
2A
100
AcDbVisualStyle
  2
Linepattern
 70
    14
177
     3
291
     1
 70
    58
 90
        2
176
     1
 90
        2
176
     1
 90
        0
176
     1
 90
        0
176
     1
 40
0.6
176
     1
 40
30.0
176
     1
 62
     7
420
 16777215
176
     1
 90
        1
176
     1
 90
        4
176
     1
 62
     7
176
     1
 62
   257
176
     1
 90
        7
176
     1
 90
        7
176
     1
 40
1.0
176
     1
 90
        8
176
     1
 62
     7
176
     1
 40
1.0
176
     1
 90
        1
176
     1
 90
        6
176
     1
 90
        2
176
     1
 62
     7
176
     1
 90
        5
176
     1
 90
        0
176
     1
 90
        0
176
     1
290
     0
176
     1
 90
        1
176
     1
 40
0.0
176
     1
 90
        0
176
     1
290
     0
176
     1
290
     1
176
     1
290
     1
176
     1
290
     0
176
     1
290
     0
176
     1
290
     0
176
     1
290
     0
176
     1
290
     0
176
     1
290
     0
176
     1
 90
       50
176
     1
 40
0.0
176
     1
 40
1.0
176
     1
 90
        0
176
     1
 62
    18
420
        0
176
     1
 90
       50
176
     1
 90
        3
176
     1
 62
     5
420
      255
176
     1
290
     0
176
     1
 90
       50
176
     1
 90
       50
176
     1
 90
       50
176
     1
290
     0
176
     1
 90
       50
176
     1
 62
   256
176
     0
 40
1.0
176
     0
 90
        2
176
     1
  1
strokes_ogs.tif
176
     1
290
     0
176
     1
 40
1.0
176
     1
 40
1.0
176
     1
  0
VISUALSTYLE
  5
3C
102
{ACAD_REACTORS
330
2A
102
}
330
2A
100
AcDbVisualStyle
  2
OverhangOff
 70
    21
177
     3
291
     1
 70
    58
 90
        2
176
     0
 90
        2
176
     0
 90
        0
176
     0
 90
        0
176
     0
 40
0.6
176
     0
 40
30.0
176
     0
 62
     7
420
 16777215
176
     0
 90
        1
176
     0
 90
        4
176
     0
 62
     7
176
     0
 62
   257
176
     0
 90
        1
176
     0
 90
        1
176
     0
 40
1.0
176
     0
 90
        9
176
     2
 62
     7
176
     0
 40
1.0
176
     0
 90
        1
176
     0
 90
        6
176
     0
 90
        2
176
     0
 62
     7
176
     0
 90
        5
176
     0
 90
        0
176
     0
 90
        0
176
     0
290
     0
176
     0
 90
        1
176
     0
 40
0.0
176
     0
 90
        0
176
     0
290
     0
176
     0
290
     1
176
     0
290
     1
176
     0
290
     0
176
     0
290
     0
176
     0
290
     0
176
     0
290
     0
176
     0
290
     0
176
     0
290
     0
176
     0
 90
       50
176
     0
 40
0.0
176
     0
 40
1.0
176
     0
 90
        0
176
     0
 62
    18
420
        0
176
     0
 90
       50
176
     0
 90
        3
176
     0
 62
     5
420
      255
176
     0
290
     0
176
     0
 90
       50
176
     0
 90
       50
176
     0
 90
       50
176
     0
290
     0
176
     0
 90
       50
176
     0
 62
   256
176
     0
 40
1.0
176
     0
 90
        2
176
     0
  1
strokes_ogs.tif
176
     0
290
     0
176
     0
 40
1.0
176
     0
 40
1.0
176
     0
  0
VISUALSTYLE
  5
33
102
{ACAD_REACTORS
330
2A
102
}
330
2A
100
AcDbVisualStyle
  2
Realistic
 70
     8
177
     3
291
     0
 70
    58
 90
        2
176
     1
 90
        3
176
     1
 90
        0
176
     1
 90
        2
176
     1
 40
0.6
176
     1
 40
30.0
176
     1
 62
     7
420
 16777215
176
     1
 90
        0
176
     1
 90
        0
176
     1
 62
     7
176
     1
 62
   257
176
     1
 90
        1
176
     1
 90
        1
176
     1
 40
1.0
176
     1
 90
        8
176
     1
 62
   257
176
     1
 40
1.0
176
     1
 90
        1
176
     1
 90
        6
176
     1
 90
        2
176
     1
 62
     7
176
     1
 90
        3
176
     1
 90
        0
176
     1
 90
        0
176
     1
290
     0
176
     1
 90
       13
176
     1
 40
0.0
176
     1
 90
        0
176
     1
290
     0
176
     1
290
     1
176
     1
290
     1
176
     1
290
     0
176
     1
290
     0
176
     1
290
     0
176
     1
290
     0
176
     1
290
     0
176
     1
290
     0
176
     1
 90
       50
176
     1
 40
0.0
176
     1
 40
1.0
176
     1
 90
        0
176
     1
 62
    18
420
        0
176
     1
 90
       50
176
     1
 90
        3
176
     1
 62
     5
420
      255
176
     1
290
     0
176
     1
 90
       50
176
     1
 90
       50
176
     1
 90
       50
176
     1
290
     0
176
     1
 90
       50
176
     1
 62
   256
176
     0
 40
1.0
176
     0
 90
        2
176
     1
  1
strokes_ogs.tif
176
     1
290
     0
176
     1
 40
1.0
176
     1
 40
1.0
176
     1
  0
VISUALSTYLE
  5
42
102
{ACAD_REACTORS
330
2A
102
}
330
2A
100
AcDbVisualStyle
  2
Shaded
 70
    27
177
     3
291
     0
 70
    58
 90
        2
176
     1
 90
        2
176
     1
 90
        1
176
     1
 90
        2
176
     1
 40
0.6
176
     1
 40
30.0
176
     1
 62
     7
420
 16777215
176
     1
 90
        0
176
     1
 90
        4
176
     1
 62
     7
176
     1
 62
   257
176
     1
 90
        1
176
     1
 90
        1
176
     1
 40
1.0
176
     1
 90
        8
176
     1
 62
   257
176
     1
 40
1.0
176
     1
 90
        1
176
     1
 90
        6
176
     1
 90
        2
176
     1
 62
     8
420
  7895160
176
     1
 90
        3
176
     1
 90
        0
176
     1
 90
        0
176
     1
290
     0
176
     1
 90
        5
176
     1
 40
0.0
176
     1
 90
        0
176
     1
290
     0
176
     1
290
     1
176
     1
290
     1
176
     1
290
     0
176
     1
290
     0
176
     1
290
     0
176
     1
290
     0
176
     1
290
     0
176
     1
290
     0
176
     1
 90
       50
176
     1
 40
0.0
176
     1
 40
1.0
176
     1
 90
        0
176
     1
 62
    18
420
        0
176
     1
 90
       50
176
     1
 90
        3
176
     1
 62
     5
420
      255
176
     1
290
     0
176
     1
 90
       50
176
     1
 90
       50
176
     1
 90
       50
176
     1
290
     0
176
     1
 90
       50
176
     1
 62
   256
176
     0
 40
1.0
176
     0
 90
        2
176
     1
  1
strokes_ogs.tif
176
     1
290
     0
176
     1
 40
1.0
176
     1
 40
1.0
176
     1
  0
VISUALSTYLE
  5
41
102
{ACAD_REACTORS
330
2A
102
}
330
2A
100
AcDbVisualStyle
  2
Shaded with edges
 70
    26
177
     3
291
     0
 70
    58
 90
        2
176
     1
 90
        2
176
     1
 90
        1
176
     1
 90
        2
176
     1
 40
0.6
176
     1
 40
30.0
176
     1
 62
     7
420
 16777215
176
     1
 90
        1
176
     1
 90
       10
176
     1
 62
     7
176
     1
 62
   257
176
     1
 90
        2
176
     1
 90
        1
176
     1
 40
1.0
176
     1
 90
        8
176
     1
 62
   257
176
     1
 40
1.0
176
     1
 90
        1
176
     1
 90
        6
176
     1
 90
        2
176
     1
 62
     7
176
     1
 90
        3
176
     1
 90
        0
176
     1
 90
        0
176
     1
290
     0
176
     1
 90
        5
176
     1
 40
0.0
176
     1
 90
        0
176
     1
290
     0
176
     1
290
     1
176
     1
290
     1
176
     1
290
     0
176
     1
290
     0
176
     1
290
     0
176
     1
290
     0
176
     1
290
     0
176
     1
290
     0
176
     1
 90
       50
176
     1
 40
0.0
176
     1
 40
1.0
176
     1
 90
        0
176
     1
 62
    18
420
        0
176
     1
 90
       50
176
     1
 90
        3
176
     1
 62
     5
420
      255
176
     1
290
     0
176
     1
 90
       50
176
     1
 90
       50
176
     1
 90
       50
176
     1
290
     0
176
     1
 90
       50
176
     1
 62
   256
176
     0
 40
1.0
176
     0
 90
        2
176
     1
  1
strokes_ogs.tif
176
     1
290
     0
176
     1
 40
1.0
176
     1
 40
1.0
176
     1
  0
VISUALSTYLE
  5
3E
102
{ACAD_REACTORS
330
2A
102
}
330
2A
100
AcDbVisualStyle
  2
Shades of Gray
 70
    23
177
     3
291
     0
 70
    58
 90
        2
176
     1
 90
        2
176
     1
 90
        3
176
     1
 90
        0
176
     1
 40
0.6
176
     1
 40
30.0
176
     1
 62
     7
420
 16777215
176
     1
 90
        2
176
     1
 90
        2
176
     1
 62
     7
176
     1
 62
     7
176
     1
 90
        1
176
     1
 90
        1
176
     1
 40
40.0
176
     1
 90
        8
176
     1
 62
     7
176
     1
 40
1.0
176
     1
 90
        1
176
     1
 90
        6
176
     1
 90
        2
176
     1
 62
     7
176
     1
 90
        3
176
     1
 90
        0
176
     1
 90
        0
176
     1
290
     0
176
     1
 90
        1
176
     1
 40
0.0
176
     1
 90
        0
176
     1
290
     0
176
     1
290
     1
176
     1
290
     1
176
     1
290
     0
176
     1
290
     0
176
     1
290
     0
176
     1
290
     0
176
     1
290
     0
176
     1
290
     0
176
     1
 90
       50
176
     1
 40
0.0
176
     1
 40
1.0
176
     1
 90
        0
176
     1
 62
    18
420
        0
176
     1
 90
       50
176
     1
 90
        3
176
     1
 62
     5
420
      255
176
     1
290
     0
176
     1
 90
       50
176
     1
 90
       50
176
     1
 90
       50
176
     1
290
     0
176
     1
 90
       50
176
     1
 62
   256
176
     0
 40
1.0
176
     0
 90
        2
176
     1
  1
strokes_ogs.tif
176
     1
290
     0
176
     1
 40
1.0
176
     1
 40
1.0
176
     1
  0
VISUALSTYLE
  5
3F
102
{ACAD_REACTORS
330
2A
102
}
330
2A
100
AcDbVisualStyle
  2
Sketchy
 70
    24
177
     3
291
     0
 70
    58
 90
        1
176
     1
 90
        2
176
     1
 90
        2
176
     1
 90
        0
176
     1
 40
0.6
176
     1
 40
30.0
176
     1
 62
     7
420
 16777215
176
     1
 90
        2
176
     1
 90
        2
176
     1
 62
     7
176
     1
 62
     7
176
     1
 90
        1
176
     1
 90
        1
176
     1
 40
40.0
176
     1
 90
       11
176
     1
 62
     7
176
     1
 40
1.0
176
     1
 90
        1
176
     1
 90
        6
176
     1
 90
        2
176
     1
 62
     7
176
     1
 90
        6
176
     1
 90
        0
176
     1
 90
        0
176
     1
290
     0
176
     1
 90
        1
176
     1
 40
0.0
176
     1
 90
        0
176
     1
290
     0
176
     1
290
     1
176
     1
290
     1
176
     1
290
     0
176
     1
290
     0
176
     1
290
     0
176
     1
290
     0
176
     1
290
     0
176
     1
290
     0
176
     1
 90
       50
176
     1
 40
0.0
176
     1
 40
1.0
176
     1
 90
        0
176
     1
 62
    18
420
        0
176
     1
 90
       50
176
     1
 90
        3
176
     1
 62
     5
420
      255
176
     1
290
     0
176
     1
 90
       50
176
     1
 90
       50
176
     1
 90
       50
176
     1
290
     0
176
     1
 90
       50
176
     1
 62
   256
176
     0
 40
1.0
176
     0
 90
        2
176
     1
  1
strokes_ogs.tif
176
     1
290
     0
176
     1
 40
1.0
176
     1
 40
1.0
176
     1
  0
VISUALSTYLE
  5
37
102
{ACAD_REACTORS
330
2A
102
}
330
2A
100
AcDbVisualStyle
  2
Thicken
 70
    13
177
     3
291
     1
 70
    58
 90
        2
176
     1
 90
        2
176
     1
 90
        0
176
     1
 90
        0
176
     1
 40
0.6
176
     1
 40
30.0
176
     1
 62
     7
420
 16777215
176
     1
 90
        1
176
     1
 90
        4
176
     1
 62
     7
176
     1
 62
   257
176
     1
 90
        1
176
     1
 90
        1
176
     1
 40
1.0
176
     1
 90
       12
176
     1
 62
     7
176
     1
 40
1.0
176
     1
 90
        1
176
     1
 90
        6
176
     1
 90
        2
176
     1
 62
     7
176
     1
 90
        5
176
     1
 90
        0
176
     1
 90
        0
176
     1
290
     0
176
     1
 90
        1
176
     1
 40
0.0
176
     1
 90
        0
176
     1
290
     0
176
     1
290
     1
176
     1
290
     1
176
     1
290
     0
176
     1
290
     0
176
     1
290
     0
176
     1
290
     0
176
     1
290
     0
176
     1
290
     0
176
     1
 90
       50
176
     1
 40
0.0
176
     1
 40
1.0
176
     1
 90
        0
176
     1
 62
    18
420
        0
176
     1
 90
       50
176
     1
 90
        3
176
     1
 62
     5
420
      255
176
     1
290
     0
176
     1
 90
       50
176
     1
 90
       50
176
     1
 90
       50
176
     1
290
     0
176
     1
 90
       50
176
     1
 62
   256
176
     0
 40
1.0
176
     0
 90
        2
176
     1
  1
strokes_ogs.tif
176
     1
290
     0
176
     1
 40
1.0
176
     1
 40
1.0
176
     1
  0
VISUALSTYLE
  5
30
102
{ACAD_REACTORS
330
2A
102
}
330
2A
100
AcDbVisualStyle
  2
Wireframe
 70
     5
177
     3
291
     0
 70
    58
 90
        0
176
     1
 90
        2
176
     1
 90
        0
176
     1
 90
        0
176
     1
 40
0.6
176
     1
 40
30.0
176
     1
 62
     7
420
 16777215
176
     1
 90
        1
176
     1
 90
        4
176
     1
 62
     7
176
     1
 62
   257
176
     1
 90
        1
176
     1
 90
        1
176
     1
 40
1.0
176
     1
 90
        0
176
     1
 62
   257
176
     1
 40
1.0
176
     1
 90
        1
176
     1
 90
        6
176
     1
 90
        2
176
     1
 62
     7
176
     1
 90
        3
176
     1
 90
        0
176
     1
 90
        0
176
     1
290
     0
176
     1
 90
        1
176
     1
 40
0.0
176
     1
 90
        0
176
     1
290
     0
176
     1
290
     1
176
     1
290
     1
176
     1
290
     0
176
     1
290
     0
176
     1
290
     0
176
     1
290
     0
176
     1
290
     0
176
     1
290
     0
176
     1
 90
       50
176
     1
 40
0.0
176
     1
 40
1.0
176
     1
 90
        0
176
     1
 62
    18
420
        0
176
     1
 90
       50
176
     1
 90
        3
176
     1
 62
     5
420
      255
176
     1
290
     0
176
     1
 90
       50
176
     1
 90
       50
176
     1
 90
       50
176
     1
290
     0
176
     1
 90
       50
176
     1
 62
   256
176
     0
 40
1.0
176
     0
 90
        2
176
     1
  1
strokes_ogs.tif
176
     1
290
     0
176
     1
 40
1.0
176
     1
 40
1.0
176
     1
  0
VISUALSTYLE
  5
40
102
{ACAD_REACTORS
330
2A
102
}
330
2A
100
AcDbVisualStyle
  2
X-Ray
 70
    25
177
     3
291
     0
 70
    58
 90
        2
176
     1
 90
        2
176
     1
 90
        1
176
     1
 90
        1
176
     1
 40
0.5
176
     1
 40
30.0
176
     1
 62
     7
420
 16777215
176
     1
 90
        1
176
     1
 90
        0
176
     1
 62
     7
176
     1
 62
   257
176
     1
 90
        1
176
     1
 90
        1
176
     1
 40
1.0
176
     1
 90
        8
176
     1
 62
     7
176
     1
 40
1.0
176
     1
 90
        1
176
     1
 90
        6
176
     1
 90
        2
176
     1
 62
     7
176
     1
 90
        3
176
     1
 90
        0
176
     1
 90
        0
176
     1
290
     0
176
     1
 90
       13
176
     1
 40
0.0
176
     1
 90
        0
176
     1
290
     0
176
     1
290
     1
176
     1
290
     1
176
     1
290
     0
176
     1
290
     0
176
     1
290
     0
176
     1
290
     0
176
     1
290
     0
176
     1
290
     0
176
     1
 90
       50
176
     1
 40
0.0
176
     1
 40
1.0
176
     1
 90
        0
176
     1
 62
    18
420
        0
176
     1
 90
       50
176
     1
 90
        3
176
     1
 62
     5
420
      255
176
     1
290
     0
176
     1
 90
       50
176
     1
 90
       50
176
     1
 90
       50
176
     1
290
     0
176
     1
 90
       50
176
     1
 62
   256
176
     0
 40
1.0
176
     0
 90
        2
176
     1
  1
strokes_ogs.tif
176
     1
290
     0
176
     1
 40
1.0
176
     1
 40
1.0
176
     1
  0
DICTIONARYVAR
  5
87
102
{ACAD_REACTORS
330
86
102
}
330
86
100
DictionaryVariables
280
     0
  1
1:1
  0
DICTIONARYVAR
  5
8C
102
{ACAD_REACTORS
330
86
102
}
330
86
100
DictionaryVariables
280
     0
  1
Standard
  0
DICTIONARYVAR
  5
8B
102
{ACAD_REACTORS
330
86
102
}
330
86
100
DictionaryVariables
280
     0
  1
Standard
  0
DICTIONARY
  5
88
330
5A
100
AcDbDictionary
280
     1
281
     1
  3
ACAD_ROUNDTRIP_2008_TABLESTYLE_CELLSTYLEMAP
360
89
  0
CELLSTYLEMAP
  5
89
102
{ACAD_REACTORS
330
88
102
}
330
88
100
AcDbCellStyleMap
 90
        3
300
CELLSTYLE
  1
TABLEFORMAT_BEGIN
 90
        5
170
     1
 91
        0
 92
    32768
 62
   257
 93
        1
300
CONTENTFORMAT
  1
CONTENTFORMAT_BEGIN
 90
        0
 91
        0
 92
        4
 93
        0
300

 40
0.0
140
1.0
 94
        5
 62
     0
340
11
144
0.25
309
CONTENTFORMAT_END
171
     1
301
MARGIN
  1
CELLMARGIN_BEGIN
 40
0.06
 40
0.06
 40
0.06
 40
0.06
 40
0.06
 40
0.06
309
CELLMARGIN_END
 94
        6
 95
        1
302
GRIDFORMAT
  1
GRIDFORMAT_BEGIN
 90
        0
 91
        1
 62
     0
 92
       -2
340
14
 93
        0
 40
0.045
309
GRIDFORMAT_END
 95
        2
302
GRIDFORMAT
  1
GRIDFORMAT_BEGIN
 90
        0
 91
        1
 62
     0
 92
       -2
340
14
 93
        0
 40
0.045
309
GRIDFORMAT_END
 95
        4
302
GRIDFORMAT
  1
GRIDFORMAT_BEGIN
 90
        0
 91
        1
 62
     0
 92
       -2
340
14
 93
        0
 40
0.045
309
GRIDFORMAT_END
 95
        8
302
GRIDFORMAT
  1
GRIDFORMAT_BEGIN
 90
        0
 91
        1
 62
     0
 92
       -2
340
14
 93
        0
 40
0.045
309
GRIDFORMAT_END
 95
       16
302
GRIDFORMAT
  1
GRIDFORMAT_BEGIN
 90
        0
 91
        1
 62
     0
 92
       -2
340
14
 93
        0
 40
0.045
309
GRIDFORMAT_END
 95
       32
302
GRIDFORMAT
  1
GRIDFORMAT_BEGIN
 90
        0
 91
        1
 62
     0
 92
       -2
340
14
 93
        0
 40
0.045
309
GRIDFORMAT_END
309
TABLEFORMAT_END
  1
CELLSTYLE_BEGIN
 90
        1
 91
        1
300
_TITLE
309
CELLSTYLE_END
300
CELLSTYLE
  1
TABLEFORMAT_BEGIN
 90
        5
170
     1
 91
        0
 92
        0
 62
   257
 93
        1
300
CONTENTFORMAT
  1
CONTENTFORMAT_BEGIN
 90
        0
 91
        0
 92
        4
 93
        0
300

 40
0.0
140
1.0
 94
        5
 62
     0
340
11
144
0.18
309
CONTENTFORMAT_END
171
     1
301
MARGIN
  1
CELLMARGIN_BEGIN
 40
0.06
 40
0.06
 40
0.06
 40
0.06
 40
0.06
 40
0.06
309
CELLMARGIN_END
 94
        6
 95
        1
302
GRIDFORMAT
  1
GRIDFORMAT_BEGIN
 90
        0
 91
        1
 62
     0
 92
       -2
340
14
 93
        0
 40
0.045
309
GRIDFORMAT_END
 95
        2
302
GRIDFORMAT
  1
GRIDFORMAT_BEGIN
 90
        0
 91
        1
 62
     0
 92
       -2
340
14
 93
        0
 40
0.045
309
GRIDFORMAT_END
 95
        4
302
GRIDFORMAT
  1
GRIDFORMAT_BEGIN
 90
        0
 91
        1
 62
     0
 92
       -2
340
14
 93
        0
 40
0.045
309
GRIDFORMAT_END
 95
        8
302
GRIDFORMAT
  1
GRIDFORMAT_BEGIN
 90
        0
 91
        1
 62
     0
 92
       -2
340
14
 93
        0
 40
0.045
309
GRIDFORMAT_END
 95
       16
302
GRIDFORMAT
  1
GRIDFORMAT_BEGIN
 90
        0
 91
        1
 62
     0
 92
       -2
340
14
 93
        0
 40
0.045
309
GRIDFORMAT_END
 95
       32
302
GRIDFORMAT
  1
GRIDFORMAT_BEGIN
 90
        0
 91
        1
 62
     0
 92
       -2
340
14
 93
        0
 40
0.045
309
GRIDFORMAT_END
309
TABLEFORMAT_END
  1
CELLSTYLE_BEGIN
 90
        2
 91
        1
300
_HEADER
309
CELLSTYLE_END
300
CELLSTYLE
  1
TABLEFORMAT_BEGIN
 90
        5
170
     1
 91
        0
 92
        0
 62
   257
 93
        1
300
CONTENTFORMAT
  1
CONTENTFORMAT_BEGIN
 90
        0
 91
        0
 92
        4
 93
        0
300

 40
0.0
140
1.0
 94
        2
 62
     0
340
11
144
0.18
309
CONTENTFORMAT_END
171
     1
301
MARGIN
  1
CELLMARGIN_BEGIN
 40
0.06
 40
0.06
 40
0.06
 40
0.06
 40
0.06
 40
0.06
309
CELLMARGIN_END
 94
        6
 95
        1
302
GRIDFORMAT
  1
GRIDFORMAT_BEGIN
 90
        0
 91
        1
 62
     0
 92
       -2
340
14
 93
        0
 40
0.045
309
GRIDFORMAT_END
 95
        2
302
GRIDFORMAT
  1
GRIDFORMAT_BEGIN
 90
        0
 91
        1
 62
     0
 92
       -2
340
14
 93
        0
 40
0.045
309
GRIDFORMAT_END
 95
        4
302
GRIDFORMAT
  1
GRIDFORMAT_BEGIN
 90
        0
 91
        1
 62
     0
 92
       -2
340
14
 93
        0
 40
0.045
309
GRIDFORMAT_END
 95
        8
302
GRIDFORMAT
  1
GRIDFORMAT_BEGIN
 90
        0
 91
        1
 62
     0
 92
       -2
340
14
 93
        0
 40
0.045
309
GRIDFORMAT_END
 95
       16
302
GRIDFORMAT
  1
GRIDFORMAT_BEGIN
 90
        0
 91
        1
 62
     0
 92
       -2
340
14
 93
        0
 40
0.045
309
GRIDFORMAT_END
 95
       32
302
GRIDFORMAT
  1
GRIDFORMAT_BEGIN
 90
        0
 91
        1
 62
     0
 92
       -2
340
14
 93
        0
 40
0.045
309
GRIDFORMAT_END
309
TABLEFORMAT_END
  1
CELLSTYLE_BEGIN
 90
        3
 91
        2
300
_DATA
309
CELLSTYLE_END
  0
ENDSEC
  0
EOF
