  0
SECTION
  2
HEADER
  9
$ACADVER
  1
AC1027
  9
$ACADMAINTVER
 70
   105
  9
$DWGCODEPAGE
  3
ANSI_1252
  9
$LASTSAVEDBY
  1
Office Desk
  9
$REQUIREDVERSIONS
160
                 0
  9
$INSBASE
 10
0.0
 20
0.0
 30
0.0
  9
$EXTMIN
 10
191.1858
 20
-153.0176
 30
0.0
  9
$EXTMAX
 10
1150.6015
 20
168.2402
 30
0.0
  9
$LIMMIN
 10
0.0
 20
0.0
  9
$LIMMAX
 10
12.0
 20
9.0
  9
$ORTHOMODE
 70
     0
  9
$REGENMODE
 70
     1
  9
$FILLMODE
 70
     1
  9
$QTEXTMODE
 70
     0
  9
$MIRRTEXT
 70
     1
  9
$LTSCALE
 40
1.0
  9
$ATTMODE
 70
     1
  9
$TEXTSIZE
 40
0.2
  9
$TRACEWID
 40
0.05
  9
$TEXTSTYLE
  7
Standard
  9
$CLAYER
  8
0
  9
$CELTYPE
  6
ByLayer
  9
$CECOLOR
 62
   256
  9
$CELTSCALE
 40
1.0
  9
$DISPSILH
 70
     0
  9
$DIMSCALE
 40
1.0
  9
$DIMASZ
 40
0.18
  9
$DIMEXO
 40
0.0625
  9
$DIMDLI
 40
0.38
  9
$DIMRND
 40
0.0
  9
$DIMDLE
 40
0.0
  9
$DIMEXE
 40
0.18
  9
$DIMTP
 40
0.0
  9
$DIMTM
 40
0.0
  9
$DIMTXT
 40
0.18
  9
$DIMCEN
 40
0.09
  9
$DIMTSZ
 40
0.0
  9
$DIMTOL
 70
     0
  9
$DIMLIM
 70
     0
  9
$DIMTIH
 70
     1
  9
$DIMTOH
 70
     1
  9
$DIMSE1
 70
     0
  9
$DIMSE2
 70
     0
  9
$DIMTAD
 70
     0
  9
$DIMZIN
 70
     0
  9
$DIMBLK
  1

  9
$DIMASO
 70
     1
  9
$DIMSHO
 70
     1
  9
$DIMPOST
  1

  9
$DIMAPOST
  1

  9
$DIMALT
 70
     0
  9
$DIMALTD
 70
     2
  9
$DIMALTF
 40
25.4
  9
$DIMLFAC
 40
1.0
  9
$DIMTOFL
 70
     0
  9
$DIMTVP
 40
0.0
  9
$DIMTIX
 70
     0
  9
$DIMSOXD
 70
     0
  9
$DIMSAH
 70
     0
  9
$DIMBLK1
  1

  9
$DIMBLK2
  1

  9
$DIMSTYLE
  2
Standard
  9
$DIMCLRD
 70
     0
  9
$DIMCLRE
 70
     0
  9
$DIMCLRT
 70
     0
  9
$DIMTFAC
 40
1.0
  9
$DIMGAP
 40
0.09
  9
$DIMJUST
 70
     0
  9
$DIMSD1
 70
     0
  9
$DIMSD2
 70
     0
  9
$DIMTOLJ
 70
     1
  9
$DIMTZIN
 70
     0
  9
$DIMALTZ
 70
     0
  9
$DIMALTTZ
 70
     0
  9
$DIMUPT
 70
     0
  9
$DIMDEC
 70
     4
  9
$DIMTDEC
 70
     4
  9
$DIMALTU
 70
     2
  9
$DIMALTTD
 70
     2
  9
$DIMTXSTY
  7
Standard
  9
$DIMAUNIT
 70
     0
  9
$DIMADEC
 70
     0
  9
$DIMALTRND
 40
0.0
  9
$DIMAZIN
 70
     0
  9
$DIMDSEP
 70
    46
  9
$DIMATFIT
 70
     3
  9
$DIMFRAC
 70
     0
  9
$DIMLDRBLK
  1

  9
$DIMLUNIT
 70
     2
  9
$DIMLWD
 70
    -2
  9
$DIMLWE
 70
    -2
  9
$DIMTMOVE
 70
     0
  9
$DIMFXL
 40
1.0
  9
$DIMFXLON
 70
     0
  9
$DIMJOGANG
 40
0.7853981633974483
  9
$DIMTFILL
 70
     0
  9
$DIMTFILLCLR
 70
     0
  9
$DIMARCSYM
 70
     0
  9
$DIMLTYPE
  6

  9
$DIMLTEX1
  6

  9
$DIMLTEX2
  6

  9
$DIMTXTDIRECTION
 70
     0
  9
$LUNITS
 70
     2
  9
$LUPREC
 70
     4
  9
$SKETCHINC
 40
0.1
  9
$FILLETRAD
 40
0.0
  9
$AUNITS
 70
     0
  9
$AUPREC
 70
     0
  9
$MENU
  1
.
  9
$ELEVATION
 40
0.0
  9
$PELEVATION
 40
0.0
  9
$THICKNESS
 40
0.0
  9
$LIMCHECK
 70
     0
  9
$CHAMFERA
 40
0.0
  9
$CHAMFERB
 40
0.0
  9
$CHAMFERC
 40
0.0
  9
$CHAMFERD
 40
0.0
  9
$SKPOLY
 70
     0
  9
$TDCREATE
 40
2461012.659623669
  9
$TDUCREATE
 40
2461012.430457003
  9
$TDUPDATE
 40
2461012.659623669
  9
$TDUUPDATE
 40
2461012.430457003
  9
$TDINDWG
 40
0.0000000116
  9
$TDUSRTIMER
 40
0.0000000116
  9
$USRTIMER
 70
     1
  9
$ANGBASE
 50
0.0
  9
$ANGDIR
 70
     0
  9
$PDMODE
 70
     0
  9
$PDSIZE
 40
0.0
  9
$PLINEWID
 40
0.0
  9
$SPLFRAME
 70
     0
  9
$SPLINETYPE
 70
     6
  9
$SPLINESEGS
 70
     8
  9
$HANDSEED
  5
8E
  9
$SURFTAB1
 70
     6
  9
$SURFTAB2
 70
     6
  9
$SURFTYPE
 70
     6
  9
$SURFU
 70
     6
  9
$SURFV
 70
     6
  9
$UCSBASE
  2

  9
$UCSNAME
  2

  9
$UCSORG
 10
0.0
 20
0.0
 30
0.0
  9
$UCSXDIR
 10
1.0
 20
0.0
 30
0.0
  9
$UCSYDIR
 10
0.0
 20
1.0
 30
0.0
  9
$UCSORTHOREF
  2

  9
$UCSORTHOVIEW
 70
     0
  9
$UCSORGTOP
 10
0.0
 20
0.0
 30
0.0
  9
$UCSORGBOTTOM
 10
0.0
 20
0.0
 30
0.0
  9
$UCSORGLEFT
 10
0.0
 20
0.0
 30
0.0
  9
$UCSORGRIGHT
 10
0.0
 20
0.0
 30
0.0
  9
$UCSORGFRONT
 10
0.0
 20
0.0
 30
0.0
  9
$UCSORGBACK
 10
0.0
 20
0.0
 30
0.0
  9
$PUCSBASE
  2

  9
$PUCSNAME
  2

  9
$PUCSORG
 10
0.0
 20
0.0
 30
0.0
  9
$PUCSXDIR
 10
1.0
 20
0.0
 30
0.0
  9
$PUCSYDIR
 10
0.0
 20
1.0
 30
0.0
  9
$PUCSORTHOREF
  2

  9
$PUCSORTHOVIEW
 70
     0
  9
$PUCSORGTOP
 10
0.0
 20
0.0
 30
0.0
  9
$PUCSORGBOTTOM
 10
0.0
 20
0.0
 30
0.0
  9
$PUCSORGLEFT
 10
0.0
 20
0.0
 30
0.0
  9
$PUCSORGRIGHT
 10
0.0
 20
0.0
 30
0.0
  9
$PUCSORGFRONT
 10
0.0
 20
0.0
 30
0.0
  9
$PUCSORGBACK
 10
0.0
 20
0.0
 30
0.0
  9
$USERI1
 70
     0
  9
$USERI2
 70
     0
  9
$USERI3
 70
     0
  9
$USERI4
 70
     0
  9
$USERI5
 70
     0
  9
$USERR1
 40
0.0
  9
$USERR2
 40
0.0
  9
$USERR3
 40
0.0
  9
$USERR4
 40
0.0
  9
$USERR5
 40
0.0
  9
$WORLDVIEW
 70
     1
  9
$SHADEDGE
 70
     3
  9
$SHADEDIF
 70
    70
  9
$TILEMODE
 70
     1
  9
$MAXACTVP
 70
    64
  9
$PINSBASE
 10
0.0
 20
0.0
 30
0.0
  9
$PLIMCHECK
 70
     0
  9
$PEXTMIN
 10
1.000000000000000E+20
 20
1.000000000000000E+20
 30
1.000000000000000E+20
  9
$PEXTMAX
 10
-1.000000000000000E+20
 20
-1.000000000000000E+20
 30
-1.000000000000000E+20
  9
$PLIMMIN
 10
0.0
 20
0.0
  9
$PLIMMAX
 10
12.0
 20
9.0
  9
$UNITMODE
 70
     0
  9
$VISRETAIN
 70
     1
  9
$PLINEGEN
 70
     0
  9
$PSLTSCALE
 70
     1
  9
$TREEDEPTH
 70
  3020
  9
$CMLSTYLE
  2
Standard
  9
$CMLJUST
 70
     0
  9
$CMLSCALE
 40
1.0
  9
$PROXYGRAPHICS
 70
     1
  9
$MEASUREMENT
 70
     0
  9
$CELWEIGHT
370
    -1
  9
$ENDCAPS
280
     0
  9
$JOINSTYLE
280
     0
  9
$LWDISPLAY
290
     0
  9
$INSUNITS
 70
     4
  9
$HYPERLINKBASE
  1

  9
$STYLESHEET
  1

  9
$XEDIT
290
     1
  9
$CEPSNTYPE
380
     0
  9
$PSTYLEMODE
290
     1
  9
$FINGERPRINTGUID
  2
{a0cb502f-6cc1-4082-a603-974bf1e02882}
  9
$VERSIONGUID
  2
{FAEB1C32-E019-11D5-929B-00C0DF256EC4}
  9
$EXTNAMES
290
     1
  9
$PSVPSCALE
 40
0.0
  9
$OLESTARTUP
290
     0
  9
$SORTENTS
280
   127
  9
$INDEXCTL
280
     0
  9
$HIDETEXT
280
     1
  9
$XCLIPFRAME
280
     2
  9
$HALOGAP
280
     0
  9
$OBSCOLOR
 70
   257
  9
$OBSLTYPE
280
     0
  9
$INTERSECTIONDISPLAY
280
     0
  9
$INTERSECTIONCOLOR
 70
   257
  9
$DIMASSOC
280
     2
  9
$PROJECTNAME
  1

  9
$CAMERADISPLAY
290
     0
  9
$LENSLENGTH
 40
50.0
  9
$CAMERAHEIGHT
 40
0.0
  9
$STEPSPERSEC
 40
2.0
  9
$STEPSIZE
 40
6.0
  9
$3DDWFPREC
 40
2.0
  9
$PSOLWIDTH
 40
0.25
  9
$PSOLHEIGHT
 40
4.0
  9
$LOFTANG1
 40
1.570796326794897
  9
$LOFTANG2
 40
1.570796326794897
  9
$LOFTMAG1
 40
0.0
  9
$LOFTMAG2
 40
0.0
  9
$LOFTPARAM
 70
     7
  9
$LOFTNORMALS
280
     1
  9
$LATITUDE
 40
37.795
  9
$LONGITUDE
 40
-122.394
  9
$NORTHDIRECTION
 40
0.0
  9
$TIMEZONE
 70
 -8000
  9
$LIGHTGLYPHDISPLAY
280
     1
  9
$TILEMODELIGHTSYNCH
280
     1
  9
$CMATERIAL
347
44
  9
$SOLIDHIST
280
     0
  9
$SHOWHIST
280
     1
  9
$DWFFRAME
280
     2
  9
$DGNFRAME
280
     2
  9
$REALWORLDSCALE
290
     1
  9
$INTERFERECOLOR
 62
   256
  9
$CSHADOW
280
     0
  9
$SHADOWPLANELOCATION
 40
0.0
  0
ENDSEC
  0
SECTION
  2
CLASSES
  0
CLASS
  1
ACDBDICTIONARYWDFLT
  2
AcDbDictionaryWithDefault
  3
ObjectDBX Classes
 90
        0
 91
        3
280
     0
281
     0
  0
CLASS
  1
VISUALSTYLE
  2
AcDbVisualStyle
  3
ObjectDBX Classes
 90
     4095
 91
        3
280
     0
281
     0
  0
CLASS
  1
MATERIAL
  2
AcDbMaterial
  3
ObjectDBX Classes
 90
     1153
 91
        3
280
     0
281
     0
  0
CLASS
  1
SCALE
  2
AcDbScale
  3
ObjectDBX Classes
 90
     1153
 91
        3
280
     0
281
     0
  0
CLASS
  1
TABLESTYLE
  2
AcDbTableStyle
  3
ObjectDBX Classes
 90
     4095
 91
        3
280
     0
281
     0
  0
CLASS
  1
MLEADERSTYLE
  2
AcDbMLeaderStyle
  3
ACDB_MLEADERSTYLE_CLASS
 90
     4095
 91
        3
280
     0
281
     0
  0
CLASS
  1
SUN
  2
AcDbSun
  3
SCENEOE
 90
     1153
 91
        3
280
     0
281
     0
  0
CLASS
  1
DICTIONARYVAR
  2
AcDbDictionaryVar
  3
ObjectDBX Classes
 90
        0
 91
        3
280
     0
281
     0
  0
CLASS
  1
CELLSTYLEMAP
  2
AcDbCellStyleMap
  3
ObjectDBX Classes
 90
     1152
 91
        3
280
     0
281
     0
  0
ENDSEC
  0
SECTION
  2
TABLES
  0
TABLE
  2
VPORT
  5
8
330
0
100
AcDbSymbolTable
 70
     1
  0
VPORT
  5
29
330
8
100
AcDbSymbolTableRecord
100
AcDbViewportTableRecord
  2
*Active
 70
     0
 10
0.0
 20
0.0
 11
1.0
 21
1.0
 12
10.42990654205607
 22
4.5
 13
0.0
 23
0.0
 14
0.5
 24
0.5
 15
0.5
 25
0.5
 16
0.0
 26
0.0
 36
1.0
 17
0.0
 27
0.0
 37
0.0
 40
9.0
 41
1.972972972850329
 42
50.0
 43
0.0
 44
0.0
 50
0.0
 51
0.0
 71
     0
 72
   100
 73
     1
 74
     3
 75
     0
 76
     0
 77
     0
 78
     0
281
     0
 65
     1
110
0.0
120
0.0
130
0.0
111
1.0
121
0.0
131
0.0
112
0.0
122
1.0
132
0.0
 79
     0
146
0.0
348
2F
 60
     3
 61
     5
292
     1
282
     1
141
0.0
142
0.0
 63
   250
361
5D
  0
ENDTAB
  0
TABLE
  2
LTYPE
  5
5
330
0
100
AcDbSymbolTable
 70
     1
  0
LTYPE
  5
14
330
5
100
AcDbSymbolTableRecord
100
AcDbLinetypeTableRecord
  2
ByBlock
 70
     0
  3

 72
    65
 73
     0
 40
0.0
  0
LTYPE
  5
15
330
5
100
AcDbSymbolTableRecord
100
AcDbLinetypeTableRecord
  2
ByLayer
 70
     0
  3

 72
    65
 73
     0
 40
0.0
  0
LTYPE
  5
16
330
5
100
AcDbSymbolTableRecord
100
AcDbLinetypeTableRecord
  2
Continuous
 70
     0
  3
Solid line
 72
    65
 73
     0
 40
0.0
  0
ENDTAB
  0
TABLE
  2
LAYER
  5
2
330
0
100
AcDbSymbolTable
 70
     2
  0
LAYER
  5
10
330
2
100
AcDbSymbolTableRecord
100
AcDbLayerTableRecord
  2
0
 70
     0
 62
     7
  6
Continuous
370
    -3
390
F
347
46
348
0
  0
LAYER
  5
5F
330
2
100
AcDbSymbolTableRecord
100
AcDbLayerTableRecord
  2
Layer 1
 70
     0
 62
     7
  6
Continuous
370
    -3
390
F
347
46
348
0
  0
ENDTAB
  0
TABLE
  2
STYLE
  5
3
330
0
100
AcDbSymbolTable
 70
     1
  0
STYLE
  5
11
330
3
100
AcDbSymbolTableRecord
100
AcDbTextStyleTableRecord
  2
Standard
 70
     0
 40
0.0
 41
1.0
 50
0.0
 71
     0
 42
0.2
  3
txt
  4

  0
ENDTAB
  0
TABLE
  2
VIEW
  5
6
330
0
100
AcDbSymbolTable
 70
     0
  0
ENDTAB
  0
TABLE
  2
UCS
  5
7
330
0
100
AcDbSymbolTable
 70
     0
  0
ENDTAB
  0
TABLE
  2
APPID
  5
9
330
0
100
AcDbSymbolTable
 70
     2
  0
APPID
  5
12
330
9
100
AcDbSymbolTableRecord
100
AcDbRegAppTableRecord
  2
ACAD
 70
     0
  0
APPID
  5
5E
330
9
100
AcDbSymbolTableRecord
100
AcDbRegAppTableRecord
  2
ODA
 70
     0
  0
ENDTAB
  0
TABLE
  2
DIMSTYLE
  5
A
330
0
100
AcDbSymbolTable
 70
     1
100
AcDbDimStyleTable
  0
DIMSTYLE
105
27
330
A
100
AcDbSymbolTableRecord
100
AcDbDimStyleTableRecord
  2
Standard
 70
     0
178
     0
340
11
  0
ENDTAB
  0
TABLE
  2
BLOCK_RECORD
  5
1
330
0
100
AcDbSymbolTable
 70
     1
  0
BLOCK_RECORD
  5
1F
330
1
100
AcDbSymbolTableRecord
100
AcDbBlockTableRecord
  2
*Model_Space
340
22
 70
     0
280
     1
281
     0
  0
BLOCK_RECORD
  5
1B
330
1
100
AcDbSymbolTableRecord
100
AcDbBlockTableRecord
  2
*Paper_Space
340
1E
 70
     0
280
     1
281
     0
  0
BLOCK_RECORD
  5
23
330
1
100
AcDbSymbolTableRecord
100
AcDbBlockTableRecord
  2
*Paper_Space0
340
26
 70
     0
280
     1
281
     0
  0
ENDTAB
  0
ENDSEC
  0
SECTION
  2
BLOCKS
  0
BLOCK
  5
20
330
1F
100
AcDbEntity
  8
0
100
AcDbBlockBegin
  2
*Model_Space
 70
     0
 10
0.0
 20
0.0
 30
0.0
  3
*Model_Space
  1

  0
ENDBLK
  5
21
330
1F
100
AcDbEntity
  8
0
100
AcDbBlockEnd
  0
BLOCK
  5
1C
330
1B
100
AcDbEntity
 67
     1
  8
0
100
AcDbBlockBegin
  2
*Paper_Space
 70
     0
 10
0.0
 20
0.0
 30
0.0
  3
*Paper_Space
  1

  0
ENDBLK
  5
1D
330
1B
100
AcDbEntity
 67
     1
  8
0
100
AcDbBlockEnd
  0
BLOCK
  5
24
330
23
100
AcDbEntity
  8
0
100
AcDbBlockBegin
  2
*Paper_Space0
 70
     0
 10
0.0
 20
0.0
 30
0.0
  3
*Paper_Space0
  1

  0
ENDBLK
  5
25
330
23
100
AcDbEntity
  8
0
100
AcDbBlockEnd
  0
ENDSEC
  0
SECTION
  2
ENTITIES
  0
LWPOLYLINE
  5
60
330
1F
100
AcDbEntity
  8
Layer 1
 62
   250
370
    18
100
AcDbPolyline
 90
        5
 70
     1
 43
0.0
 10
191.274
 20
-152.9294
 10
1150.5132
 20
-152.9294
 10
1150.5132
 20
168.152
 10
191.274
 20
168.152
 10
191.274
 20
-152.9294
  0
LWPOLYLINE
  5
61
330
1F
100
AcDbEntity
  8
Layer 1
 62
     7
370
    35
100
AcDbPolyline
 90
       33
 70
     1
 43
0.0
 10
490.6162
 20
145.8553
 10
519.6824
 20
143.1144
 10
546.7547
 20
135.2532
 10
571.2533
 20
122.8143
 10
592.5981
 20
106.3403
 10
610.2092
 20
86.3735
 10
623.5067
 20
63.4565
 10
631.9105
 20
38.1318
 10
634.8406
 20
10.9419
 10
631.9105
 20
-16.2482
 10
623.5067
 20
-41.5731
 10
610.2092
 20
-64.4902
 10
592.5981
 20
-84.4571
 10
571.2533
 20
-100.9312
 10
546.7547
 20
-113.3701
 10
519.6824
 20
-121.2313
 10
490.6162
 20
-123.9722
 10
461.5497
 20
-121.2313
 10
434.477
 20
-113.3701
 10
409.9782
 20
-100.9312
 10
388.6332
 20
-84.4571
 10
371.022
 20
-64.4902
 10
357.7245
 20
-41.5731
 10
349.3207
 20
-16.2482
 10
346.3906
 20
10.9419
 10
349.3207
 20
38.1318
 10
357.7245
 20
63.4565
 10
371.022
 20
86.3735
 10
388.6332
 20
106.3403
 10
409.9782
 20
122.8143
 10
434.477
 20
135.2532
 10
461.5497
 20
143.1144
 10
490.6162
 20
145.8553
  0
LWPOLYLINE
  5
62
330
1F
100
AcDbEntity
  8
Layer 1
 62
     7
370
    35
100
AcDbPolyline
 90
       33
 70
     1
 43
0.0
 10
490.6162
 20
138.4997
 10
518.0979
 20
135.9082
 10
543.6943
 20
128.4756
 10
566.8572
 20
116.7149
 10
587.0382
 20
101.1389
 10
603.689
 20
82.2607
 10
616.2613
 20
60.5932
 10
624.2068
 20
36.6493
 10
626.9771
 20
10.9419
 10
624.2068
 20
-14.7655
 10
616.2613
 20
-38.7095
 10
603.689
 20
-60.3771
 10
587.0382
 20
-79.2554
 10
566.8572
 20
-94.8315
 10
543.6943
 20
-106.5923
 10
518.0979
 20
-114.025
 10
490.6162
 20
-116.6165
 10
463.1347
 20
-114.025
 10
437.5382
 20
-106.5923
 10
414.3751
 20
-94.8315
 10
394.1939
 20
-79.2554
 10
377.5428
 20
-60.3771
 10
364.9702
 20
-38.7095
 10
357.0245
 20
-14.7655
 10
354.2541
 20
10.9419
 10
357.0245
 20
36.6493
 10
364.9702
 20
60.5932
 10
377.5428
 20
82.2607
 10
394.1939
 20
101.1389
 10
414.3751
 20
116.7149
 10
437.5382
 20
128.4756
 10
463.1347
 20
135.9082
 10
490.6162
 20
138.4997
  0
LWPOLYLINE
  5
63
330
1F
100
AcDbEntity
  8
Layer 1
 62
     7
370
    35
100
AcDbPolyline
 90
       33
 70
     1
 43
0.0
 10
490.6162
 20
29.5506
 10
494.6253
 20
29.1726
 10
498.3593
 20
28.0883
 10
501.7383
 20
26.3727
 10
504.6823
 20
24.1005
 10
507.1113
 20
21.3465
 10
508.9453
 20
18.1855
 10
510.1044
 20
14.6924
 10
510.5085
 20
10.9419
 10
510.1044
 20
7.1916
 10
508.9453
 20
3.6986
 10
507.1113
 20
0.5376
 10
504.6823
 20
-2.2164
 10
501.7383
 20
-4.4887
 10
498.3593
 20
-6.2044
 10
494.6253
 20
-7.2887
 10
490.6162
 20
-7.6668
 10
486.6069
 20
-7.2887
 10
482.8726
 20
-6.2044
 10
479.4934
 20
-4.4887
 10
476.5492
 20
-2.2164
 10
474.1201
 20
0.5376
 10
472.2859
 20
3.6986
 10
471.1268
 20
7.1916
 10
470.7226
 20
10.9419
 10
471.1268
 20
14.6924
 10
472.2859
 20
18.1855
 10
474.1201
 20
21.3465
 10
476.5492
 20
24.1005
 10
479.4934
 20
26.3727
 10
482.8726
 20
28.0883
 10
486.6069
 20
29.1726
 10
490.6162
 20
29.5506
  0
LWPOLYLINE
  5
64
330
1F
100
AcDbEntity
  8
Layer 1
 62
     7
370
    35
100
AcDbPolyline
 90
       33
 70
     1
 43
0.0
 10
490.6162
 20
21.6152
 10
492.9154
 20
21.3984
 10
495.057
 20
20.7764
 10
496.995
 20
19.7923
 10
498.6836
 20
18.489
 10
500.0768
 20
16.9094
 10
501.1288
 20
15.0964
 10
501.7937
 20
13.0929
 10
502.0255
 20
10.9419
 10
501.7937
 20
8.7907
 10
501.1288
 20
6.7872
 10
500.0768
 20
4.9741
 10
498.6836
 20
3.3946
 10
496.995
 20
2.0913
 10
495.057
 20
1.1073
 10
492.9154
 20
0.4854
 10
490.6162
 20
0.2686
 10
488.3166
 20
0.4854
 10
486.1749
 20
1.1073
 10
484.2368
 20
2.0913
 10
482.5484
 20
3.3946
 10
481.1553
 20
4.9741
 10
480.1035
 20
6.7872
 10
479.4388
 20
8.7907
 10
479.207
 20
10.9419
 10
479.4388
 20
13.0929
 10
480.1035
 20
15.0964
 10
481.1553
 20
16.9094
 10
482.5484
 20
18.489
 10
484.2368
 20
19.7923
 10
486.1749
 20
20.7764
 10
488.3166
 20
21.3984
 10
490.6162
 20
21.6152
  0
LWPOLYLINE
  5
65
330
1F
100
AcDbEntity
  8
Layer 1
 62
     7
370
    35
100
AcDbPolyline
 90
        4
 70
     0
 43
0.0
 10
362.4478
 20
-122.442
 10
301.6602
 20
-122.442
 10
301.6602
 20
145.8553
 10
360.0173
 20
145.8553
  0
LWPOLYLINE
  5
66
330
1F
100
AcDbEntity
  8
Layer 1
 62
     7
370
    35
100
AcDbPolyline
 90
        2
 70
     0
 43
0.0
 10
305.4861
 20
-119.3622
 10
298.7672
 20
-124.7943
  0
LWPOLYLINE
  5
67
330
1F
100
AcDbEntity
  8
Layer 1
 62
     7
370
    35
100
AcDbPolyline
 90
        2
 70
     0
 43
0.0
 10
305.5611
 20
148.5717
 10
298.8421
 20
143.1396
  0
LWPOLYLINE
  5
68
330
1F
100
AcDbEntity
  8
Layer 1
 62
     7
100
AcDbPolyline
 90
        4
 70
     1
 43
0.0
 10
218.8879
 20
17.6097
 10
218.8879
 20
8.3506
 10
212.7618
 20
8.3506
 10
218.8879
 20
17.6097
  0
LWPOLYLINE
  5
69
330
1F
100
AcDbEntity
  8
Layer 1
 62
     7
100
AcDbPolyline
 90
       11
 70
     1
 43
0.0
 10
220.6077
 20
6.6543
 10
222.6337
 20
6.6543
 10
222.6337
 20
8.3506
 10
220.6077
 20
8.3506
 10
220.5843
 20
19.4004
 10
218.2749
 20
19.4004
 10
209.8408
 20
6.6543
 10
218.8879
 20
6.6543
 10
218.8879
 20
3.3797
 10
220.6077
 20
3.3797
 10
220.6077
 20
6.6543
  0
LWPOLYLINE
  5
6A
330
1F
100
AcDbEntity
  8
Layer 1
 62
     7
100
AcDbPolyline
 90
       87
 70
     1
 43
0.0
 10
225.2258
 20
3.3797
 10
236.5113
 20
3.3797
 10
236.5113
 20
5.0291
 10
229.2073
 20
5.0291
 10
234.7908
 20
10.5654
 10
235.1554
 20
10.964
 10
235.4713
 20
11.3825
 10
235.7386
 20
11.8209
 10
235.9572
 20
12.2792
 10
236.1272
 20
12.7573
 10
236.2487
 20
13.2553
 10
236.3215
 20
13.7732
 10
236.3458
 20
14.311
 10
236.321
 20
14.8611
 10
236.2465
 20
15.389
 10
236.1223
 20
15.8948
 10
235.9484
 20
16.3786
 10
235.7248
 20
16.8402
 10
235.4515
 20
17.2797
 10
235.1284
 20
17.6971
 10
234.7556
 20
18.0924
 10
234.3414
 20
18.4597
 10
233.9088
 20
18.778
 10
233.4578
 20
19.0472
 10
232.9885
 20
19.2675
 10
232.5007
 20
19.4388
 10
231.9946
 20
19.5611
 10
231.47
 20
19.6345
 10
230.9271
 20
19.659
 10
230.3633
 20
19.6333
 10
229.8205
 20
19.556
 10
229.2987
 20
19.4273
 10
228.7978
 20
19.247
 10
228.318
 20
19.0152
 10
227.8591
 20
18.7318
 10
227.4212
 20
18.3968
 10
227.0042
 20
18.0103
 10
226.633
 20
17.5945
 10
226.3145
 20
17.1569
 10
226.0485
 20
16.6977
 10
225.8352
 20
16.2168
 10
225.6745
 20
15.7141
 10
225.5665
 20
15.1897
 10
225.5112
 20
14.6436
 10
225.5085
 20
14.0758
 10
227.1807
 20
14.0758
 10
227.1668
 20
14.4441
 10
227.1927
 20
14.8039
 10
227.2583
 20
15.1552
 10
227.3635
 20
15.4981
 10
227.5085
 20
15.8325
 10
227.6933
 20
16.1584
 10
227.9178
 20
16.4759
 10
228.182
 20
16.785
 10
228.4649
 20
17.0612
 10
228.7624
 20
17.3005
 10
229.0747
 20
17.5029
 10
229.4016
 20
17.6685
 10
229.7432
 20
17.7973
 10
230.0994
 20
17.8892
 10
230.4704
 20
17.9444
 10
230.8561
 20
17.9628
 10
231.2349
 20
17.9462
 10
231.5993
 20
17.8966
 10
231.9492
 20
17.8138
 10
232.2848
 20
17.6979
 10
232.606
 20
17.5489
 10
232.9128
 20
17.3667
 10
233.2053
 20
17.1514
 10
233.4834
 20
16.9029
 10
233.7401
 20
16.6283
 10
233.9627
 20
16.3405
 10
234.151
 20
16.0394
 10
234.3051
 20
15.725
 10
234.4249
 20
15.3974
 10
234.5106
 20
15.0566
 10
234.562
 20
14.7025
 10
234.5791
 20
14.3351
 10
234.5625
 20
13.9595
 10
234.5128
 20
13.5986
 10
234.4299
 20
13.2525
 10
234.3139
 20
12.9211
 10
234.1648
 20
12.6045
 10
233.9825
 20
12.3026
 10
233.7671
 20
12.0155
 10
233.5186
 20
11.7431
 10
225.2258
 20
3.3797
  0
LWPOLYLINE
  5
6B
330
1F
100
AcDbEntity
  8
Layer 1
 62
     7
100
AcDbPolyline
 90
      136
 70
     1
 43
0.0
 10
242.4485
 20
13.4628
 10
243.5325
 20
17.7511
 10
249.3283
 20
17.7511
 10
249.3283
 20
19.4004
 10
242.2837
 20
19.4004
 10
240.4459
 20
12.2147
 10
242.2361
 20
11.4135
 10
242.4959
 20
11.5903
 10
242.7685
 20
11.7434
 10
243.054
 20
11.873
 10
243.3525
 20
11.9789
 10
243.6638
 20
12.0613
 10
243.988
 20
12.1202
 10
244.3251
 20
12.1554
 10
244.6751
 20
12.1672
 10
245.0269
 20
12.1499
 10
245.3669
 20
12.098
 10
245.6952
 20
12.0116
 10
246.0118
 20
11.8905
 10
246.3165
 20
11.7348
 10
246.6096
 20
11.5445
 10
246.8908
 20
11.3195
 10
247.1603
 20
11.0598
 10
247.4143
 20
10.7704
 10
247.6345
 20
10.4702
 10
247.8208
 20
10.1594
 10
247.9732
 20
9.8379
 10
248.0918
 20
9.5057
 10
248.1765
 20
9.1629
 10
248.2274
 20
8.8093
 10
248.2443
 20
8.4451
 10
248.227
 20
8.0684
 10
248.1751
 20
7.7067
 10
248.0885
 20
7.3602
 10
247.9674
 20
7.0287
 10
247.8116
 20
6.7124
 10
247.6213
 20
6.4111
 10
247.3964
 20
6.1249
 10
247.1369
 20
5.8538
 10
247.005
 20
5.7331
 10
246.8683
 20
5.6187
 10
246.7268
 20
5.5105
 10
246.5805
 20
5.4087
 10
246.4294
 20
5.3131
 10
246.2734
 20
5.2239
 10
246.1128
 20
5.1409
 10
245.9473
 20
5.0643
 10
245.7747
 20
4.9953
 10
245.5925
 20
4.9356
 10
245.4007
 20
4.8849
 10
245.1993
 20
4.8435
 10
244.9884
 20
4.8113
 10
244.7678
 20
4.7882
 10
244.5376
 20
4.7744
 10
244.2979
 20
4.7698
 10
244.0536
 20
4.7801
 10
243.8097
 20
4.811
 10
243.5662
 20
4.8625
 10
243.323
 20
4.9346
 10
243.0803
 20
5.0274
 10
242.8378
 20
5.1408
 10
242.5958
 20
5.2749
 10
242.354
 20
5.4297
 10
242.1214
 20
5.6008
 10
241.9065
 20
5.7845
 10
241.7092
 20
5.9807
 10
241.5295
 20
6.1894
 10
241.3676
 20
6.4106
 10
241.2233
 20
6.6443
 10
241.0967
 20
6.8906
 10
240.9879
 20
7.1494
 10
239.3854
 20
6.6309
 10
239.5428
 20
6.2432
 10
239.7264
 20
5.8749
 10
239.9361
 20
5.5261
 10
240.1719
 20
5.1968
 10
240.4338
 20
4.887
 10
240.7219
 20
4.5967
 10
241.036
 20
4.3259
 10
241.3762
 20
4.0748
 10
241.7381
 20
3.8456
 10
242.1081
 20
3.6469
 10
242.4862
 20
3.4789
 10
242.8723
 20
3.3414
 10
243.2666
 20
3.2344
 10
243.6689
 20
3.1581
 10
244.0793
 20
3.1123
 10
244.4979
 20
3.097
 10
245.0557
 20
3.1222
 10
245.5921
 20
3.1979
 10
246.1071
 20
3.324
 10
246.6008
 20
3.5005
 10
247.0732
 20
3.7274
 10
247.5242
 20
4.0047
 10
247.9539
 20
4.3324
 10
248.3622
 20
4.7105
 10
248.7321
 20
5.1213
 10
249.0527
 20
5.5522
 10
249.324
 20
6.0034
 10
249.546
 20
6.4748
 10
249.7187
 20
6.9665
 10
249.842
 20
7.4784
 10
249.916
 20
8.0106
 10
249.9407
 20
8.563
 10
249.9164
 20
9.1123
 10
249.8435
 20
9.6384
 10
249.722
 20
10.1414
 10
249.5519
 20
10.6212
 10
249.3332
 20
11.0778
 10
249.0659
 20
11.5112
 10
248.7501
 20
11.9214
 10
248.3857
 20
12.3085
 10
248.1995
 20
12.4807
 10
248.0059
 20
12.6437
 10
247.805
 20
12.7974
 10
247.5966
 20
12.9419
 10
247.3809
 20
13.0771
 10
247.1577
 20
13.2032
 10
246.9272
 20
13.32
 10
246.6893
 20
13.4277
 10
246.4467
 20
13.5243
 10
246.2019
 20
13.6081
 10
245.9551
 20
13.679
 10
245.7062
 20
13.7369
 10
245.4552
 20
13.782
 10
245.2023
 20
13.8142
 10
244.9475
 20
13.8336
 10
244.6907
 20
13.84
 10
244.4289
 20
13.8341
 10
244.162
 20
13.8164
 10
243.8898
 20
13.787
 10
243.6123
 20
13.7457
 10
243.3295
 20
13.6927
 10
243.0413
 20
13.6278
 10
242.7476
 20
13.5512
 10
242.4485
 20
13.4628
  0
LWPOLYLINE
  5
6C
330
1F
100
AcDbEntity
  8
Layer 1
 62
     7
100
AcDbPolyline
 90
      162
 70
     1
 43
0.0
 10
266.1035
 20
3.4266
 10
267.7523
 20
3.4266
 10
267.7523
 20
9.9055
 10
267.7389
 20
10.3358
 10
267.6985
 20
10.7457
 10
267.6314
 20
11.1354
 10
267.5373
 20
11.5048
 10
267.4164
 20
11.854
 10
267.2686
 20
12.1829
 10
267.0939
 20
12.4916
 10
266.8924
 20
12.7802
 10
266.7799
 20
12.9179
 10
266.6605
 20
13.0486
 10
266.5341
 20
13.1724
 10
266.4008
 20
13.2892
 10
266.2604
 20
13.3991
 10
266.113
 20
13.502
 10
265.9587
 20
13.5979
 10
265.7973
 20
13.6869
 10
265.6256
 20
13.767
 10
265.4406
 20
13.8364
 10
265.2425
 20
13.8951
 10
265.0311
 20
13.9431
 10
264.8065
 20
13.9804
 10
264.5687
 20
14.007
 10
264.3177
 20
14.023
 10
264.0534
 20
14.0283
 10
263.7867
 20
14.0191
 10
263.5286
 20
13.9915
 10
263.2788
 20
13.9455
 10
263.0376
 20
13.8812
 10
262.8048
 20
13.7983
 10
262.5805
 20
13.6971
 10
262.3646
 20
13.5775
 10
262.1571
 20
13.4394
 10
261.977
 20
13.3018
 10
261.8049
 20
13.1541
 10
261.641
 20
12.9962
 10
261.4853
 20
12.8282
 10
261.3376
 20
12.6503
 10
261.1981
 20
12.4625
 10
261.0667
 20
12.265
 10
260.9434
 20
12.0578
 10
260.8476
 20
12.2488
 10
260.7431
 20
12.4334
 10
260.6297
 20
12.6108
 10
260.5076
 20
12.7802
 10
260.3951
 20
12.9179
 10
260.2757
 20
13.0486
 10
260.1492
 20
13.1724
 10
260.0157
 20
13.2892
 10
259.8752
 20
13.3991
 10
259.7278
 20
13.502
 10
259.5733
 20
13.5979
 10
259.4119
 20
13.6869
 10
259.2404
 20
13.767
 10
259.0556
 20
13.8364
 10
258.8576
 20
13.8951
 10
258.6463
 20
13.9431
 10
258.4218
 20
13.9804
 10
258.184
 20
14.007
 10
257.933
 20
14.023
 10
257.6687
 20
14.0283
 10
257.402
 20
14.0191
 10
257.1437
 20
13.9915
 10
256.8939
 20
13.9455
 10
256.6525
 20
13.8812
 10
256.4196
 20
13.7983
 10
256.1952
 20
13.6971
 10
255.9792
 20
13.5775
 10
255.7717
 20
13.4394
 10
255.6002
 20
13.3084
 10
255.436
 20
13.1686
 10
255.2792
 20
13.0198
 10
255.1298
 20
12.8619
 10
254.9877
 20
12.6951
 10
254.8529
 20
12.5191
 10
254.7256
 20
12.3341
 10
254.6056
 20
12.1398
 10
254.6056
 20
13.7931
 10
252.9568
 20
13.7931
 10
252.9568
 20
3.4266
 10
254.6056
 20
3.4266
 10
254.6056
 20
8.7317
 10
254.6439
 20
9.0408
 10
254.694
 20
9.3377
 10
254.7559
 20
9.6228
 10
254.8295
 20
9.8959
 10
254.915
 20
10.1573
 10
255.0122
 20
10.4069
 10
255.1212
 20
10.645
 10
255.2421
 20
10.8715
 10
255.3404
 20
11.0327
 10
255.4468
 20
11.1866
 10
255.5613
 20
11.3332
 10
255.6838
 20
11.4724
 10
255.8145
 20
11.6042
 10
255.9532
 20
11.7287
 10
256.1001
 20
11.8458
 10
256.255
 20
11.9555
 10
256.4155
 20
12.0549
 10
256.579
 20
12.141
 10
256.7453
 20
12.2139
 10
256.9147
 20
12.2736
 10
257.087
 20
12.32
 10
257.2623
 20
12.3531
 10
257.4406
 20
12.373
 10
257.6218
 20
12.3796
 10
257.7984
 20
12.3761
 10
257.9633
 20
12.3656
 10
258.1164
 20
12.348
 10
258.2577
 20
12.3235
 10
258.3873
 20
12.2919
 10
258.505
 20
12.2534
 10
258.611
 20
12.2079
 10
258.7051
 20
12.1555
 10
258.9426
 20
11.9799
 10
259.1484
 20
11.7742
 10
259.3225
 20
11.5382
 10
259.4649
 20
11.2721
 10
259.5757
 20
10.9757
 10
259.6548
 20
10.6492
 10
259.7023
 20
10.2925
 10
259.7181
 20
9.9055
 10
259.7181
 20
3.4266
 10
261.3675
 20
3.4266
 10
261.3675
 20
9.9055
 10
261.3558
 20
10.3022
 10
261.6268
 20
10.8715
 10
261.7251
 20
11.0327
 10
261.8315
 20
11.1866
 10
261.946
 20
11.3332
 10
262.0685
 20
11.4724
 10
262.1992
 20
11.6042
 10
262.338
 20
11.7287
 10
262.4848
 20
11.8458
 10
262.6398
 20
11.9555
 10
262.8003
 20
12.0549
 10
262.9637
 20
12.141
 10
263.1301
 20
12.2139
 10
263.2995
 20
12.2736
 10
263.4717
 20
12.32
 10
263.647
 20
12.3531
 10
263.8253
 20
12.373
 10
264.0065
 20
12.3796
 10
264.1831
 20
12.3761
 10
264.348
 20
12.3656
 10
264.5011
 20
12.348
 10
264.6426
 20
12.3235
 10
264.7722
 20
12.2919
 10
264.8901
 20
12.2534
 10
264.9962
 20
12.2079
 10
265.0905
 20
12.1555
 10
265.3278
 20
11.9799
 10
265.5335
 20
11.7742
 10
265.7076
 20
11.5382
 10
265.8501
 20
11.2721
 10
265.9609
 20
10.9757
 10
266.0401
 20
10.6492
 10
266.0877
 20
10.2925
 10
266.1035
 20
9.9055
 10
266.1035
 20
3.4266
  0
LWPOLYLINE
  5
6D
330
1F
100
AcDbEntity
  8
Layer 1
 62
     7
100
AcDbPolyline
 90
      162
 70
     1
 43
0.0
 10
284.0799
 20
3.4266
 10
285.7287
 20
3.4266
 10
285.7287
 20
9.9055
 10
285.7153
 20
10.3358
 10
285.6749
 20
10.7457
 10
285.6078
 20
11.1354
 10
285.5137
 20
11.5048
 10
285.3928
 20
11.854
 10
285.245
 20
12.1829
 10
285.0703
 20
12.4916
 10
284.8688
 20
12.7802
 10
284.7563
 20
12.9179
 10
284.6369
 20
13.0486
 10
284.5105
 20
13.1724
 10
284.3772
 20
13.2892
 10
284.2368
 20
13.3991
 10
284.0894
 20
13.502
 10
283.9351
 20
13.5979
 10
283.7737
 20
13.6869
 10
283.602
 20
13.767
 10
283.417
 20
13.8364
 10
283.2189
 20
13.8951
 10
283.0075
 20
13.9431
 10
282.783
 20
13.9804
 10
282.5452
 20
14.007
 10
282.2941
 20
14.023
 10
282.0298
 20
14.0283
 10
281.7631
 20
14.0191
 10
281.505
 20
13.9915
 10
281.2552
 20
13.9455
 10
281.014
 20
13.8812
 10
280.7812
 20
13.7983
 10
280.5569
 20
13.6971
 10
280.341
 20
13.5775
 10
280.1335
 20
13.4394
 10
279.9534
 20
13.3018
 10
279.7814
 20
13.1541
 10
279.6175
 20
12.9962
 10
279.4617
 20
12.8282
 10
279.3141
 20
12.6503
 10
279.1746
 20
12.4625
 10
279.0432
 20
12.265
 10
278.9199
 20
12.0578
 10
278.8241
 20
12.2488
 10
278.7195
 20
12.4334
 10
278.6062
 20
12.6108
 10
278.484
 20
12.7802
 10
278.3715
 20
12.9179
 10
278.2521
 20
13.0486
 10
278.1256
 20
13.1724
 10
277.9921
 20
13.2892
 10
277.8516
 20
13.3991
 10
277.7042
 20
13.502
 10
277.5497
 20
13.5979
 10
277.3883
 20
13.6869
 10
277.2168
 20
13.767
 10
277.032
 20
13.8364
 10
276.834
 20
13.8951
 10
276.6227
 20
13.9431
 10
276.3982
 20
13.9804
 10
276.1604
 20
14.007
 10
275.9094
 20
14.023
 10
275.6451
 20
14.0283
 10
275.3784
 20
14.0191
 10
275.1201
 20
13.9915
 10
274.8703
 20
13.9455
 10
274.6289
 20
13.8812
 10
274.396
 20
13.7983
 10
274.1716
 20
13.6971
 10
273.9556
 20
13.5775
 10
273.7481
 20
13.4394
 10
273.5766
 20
13.3084
 10
273.4124
 20
13.1686
 10
273.2556
 20
13.0198
 10
273.1062
 20
12.8619
 10
272.9641
 20
12.6951
 10
272.8293
 20
12.5191
 10
272.702
 20
12.3341
 10
272.582
 20
12.1398
 10
272.582
 20
13.7931
 10
270.9332
 20
13.7931
 10
270.9332
 20
3.4266
 10
272.582
 20
3.4266
 10
272.582
 20
8.7317
 10
272.6204
 20
9.0408
 10
272.6705
 20
9.3377
 10
272.7323
 20
9.6228
 10
272.806
 20
9.8959
 10
272.8914
 20
10.1573
 10
272.9886
 20
10.4069
 10
273.0976
 20
10.645
 10
273.2185
 20
10.8715
 10
273.3168
 20
11.0327
 10
273.4232
 20
11.1866
 10
273.5377
 20
11.3332
 10
273.6602
 20
11.4724
 10
273.7909
 20
11.6042
 10
273.9297
 20
11.7287
 10
274.0765
 20
11.8458
 10
274.2315
 20
11.9555
 10
274.392
 20
12.0549
 10
274.5554
 20
12.141
 10
274.7218
 20
12.2139
 10
274.8911
 20
12.2736
 10
275.0634
 20
12.32
 10
275.2387
 20
12.3531
 10
275.417
 20
12.373
 10
275.5982
 20
12.3796
 10
275.7748
 20
12.3761
 10
275.9397
 20
12.3656
 10
276.0928
 20
12.348
 10
276.2341
 20
12.3235
 10
276.3637
 20
12.2919
 10
276.4814
 20
12.2534
 10
276.5874
 20
12.2079
 10
276.6815
 20
12.1555
 10
276.919
 20
11.9799
 10
277.1248
 20
11.7742
 10
277.2989
 20
11.5382
 10
277.4414
 20
11.2721
 10
277.5521
 20
10.9757
 10
277.6312
 20
10.6492
 10
277.6787
 20
10.2925
 10
277.6945
 20
9.9055
 10
277.6945
 20
3.4266
 10
279.3439
 20
3.4266
 10
279.3439
 20
9.9055
 10
279.3322
 20
10.3022
 10
279.6032
 20
10.8715
 10
279.7015
 20
11.0327
 10
279.8079
 20
11.1866
 10
279.9224
 20
11.3332
 10
280.045
 20
11.4724
 10
280.1756
 20
11.6042
 10
280.3144
 20
11.7287
 10
280.4612
 20
11.8458
 10
280.6162
 20
11.9555
 10
280.7767
 20
12.0549
 10
280.9401
 20
12.141
 10
281.1065
 20
12.2139
 10
281.2759
 20
12.2736
 10
281.4481
 20
12.32
 10
281.6234
 20
12.3531
 10
281.8017
 20
12.373
 10
281.9829
 20
12.3796
 10
282.1595
 20
12.3761
 10
282.3244
 20
12.3656
 10
282.4775
 20
12.348
 10
282.619
 20
12.3235
 10
282.7486
 20
12.2919
 10
282.8665
 20
12.2534
 10
282.9726
 20
12.2079
 10
283.0669
 20
12.1555
 10
283.3042
 20
11.9799
 10
283.5099
 20
11.7742
 10
283.684
 20
11.5382
 10
283.8265
 20
11.2721
 10
283.9373
 20
10.9757
 10
284.0165
 20
10.6492
 10
284.0641
 20
10.2925
 10
284.0799
 20
9.9055
 10
284.0799
 20
3.4266
  0
LWPOLYLINE
  5
6E
330
1F
100
AcDbEntity
  8
Layer 1
 62
     7
370
    35
100
AcDbPolyline
 90
        4
 70
     0
 43
0.0
 10
803.6843
 20
-67.6239
 10
772.9555
 20
-67.6239
 10
772.9555
 20
62.9495
 10
802.4558
 20
62.9495
  0
LWPOLYLINE
  5
6F
330
1F
100
AcDbEntity
  8
Layer 1
 62
     7
370
    35
100
AcDbPolyline
 90
        2
 70
     0
 43
0.0
 10
774.889
 20
-66.1258
 10
771.4926
 20
-68.7698
  0
LWPOLYLINE
  5
70
330
1F
100
AcDbEntity
  8
Layer 1
 62
     7
370
    35
100
AcDbPolyline
 90
        2
 70
     0
 43
0.0
 10
774.9268
 20
64.2718
 10
771.5311
 20
61.6279
  0
LWPOLYLINE
  5
71
330
1F
100
AcDbEntity
  8
Layer 1
 62
     7
100
AcDbPolyline
 90
        7
 70
     1
 43
0.0
 10
688.5231
 20
-10.7615
 10
690.1176
 20
-10.7615
 10
690.1176
 20
5.8061
 10
686.2898
 20
5.3727
 10
686.2898
 20
3.9039
 10
688.5231
 20
3.9039
 10
688.5231
 20
-10.7615
  0
LWPOLYLINE
  5
72
330
1F
100
AcDbEntity
  8
Layer 1
 62
     7
100
AcDbPolyline
 90
       73
 70
     1
 43
0.0
 10
697.4892
 20
-3.3203
 10
697.1256
 20
-3.3026
 10
696.7755
 20
-3.2496
 10
696.439
 20
-3.1613
 10
696.1161
 20
-3.0376
 10
695.8067
 20
-2.8785
 10
695.5109
 20
-2.6841
 10
695.2286
 20
-2.4543
 10
694.9598
 20
-2.1891
 10
694.7168
 20
-1.9022
 10
694.5062
 20
-1.6018
 10
694.328
 20
-1.2879
 10
694.1821
 20
-0.9605
 10
694.0687
 20
-0.6196
 10
693.9876
 20
-0.2652
 10
693.939
 20
0.1027
 10
693.9228
 20
0.4842
 10
693.9392
 20
0.8571
 10
693.9884
 20
1.2172
 10
694.0703
 20
1.5644
 10
694.185
 20
1.8989
 10
694.3324
 20
2.2206
 10
694.5126
 20
2.5295
 10
694.7255
 20
2.8256
 10
694.9711
 20
3.1089
 10
695.2349
 20
3.3629
 10
695.5137
 20
3.583
 10
695.8074
 20
3.7693
 10
696.1161
 20
3.9218
 10
696.4397
 20
4.0403
 10
696.7784
 20
4.125
 10
697.132
 20
4.1759
 10
697.5006
 20
4.1928
 10
697.8619
 20
4.1753
 10
698.2111
 20
4.1228
 10
698.5482
 20
4.0353
 10
698.8732
 20
3.9128
 10
699.1861
 20
3.7553
 10
699.4868
 20
3.5628
 10
699.7755
 20
3.3353
 10
700.0521
 20
3.0729
 10
700.3032
 20
2.789
 10
700.5208
 20
2.4913
 10
700.7049
 20
2.1795
 10
700.8555
 20
1.8539
 10
700.9726
 20
1.5143
 10
701.0562
 20
1.1607
 10
701.1064
 20
0.7931
 10
701.1231
 20
0.4116
 10
701.1062
 20
0.0416
 10
701.0554
 20
-0.3165
 10
700.9708
 20
-0.6627
 10
700.8524
 20
-0.9968
 10
700.7002
 20
-1.3189
 10
700.5142
 20
-1.629
 10
700.2943
 20
-1.9271
 10
700.0407
 20
-2.213
 10
699.9156
 20
-2.3362
 10
699.7852
 20
-2.4529
 10
699.6494
 20
-2.5633
 10
699.5083
 20
-2.6673
 10
699.3618
 20
-2.7649
 10
699.21
 20
-2.8561
 10
699.0529
 20
-2.9409
 10
698.8904
 20
-3.0193
 10
698.724
 20
-3.09
 10
698.555
 20
-3.1512
 10
698.3836
 20
-3.2029
 10
698.2096
 20
-3.2452
 10
698.0332
 20
-3.2781
 10
697.8543
 20
-3.3015
 10
697.673
 20
-3.3156
 10
697.4892
 20
-3.3203
  0
LWPOLYLINE
  5
73
330
1F
100
AcDbEntity
  8
Layer 1
 62
     7
100
AcDbPolyline
 90
       69
 70
     1
 43
0.0
 10
692.3056
 20
0.3637
 10
692.3305
 20
-0.2161
 10
692.4052
 20
-0.7696
 10
692.5297
 20
-1.2967
 10
692.7041
 20
-1.7976
 10
692.9283
 20
-2.272
 10
693.2023
 20
-2.7201
 10
693.5263
 20
-3.1419
 10
693.9001
 20
-3.5373
 10
694.2823
 20
-3.8704
 10
694.6912
 20
-4.1625
 10
695.1268
 20
-4.4137
 10
695.5892
 20
-4.6238
 10
696.0782
 20
-4.793
 10
696.5939
 20
-4.9211
 10
697.1363
 20
-5.0081
 10
697.7053
 20
-5.0541
 10
698.1608
 20
-4.7412
 10
693.422
 20
-10.7615
 10
695.518
 20
-10.7615
 10
701.5786
 20
-3.0313
 10
701.851
 20
-2.655
 10
702.0871
 20
-2.2633
 10
702.2869
 20
-1.8561
 10
702.4503
 20
-1.4335
 10
702.5775
 20
-0.9953
 10
702.6683
 20
-0.5418
 10
702.7227
 20
-0.0728
 10
702.7409
 20
0.4116
 10
702.717
 20
0.9699
 10
702.6455
 20
1.5067
 10
702.5262
 20
2.0221
 10
702.3592
 20
2.5159
 10
702.1445
 20
2.9883
 10
701.8822
 20
3.4393
 10
701.5721
 20
3.8687
 10
701.2144
 20
4.2767
 10
700.8202
 20
4.6521
 10
700.4068
 20
4.9775
 10
699.9742
 20
5.2527
 10
699.5224
 20
5.4779
 10
699.0514
 20
5.6529
 10
698.5612
 20
5.778
 10
698.0519
 20
5.853
 10
697.5233
 20
5.878
 10
696.9871
 20
5.8532
 10
696.4722
 20
5.7787
 10
695.9787
 20
5.6546
 10
695.5066
 20
5.4809
 10
695.0559
 20
5.2574
 10
694.6266
 20
4.9842
 10
694.2187
 20
4.6613
 10
693.8321
 20
4.2887
 10
693.6601
 20
4.0984
 10
693.4973
 20
3.9006
 10
693.3439
 20
3.6952
 10
693.1998
 20
3.4822
 10
693.0649
 20
3.2617
 10
692.9393
 20
3.0337
 10
692.8229
 20
2.7981
 10
692.7158
 20
2.5549
 10
692.6196
 20
2.3048
 10
692.5363
 20
2.0479
 10
692.4658
 20
1.7842
 10
692.4081
 20
1.5138
 10
692.3633
 20
1.2364
 10
692.3312
 20
0.9523
 10
692.312
 20
0.6614
 10
692.3056
 20
0.3637
  0
LWPOLYLINE
  5
74
330
1F
100
AcDbEntity
  8
Layer 1
 62
     7
100
AcDbPolyline
 90
      113
 70
     1
 43
0.0
 10
710.9781
 20
3.7108
 10
711.2412
 20
3.522
 10
711.4864
 20
3.3076
 10
711.7139
 20
3.0676
 10
711.9236
 20
2.802
 10
712.1155
 20
2.5108
 10
712.2897
 20
2.194
 10
712.446
 20
1.8516
 10
712.5846
 20
1.4836
 10
712.7394
 20
0.9954
 10
712.8736
 20
0.5
 10
712.9871
 20
-0.0026
 10
713.0799
 20
-0.5123
 10
713.1521
 20
-1.0292
 10
713.2037
 20
-1.5531
 10
713.2346
 20
-2.0843
 10
713.2449
 20
-2.6225
 10
713.2406
 20
-2.8865
 10
713.2279
 20
-3.1732
 10
713.2066
 20
-3.4825
 10
713.1768
 20
-3.8143
 10
713.0978
 20
-4.4616
 10
712.9946
 20
-5.0732
 10
712.8671
 20
-5.6491
 10
712.7154
 20
-6.1893
 10
712.5394
 20
-6.6937
 10
712.3393
 20
-7.1623
 10
712.1149
 20
-7.5952
 10
711.8664
 20
-7.9924
 10
711.6397
 20
-8.2915
 10
711.4009
 20
-8.5508
 10
711.15
 20
-8.7702
 10
710.887
 20
-8.9496
 10
710.6118
 20
-9.0892
 10
710.3246
 20
-9.1889
 10
710.0252
 20
-9.2488
 10
709.7137
 20
-9.2687
 10
709.366
 20
-9.2489
 10
709.0351
 20
-9.1897
 10
708.7209
 20
-9.0909
 10
708.4234
 20
-8.9526
 10
708.1427
 20
-8.7748
 10
707.8787
 20
-8.5575
 10
707.6315
 20
-8.3007
 10
707.401
 20
-8.0043
 10
707.3034
 20
-7.8605
 10
707.2102
 20
-7.7122
 10
707.1211
 20
-7.5594
 10
707.0364
 20
-7.4021
 10
706.9559
 20
-7.2403
 10
706.8796
 20
-7.0741
 10
706.8077
 20
-6.9033
 10
706.7401
 20
-6.728
 10
706.617
 20
-6.3706
 10
706.5096
 20
-6.0086
 10
706.4177
 20
-5.642
 10
706.3414
 20
-5.2711
 10
706.2779
 20
-4.9007
 10
706.2245
 20
-4.5365
 10
706.181
 20
-4.1784
 10
706.1473
 20
-3.8263
 10
706.134
 20
-3.6484
 10
706.1225
 20
-3.4637
 10
706.1127
 20
-3.2723
 10
706.1048
 20
-3.0743
 10
706.0986
 20
-2.8697
 10
706.0941
 20
-2.6586
 10
706.0915
 20
-2.441
 10
706.0906
 20
-2.217
 10
706.0945
 20
-1.983
 10
706.1063
 20
-1.7353
 10
706.1259
 20
-1.474
 10
706.1534
 20
-1.199
 10
706.1887
 20
-0.9102
 10
706.2318
 20
-0.6077
 10
706.2827
 20
-0.2914
 10
706.3414
 20
0.0388
 10
706.4169
 20
0.4052
 10
706.5065
 20
0.7702
 10
706.6104
 20
1.1337
 10
706.7288
 20
1.4956
 10
706.7938
 20
1.6739
 10
706.8634
 20
1.8477
 10
706.9376
 20
2.0169
 10
707.0164
 20
2.1817
 10
707.0999
 20
2.342
 10
707.1879
 20
2.4978
 10
707.2805
 20
2.6491
 10
707.3777
 20
2.7959
 10
707.4799
 20
2.9369
 10
707.5871
 20
3.0707
 10
707.6993
 20
3.1973
 10
707.8165
 20
3.3168
 10
707.9387
 20
3.429
 10
708.0658
 20
3.5341
 10
708.1978
 20
3.6321
 10
708.3347
 20
3.7228
 10
708.4775
 20
3.8047
 10
708.6267
 20
3.8757
 10
708.7823
 20
3.9358
 10
708.9443
 20
3.9849
 10
709.1127
 20
4.0232
 10
709.2875
 20
4.0505
 10
709.4687
 20
4.0668
 10
709.6564
 20
4.0723
 10
709.8441
 20
4.0667
 10
710.0253
 20
4.0497
 10
710.2001
 20
4.0215
 10
710.3685
 20
3.9819
 10
710.5305
 20
3.9311
 10
710.6861
 20
3.869
 10
710.8353
 20
3.7955
 10
710.9781
 20
3.7108
  0
LWPOLYLINE
  5
75
330
1F
100
AcDbEntity
  8
Layer 1
 62
     7
100
AcDbPolyline
 90
       65
 70
     1
 43
0.0
 10
709.7364
 20
-10.9786
 10
710.4015
 20
-10.934
 10
711.0243
 20
-10.8002
 10
711.6048
 20
-10.5772
 10
712.1429
 20
-10.2651
 10
712.6386
 20
-9.8638
 10
713.092
 20
-9.3733
 10
713.503
 20
-8.7937
 10
713.8717
 20
-8.1249
 10
714.1306
 20
-7.5412
 10
714.3551
 20
-6.9251
 10
714.545
 20
-6.2767
 10
714.7004
 20
-5.596
 10
714.8213
 20
-4.883
 10
714.9076
 20
-4.1376
 10
714.9594
 20
-3.3599
 10
714.9767
 20
-2.5499
 10
714.9594
 20
-1.7399
 10
714.9076
 20
-0.9622
 10
714.8213
 20
-0.2168
 10
714.7004
 20
0.4962
 10
714.545
 20
1.1769
 10
714.3551
 20
1.8253
 10
714.1306
 20
2.4413
 10
713.8717
 20
3.025
 10
713.503
 20
3.6937
 10
713.092
 20
4.2733
 10
712.6386
 20
4.7636
 10
712.1429
 20
5.1648
 10
711.6048
 20
5.4768
 10
711.0243
 20
5.6997
 10
710.4015
 20
5.8334
 10
709.7364
 20
5.878
 10
709.0711
 20
5.8334
 10
708.4481
 20
5.6997
 10
707.8676
 20
5.4768
 10
707.3294
 20
5.1648
 10
706.8336
 20
4.7636
 10
706.3802
 20
4.2733
 10
705.9692
 20
3.6937
 10
705.6005
 20
3.025
 10
705.3416
 20
2.4413
 10
705.1171
 20
1.8253
 10
704.9272
 20
1.1769
 10
704.7718
 20
0.4962
 10
704.6509
 20
-0.2168
 10
704.5646
 20
-0.9622
 10
704.5128
 20
-1.7399
 10
704.4955
 20
-2.5499
 10
704.5128
 20
-3.3599
 10
704.5646
 20
-4.1376
 10
704.6509
 20
-4.883
 10
704.7718
 20
-5.596
 10
704.9272
 20
-6.2767
 10
705.1171
 20
-6.9251
 10
705.3416
 20
-7.5412
 10
705.6005
 20
-8.1249
 10
705.9692
 20
-8.7937
 10
706.3802
 20
-9.3733
 10
706.8336
 20
-9.8638
 10
707.3294
 20
-10.2651
 10
707.8676
 20
-10.5772
 10
708.4481
 20
-10.8002
 10
709.0711
 20
-10.934
 10
709.7364
 20
-10.9786
  0
LWPOLYLINE
  5
76
330
1F
100
AcDbEntity
  8
Layer 1
 62
     7
100
AcDbPolyline
 90
      162
 70
     1
 43
0.0
 10
730.5396
 20
-10.7136
 10
732.1341
 20
-10.7136
 10
732.1341
 20
-4.0913
 10
732.1211
 20
-3.6515
 10
732.0821
 20
-3.2325
 10
732.0172
 20
-2.8342
 10
731.9262
 20
-2.4566
 10
731.8093
 20
-2.0997
 10
731.6663
 20
-1.7635
 10
731.4974
 20
-1.448
 10
731.3025
 20
-1.153
 10
731.1938
 20
-1.0123
 10
731.0783
 20
-0.8786
 10
730.9561
 20
-0.7521
 10
730.8271
 20
-0.6327
 10
730.6913
 20
-0.5204
 10
730.5488
 20
-0.4152
 10
730.3996
 20
-0.3172
 10
730.2435
 20
-0.2262
 10
730.0774
 20
-0.1443
 10
729.8986
 20
-0.0734
 10
729.7069
 20
-0.0134
 10
729.5026
 20
0.0356
 10
729.2854
 20
0.0737
 10
729.0554
 20
0.101
 10
728.8126
 20
0.1173
 10
728.557
 20
0.1227
 10
728.2991
 20
0.1133
 10
728.0494
 20
0.0851
 10
727.8079
 20
0.0381
 10
727.5746
 20
-0.0277
 10
727.3494
 20
-0.1123
 10
727.1325
 20
-0.2158
 10
726.9237
 20
-0.3381
 10
726.7231
 20
-0.4792
 10
726.5489
 20
-0.6198
 10
726.3825
 20
-0.7708
 10
726.224
 20
-0.9323
 10
726.0734
 20
-1.1039
 10
725.9306
 20
-1.2858
 10
725.7957
 20
-1.4777
 10
725.6686
 20
-1.6796
 10
725.5494
 20
-1.8914
 10
725.4568
 20
-1.6962
 10
725.3557
 20
-1.5075
 10
725.246
 20
-1.3262
 10
725.1279
 20
-1.153
 10
725.0191
 20
-1.0123
 10
724.9036
 20
-0.8786
 10
724.7813
 20
-0.7521
 10
724.6522
 20
-0.6327
 10
724.5163
 20
-0.5204
 10
724.3737
 20
-0.4152
 10
724.2244
 20
-0.3172
 10
724.0683
 20
-0.2262
 10
723.9024
 20
-0.1443
 10
723.7237
 20
-0.0734
 10
723.5322
 20
-0.0134
 10
723.3278
 20
0.0356
 10
723.1107
 20
0.0737
 10
722.8807
 20
0.101
 10
722.638
 20
0.1173
 10
722.3824
 20
0.1227
 10
722.1245
 20
0.1133
 10
721.8747
 20
0.0851
 10
721.6331
 20
0.0381
 10
721.3997
 20
-0.0277
 10
721.1744
 20
-0.1123
 10
720.9573
 20
-0.2158
 10
720.7485
 20
-0.3381
 10
720.5478
 20
-0.4792
 10
720.382
 20
-0.6131
 10
720.2232
 20
-0.756
 10
720.0716
 20
-0.9082
 10
719.927
 20
-1.0695
 10
719.7896
 20
-1.24
 10
719.6593
 20
-1.4198
 10
719.5361
 20
-1.609
 10
719.4201
 20
-1.8075
 10
719.4201
 20
-0.1177
 10
717.8256
 20
-0.1177
 10
717.8256
 20
-10.7136
 10
719.4201
 20
-10.7136
 10
719.4201
 20
-5.2911
 10
719.4572
 20
-4.9752
 10
719.5057
 20
-4.6716
 10
719.5655
 20
-4.3803
 10
719.6367
 20
-4.1011
 10
719.7193
 20
-3.834
 10
719.8133
 20
-3.5788
 10
719.9187
 20
-3.3355
 10
720.0356
 20
-3.1039
 10
720.1307
 20
-2.9391
 10
720.2336
 20
-2.7818
 10
720.3443
 20
-2.632
 10
720.4629
 20
-2.4898
 10
720.5892
 20
-2.355
 10
720.7234
 20
-2.2278
 10
720.8654
 20
-2.1081
 10
721.0153
 20
-1.996
 10
721.1705
 20
-1.8944
 10
721.3286
 20
-1.8063
 10
721.4895
 20
-1.7318
 10
721.6532
 20
-1.6709
 10
721.8199
 20
-1.6235
 10
721.9894
 20
-1.5896
 10
722.1617
 20
-1.5693
 10
722.337
 20
-1.5625
 10
722.5078
 20
-1.5661
 10
722.6673
 20
-1.5769
 10
722.8153
 20
-1.5948
 10
722.9521
 20
-1.6199
 10
723.0774
 20
-1.6521
 10
723.1912
 20
-1.6915
 10
723.2937
 20
-1.738
 10
723.3847
 20
-1.7916
 10
723.6144
 20
-1.971
 10
723.8134
 20
-2.1813
 10
723.9818
 20
-2.4225
 10
724.1195
 20
-2.6945
 10
724.2267
 20
-2.9974
 10
724.3032
 20
-3.3311
 10
724.3491
 20
-3.6958
 10
724.3644
 20
-4.0913
 10
724.3644
 20
-10.7136
 10
725.9595
 20
-10.7136
 10
725.9595
 20
-4.0913
 10
725.9482
 20
-3.6858
 10
726.2102
 20
-3.1039
 10
726.3053
 20
-2.9391
 10
726.4082
 20
-2.7818
 10
726.5189
 20
-2.632
 10
726.6375
 20
-2.4898
 10
726.7638
 20
-2.355
 10
726.898
 20
-2.2278
 10
727.04
 20
-2.1081
 10
727.1899
 20
-1.996
 10
727.3451
 20
-1.8944
 10
727.5032
 20
-1.8063
 10
727.6641
 20
-1.7318
 10
727.8278
 20
-1.6709
 10
727.9945
 20
-1.6235
 10
728.164
 20
-1.5896
 10
728.3363
 20
-1.5693
 10
728.5116
 20
-1.5625
 10
728.6824
 20
-1.5661
 10
728.8419
 20
-1.5769
 10
728.99
 20
-1.5948
 10
729.1267
 20
-1.6199
 10
729.2521
 20
-1.6521
 10
729.3661
 20
-1.6915
 10
729.4688
 20
-1.738
 10
729.56
 20
-1.7916
 10
729.7895
 20
-1.971
 10
729.9884
 20
-2.1813
 10
730.1567
 20
-2.4225
 10
730.2945
 20
-2.6945
 10
730.4017
 20
-2.9974
 10
730.4783
 20
-3.3311
 10
730.5243
 20
-3.6958
 10
730.5396
 20
-4.0913
 10
730.5396
 20
-10.7136
  0
LWPOLYLINE
  5
77
330
1F
100
AcDbEntity
  8
Layer 1
 62
     7
100
AcDbPolyline
 90
      162
 70
     1
 43
0.0
 10
747.9244
 20
-10.7136
 10
749.5189
 20
-10.7136
 10
749.5189
 20
-4.0913
 10
749.5059
 20
-3.6515
 10
749.4669
 20
-3.2325
 10
749.402
 20
-2.8342
 10
749.311
 20
-2.4566
 10
749.1941
 20
-2.0997
 10
749.0511
 20
-1.7635
 10
748.8822
 20
-1.448
 10
748.6873
 20
-1.153
 10
748.5786
 20
-1.0123
 10
748.4631
 20
-0.8786
 10
748.3409
 20
-0.7521
 10
748.212
 20
-0.6327
 10
748.0762
 20
-0.5204
 10
747.9337
 20
-0.4152
 10
747.7844
 20
-0.3172
 10
747.6283
 20
-0.2262
 10
747.4622
 20
-0.1443
 10
747.2834
 20
-0.0734
 10
747.0917
 20
-0.0134
 10
746.8874
 20
0.0356
 10
746.6702
 20
0.0737
 10
746.4402
 20
0.101
 10
746.1974
 20
0.1173
 10
745.9418
 20
0.1227
 10
745.6839
 20
0.1133
 10
745.4342
 20
0.0851
 10
745.1927
 20
0.0381
 10
744.9594
 20
-0.0277
 10
744.7342
 20
-0.1123
 10
744.5173
 20
-0.2158
 10
744.3085
 20
-0.3381
 10
744.1079
 20
-0.4792
 10
743.9337
 20
-0.6198
 10
743.7673
 20
-0.7708
 10
743.6088
 20
-0.9323
 10
743.4582
 20
-1.1039
 10
743.3154
 20
-1.2858
 10
743.1805
 20
-1.4777
 10
743.0534
 20
-1.6796
 10
742.9342
 20
-1.8914
 10
742.8416
 20
-1.6962
 10
742.7405
 20
-1.5075
 10
742.6308
 20
-1.3262
 10
742.5127
 20
-1.153
 10
742.4039
 20
-1.0123
 10
742.2884
 20
-0.8786
 10
742.1661
 20
-0.7521
 10
742.037
 20
-0.6327
 10
741.9011
 20
-0.5204
 10
741.7585
 20
-0.4152
 10
741.6092
 20
-0.3172
 10
741.4531
 20
-0.2262
 10
741.2872
 20
-0.1443
 10
741.1085
 20
-0.0734
 10
740.917
 20
-0.0134
 10
740.7127
 20
0.0356
 10
740.4955
 20
0.0737
 10
740.2656
 20
0.101
 10
740.0228
 20
0.1173
 10
739.7672
 20
0.1227
 10
739.5093
 20
0.1133
 10
739.2595
 20
0.0851
 10
739.0179
 20
0.0381
 10
738.7845
 20
-0.0277
 10
738.5592
 20
-0.1123
 10
738.3421
 20
-0.2158
 10
738.1333
 20
-0.3381
 10
737.9326
 20
-0.4792
 10
737.7668
 20
-0.6131
 10
737.608
 20
-0.756
 10
737.4564
 20
-0.9082
 10
737.3118
 20
-1.0695
 10
737.1744
 20
-1.24
 10
737.0441
 20
-1.4198
 10
736.9209
 20
-1.609
 10
736.8049
 20
-1.8075
 10
736.8049
 20
-0.1177
 10
735.2104
 20
-0.1177
 10
735.2104
 20
-10.7136
 10
736.8049
 20
-10.7136
 10
736.8049
 20
-5.2911
 10
736.842
 20
-4.9752
 10
736.8905
 20
-4.6716
 10
736.9503
 20
-4.3803
 10
737.0215
 20
-4.1011
 10
737.1041
 20
-3.834
 10
737.1981
 20
-3.5788
 10
737.3035
 20
-3.3355
 10
737.4204
 20
-3.1039
 10
737.5155
 20
-2.9391
 10
737.6184
 20
-2.7818
 10
737.7291
 20
-2.632
 10
737.8477
 20
-2.4898
 10
737.974
 20
-2.355
 10
738.1082
 20
-2.2278
 10
738.2502
 20
-2.1081
 10
738.4001
 20
-1.996
 10
738.5553
 20
-1.8944
 10
738.7134
 20
-1.8063
 10
738.8743
 20
-1.7318
 10
739.038
 20
-1.6709
 10
739.2047
 20
-1.6235
 10
739.3742
 20
-1.5896
 10
739.5465
 20
-1.5693
 10
739.7218
 20
-1.5625
 10
739.8926
 20
-1.5661
 10
740.0521
 20
-1.5769
 10
740.2001
 20
-1.5948
 10
740.3369
 20
-1.6199
 10
740.4622
 20
-1.6521
 10
740.576
 20
-1.6915
 10
740.6785
 20
-1.738
 10
740.7695
 20
-1.7916
 10
740.9992
 20
-1.971
 10
741.1982
 20
-2.1813
 10
741.3666
 20
-2.4225
 10
741.5043
 20
-2.6945
 10
741.6115
 20
-2.9974
 10
741.688
 20
-3.3311
 10
741.7339
 20
-3.6958
 10
741.7492
 20
-4.0913
 10
741.7492
 20
-10.7136
 10
743.3443
 20
-10.7136
 10
743.3443
 20
-4.0913
 10
743.333
 20
-3.6858
 10
743.5951
 20
-3.1039
 10
743.6902
 20
-2.9391
 10
743.7931
 20
-2.7818
 10
743.9038
 20
-2.632
 10
744.0223
 20
-2.4898
 10
744.1486
 20
-2.355
 10
744.2828
 20
-2.2278
 10
744.4248
 20
-2.1081
 10
744.5747
 20
-1.996
 10
744.7299
 20
-1.8944
 10
744.888
 20
-1.8063
 10
745.0489
 20
-1.7318
 10
745.2126
 20
-1.6709
 10
745.3793
 20
-1.6235
 10
745.5488
 20
-1.5896
 10
745.7211
 20
-1.5693
 10
745.8964
 20
-1.5625
 10
746.0672
 20
-1.5661
 10
746.2267
 20
-1.5769
 10
746.3748
 20
-1.5948
 10
746.5116
 20
-1.6199
 10
746.637
 20
-1.6521
 10
746.751
 20
-1.6915
 10
746.8536
 20
-1.738
 10
746.9448
 20
-1.7916
 10
747.1743
 20
-1.971
 10
747.3732
 20
-2.1813
 10
747.5415
 20
-2.4225
 10
747.6793
 20
-2.6945
 10
747.7865
 20
-2.9974
 10
747.8631
 20
-3.3311
 10
747.9091
 20
-3.6958
 10
747.9244
 20
-4.0913
 10
747.9244
 20
-10.7136
  0
LWPOLYLINE
  5
78
330
1F
100
AcDbEntity
  8
Layer 1
 62
     7
370
    35
100
AcDbPolyline
 90
       33
 70
     1
 43
0.0
 10
490.6162
 20
133.3939
 10
516.9978
 20
130.9061
 10
541.5697
 20
123.7711
 10
563.8054
 20
112.4812
 10
583.1788
 20
97.5288
 10
599.1632
 20
79.4063
 10
611.2324
 20
58.606
 10
618.8599
 20
35.6204
 10
621.5194
 20
10.9419
 10
618.8599
 20
-13.7365
 10
611.2324
 20
-36.7221
 10
599.1632
 20
-57.5224
 10
583.1788
 20
-75.6451
 10
563.8054
 20
-90.5977
 10
541.5697
 20
-101.8878
 10
516.9978
 20
-109.023
 10
490.6162
 20
-111.5108
 10
464.2345
 20
-109.023
 10
439.6625
 20
-101.8878
 10
417.4267
 20
-90.5977
 10
398.0535
 20
-75.6451
 10
382.0691
 20
-57.5224
 10
370.0
 20
-36.7221
 10
362.3726
 20
-13.7365
 10
359.7131
 20
10.9419
 10
362.3726
 20
35.6204
 10
370.0
 20
58.606
 10
382.0691
 20
79.4063
 10
398.0535
 20
97.5288
 10
417.4267
 20
112.4812
 10
439.6625
 20
123.7711
 10
464.2345
 20
130.9061
 10
490.6162
 20
133.3939
  0
LWPOLYLINE
  5
79
330
1F
100
AcDbEntity
  8
Layer 1
 62
     7
370
    35
100
AcDbPolyline
 90
        4
 70
     0
 43
0.0
 10
829.1948
 20
82.9408
 10
829.1948
 20
98.4418
 10
1085.4171
 20
98.4418
 10
1085.4171
 20
83.5607
  0
LWPOLYLINE
  5
7A
330
1F
100
AcDbEntity
  8
Layer 1
 62
     7
370
    35
100
AcDbPolyline
 90
        2
 70
     0
 43
0.0
 10
832.135
 20
97.4657
 10
826.9476
 20
99.1795
  0
LWPOLYLINE
  5
7B
330
1F
100
AcDbEntity
  8
Layer 1
 62
     7
370
    35
100
AcDbPolyline
 90
        2
 70
     0
 43
0.0
 10
1088.0102
 20
97.447
 10
1082.8234
 20
99.1602
  0
LWPOLYLINE
  5
7C
330
1F
100
AcDbEntity
  8
Layer 1
 62
     7
100
AcDbPolyline
 90
        4
 70
     1
 43
0.0
 10
928.7132
 20
119.1355
 10
928.7132
 20
109.6715
 10
922.7887
 20
109.6715
 10
928.7132
 20
119.1355
  0
LWPOLYLINE
  5
7D
330
1F
100
AcDbEntity
  8
Layer 1
 62
     7
100
AcDbPolyline
 90
       11
 70
     1
 43
0.0
 10
930.3764
 20
107.9377
 10
932.3357
 20
107.9377
 10
932.3357
 20
109.6715
 10
930.3764
 20
109.6715
 10
930.3537
 20
120.9658
 10
928.1203
 20
120.9658
 10
919.9638
 20
107.9377
 10
928.7132
 20
107.9377
 10
928.7132
 20
104.5906
 10
930.3764
 20
104.5906
 10
930.3764
 20
107.9377
  0
LWPOLYLINE
  5
7E
330
1F
100
AcDbEntity
  8
Layer 1
 62
     7
100
AcDbPolyline
 90
        7
 70
     1
 43
0.0
 10
936.779
 20
104.5906
 10
938.3736
 20
104.5906
 10
938.3736
 20
121.1583
 10
934.5457
 20
120.7248
 10
934.5457
 20
119.256
 10
936.779
 20
119.256
 10
936.779
 20
104.5906
  0
LWPOLYLINE
  5
7F
330
1F
100
AcDbEntity
  8
Layer 1
 62
     7
100
AcDbPolyline
 90
      113
 70
     1
 43
0.0
 10
947.5678
 20
119.0629
 10
947.8308
 20
118.8741
 10
948.0761
 20
118.6597
 10
948.3036
 20
118.4197
 10
948.5133
 20
118.1541
 10
948.7052
 20
117.8629
 10
948.8793
 20
117.5461
 10
949.0357
 20
117.2037
 10
949.1743
 20
116.8357
 10
949.3291
 20
116.3475
 10
949.4632
 20
115.8521
 10
949.5767
 20
115.3496
 10
949.6695
 20
114.8399
 10
949.7417
 20
114.323
 10
949.7933
 20
113.799
 10
949.8242
 20
113.2679
 10
949.8345
 20
112.7296
 10
949.8302
 20
112.4656
 10
949.8175
 20
112.1789
 10
949.7962
 20
111.8696
 10
949.7665
 20
111.5378
 10
949.6875
 20
110.8905
 10
949.5843
 20
110.2789
 10
949.4568
 20
109.7031
 10
949.305
 20
109.1629
 10
949.1291
 20
108.6585
 10
948.9289
 20
108.1899
 10
948.7046
 20
107.757
 10
948.4561
 20
107.3598
 10
948.2294
 20
107.0607
 10
947.9906
 20
106.8014
 10
947.7396
 20
106.582
 10
947.4766
 20
106.4025
 10
947.2015
 20
106.2629
 10
946.9142
 20
106.1632
 10
946.6149
 20
106.1033
 10
946.3034
 20
106.0834
 10
945.9557
 20
106.1032
 10
945.6248
 20
106.1624
 10
945.3105
 20
106.2612
 10
945.0131
 20
106.3995
 10
944.7323
 20
106.5773
 10
944.4683
 20
106.7946
 10
944.2211
 20
107.0515
 10
943.9906
 20
107.3478
 10
943.893
 20
107.4916
 10
943.7998
 20
107.6399
 10
943.7107
 20
107.7927
 10
943.626
 20
107.95
 10
943.5455
 20
108.1118
 10
943.4693
 20
108.2781
 10
943.3974
 20
108.4489
 10
943.3298
 20
108.6242
 10
943.2067
 20
108.9816
 10
943.0992
 20
109.3436
 10
943.0073
 20
109.7101
 10
942.931
 20
110.081
 10
942.8675
 20
110.4514
 10
942.8141
 20
110.8156
 10
942.7706
 20
111.1737
 10
942.7369
 20
111.5258
 10
942.7236
 20
111.7037
 10
942.7121
 20
111.8884
 10
942.7023
 20
112.0798
 10
942.6944
 20
112.2778
 10
942.6882
 20
112.4824
 10
942.6837
 20
112.6935
 10
942.6811
 20
112.9111
 10
942.6802
 20
113.1351
 10
942.6841
 20
113.3691
 10
942.6959
 20
113.6168
 10
942.7155
 20
113.8781
 10
942.743
 20
114.1532
 10
942.7783
 20
114.4419
 10
942.8214
 20
114.7445
 10
942.8723
 20
115.0608
 10
942.931
 20
115.3909
 10
943.0065
 20
115.7573
 10
943.0961
 20
116.1223
 10
943.2
 20
116.4858
 10
943.3184
 20
116.8477
 10
943.3834
 20
117.026
 10
943.453
 20
117.1998
 10
943.5272
 20
117.3691
 10
943.606
 20
117.5339
 10
943.6895
 20
117.6942
 10
943.7775
 20
117.85
 10
943.8701
 20
118.0013
 10
943.9673
 20
118.1481
 10
944.0695
 20
118.2891
 10
944.1767
 20
118.4229
 10
944.2889
 20
118.5495
 10
944.4061
 20
118.6689
 10
944.5283
 20
118.7812
 10
944.6554
 20
118.8863
 10
944.7874
 20
118.9842
 10
944.9243
 20
119.0749
 10
945.0671
 20
119.1568
 10
945.2163
 20
119.2278
 10
945.3719
 20
119.2879
 10
945.5339
 20
119.3371
 10
945.7023
 20
119.3753
 10
945.8771
 20
119.4026
 10
946.0583
 20
119.419
 10
946.246
 20
119.4245
 10
946.4337
 20
119.4188
 10
946.6149
 20
119.4019
 10
946.7898
 20
119.3736
 10
946.9582
 20
119.3341
 10
947.1202
 20
119.2832
 10
947.2758
 20
119.2211
 10
947.425
 20
119.1476
 10
947.5678
 20
119.0629
  0
LWPOLYLINE
  5
80
330
1F
100
AcDbEntity
  8
Layer 1
 62
     7
100
AcDbPolyline
 90
       65
 70
     1
 43
0.0
 10
946.326
 20
104.3736
 10
946.9911
 20
104.4182
 10
947.6139
 20
104.552
 10
948.1944
 20
104.7749
 10
948.7325
 20
105.0871
 10
949.2282
 20
105.4884
 10
949.6816
 20
105.9789
 10
950.0927
 20
106.5585
 10
950.4614
 20
107.2273
 10
950.7203
 20
107.811
 10
950.9447
 20
108.427
 10
951.1346
 20
109.0754
 10
951.2901
 20
109.7561
 10
951.4109
 20
110.4691
 10
951.4973
 20
111.2145
 10
951.5491
 20
111.9922
 10
951.5664
 20
112.8022
 10
951.5491
 20
113.6122
 10
951.4973
 20
114.3899
 10
951.4109
 20
115.1353
 10
951.2901
 20
115.8483
 10
951.1346
 20
116.529
 10
950.9447
 20
117.1774
 10
950.7203
 20
117.7934
 10
950.4614
 20
118.3771
 10
950.0927
 20
119.0459
 10
949.6816
 20
119.6254
 10
949.2282
 20
120.1158
 10
948.7325
 20
120.517
 10
948.1944
 20
120.829
 10
947.6139
 20
121.0519
 10
946.9911
 20
121.1856
 10
946.326
 20
121.2302
 10
945.6607
 20
121.1856
 10
945.0378
 20
121.0519
 10
944.4572
 20
120.829
 10
943.9191
 20
120.517
 10
943.4233
 20
120.1158
 10
942.9698
 20
119.6254
 10
942.5588
 20
119.0459
 10
942.1901
 20
118.3771
 10
941.9312
 20
117.7934
 10
941.7067
 20
117.1774
 10
941.5168
 20
116.529
 10
941.3614
 20
115.8483
 10
941.2405
 20
115.1353
 10
941.1542
 20
114.3899
 10
941.1024
 20
113.6122
 10
941.0851
 20
112.8022
 10
941.1024
 20
111.9922
 10
941.1542
 20
111.2145
 10
941.2405
 20
110.4691
 10
941.3614
 20
109.7561
 10
941.5168
 20
109.0754
 10
941.7067
 20
108.427
 10
941.9312
 20
107.811
 10
942.1901
 20
107.2273
 10
942.5588
 20
106.5585
 10
942.9698
 20
105.9789
 10
943.4233
 20
105.4884
 10
943.9191
 20
105.0871
 10
944.4572
 20
104.7749
 10
945.0378
 20
104.552
 10
945.6607
 20
104.4182
 10
946.326
 20
104.3736
  0
LWPOLYLINE
  5
81
330
1F
100
AcDbEntity
  8
Layer 1
 62
     7
100
AcDbPolyline
 90
      162
 70
     1
 43
0.0
 10
967.1292
 20
104.6386
 10
968.7237
 20
104.6386
 10
968.7237
 20
111.2608
 10
968.7107
 20
111.7006
 10
968.6717
 20
112.1196
 10
968.6068
 20
112.5179
 10
968.5159
 20
112.8955
 10
968.3989
 20
113.2524
 10
968.256
 20
113.5886
 10
968.0871
 20
113.9042
 10
967.8922
 20
114.1991
 10
967.7835
 20
114.3398
 10
967.668
 20
114.4735
 10
967.5457
 20
114.6
 10
967.4168
 20
114.7194
 10
967.281
 20
114.8317
 10
967.1385
 20
114.9369
 10
966.9892
 20
115.035
 10
966.8331
 20
115.1259
 10
966.667
 20
115.2078
 10
966.4882
 20
115.2788
 10
966.2965
 20
115.3387
 10
966.0922
 20
115.3878
 10
965.875
 20
115.4259
 10
965.645
 20
115.4531
 10
965.4022
 20
115.4694
 10
965.1466
 20
115.4748
 10
964.8887
 20
115.4654
 10
964.639
 20
115.4372
 10
964.3976
 20
115.3902
 10
964.1643
 20
115.3244
 10
963.9391
 20
115.2398
 10
963.7222
 20
115.1363
 10
963.5133
 20
115.014
 10
963.3127
 20
114.8729
 10
963.1385
 20
114.7323
 10
962.9721
 20
114.5813
 10
962.8136
 20
114.4198
 10
962.663
 20
114.2482
 10
962.5202
 20
114.0663
 10
962.3853
 20
113.8744
 10
962.2582
 20
113.6725
 10
962.139
 20
113.4607
 10
962.0464
 20
113.6559
 10
961.9453
 20
113.8446
 10
961.8356
 20
114.0259
 10
961.7175
 20
114.1991
 10
961.6088
 20
114.3398
 10
961.4932
 20
114.4735
 10
961.3709
 20
114.6
 10
961.2418
 20
114.7194
 10
961.106
 20
114.8317
 10
960.9633
 20
114.9369
 10
960.814
 20
115.035
 10
960.6579
 20
115.1259
 10
960.492
 20
115.2078
 10
960.3133
 20
115.2788
 10
960.1218
 20
115.3387
 10
959.9175
 20
115.3878
 10
959.7003
 20
115.4259
 10
959.4704
 20
115.4531
 10
959.2276
 20
115.4694
 10
958.972
 20
115.4748
 10
958.7141
 20
115.4654
 10
958.4643
 20
115.4372
 10
958.2227
 20
115.3902
 10
957.9893
 20
115.3244
 10
957.764
 20
115.2398
 10
957.5469
 20
115.1363
 10
957.3381
 20
115.014
 10
957.1374
 20
114.8729
 10
956.9716
 20
114.739
 10
956.8128
 20
114.5961
 10
956.6612
 20
114.444
 10
956.5166
 20
114.2827
 10
956.3792
 20
114.1121
 10
956.2489
 20
113.9323
 10
956.1258
 20
113.7431
 10
956.0098
 20
113.5446
 10
956.0098
 20
115.2344
 10
954.4152
 20
115.2344
 10
954.4152
 20
104.6386
 10
956.0098
 20
104.6386
 10
956.0098
 20
110.061
 10
956.0469
 20
110.3769
 10
956.0953
 20
110.6805
 10
956.1551
 20
110.9718
 10
956.2263
 20
111.251
 10
956.3089
 20
111.5181
 10
956.4029
 20
111.7733
 10
956.5084
 20
112.0166
 10
956.6253
 20
112.2482
 10
956.7204
 20
112.413
 10
956.8233
 20
112.5703
 10
956.934
 20
112.7201
 10
957.0525
 20
112.8624
 10
957.1788
 20
112.9971
 10
957.313
 20
113.1244
 10
957.455
 20
113.2441
 10
957.6049
 20
113.3562
 10
957.7601
 20
113.4578
 10
957.9182
 20
113.5458
 10
958.0791
 20
113.6203
 10
958.2428
 20
113.6812
 10
958.4095
 20
113.7286
 10
958.579
 20
113.7625
 10
958.7513
 20
113.7828
 10
958.9266
 20
113.7896
 10
959.0974
 20
113.786
 10
959.2569
 20
113.7753
 10
959.405
 20
113.7573
 10
959.5417
 20
113.7323
 10
959.667
 20
113.7
 10
959.7809
 20
113.6607
 10
959.8833
 20
113.6142
 10
959.9743
 20
113.5606
 10
960.204
 20
113.3811
 10
960.403
 20
113.1708
 10
960.5714
 20
112.9297
 10
960.7091
 20
112.6576
 10
960.8163
 20
112.3548
 10
960.8928
 20
112.021
 10
960.9387
 20
111.6563
 10
960.954
 20
111.2608
 10
960.954
 20
104.6386
 10
962.5491
 20
104.6386
 10
962.5491
 20
111.2608
 10
962.5378
 20
111.6663
 10
962.7999
 20
112.2482
 10
962.895
 20
112.413
 10
962.9979
 20
112.5703
 10
963.1086
 20
112.7201
 10
963.2271
 20
112.8624
 10
963.3535
 20
112.9971
 10
963.4876
 20
113.1244
 10
963.6296
 20
113.2441
 10
963.7795
 20
113.3562
 10
963.9347
 20
113.4578
 10
964.0928
 20
113.5458
 10
964.2537
 20
113.6203
 10
964.4175
 20
113.6812
 10
964.5841
 20
113.7286
 10
964.7536
 20
113.7625
 10
964.926
 20
113.7828
 10
965.1013
 20
113.7896
 10
965.2721
 20
113.786
 10
965.4316
 20
113.7753
 10
965.5797
 20
113.7573
 10
965.7164
 20
113.7323
 10
965.8418
 20
113.7
 10
965.9558
 20
113.6607
 10
966.0584
 20
113.6142
 10
966.1496
 20
113.5606
 10
966.3791
 20
113.3811
 10
966.578
 20
113.1708
 10
966.7464
 20
112.9297
 10
966.8842
 20
112.6576
 10
966.9913
 20
112.3548
 10
967.0679
 20
112.021
 10
967.1139
 20
111.6563
 10
967.1292
 20
111.2608
 10
967.1292
 20
104.6386
  0
LWPOLYLINE
  5
82
330
1F
100
AcDbEntity
  8
Layer 1
 62
     7
100
AcDbPolyline
 90
      162
 70
     1
 43
0.0
 10
984.514
 20
104.6386
 10
986.1086
 20
104.6386
 10
986.1086
 20
111.2608
 10
986.0956
 20
111.7006
 10
986.0566
 20
112.1196
 10
985.9917
 20
112.5179
 10
985.9007
 20
112.8955
 10
985.7838
 20
113.2524
 10
985.6408
 20
113.5886
 10
985.4719
 20
113.9042
 10
985.277
 20
114.1991
 10
985.1683
 20
114.3398
 10
985.0528
 20
114.4735
 10
984.9305
 20
114.6
 10
984.8016
 20
114.7194
 10
984.6658
 20
114.8317
 10
984.5233
 20
114.9369
 10
984.374
 20
115.035
 10
984.2179
 20
115.1259
 10
984.0518
 20
115.2078
 10
983.873
 20
115.2788
 10
983.6814
 20
115.3387
 10
983.477
 20
115.3878
 10
983.2598
 20
115.4259
 10
983.0298
 20
115.4531
 10
982.787
 20
115.4694
 10
982.5314
 20
115.4748
 10
982.2735
 20
115.4654
 10
982.0238
 20
115.4372
 10
981.7824
 20
115.3902
 10
981.5491
 20
115.3244
 10
981.3239
 20
115.2398
 10
981.107
 20
115.1363
 10
980.8981
 20
115.014
 10
980.6975
 20
114.8729
 10
980.5233
 20
114.7323
 10
980.357
 20
114.5813
 10
980.1985
 20
114.4198
 10
980.0478
 20
114.2482
 10
979.9051
 20
114.0663
 10
979.7701
 20
113.8744
 10
979.643
 20
113.6725
 10
979.5238
 20
113.4607
 10
979.4312
 20
113.6559
 10
979.3301
 20
113.8446
 10
979.2204
 20
114.0259
 10
979.1023
 20
114.1991
 10
978.9936
 20
114.3398
 10
978.878
 20
114.4735
 10
978.7557
 20
114.6
 10
978.6266
 20
114.7194
 10
978.4908
 20
114.8317
 10
978.3481
 20
114.9369
 10
978.1988
 20
115.035
 10
978.0427
 20
115.1259
 10
977.8768
 20
115.2078
 10
977.6981
 20
115.2788
 10
977.5066
 20
115.3387
 10
977.3023
 20
115.3878
 10
977.0851
 20
115.4259
 10
976.8552
 20
115.4531
 10
976.6124
 20
115.4694
 10
976.3568
 20
115.4748
 10
976.0989
 20
115.4654
 10
975.8491
 20
115.4372
 10
975.6075
 20
115.3902
 10
975.3741
 20
115.3244
 10
975.1488
 20
115.2398
 10
974.9318
 20
115.1363
 10
974.7229
 20
115.014
 10
974.5223
 20
114.8729
 10
974.3564
 20
114.739
 10
974.1977
 20
114.5961
 10
974.046
 20
114.444
 10
973.9015
 20
114.2827
 10
973.764
 20
114.1121
 10
973.6337
 20
113.9323
 10
973.5106
 20
113.7431
 10
973.3946
 20
113.5446
 10
973.3946
 20
115.2344
 10
971.8
 20
115.2344
 10
971.8
 20
104.6386
 10
973.3946
 20
104.6386
 10
973.3946
 20
110.061
 10
973.4317
 20
110.3769
 10
973.4801
 20
110.6805
 10
973.5399
 20
110.9718
 10
973.6111
 20
111.251
 10
973.6937
 20
111.5181
 10
973.7877
 20
111.7733
 10
973.8932
 20
112.0166
 10
974.0101
 20
112.2482
 10
974.1052
 20
112.413
 10
974.2081
 20
112.5703
 10
974.3188
 20
112.7201
 10
974.4373
 20
112.8624
 10
974.5636
 20
112.9971
 10
974.6978
 20
113.1244
 10
974.8398
 20
113.2441
 10
974.9897
 20
113.3562
 10
975.1449
 20
113.4578
 10
975.303
 20
113.5458
 10
975.4639
 20
113.6203
 10
975.6277
 20
113.6812
 10
975.7943
 20
113.7286
 10
975.9638
 20
113.7625
 10
976.1362
 20
113.7828
 10
976.3115
 20
113.7896
 10
976.4823
 20
113.786
 10
976.6417
 20
113.7753
 10
976.7898
 20
113.7573
 10
976.9265
 20
113.7323
 10
977.0518
 20
113.7
 10
977.1657
 20
113.6607
 10
977.2681
 20
113.6142
 10
977.3591
 20
113.5606
 10
977.5888
 20
113.3811
 10
977.7878
 20
113.1708
 10
977.9562
 20
112.9297
 10
978.0939
 20
112.6576
 10
978.2011
 20
112.3548
 10
978.2776
 20
112.021
 10
978.3235
 20
111.6563
 10
978.3388
 20
111.2608
 10
978.3388
 20
104.6386
 10
979.9339
 20
104.6386
 10
979.9339
 20
111.2608
 10
979.9226
 20
111.6663
 10
980.1847
 20
112.2482
 10
980.2798
 20
112.413
 10
980.3827
 20
112.5703
 10
980.4934
 20
112.7201
 10
980.6119
 20
112.8624
 10
980.7383
 20
112.9971
 10
980.8724
 20
113.1244
 10
981.0144
 20
113.2441
 10
981.1643
 20
113.3562
 10
981.3195
 20
113.4578
 10
981.4776
 20
113.5458
 10
981.6385
 20
113.6203
 10
981.8023
 20
113.6812
 10
981.9689
 20
113.7286
 10
982.1384
 20
113.7625
 10
982.3108
 20
113.7828
 10
982.4861
 20
113.7896
 10
982.6569
 20
113.786
 10
982.8164
 20
113.7753
 10
982.9645
 20
113.7573
 10
983.1012
 20
113.7323
 10
983.2266
 20
113.7
 10
983.3406
 20
113.6607
 10
983.4432
 20
113.6142
 10
983.5344
 20
113.5606
 10
983.7639
 20
113.3811
 10
983.9628
 20
113.1708
 10
984.1312
 20
112.9297
 10
984.269
 20
112.6576
 10
984.3761
 20
112.3548
 10
984.4527
 20
112.021
 10
984.4987
 20
111.6563
 10
984.514
 20
111.2608
 10
984.514
 20
104.6386
  0
LWPOLYLINE
  5
83
330
1F
100
AcDbEntity
  8
Layer 1
 62
     7
370
    35
100
AcDbPolyline
 90
       19
 70
     0
 43
0.0
 10
957.14
 20
-68.128
 10
948.1219
 20
-68.1676
 10
937.3648
 20
-68.2261
 10
925.761
 20
-68.2889
 10
914.2026
 20
-68.3415
 10
903.5816
 20
-68.369
 10
894.7903
 20
-68.3571
 10
888.7207
 20
-68.2909
 10
886.2651
 20
-68.1559
 10
859.3383
 20
-51.4703
 10
840.2264
 20
-32.9831
 10
827.746
 20
-13.6515
 10
820.7138
 20
5.5675
 10
817.9465
 20
23.7167
 10
818.2607
 20
39.8392
 10
820.4732
 20
52.9777
 10
823.4007
 20
62.1752
 10
858.4482
 20
62.1752
 10
957.7095
 20
62.1752
  0
LWPOLYLINE
  5
84
330
1F
100
AcDbEntity
  8
Layer 1
 62
     7
370
    35
100
AcDbPolyline
 90
       19
 70
     0
 43
0.0
 10
956.9144
 20
-68.128
 10
965.9326
 20
-68.1676
 10
976.6898
 20
-68.2261
 10
988.2937
 20
-68.2889
 10
999.8524
 20
-68.3415
 10
1010.4735
 20
-68.369
 10
1019.2649
 20
-68.3571
 10
1025.3344
 20
-68.2909
 10
1027.7899
 20
-68.1559
 10
1054.7167
 20
-51.4703
 10
1073.8287
 20
-32.9831
 10
1086.3092
 20
-13.6515
 10
1093.3414
 20
5.5675
 10
1096.1088
 20
23.7167
 10
1095.7945
 20
39.8392
 10
1093.5819
 20
52.9777
 10
1090.6543
 20
62.1752
 10
1055.6075
 20
62.1752
 10
956.3462
 20
62.1752
  0
ENDSEC
  0
SECTION
  2
OBJECTS
  0
DICTIONARY
  5
C
330
0
100
AcDbDictionary
281
     1
  3
ACAD_DETAILVIEWSTYLE
350
8C
  3
ACAD_GROUP
350
D
  3
ACAD_LAYOUT
350
1A
  3
ACAD_MATERIAL
350
43
  3
ACAD_MLEADERSTYLE
350
5B
  3
ACAD_MLINESTYLE
350
17
  3
ACAD_PLOTSETTINGS
350
19
  3
ACAD_PLOTSTYLENAME
350
E
  3
ACAD_SCALELIST
350
47
  3
ACAD_SECTIONVIEWSTYLE
350
8D
  3
ACAD_TABLESTYLE
350
59
  3
ACAD_VISUALSTYLE
350
2A
  3
ACDB_RECOMPOSE_DATA
350
89
  3
AcDbVariableDictionary
350
85
  0
SUN
  5
5D
330
29
100
AcDbSun
 90
        1
290
     0
 63
     7
421
 16777215
 40
1.0
291
     1
 91
  2455826
 92
 54000000
292
     0
 70
     2
 71
   256
280
     1
  0
DICTIONARY
  5
8C
102
{ACAD_REACTORS
330
C
102
}
330
C
100
AcDbDictionary
281
     1
  0
DICTIONARY
  5
D
102
{ACAD_REACTORS
330
C
102
}
330
C
100
AcDbDictionary
281
     1
  0
DICTIONARY
  5
1A
102
{ACAD_REACTORS
330
C
102
}
330
C
100
AcDbDictionary
281
     1
  3
Layout1
350
1E
  3
Layout2
350
26
  3
Model
350
22
  0
DICTIONARY
  5
43
102
{ACAD_REACTORS
330
C
102
}
330
C
100
AcDbDictionary
281
     1
  3
ByBlock
350
45
  3
ByLayer
350
44
  3
Global
350
46
  0
DICTIONARY
  5
5B
102
{ACAD_REACTORS
330
C
102
}
330
C
100
AcDbDictionary
281
     1
  3
Standard
350
5C
  0
DICTIONARY
  5
17
102
{ACAD_REACTORS
330
C
102
}
330
C
100
AcDbDictionary
281
     1
  3
Standard
350
18
  0
DICTIONARY
  5
19
102
{ACAD_REACTORS
330
C
102
}
330
C
100
AcDbDictionary
281
     1
  0
ACDBDICTIONARYWDFLT
  5
E
102
{ACAD_REACTORS
330
C
102
}
330
C
100
AcDbDictionary
281
     1
  3
Normal
350
F
100
AcDbDictionaryWithDefault
340
F
  0
DICTIONARY
  5
47
102
{ACAD_REACTORS
330
C
102
}
330
C
100
AcDbDictionary
281
     1
  3
A0
350
48
  3
A1
350
49
  3
A2
350
4A
  3
A3
350
4B
  3
A4
350
4C
  3
A5
350
4D
  3
A6
350
4E
  3
A7
350
4F
  3
A8
350
50
  3
A9
350
51
  3
B1
350
52
  3
B2
350
53
  3
B3
350
54
  3
B4
350
55
  3
B5
350
56
  3
B6
350
57
  3
B7
350
58
  0
DICTIONARY
  5
8D
102
{ACAD_REACTORS
330
C
102
}
330
C
100
AcDbDictionary
281
     1
  0
DICTIONARY
  5
59
102
{ACAD_REACTORS
330
C
102
}
330
C
100
AcDbDictionary
281
     1
  3
Standard
350
5A
  0
DICTIONARY
  5
2A
102
{ACAD_REACTORS
330
C
102
}
330
C
100
AcDbDictionary
281
     1
  3
2dWireframe
350
2F
  3
Basic
350
32
  3
Brighten
350
36
  3
ColorChange
350
3A
  3
Conceptual
350
34
  3
Dim
350
35
  3
EdgeColorOff
350
3D
  3
Facepattern
350
39
  3
Flat
350
2B
  3
FlatWithEdges
350
2C
  3
Gouraud
350
2D
  3
GouraudWithEdges
350
2E
  3
Hidden
350
31
  3
JitterOff
350
3B
  3
Linepattern
350
38
  3
OverhangOff
350
3C
  3
Realistic
350
33
  3
Shaded
350
42
  3
Shaded with edges
350
41
  3
Shades of Gray
350
3E
  3
Sketchy
350
3F
  3
Thicken
350
37
  3
Wireframe
350
30
  3
X-Ray
350
40
  0
XRECORD
  5
89
102
{ACAD_REACTORS
330
C
102
}
330
C
100
AcDbXrecord
280
     1
 90
        1
330
5A
  0
DICTIONARY
  5
85
102
{ACAD_REACTORS
330
C
102
}
330
C
100
AcDbDictionary
281
     1
  3
CANNOSCALE
350
86
  3
CMLEADERSTYLE
350
8B
  3
CTABLESTYLE
350
8A
  0
LAYOUT
  5
1E
102
{ACAD_REACTORS
330
1A
102
}
330
1A
100
AcDbPlotSettings
  1

  2
none_device
  4

  6

 40
0.0
 41
0.0
 42
0.0
 43
0.0
 44
0.0
 45
0.0
 46
0.0
 47
0.0
 48
0.0
 49
0.0
140
0.0
141
0.0
142
1.0
143
1.0
 70
   688
 72
     0
 73
     0
 74
     5
  7

 75
    16
 76
     0
 77
     2
 78
   300
147
1.0
148
0.0
149
0.0
100
AcDbLayout
  1
Layout1
 70
     1
 71
     1
 10
0.0
 20
0.0
 11
12.0
 21
9.0
 12
0.0
 22
0.0
 32
0.0
 14
1.000000000000000E+20
 24
1.000000000000000E+20
 34
1.000000000000000E+20
 15
-1.000000000000000E+20
 25
-1.000000000000000E+20
 35
-1.000000000000000E+20
146
0.0
 13
0.0
 23
0.0
 33
0.0
 16
1.0
 26
0.0
 36
0.0
 17
0.0
 27
1.0
 37
0.0
 76
     0
330
1B
  0
LAYOUT
  5
26
102
{ACAD_REACTORS
330
1A
102
}
330
1A
100
AcDbPlotSettings
  1

  2
none_device
  4

  6

 40
0.0
 41
0.0
 42
0.0
 43
0.0
 44
0.0
 45
0.0
 46
0.0
 47
0.0
 48
0.0
 49
0.0
140
0.0
141
0.0
142
1.0
143
1.0
 70
   688
 72
     0
 73
     0
 74
     5
  7

 75
    16
 76
     0
 77
     2
 78
   300
147
1.0
148
0.0
149
0.0
100
AcDbLayout
  1
Layout2
 70
     1
 71
     2
 10
0.0
 20
0.0
 11
0.0
 21
0.0
 12
0.0
 22
0.0
 32
0.0
 14
0.0
 24
0.0
 34
0.0
 15
0.0
 25
0.0
 35
0.0
146
0.0
 13
0.0
 23
0.0
 33
0.0
 16
1.0
 26
0.0
 36
0.0
 17
0.0
 27
1.0
 37
0.0
 76
     0
330
23
  0
LAYOUT
  5
22
102
{ACAD_REACTORS
330
1A
102
}
330
1A
100
AcDbPlotSettings
  1

  2
none_device
  4
Letter_(8.50_x_11.00_Inches)
  6

 40
6.35
 41
6.35
 42
6.35000508
 43
6.35000508
 44
215.9
 45
279.4
 46
0.0
 47
0.0
 48
0.0
 49
0.0
140
0.0
141
0.0
142
1.0
143
1.0
 70
  1712
 72
     0
 73
     0
 74
     0
  7

 75
     0
 76
     0
 77
     2
 78
   300
147
1.0
148
0.0
149
0.0
100
AcDbLayout
  1
Model
 70
     1
 71
     0
 10
0.0
 20
0.0
 11
12.0
 21
9.0
 12
0.0
 22
0.0
 32
0.0
 14
191.1858
 24
-153.0176
 34
0.0
 15
1150.6015
 25
168.2402
 35
0.0
146
0.0
 13
0.0
 23
0.0
 33
0.0
 16
1.0
 26
0.0
 36
0.0
 17
0.0
 27
1.0
 37
0.0
 76
     0
330
1F
331
29
  0
MATERIAL
  5
45
102
{ACAD_REACTORS
330
43
102
}
330
43
100
AcDbMaterial
  1
ByBlock
 72
     1
 94
      127
  0
MATERIAL
  5
44
102
{ACAD_REACTORS
330
43
102
}
330
43
100
AcDbMaterial
  1
ByLayer
 72
     1
 94
      127
  0
MATERIAL
  5
46
102
{ACAD_REACTORS
330
43
102
}
330
43
100
AcDbMaterial
  1
Global
 72
     1
 94
      127
  0
MLEADERSTYLE
  5
5C
102
{ACAD_REACTORS
330
5B
102
}
330
5B
100
AcDbMLeaderStyle
179
     2
170
     2
171
     1
172
     0
 90
        2
 40
0.0
 41
0.0
173
     1
 91
-1056964608
340
14
 92
       -2
290
     1
 42
0.09
291
     1
 43
0.36
  3
Standard
341
0
 44
0.18
300

342
11
174
     1
178
     6
175
     1
176
     0
 93
-1056964608
 45
0.18
292
     0
297
     0
 46
0.18
343
0
 94
-1056964608
 47
1.0
 49
1.0
140
1.0
293
     1
141
0.0
294
     1
177
     0
142
1.0
295
     0
296
     0
143
0.125
271
     0
272
     9
273
     9
298
     0
  0
MLINESTYLE
  5
18
102
{ACAD_REACTORS
330
17
102
}
330
17
100
AcDbMlineStyle
  2
Standard
 70
     0
  3

 62
   256
 51
90.0
 52
90.0
 71
     2
 49
0.5
 62
   256
  6
BYLAYER
 49
-0.5
 62
   256
  6
BYLAYER
  0
ACDBPLACEHOLDER
  5
F
102
{ACAD_REACTORS
330
E
102
}
330
E
  0
SCALE
  5
48
102
{ACAD_REACTORS
330
47
102
}
330
47
100
AcDbScale
 70
     0
300
1:1
140
1.0
141
1.0
290
     1
  0
SCALE
  5
49
102
{ACAD_REACTORS
330
47
102
}
330
47
100
AcDbScale
 70
     0
300
1/128" = 1'-0"
140
0.0078125
141
12.0
290
     0
  0
SCALE
  5
4A
102
{ACAD_REACTORS
330
47
102
}
330
47
100
AcDbScale
 70
     0
300
1/64" = 1'-0"
140
0.015625
141
12.0
290
     0
  0
SCALE
  5
4B
102
{ACAD_REACTORS
330
47
102
}
330
47
100
AcDbScale
 70
     0
300
1/32" = 1'-0"
140
0.03125
141
12.0
290
     0
  0
SCALE
  5
4C
102
{ACAD_REACTORS
330
47
102
}
330
47
100
AcDbScale
 70
     0
300
1/16" = 1'-0"
140
0.0625
141
12.0
290
     0
  0
SCALE
  5
4D
102
{ACAD_REACTORS
330
47
102
}
330
47
100
AcDbScale
 70
     0
300
3/32" = 1'-0"
140
0.09375
141
12.0
290
     0
  0
SCALE
  5
4E
102
{ACAD_REACTORS
330
47
102
}
330
47
100
AcDbScale
 70
     0
300
1/8" = 1'-0"
140
0.125
141
12.0
290
     0
  0
SCALE
  5
4F
102
{ACAD_REACTORS
330
47
102
}
330
47
100
AcDbScale
 70
     0
300
3/16" = 1'-0"
140
0.1875
141
12.0
290
     0
  0
SCALE
  5
50
102
{ACAD_REACTORS
330
47
102
}
330
47
100
AcDbScale
 70
     0
300
1/4" = 1'-0"
140
0.25
141
12.0
290
     0
  0
SCALE
  5
51
102
{ACAD_REACTORS
330
47
102
}
330
47
100
AcDbScale
 70
     0
300
3/8" = 1'-0"
140
0.375
141
12.0
290
     0
  0
SCALE
  5
52
102
{ACAD_REACTORS
330
47
102
}
330
47
100
AcDbScale
 70
     0
300
1/2" = 1'-0"
140
0.5
141
12.0
290
     0
  0
SCALE
  5
53
102
{ACAD_REACTORS
330
47
102
}
330
47
100
AcDbScale
 70
     0
300
3/4" = 1'-0"
140
0.75
141
12.0
290
     0
  0
SCALE
  5
54
102
{ACAD_REACTORS
330
47
102
}
330
47
100
AcDbScale
 70
     0
300
1" = 1'-0"
140
1.0
141
12.0
290
     0
  0
SCALE
  5
55
102
{ACAD_REACTORS
330
47
102
}
330
47
100
AcDbScale
 70
     0
300
1-1/2" = 1'-0"
140
1.5
141
12.0
290
     0
  0
SCALE
  5
56
102
{ACAD_REACTORS
330
47
102
}
330
47
100
AcDbScale
 70
     0
300
3" = 1'-0"
140
3.0
141
12.0
290
     0
  0
SCALE
  5
57
102
{ACAD_REACTORS
330
47
102
}
330
47
100
AcDbScale
 70
     0
300
6" = 1'-0"
140
6.0
141
12.0
290
     0
  0
SCALE
  5
58
102
{ACAD_REACTORS
330
47
102
}
330
47
100
AcDbScale
 70
     0
300
1'-0" = 1'-0"
140
12.0
141
12.0
290
     0
  0
TABLESTYLE
  5
5A
102
{ACAD_REACTORS
330
59
102
}
102
{ACAD_XDICTIONARY
360
87
102
}
330
59
100
AcDbTableStyle
  3
Standard
 70
     0
 71
     0
 40
0.06
 41
0.06
280
     0
281
     0
  7
Standard
140
0.18
170
     2
 62
     0
 63
   257
283
     0
 90
        4
 91
        0
  1

274
    -2
284
     1
 64
     0
275
    -2
285
     1
 65
     0
276
    -2
286
     1
 66
     0
277
    -2
287
     1
 67
     0
278
    -2
288
     1
 68
     0
279
    -2
289
     1
 69
     0
  7
Standard
140
0.25
170
     5
 62
     0
 63
   257
283
     0
 90
        4
 91
        0
  1

274
    -2
284
     1
 64
     0
275
    -2
285
     1
 65
     0
276
    -2
286
     1
 66
     0
277
    -2
287
     1
 67
     0
278
    -2
288
     1
 68
     0
279
    -2
289
     1
 69
     0
  7
Standard
140
0.18
170
     5
 62
     0
 63
   257
283
     0
 90
        4
 91
        0
  1

274
    -2
284
     1
 64
     0
275
    -2
285
     1
 65
     0
276
    -2
286
     1
 66
     0
277
    -2
287
     1
 67
     0
278
    -2
288
     1
 68
     0
279
    -2
289
     1
 69
     0
  0
VISUALSTYLE
  5
2F
102
{ACAD_REACTORS
330
2A
102
}
330
2A
100
AcDbVisualStyle
  2
2dWireframe
 70
     4
177
     3
291
     0
 70
    58
 90
        0
176
     1
 90
        2
176
     1
 90
        0
176
     1
 90
        0
176
     1
 40
0.6
176
     1
 40
30.0
176
     1
 62
     7
420
 16777215
176
     1
 90
        1
176
     1
 90
        4
176
     1
 62
     7
176
     1
 62
   257
176
     1
 90
        1
176
     1
 90
        1
176
     1
 40
1.0
176
     1
 90
        0
176
     1
 62
   257
176
     1
 40
1.0
176
     1
 90
        1
176
     1
 90
        6
176
     1
 90
        2
176
     1
 62
     7
176
     1
 90
        5
176
     1
 90
        0
176
     1
 90
        0
176
     1
290
     0
176
     1
 90
        1
176
     1
 40
0.0
176
     1
 90
        0
176
     1
290
     1
176
     1
290
     1
176
     1
290
     0
176
     1
290
     0
176
     1
290
     0
176
     1
290
     0
176
     1
290
     0
176
     1
290
     0
176
     1
290
     0
176
     1
 90
       50
176
     1
 40
0.0
176
     1
 40
1.0
176
     1
 90
        0
176
     1
 62
    18
420
        0
176
     1
 90
       50
176
     1
 90
        3
176
     1
 62
     5
420
      255
176
     1
290
     0
176
     1
 90
       50
176
     1
 90
       50
176
     1
 90
       50
176
     1
290
     0
176
     1
 90
       50
176
     1
 62
   256
176
     0
 40
1.0
176
     0
 90
        2
176
     1
  1
strokes_ogs.tif
176
     1
290
     0
176
     1
 40
1.0
176
     1
 40
1.0
176
     1
  0
VISUALSTYLE
  5
32
102
{ACAD_REACTORS
330
2A
102
}
330
2A
100
AcDbVisualStyle
  2
Basic
 70
     7
177
     3
291
     1
 70
    58
 90
        1
176
     1
 90
        0
176
     1
 90
        1
176
     1
 90
        0
176
     1
 40
0.6
176
     1
 40
30.0
176
     1
 62
     7
420
 16777215
176
     1
 90
        0
176
     1
 90
        4
176
     1
 62
     7
176
     1
 62
   257
176
     1
 90
        1
176
     1
 90
        1
176
     1
 40
1.0
176
     1
 90
        8
176
     1
 62
     7
176
     1
 40
1.0
176
     1
 90
        1
176
     1
 90
        6
176
     1
 90
        2
176
     1
 62
     7
176
     1
 90
        5
176
     1
 90
        0
176
     1
 90
        0
176
     1
290
     0
176
     1
 90
        1
176
     1
 40
0.0
176
     1
 90
        0
176
     1
290
     0
176
     1
290
     1
176
     1
290
     1
176
     1
290
     0
176
     1
290
     0
176
     1
290
     0
176
     1
290
     0
176
     1
290
     0
176
     1
290
     0
176
     1
 90
       50
176
     1
 40
0.0
176
     1
 40
1.0
176
     1
 90
        0
176
     1
 62
    18
420
        0
176
     1
 90
       50
176
     1
 90
        3
176
     1
 62
     5
420
      255
176
     1
290
     0
176
     1
 90
       50
176
     1
 90
       50
176
     1
 90
       50
176
     1
290
     0
176
     1
 90
       50
176
     1
 62
   256
176
     0
 40
1.0
176
     0
 90
        2
176
     1
  1
strokes_ogs.tif
176
     1
290
     0
176
     1
 40
1.0
176
     1
 40
1.0
176
     1
  0
VISUALSTYLE
  5
36
102
{ACAD_REACTORS
330
2A
102
}
330
2A
100
AcDbVisualStyle
  2
Brighten
 70
    12
177
     3
291
     1
 70
    58
 90
        2
176
     1
 90
        2
176
     1
 90
        0
176
     1
 90
        0
176
     1
 40
0.6
176
     1
 40
30.0
176
     1
 62
     7
420
 16777215
176
     1
 90
        1
176
     1
 90
        4
176
     1
 62
     7
176
     1
 62
   257
176
     1
 90
        1
176
     1
 90
        1
176
     1
 40
1.0
176
     1
 90
        8
176
     1
 62
     7
176
     1
 40
1.0
176
     1
 90
        1
176
     1
 90
        6
176
     1
 90
        2
176
     1
 62
     7
176
     1
 90
        5
176
     1
 90
        0
176
     1
 90
        0
176
     1
290
     0
176
     1
 90
        1
176
     1
 40
50.0
176
     1
 90
        0
176
     1
290
     0
176
     1
290
     1
176
     1
290
     1
176
     1
290
     0
176
     1
290
     0
176
     1
290
     0
176
     1
290
     0
176
     1
290
     0
176
     1
290
     0
176
     1
 90
       50
176
     1
 40
0.0
176
     1
 40
1.0
176
     1
 90
        0
176
     1
 62
    18
420
        0
176
     1
 90
       50
176
     1
 90
        3
176
     1
 62
     5
420
      255
176
     1
290
     0
176
     1
 90
       50
176
     1
 90
       50
176
     1
 90
       50
176
     1
290
     0
176
     1
 90
       50
176
     1
 62
   256
176
     0
 40
1.0
176
     0
 90
        2
176
     1
  1
strokes_ogs.tif
176
     1
290
     0
176
     1
 40
1.0
176
     1
 40
1.0
176
     1
  0
VISUALSTYLE
  5
3A
102
{ACAD_REACTORS
330
2A
102
}
330
2A
100
AcDbVisualStyle
  2
ColorChange
 70
    16
177
     3
291
     1
 70
    58
 90
        2
176
     1
 90
        2
176
     1
 90
        3
176
     1
 90
        0
176
     1
 40
0.6
176
     1
 40
30.0
176
     1
 62
     8
420
  8421504
176
     1
 90
        1
176
     1
 90
        4
176
     1
 62
     7
176
     1
 62
   257
176
     1
 90
        1
176
     1
 90
        1
176
     1
 40
1.0
176
     1
 90
        8
176
     1
 62
     8
420
  8421504
176
     1
 40
1.0
176
     1
 90
        1
176
     1
 90
        6
176
     1
 90
        2
176
     1
 62
     7
176
     1
 90
        5
176
     1
 90
        0
176
     1
 90
        0
176
     1
290
     0
176
     1
 90
        1
176
     1
 40
0.0
176
     1
 90
        0
176
     1
290
     0
176
     1
290
     1
176
     1
290
     1
176
     1
290
     0
176
     1
290
     0
176
     1
290
     0
176
     1
290
     0
176
     1
290
     0
176
     1
290
     0
176
     1
 90
       50
176
     1
 40
0.0
176
     1
 40
1.0
176
     1
 90
        0
176
     1
 62
    18
420
        0
176
     1
 90
       50
176
     1
 90
        3
176
     1
 62
     5
420
      255
176
     1
290
     0
176
     1
 90
       50
176
     1
 90
       50
176
     1
 90
       50
176
     1
290
     0
176
     1
 90
       50
176
     1
 62
   256
176
     0
 40
1.0
176
     0
 90
        2
176
     1
  1
strokes_ogs.tif
176
     1
290
     0
176
     1
 40
1.0
176
     1
 40
1.0
176
     1
  0
VISUALSTYLE
  5
34
102
{ACAD_REACTORS
330
2A
102
}
330
2A
100
AcDbVisualStyle
  2
Conceptual
 70
     9
177
     3
291
     0
 70
    58
 90
        3
176
     1
 90
        2
176
     1
 90
        0
176
     1
 90
        0
176
     1
 40
0.6
176
     1
 40
30.0
176
     1
 62
     7
420
 16777215
176
     1
 90
        2
176
     1
 90
        2
176
     1
 62
     7
176
     1
 62
   257
176
     1
 90
        1
176
     1
 90
        1
176
     1
 40
179.0
176
     1
 90
        8
176
     1
 62
     7
176
     1
 40
1.0
176
     1
 90
        1
176
     1
 90
        6
176
     1
 90
        2
176
     1
 62
     7
176
     1
 90
        3
176
     1
 90
        0
176
     1
 90
        0
176
     1
290
     0
176
     1
 90
        1
176
     1
 40
0.0
176
     1
 90
        0
176
     1
290
     0
176
     1
290
     1
176
     1
290
     1
176
     1
290
     0
176
     1
290
     0
176
     1
290
     0
176
     1
290
     0
176
     1
290
     0
176
     1
290
     0
176
     1
 90
       50
176
     1
 40
0.0
176
     1
 40
1.0
176
     1
 90
        0
176
     1
 62
    18
420
        0
176
     1
 90
       50
176
     1
 90
        3
176
     1
 62
     5
420
      255
176
     1
290
     0
176
     1
 90
       50
176
     1
 90
       50
176
     1
 90
       50
176
     1
290
     0
176
     1
 90
       50
176
     1
 62
   256
176
     0
 40
1.0
176
     0
 90
        2
176
     1
  1
strokes_ogs.tif
176
     1
290
     0
176
     1
 40
1.0
176
     1
 40
1.0
176
     1
  0
VISUALSTYLE
  5
35
102
{ACAD_REACTORS
330
2A
102
}
330
2A
100
AcDbVisualStyle
  2
Dim
 70
    11
177
     3
291
     1
 70
    58
 90
        2
176
     1
 90
        2
176
     1
 90
        0
176
     1
 90
        0
176
     1
 40
0.6
176
     1
 40
30.0
176
     1
 62
     7
420
 16777215
176
     1
 90
        1
176
     1
 90
        4
176
     1
 62
     7
176
     1
 62
   257
176
     1
 90
        1
176
     1
 90
        1
176
     1
 40
1.0
176
     1
 90
        8
176
     1
 62
     7
176
     1
 40
1.0
176
     1
 90
        1
176
     1
 90
        6
176
     1
 90
        2
176
     1
 62
     7
176
     1
 90
        5
176
     1
 90
        0
176
     1
 90
        0
176
     1
290
     0
176
     1
 90
        1
176
     1
 40
-50.0
176
     1
 90
        0
176
     1
290
     0
176
     1
290
     1
176
     1
290
     1
176
     1
290
     0
176
     1
290
     0
176
     1
290
     0
176
     1
290
     0
176
     1
290
     0
176
     1
290
     0
176
     1
 90
       50
176
     1
 40
0.0
176
     1
 40
1.0
176
     1
 90
        0
176
     1
 62
    18
420
        0
176
     1
 90
       50
176
     1
 90
        3
176
     1
 62
     5
420
      255
176
     1
290
     0
176
     1
 90
       50
176
     1
 90
       50
176
     1
 90
       50
176
     1
290
     0
176
     1
 90
       50
176
     1
 62
   256
176
     0
 40
1.0
176
     0
 90
        2
176
     1
  1
strokes_ogs.tif
176
     1
290
     0
176
     1
 40
1.0
176
     1
 40
1.0
176
     1
  0
VISUALSTYLE
  5
3D
102
{ACAD_REACTORS
330
2A
102
}
330
2A
100
AcDbVisualStyle
  2
EdgeColorOff
 70
    22
177
     3
291
     1
 70
    58
 90
        2
176
     0
 90
        2
176
     0
 90
        0
176
     0
 90
        0
176
     0
 40
0.6
176
     0
 40
30.0
176
     0
 62
     7
420
 16777215
176
     0
 90
        1
176
     0
 90
        4
176
     0
 62
     7
176
     0
 62
   257
176
     0
 90
        1
176
     0
 90
        1
176
     0
 40
1.0
176
     0
 90
        8
176
     2
 62
     7
176
     0
 40
1.0
176
     0
 90
        1
176
     0
 90
        6
176
     0
 90
        2
176
     0
 62
     7
176
     0
 90
        5
176
     0
 90
        0
176
     0
 90
        0
176
     0
290
     0
176
     0
 90
        1
176
     0
 40
0.0
176
     0
 90
        0
176
     0
290
     0
176
     0
290
     1
176
     0
290
     1
176
     0
290
     0
176
     0
290
     0
176
     0
290
     0
176
     0
290
     0
176
     0
290
     0
176
     0
290
     0
176
     0
 90
       50
176
     0
 40
0.0
176
     0
 40
1.0
176
     0
 90
        0
176
     0
 62
    18
420
        0
176
     0
 90
       50
176
     0
 90
        3
176
     0
 62
     5
420
      255
176
     0
290
     0
176
     0
 90
       50
176
     0
 90
       50
176
     0
 90
       50
176
     0
290
     0
176
     0
 90
       50
176
     0
 62
   256
176
     0
 40
1.0
176
     0
 90
        2
176
     0
  1
strokes_ogs.tif
176
     0
290
     0
176
     0
 40
1.0
176
     0
 40
1.0
176
     0
  0
VISUALSTYLE
  5
39
102
{ACAD_REACTORS
330
2A
102
}
330
2A
100
AcDbVisualStyle
  2
Facepattern
 70
    15
177
     3
291
     1
 70
    58
 90
        2
176
     1
 90
        2
176
     1
 90
        0
176
     1
 90
        0
176
     1
 40
0.6
176
     1
 40
30.0
176
     1
 62
     7
420
 16777215
176
     1
 90
        1
176
     1
 90
        4
176
     1
 62
     7
176
     1
 62
   257
176
     1
 90
        1
176
     1
 90
        1
176
     1
 40
1.0
176
     1
 90
        8
176
     1
 62
     7
176
     1
 40
1.0
176
     1
 90
        1
176
     1
 90
        6
176
     1
 90
        2
176
     1
 62
     7
176
     1
 90
        5
176
     1
 90
        0
176
     1
 90
        0
176
     1
290
     0
176
     1
 90
        1
176
     1
 40
0.0
176
     1
 90
        0
176
     1
290
     0
176
     1
290
     1
176
     1
290
     1
176
     1
290
     0
176
     1
290
     0
176
     1
290
     0
176
     1
290
     0
176
     1
290
     0
176
     1
290
     0
176
     1
 90
       50
176
     1
 40
0.0
176
     1
 40
1.0
176
     1
 90
        0
176
     1
 62
    18
420
        0
176
     1
 90
       50
176
     1
 90
        3
176
     1
 62
     5
420
      255
176
     1
290
     0
176
     1
 90
       50
176
     1
 90
       50
176
     1
 90
       50
176
     1
290
     0
176
     1
 90
       50
176
     1
 62
   256
176
     0
 40
1.0
176
     0
 90
        2
176
     1
  1
strokes_ogs.tif
176
     1
290
     0
176
     1
 40
1.0
176
     1
 40
1.0
176
     1
  0
VISUALSTYLE
  5
2B
102
{ACAD_REACTORS
330
2A
102
}
330
2A
100
AcDbVisualStyle
  2
Flat
 70
     0
177
     3
291
     1
 70
    58
 90
        2
176
     1
 90
        1
176
     1
 90
        1
176
     1
 90
        2
176
     1
 40
0.6
176
     1
 40
30.0
176
     1
 62
     7
420
 16777215
176
     1
 90
        0
176
     1
 90
        0
176
     1
 62
     7
176
     1
 62
   257
176
     1
 90
        1
176
     1
 90
        1
176
     1
 40
1.0
176
     1
 90
        8
176
     1
 62
     7
176
     1
 40
1.0
176
     1
 90
        1
176
     1
 90
        6
176
     1
 90
        2
176
     1
 62
     7
176
     1
 90
        5
176
     1
 90
        0
176
     1
 90
        0
176
     1
290
     0
176
     1
 90
       13
176
     1
 40
0.0
176
     1
 90
        0
176
     1
290
     0
176
     1
290
     1
176
     1
290
     1
176
     1
290
     0
176
     1
290
     0
176
     1
290
     0
176
     1
290
     0
176
     1
290
     0
176
     1
290
     0
176
     1
 90
       50
176
     1
 40
0.0
176
     1
 40
1.0
176
     1
 90
        0
176
     1
 62
    18
420
        0
176
     1
 90
       50
176
     1
 90
        3
176
     1
 62
     5
420
      255
176
     1
290
     0
176
     1
 90
       50
176
     1
 90
       50
176
     1
 90
       50
176
     1
290
     0
176
     1
 90
       50
176
     1
 62
   256
176
     0
 40
1.0
176
     0
 90
        2
176
     1
  1
strokes_ogs.tif
176
     1
290
     0
176
     1
 40
1.0
176
     1
 40
1.0
176
     1
  0
VISUALSTYLE
  5
2C
102
{ACAD_REACTORS
330
2A
102
}
330
2A
100
AcDbVisualStyle
  2
FlatWithEdges
 70
     1
177
     3
291
     1
 70
    58
 90
        2
176
     1
 90
        1
176
     1
 90
        1
176
     1
 90
        2
176
     1
 40
0.6
176
     1
 40
30.0
176
     1
 62
     7
420
 16777215
176
     1
 90
        1
176
     1
 90
        0
176
     1
 62
     7
176
     1
 62
   257
176
     1
 90
        1
176
     1
 90
        1
176
     1
 40
1.0
176
     1
 90
        0
176
     1
 62
   257
176
     1
 40
1.0
176
     1
 90
        1
176
     1
 90
        6
176
     1
 90
        2
176
     1
 62
     7
176
     1
 90
        5
176
     1
 90
        0
176
     1
 90
        0
176
     1
290
     0
176
     1
 90
       13
176
     1
 40
0.0
176
     1
 90
        0
176
     1
290
     0
176
     1
290
     1
176
     1
290
     1
176
     1
290
     0
176
     1
290
     0
176
     1
290
     0
176
     1
290
     0
176
     1
290
     0
176
     1
290
     0
176
     1
 90
       50
176
     1
 40
0.0
176
     1
 40
1.0
176
     1
 90
        0
176
     1
 62
    18
420
        0
176
     1
 90
       50
176
     1
 90
        3
176
     1
 62
     5
420
      255
176
     1
290
     0
176
     1
 90
       50
176
     1
 90
       50
176
     1
 90
       50
176
     1
290
     0
176
     1
 90
       50
176
     1
 62
   256
176
     0
 40
1.0
176
     0
 90
        2
176
     1
  1
strokes_ogs.tif
176
     1
290
     0
176
     1
 40
1.0
176
     1
 40
1.0
176
     1
  0
VISUALSTYLE
  5
2D
102
{ACAD_REACTORS
330
2A
102
}
330
2A
100
AcDbVisualStyle
  2
Gouraud
 70
     2
177
     3
291
     1
 70
    58
 90
        2
176
     1
 90
        2
176
     1
 90
        1
176
     1
 90
        2
176
     1
 40
0.6
176
     1
 40
30.0
176
     1
 62
     7
420
 16777215
176
     1
 90
        0
176
     1
 90
        0
176
     1
 62
     7
176
     1
 62
   257
176
     1
 90
        1
176
     1
 90
        1
176
     1
 40
1.0
176
     1
 90
        0
176
     1
 62
     7
176
     1
 40
1.0
176
     1
 90
        1
176
     1
 90
        6
176
     1
 90
        2
176
     1
 62
     7
176
     1
 90
        5
176
     1
 90
        0
176
     1
 90
        0
176
     1
290
     0
176
     1
 90
       13
176
     1
 40
0.0
176
     1
 90
        0
176
     1
290
     0
176
     1
290
     1
176
     1
290
     1
176
     1
290
     0
176
     1
290
     0
176
     1
290
     0
176
     1
290
     0
176
     1
290
     0
176
     1
290
     0
176
     1
 90
       50
176
     1
 40
0.0
176
     1
 40
1.0
176
     1
 90
        0
176
     1
 62
    18
420
        0
176
     1
 90
       50
176
     1
 90
        3
176
     1
 62
     5
420
      255
176
     1
290
     0
176
     1
 90
       50
176
     1
 90
       50
176
     1
 90
       50
176
     1
290
     0
176
     1
 90
       50
176
     1
 62
   256
176
     0
 40
1.0
176
     0
 90
        2
176
     1
  1
strokes_ogs.tif
176
     1
290
     0
176
     1
 40
1.0
176
     1
 40
1.0
176
     1
  0
VISUALSTYLE
  5
2E
102
{ACAD_REACTORS
330
2A
102
}
330
2A
100
AcDbVisualStyle
  2
GouraudWithEdges
 70
     3
177
     3
291
     1
 70
    58
 90
        2
176
     1
 90
        2
176
     1
 90
        1
176
     1
 90
        2
176
     1
 40
0.6
176
     1
 40
30.0
176
     1
 62
     7
420
 16777215
176
     1
 90
        1
176
     1
 90
        0
176
     1
 62
     7
176
     1
 62
   257
176
     1
 90
        1
176
     1
 90
        1
176
     1
 40
1.0
176
     1
 90
        0
176
     1
 62
   257
176
     1
 40
1.0
176
     1
 90
        1
176
     1
 90
        6
176
     1
 90
        2
176
     1
 62
     7
176
     1
 90
        5
176
     1
 90
        0
176
     1
 90
        0
176
     1
290
     0
176
     1
 90
       13
176
     1
 40
0.0
176
     1
 90
        0
176
     1
290
     0
176
     1
290
     1
176
     1
290
     1
176
     1
290
     0
176
     1
290
     0
176
     1
290
     0
176
     1
290
     0
176
     1
290
     0
176
     1
290
     0
176
     1
 90
       50
176
     1
 40
0.0
176
     1
 40
1.0
176
     1
 90
        0
176
     1
 62
    18
420
        0
176
     1
 90
       50
176
     1
 90
        3
176
     1
 62
     5
420
      255
176
     1
290
     0
176
     1
 90
       50
176
     1
 90
       50
176
     1
 90
       50
176
     1
290
     0
176
     1
 90
       50
176
     1
 62
   256
176
     0
 40
1.0
176
     0
 90
        2
176
     1
  1
strokes_ogs.tif
176
     1
290
     0
176
     1
 40
1.0
176
     1
 40
1.0
176
     1
  0
VISUALSTYLE
  5
31
102
{ACAD_REACTORS
330
2A
102
}
330
2A
100
AcDbVisualStyle
  2
Hidden
 70
     6
177
     3
291
     0
 70
    58
 90
        1
176
     1
 90
        2
176
     1
 90
        2
176
     1
 90
        0
176
     1
 40
0.6
176
     1
 40
30.0
176
     1
 62
     7
420
 16777215
176
     1
 90
        2
176
     1
 90
        2
176
     1
 62
     7
176
     1
 62
   257
176
     1
 90
        2
176
     1
 90
        1
176
     1
 40
40.0
176
     1
 90
        0
176
     1
 62
   257
176
     1
 40
1.0
176
     1
 90
        1
176
     1
 90
        6
176
     1
 90
        2
176
     1
 62
     7
176
     1
 90
        3
176
     1
 90
        0
176
     1
 90
        0
176
     1
290
     0
176
     1
 90
        1
176
     1
 40
0.0
176
     1
 90
        0
176
     1
290
     0
176
     1
290
     1
176
     1
290
     1
176
     1
290
     0
176
     1
290
     0
176
     1
290
     0
176
     1
290
     0
176
     1
290
     0
176
     1
290
     0
176
     1
 90
       50
176
     1
 40
0.0
176
     1
 40
1.0
176
     1
 90
        0
176
     1
 62
    18
420
        0
176
     1
 90
       50
176
     1
 90
        3
176
     1
 62
     5
420
      255
176
     1
290
     0
176
     1
 90
       50
176
     1
 90
       50
176
     1
 90
       50
176
     1
290
     0
176
     1
 90
       50
176
     1
 62
   256
176
     0
 40
1.0
176
     0
 90
        2
176
     1
  1
strokes_ogs.tif
176
     1
290
     0
176
     1
 40
1.0
176
     1
 40
1.0
176
     1
  0
VISUALSTYLE
  5
3B
102
{ACAD_REACTORS
330
2A
102
}
330
2A
100
AcDbVisualStyle
  2
JitterOff
 70
    20
177
     3
291
     1
 70
    58
 90
        2
176
     0
 90
        2
176
     0
 90
        0
176
     0
 90
        0
176
     0
 40
0.6
176
     0
 40
30.0
176
     0
 62
     7
420
 16777215
176
     0
 90
        1
176
     0
 90
        4
176
     0
 62
     7
176
     0
 62
   257
176
     0
 90
        1
176
     0
 90
        1
176
     0
 40
1.0
176
     0
 90
       10
176
     2
 62
     7
176
     0
 40
1.0
176
     0
 90
        1
176
     0
 90
        6
176
     0
 90
        2
176
     0
 62
     7
176
     0
 90
        5
176
     0
 90
        0
176
     0
 90
        0
176
     0
290
     0
176
     0
 90
        1
176
     0
 40
0.0
176
     0
 90
        0
176
     0
290
     0
176
     0
290
     1
176
     0
290
     1
176
     0
290
     0
176
     0
290
     0
176
     0
290
     0
176
     0
290
     0
176
     0
290
     0
176
     0
290
     0
176
     0
 90
       50
176
     0
 40
0.0
176
     0
 40
1.0
176
     0
 90
        0
176
     0
 62
    18
420
        0
176
     0
 90
       50
176
     0
 90
        3
176
     0
 62
     5
420
      255
176
     0
290
     0
176
     0
 90
       50
176
     0
 90
       50
176
     0
 90
       50
176
     0
290
     0
176
     0
 90
       50
176
     0
 62
   256
176
     0
 40
1.0
176
     0
 90
        2
176
     0
  1
strokes_ogs.tif
176
     0
290
     0
176
     0
 40
1.0
176
     0
 40
1.0
176
     0
  0
VISUALSTYLE
  5
38
102
{ACAD_REACTORS
330
2A
102
}
330
2A
100
AcDbVisualStyle
  2
Linepattern
 70
    14
177
     3
291
     1
 70
    58
 90
        2
176
     1
 90
        2
176
     1
 90
        0
176
     1
 90
        0
176
     1
 40
0.6
176
     1
 40
30.0
176
     1
 62
     7
420
 16777215
176
     1
 90
        1
176
     1
 90
        4
176
     1
 62
     7
176
     1
 62
   257
176
     1
 90
        7
176
     1
 90
        7
176
     1
 40
1.0
176
     1
 90
        8
176
     1
 62
     7
176
     1
 40
1.0
176
     1
 90
        1
176
     1
 90
        6
176
     1
 90
        2
176
     1
 62
     7
176
     1
 90
        5
176
     1
 90
        0
176
     1
 90
        0
176
     1
290
     0
176
     1
 90
        1
176
     1
 40
0.0
176
     1
 90
        0
176
     1
290
     0
176
     1
290
     1
176
     1
290
     1
176
     1
290
     0
176
     1
290
     0
176
     1
290
     0
176
     1
290
     0
176
     1
290
     0
176
     1
290
     0
176
     1
 90
       50
176
     1
 40
0.0
176
     1
 40
1.0
176
     1
 90
        0
176
     1
 62
    18
420
        0
176
     1
 90
       50
176
     1
 90
        3
176
     1
 62
     5
420
      255
176
     1
290
     0
176
     1
 90
       50
176
     1
 90
       50
176
     1
 90
       50
176
     1
290
     0
176
     1
 90
       50
176
     1
 62
   256
176
     0
 40
1.0
176
     0
 90
        2
176
     1
  1
strokes_ogs.tif
176
     1
290
     0
176
     1
 40
1.0
176
     1
 40
1.0
176
     1
  0
VISUALSTYLE
  5
3C
102
{ACAD_REACTORS
330
2A
102
}
330
2A
100
AcDbVisualStyle
  2
OverhangOff
 70
    21
177
     3
291
     1
 70
    58
 90
        2
176
     0
 90
        2
176
     0
 90
        0
176
     0
 90
        0
176
     0
 40
0.6
176
     0
 40
30.0
176
     0
 62
     7
420
 16777215
176
     0
 90
        1
176
     0
 90
        4
176
     0
 62
     7
176
     0
 62
   257
176
     0
 90
        1
176
     0
 90
        1
176
     0
 40
1.0
176
     0
 90
        9
176
     2
 62
     7
176
     0
 40
1.0
176
     0
 90
        1
176
     0
 90
        6
176
     0
 90
        2
176
     0
 62
     7
176
     0
 90
        5
176
     0
 90
        0
176
     0
 90
        0
176
     0
290
     0
176
     0
 90
        1
176
     0
 40
0.0
176
     0
 90
        0
176
     0
290
     0
176
     0
290
     1
176
     0
290
     1
176
     0
290
     0
176
     0
290
     0
176
     0
290
     0
176
     0
290
     0
176
     0
290
     0
176
     0
290
     0
176
     0
 90
       50
176
     0
 40
0.0
176
     0
 40
1.0
176
     0
 90
        0
176
     0
 62
    18
420
        0
176
     0
 90
       50
176
     0
 90
        3
176
     0
 62
     5
420
      255
176
     0
290
     0
176
     0
 90
       50
176
     0
 90
       50
176
     0
 90
       50
176
     0
290
     0
176
     0
 90
       50
176
     0
 62
   256
176
     0
 40
1.0
176
     0
 90
        2
176
     0
  1
strokes_ogs.tif
176
     0
290
     0
176
     0
 40
1.0
176
     0
 40
1.0
176
     0
  0
VISUALSTYLE
  5
33
102
{ACAD_REACTORS
330
2A
102
}
330
2A
100
AcDbVisualStyle
  2
Realistic
 70
     8
177
     3
291
     0
 70
    58
 90
        2
176
     1
 90
        3
176
     1
 90
        0
176
     1
 90
        2
176
     1
 40
0.6
176
     1
 40
30.0
176
     1
 62
     7
420
 16777215
176
     1
 90
        0
176
     1
 90
        0
176
     1
 62
     7
176
     1
 62
   257
176
     1
 90
        1
176
     1
 90
        1
176
     1
 40
1.0
176
     1
 90
        8
176
     1
 62
   257
176
     1
 40
1.0
176
     1
 90
        1
176
     1
 90
        6
176
     1
 90
        2
176
     1
 62
     7
176
     1
 90
        3
176
     1
 90
        0
176
     1
 90
        0
176
     1
290
     0
176
     1
 90
       13
176
     1
 40
0.0
176
     1
 90
        0
176
     1
290
     0
176
     1
290
     1
176
     1
290
     1
176
     1
290
     0
176
     1
290
     0
176
     1
290
     0
176
     1
290
     0
176
     1
290
     0
176
     1
290
     0
176
     1
 90
       50
176
     1
 40
0.0
176
     1
 40
1.0
176
     1
 90
        0
176
     1
 62
    18
420
        0
176
     1
 90
       50
176
     1
 90
        3
176
     1
 62
     5
420
      255
176
     1
290
     0
176
     1
 90
       50
176
     1
 90
       50
176
     1
 90
       50
176
     1
290
     0
176
     1
 90
       50
176
     1
 62
   256
176
     0
 40
1.0
176
     0
 90
        2
176
     1
  1
strokes_ogs.tif
176
     1
290
     0
176
     1
 40
1.0
176
     1
 40
1.0
176
     1
  0
VISUALSTYLE
  5
42
102
{ACAD_REACTORS
330
2A
102
}
330
2A
100
AcDbVisualStyle
  2
Shaded
 70
    27
177
     3
291
     0
 70
    58
 90
        2
176
     1
 90
        2
176
     1
 90
        1
176
     1
 90
        2
176
     1
 40
0.6
176
     1
 40
30.0
176
     1
 62
     7
420
 16777215
176
     1
 90
        0
176
     1
 90
        4
176
     1
 62
     7
176
     1
 62
   257
176
     1
 90
        1
176
     1
 90
        1
176
     1
 40
1.0
176
     1
 90
        8
176
     1
 62
   257
176
     1
 40
1.0
176
     1
 90
        1
176
     1
 90
        6
176
     1
 90
        2
176
     1
 62
     8
420
  7895160
176
     1
 90
        3
176
     1
 90
        0
176
     1
 90
        0
176
     1
290
     0
176
     1
 90
        5
176
     1
 40
0.0
176
     1
 90
        0
176
     1
290
     0
176
     1
290
     1
176
     1
290
     1
176
     1
290
     0
176
     1
290
     0
176
     1
290
     0
176
     1
290
     0
176
     1
290
     0
176
     1
290
     0
176
     1
 90
       50
176
     1
 40
0.0
176
     1
 40
1.0
176
     1
 90
        0
176
     1
 62
    18
420
        0
176
     1
 90
       50
176
     1
 90
        3
176
     1
 62
     5
420
      255
176
     1
290
     0
176
     1
 90
       50
176
     1
 90
       50
176
     1
 90
       50
176
     1
290
     0
176
     1
 90
       50
176
     1
 62
   256
176
     0
 40
1.0
176
     0
 90
        2
176
     1
  1
strokes_ogs.tif
176
     1
290
     0
176
     1
 40
1.0
176
     1
 40
1.0
176
     1
  0
VISUALSTYLE
  5
41
102
{ACAD_REACTORS
330
2A
102
}
330
2A
100
AcDbVisualStyle
  2
Shaded with edges
 70
    26
177
     3
291
     0
 70
    58
 90
        2
176
     1
 90
        2
176
     1
 90
        1
176
     1
 90
        2
176
     1
 40
0.6
176
     1
 40
30.0
176
     1
 62
     7
420
 16777215
176
     1
 90
        1
176
     1
 90
       10
176
     1
 62
     7
176
     1
 62
   257
176
     1
 90
        2
176
     1
 90
        1
176
     1
 40
1.0
176
     1
 90
        8
176
     1
 62
   257
176
     1
 40
1.0
176
     1
 90
        1
176
     1
 90
        6
176
     1
 90
        2
176
     1
 62
     7
176
     1
 90
        3
176
     1
 90
        0
176
     1
 90
        0
176
     1
290
     0
176
     1
 90
        5
176
     1
 40
0.0
176
     1
 90
        0
176
     1
290
     0
176
     1
290
     1
176
     1
290
     1
176
     1
290
     0
176
     1
290
     0
176
     1
290
     0
176
     1
290
     0
176
     1
290
     0
176
     1
290
     0
176
     1
 90
       50
176
     1
 40
0.0
176
     1
 40
1.0
176
     1
 90
        0
176
     1
 62
    18
420
        0
176
     1
 90
       50
176
     1
 90
        3
176
     1
 62
     5
420
      255
176
     1
290
     0
176
     1
 90
       50
176
     1
 90
       50
176
     1
 90
       50
176
     1
290
     0
176
     1
 90
       50
176
     1
 62
   256
176
     0
 40
1.0
176
     0
 90
        2
176
     1
  1
strokes_ogs.tif
176
     1
290
     0
176
     1
 40
1.0
176
     1
 40
1.0
176
     1
  0
VISUALSTYLE
  5
3E
102
{ACAD_REACTORS
330
2A
102
}
330
2A
100
AcDbVisualStyle
  2
Shades of Gray
 70
    23
177
     3
291
     0
 70
    58
 90
        2
176
     1
 90
        2
176
     1
 90
        3
176
     1
 90
        0
176
     1
 40
0.6
176
     1
 40
30.0
176
     1
 62
     7
420
 16777215
176
     1
 90
        2
176
     1
 90
        2
176
     1
 62
     7
176
     1
 62
     7
176
     1
 90
        1
176
     1
 90
        1
176
     1
 40
40.0
176
     1
 90
        8
176
     1
 62
     7
176
     1
 40
1.0
176
     1
 90
        1
176
     1
 90
        6
176
     1
 90
        2
176
     1
 62
     7
176
     1
 90
        3
176
     1
 90
        0
176
     1
 90
        0
176
     1
290
     0
176
     1
 90
        1
176
     1
 40
0.0
176
     1
 90
        0
176
     1
290
     0
176
     1
290
     1
176
     1
290
     1
176
     1
290
     0
176
     1
290
     0
176
     1
290
     0
176
     1
290
     0
176
     1
290
     0
176
     1
290
     0
176
     1
 90
       50
176
     1
 40
0.0
176
     1
 40
1.0
176
     1
 90
        0
176
     1
 62
    18
420
        0
176
     1
 90
       50
176
     1
 90
        3
176
     1
 62
     5
420
      255
176
     1
290
     0
176
     1
 90
       50
176
     1
 90
       50
176
     1
 90
       50
176
     1
290
     0
176
     1
 90
       50
176
     1
 62
   256
176
     0
 40
1.0
176
     0
 90
        2
176
     1
  1
strokes_ogs.tif
176
     1
290
     0
176
     1
 40
1.0
176
     1
 40
1.0
176
     1
  0
VISUALSTYLE
  5
3F
102
{ACAD_REACTORS
330
2A
102
}
330
2A
100
AcDbVisualStyle
  2
Sketchy
 70
    24
177
     3
291
     0
 70
    58
 90
        1
176
     1
 90
        2
176
     1
 90
        2
176
     1
 90
        0
176
     1
 40
0.6
176
     1
 40
30.0
176
     1
 62
     7
420
 16777215
176
     1
 90
        2
176
     1
 90
        2
176
     1
 62
     7
176
     1
 62
     7
176
     1
 90
        1
176
     1
 90
        1
176
     1
 40
40.0
176
     1
 90
       11
176
     1
 62
     7
176
     1
 40
1.0
176
     1
 90
        1
176
     1
 90
        6
176
     1
 90
        2
176
     1
 62
     7
176
     1
 90
        6
176
     1
 90
        0
176
     1
 90
        0
176
     1
290
     0
176
     1
 90
        1
176
     1
 40
0.0
176
     1
 90
        0
176
     1
290
     0
176
     1
290
     1
176
     1
290
     1
176
     1
290
     0
176
     1
290
     0
176
     1
290
     0
176
     1
290
     0
176
     1
290
     0
176
     1
290
     0
176
     1
 90
       50
176
     1
 40
0.0
176
     1
 40
1.0
176
     1
 90
        0
176
     1
 62
    18
420
        0
176
     1
 90
       50
176
     1
 90
        3
176
     1
 62
     5
420
      255
176
     1
290
     0
176
     1
 90
       50
176
     1
 90
       50
176
     1
 90
       50
176
     1
290
     0
176
     1
 90
       50
176
     1
 62
   256
176
     0
 40
1.0
176
     0
 90
        2
176
     1
  1
strokes_ogs.tif
176
     1
290
     0
176
     1
 40
1.0
176
     1
 40
1.0
176
     1
  0
VISUALSTYLE
  5
37
102
{ACAD_REACTORS
330
2A
102
}
330
2A
100
AcDbVisualStyle
  2
Thicken
 70
    13
177
     3
291
     1
 70
    58
 90
        2
176
     1
 90
        2
176
     1
 90
        0
176
     1
 90
        0
176
     1
 40
0.6
176
     1
 40
30.0
176
     1
 62
     7
420
 16777215
176
     1
 90
        1
176
     1
 90
        4
176
     1
 62
     7
176
     1
 62
   257
176
     1
 90
        1
176
     1
 90
        1
176
     1
 40
1.0
176
     1
 90
       12
176
     1
 62
     7
176
     1
 40
1.0
176
     1
 90
        1
176
     1
 90
        6
176
     1
 90
        2
176
     1
 62
     7
176
     1
 90
        5
176
     1
 90
        0
176
     1
 90
        0
176
     1
290
     0
176
     1
 90
        1
176
     1
 40
0.0
176
     1
 90
        0
176
     1
290
     0
176
     1
290
     1
176
     1
290
     1
176
     1
290
     0
176
     1
290
     0
176
     1
290
     0
176
     1
290
     0
176
     1
290
     0
176
     1
290
     0
176
     1
 90
       50
176
     1
 40
0.0
176
     1
 40
1.0
176
     1
 90
        0
176
     1
 62
    18
420
        0
176
     1
 90
       50
176
     1
 90
        3
176
     1
 62
     5
420
      255
176
     1
290
     0
176
     1
 90
       50
176
     1
 90
       50
176
     1
 90
       50
176
     1
290
     0
176
     1
 90
       50
176
     1
 62
   256
176
     0
 40
1.0
176
     0
 90
        2
176
     1
  1
strokes_ogs.tif
176
     1
290
     0
176
     1
 40
1.0
176
     1
 40
1.0
176
     1
  0
VISUALSTYLE
  5
30
102
{ACAD_REACTORS
330
2A
102
}
330
2A
100
AcDbVisualStyle
  2
Wireframe
 70
     5
177
     3
291
     0
 70
    58
 90
        0
176
     1
 90
        2
176
     1
 90
        0
176
     1
 90
        0
176
     1
 40
0.6
176
     1
 40
30.0
176
     1
 62
     7
420
 16777215
176
     1
 90
        1
176
     1
 90
        4
176
     1
 62
     7
176
     1
 62
   257
176
     1
 90
        1
176
     1
 90
        1
176
     1
 40
1.0
176
     1
 90
        0
176
     1
 62
   257
176
     1
 40
1.0
176
     1
 90
        1
176
     1
 90
        6
176
     1
 90
        2
176
     1
 62
     7
176
     1
 90
        3
176
     1
 90
        0
176
     1
 90
        0
176
     1
290
     0
176
     1
 90
        1
176
     1
 40
0.0
176
     1
 90
        0
176
     1
290
     0
176
     1
290
     1
176
     1
290
     1
176
     1
290
     0
176
     1
290
     0
176
     1
290
     0
176
     1
290
     0
176
     1
290
     0
176
     1
290
     0
176
     1
 90
       50
176
     1
 40
0.0
176
     1
 40
1.0
176
     1
 90
        0
176
     1
 62
    18
420
        0
176
     1
 90
       50
176
     1
 90
        3
176
     1
 62
     5
420
      255
176
     1
290
     0
176
     1
 90
       50
176
     1
 90
       50
176
     1
 90
       50
176
     1
290
     0
176
     1
 90
       50
176
     1
 62
   256
176
     0
 40
1.0
176
     0
 90
        2
176
     1
  1
strokes_ogs.tif
176
     1
290
     0
176
     1
 40
1.0
176
     1
 40
1.0
176
     1
  0
VISUALSTYLE
  5
40
102
{ACAD_REACTORS
330
2A
102
}
330
2A
100
AcDbVisualStyle
  2
X-Ray
 70
    25
177
     3
291
     0
 70
    58
 90
        2
176
     1
 90
        2
176
     1
 90
        1
176
     1
 90
        1
176
     1
 40
0.5
176
     1
 40
30.0
176
     1
 62
     7
420
 16777215
176
     1
 90
        1
176
     1
 90
        0
176
     1
 62
     7
176
     1
 62
   257
176
     1
 90
        1
176
     1
 90
        1
176
     1
 40
1.0
176
     1
 90
        8
176
     1
 62
     7
176
     1
 40
1.0
176
     1
 90
        1
176
     1
 90
        6
176
     1
 90
        2
176
     1
 62
     7
176
     1
 90
        3
176
     1
 90
        0
176
     1
 90
        0
176
     1
290
     0
176
     1
 90
       13
176
     1
 40
0.0
176
     1
 90
        0
176
     1
290
     0
176
     1
290
     1
176
     1
290
     1
176
     1
290
     0
176
     1
290
     0
176
     1
290
     0
176
     1
290
     0
176
     1
290
     0
176
     1
290
     0
176
     1
 90
       50
176
     1
 40
0.0
176
     1
 40
1.0
176
     1
 90
        0
176
     1
 62
    18
420
        0
176
     1
 90
       50
176
     1
 90
        3
176
     1
 62
     5
420
      255
176
     1
290
     0
176
     1
 90
       50
176
     1
 90
       50
176
     1
 90
       50
176
     1
290
     0
176
     1
 90
       50
176
     1
 62
   256
176
     0
 40
1.0
176
     0
 90
        2
176
     1
  1
strokes_ogs.tif
176
     1
290
     0
176
     1
 40
1.0
176
     1
 40
1.0
176
     1
  0
DICTIONARYVAR
  5
86
102
{ACAD_REACTORS
330
85
102
}
330
85
100
DictionaryVariables
280
     0
  1
1:1
  0
DICTIONARYVAR
  5
8B
102
{ACAD_REACTORS
330
85
102
}
330
85
100
DictionaryVariables
280
     0
  1
Standard
  0
DICTIONARYVAR
  5
8A
102
{ACAD_REACTORS
330
85
102
}
330
85
100
DictionaryVariables
280
     0
  1
Standard
  0
DICTIONARY
  5
87
330
5A
100
AcDbDictionary
280
     1
281
     1
  3
ACAD_ROUNDTRIP_2008_TABLESTYLE_CELLSTYLEMAP
360
88
  0
CELLSTYLEMAP
  5
88
102
{ACAD_REACTORS
330
87
102
}
330
87
100
AcDbCellStyleMap
 90
        3
300
CELLSTYLE
  1
TABLEFORMAT_BEGIN
 90
        5
170
     1
 91
        0
 92
    32768
 62
   257
 93
        1
300
CONTENTFORMAT
  1
CONTENTFORMAT_BEGIN
 90
        0
 91
        0
 92
        4
 93
        0
300

 40
0.0
140
1.0
 94
        5
 62
     0
340
11
144
0.25
309
CONTENTFORMAT_END
171
     1
301
MARGIN
  1
CELLMARGIN_BEGIN
 40
0.06
 40
0.06
 40
0.06
 40
0.06
 40
0.06
 40
0.06
309
CELLMARGIN_END
 94
        6
 95
        1
302
GRIDFORMAT
  1
GRIDFORMAT_BEGIN
 90
        0
 91
        1
 62
     0
 92
       -2
340
14
 93
        0
 40
0.045
309
GRIDFORMAT_END
 95
        2
302
GRIDFORMAT
  1
GRIDFORMAT_BEGIN
 90
        0
 91
        1
 62
     0
 92
       -2
340
14
 93
        0
 40
0.045
309
GRIDFORMAT_END
 95
        4
302
GRIDFORMAT
  1
GRIDFORMAT_BEGIN
 90
        0
 91
        1
 62
     0
 92
       -2
340
14
 93
        0
 40
0.045
309
GRIDFORMAT_END
 95
        8
302
GRIDFORMAT
  1
GRIDFORMAT_BEGIN
 90
        0
 91
        1
 62
     0
 92
       -2
340
14
 93
        0
 40
0.045
309
GRIDFORMAT_END
 95
       16
302
GRIDFORMAT
  1
GRIDFORMAT_BEGIN
 90
        0
 91
        1
 62
     0
 92
       -2
340
14
 93
        0
 40
0.045
309
GRIDFORMAT_END
 95
       32
302
GRIDFORMAT
  1
GRIDFORMAT_BEGIN
 90
        0
 91
        1
 62
     0
 92
       -2
340
14
 93
        0
 40
0.045
309
GRIDFORMAT_END
309
TABLEFORMAT_END
  1
CELLSTYLE_BEGIN
 90
        1
 91
        1
300
_TITLE
309
CELLSTYLE_END
300
CELLSTYLE
  1
TABLEFORMAT_BEGIN
 90
        5
170
     1
 91
        0
 92
        0
 62
   257
 93
        1
300
CONTENTFORMAT
  1
CONTENTFORMAT_BEGIN
 90
        0
 91
        0
 92
        4
 93
        0
300

 40
0.0
140
1.0
 94
        5
 62
     0
340
11
144
0.18
309
CONTENTFORMAT_END
171
     1
301
MARGIN
  1
CELLMARGIN_BEGIN
 40
0.06
 40
0.06
 40
0.06
 40
0.06
 40
0.06
 40
0.06
309
CELLMARGIN_END
 94
        6
 95
        1
302
GRIDFORMAT
  1
GRIDFORMAT_BEGIN
 90
        0
 91
        1
 62
     0
 92
       -2
340
14
 93
        0
 40
0.045
309
GRIDFORMAT_END
 95
        2
302
GRIDFORMAT
  1
GRIDFORMAT_BEGIN
 90
        0
 91
        1
 62
     0
 92
       -2
340
14
 93
        0
 40
0.045
309
GRIDFORMAT_END
 95
        4
302
GRIDFORMAT
  1
GRIDFORMAT_BEGIN
 90
        0
 91
        1
 62
     0
 92
       -2
340
14
 93
        0
 40
0.045
309
GRIDFORMAT_END
 95
        8
302
GRIDFORMAT
  1
GRIDFORMAT_BEGIN
 90
        0
 91
        1
 62
     0
 92
       -2
340
14
 93
        0
 40
0.045
309
GRIDFORMAT_END
 95
       16
302
GRIDFORMAT
  1
GRIDFORMAT_BEGIN
 90
        0
 91
        1
 62
     0
 92
       -2
340
14
 93
        0
 40
0.045
309
GRIDFORMAT_END
 95
       32
302
GRIDFORMAT
  1
GRIDFORMAT_BEGIN
 90
        0
 91
        1
 62
     0
 92
       -2
340
14
 93
        0
 40
0.045
309
GRIDFORMAT_END
309
TABLEFORMAT_END
  1
CELLSTYLE_BEGIN
 90
        2
 91
        1
300
_HEADER
309
CELLSTYLE_END
300
CELLSTYLE
  1
TABLEFORMAT_BEGIN
 90
        5
170
     1
 91
        0
 92
        0
 62
   257
 93
        1
300
CONTENTFORMAT
  1
CONTENTFORMAT_BEGIN
 90
        0
 91
        0
 92
        4
 93
        0
300

 40
0.0
140
1.0
 94
        2
 62
     0
340
11
144
0.18
309
CONTENTFORMAT_END
171
     1
301
MARGIN
  1
CELLMARGIN_BEGIN
 40
0.06
 40
0.06
 40
0.06
 40
0.06
 40
0.06
 40
0.06
309
CELLMARGIN_END
 94
        6
 95
        1
302
GRIDFORMAT
  1
GRIDFORMAT_BEGIN
 90
        0
 91
        1
 62
     0
 92
       -2
340
14
 93
        0
 40
0.045
309
GRIDFORMAT_END
 95
        2
302
GRIDFORMAT
  1
GRIDFORMAT_BEGIN
 90
        0
 91
        1
 62
     0
 92
       -2
340
14
 93
        0
 40
0.045
309
GRIDFORMAT_END
 95
        4
302
GRIDFORMAT
  1
GRIDFORMAT_BEGIN
 90
        0
 91
        1
 62
     0
 92
       -2
340
14
 93
        0
 40
0.045
309
GRIDFORMAT_END
 95
        8
302
GRIDFORMAT
  1
GRIDFORMAT_BEGIN
 90
        0
 91
        1
 62
     0
 92
       -2
340
14
 93
        0
 40
0.045
309
GRIDFORMAT_END
 95
       16
302
GRIDFORMAT
  1
GRIDFORMAT_BEGIN
 90
        0
 91
        1
 62
     0
 92
       -2
340
14
 93
        0
 40
0.045
309
GRIDFORMAT_END
 95
       32
302
GRIDFORMAT
  1
GRIDFORMAT_BEGIN
 90
        0
 91
        1
 62
     0
 92
       -2
340
14
 93
        0
 40
0.045
309
GRIDFORMAT_END
309
TABLEFORMAT_END
  1
CELLSTYLE_BEGIN
 90
        3
 91
        2
300
_DATA
309
CELLSTYLE_END
  0
ENDSEC
  0
EOF
