  0
SECTION
  2
HEADER
  9
$ACADVER
  1
AC1027
  9
$ACADMAINTVER
 70
   105
  9
$DWGCODEPAGE
  3
ANSI_1252
  9
$LASTSAVEDBY
  1
Office Desk
  9
$REQUIREDVERSIONS
160
                 0
  9
$INSBASE
 10
0.0
 20
0.0
 30
0.0
  9
$EXTMIN
 10
181.4174
 20
-153.0176
 30
0.0
  9
$EXTMAX
 10
861.3067
 20
168.2402
 30
0.0
  9
$LIMMIN
 10
0.0
 20
0.0
  9
$LIMMAX
 10
12.0
 20
9.0
  9
$ORTHOMODE
 70
     0
  9
$REGENMODE
 70
     1
  9
$FILLMODE
 70
     1
  9
$QTEXTMODE
 70
     0
  9
$MIRRTEXT
 70
     1
  9
$LTSCALE
 40
1.0
  9
$ATTMODE
 70
     1
  9
$TEXTSIZE
 40
0.2
  9
$TRACEWID
 40
0.05
  9
$TEXTSTYLE
  7
Standard
  9
$CLAYER
  8
0
  9
$CELTYPE
  6
ByLayer
  9
$CECOLOR
 62
   256
  9
$CELTSCALE
 40
1.0
  9
$DISPSILH
 70
     0
  9
$DIMSCALE
 40
1.0
  9
$DIMASZ
 40
0.18
  9
$DIMEXO
 40
0.0625
  9
$DIMDLI
 40
0.38
  9
$DIMRND
 40
0.0
  9
$DIMDLE
 40
0.0
  9
$DIMEXE
 40
0.18
  9
$DIMTP
 40
0.0
  9
$DIMTM
 40
0.0
  9
$DIMTXT
 40
0.18
  9
$DIMCEN
 40
0.09
  9
$DIMTSZ
 40
0.0
  9
$DIMTOL
 70
     0
  9
$DIMLIM
 70
     0
  9
$DIMTIH
 70
     1
  9
$DIMTOH
 70
     1
  9
$DIMSE1
 70
     0
  9
$DIMSE2
 70
     0
  9
$DIMTAD
 70
     0
  9
$DIMZIN
 70
     0
  9
$DIMBLK
  1

  9
$DIMASO
 70
     1
  9
$DIMSHO
 70
     1
  9
$DIMPOST
  1

  9
$DIMAPOST
  1

  9
$DIMALT
 70
     0
  9
$DIMALTD
 70
     2
  9
$DIMALTF
 40
25.4
  9
$DIMLFAC
 40
1.0
  9
$DIMTOFL
 70
     0
  9
$DIMTVP
 40
0.0
  9
$DIMTIX
 70
     0
  9
$DIMSOXD
 70
     0
  9
$DIMSAH
 70
     0
  9
$DIMBLK1
  1

  9
$DIMBLK2
  1

  9
$DIMSTYLE
  2
Standard
  9
$DIMCLRD
 70
     0
  9
$DIMCLRE
 70
     0
  9
$DIMCLRT
 70
     0
  9
$DIMTFAC
 40
1.0
  9
$DIMGAP
 40
0.09
  9
$DIMJUST
 70
     0
  9
$DIMSD1
 70
     0
  9
$DIMSD2
 70
     0
  9
$DIMTOLJ
 70
     1
  9
$DIMTZIN
 70
     0
  9
$DIMALTZ
 70
     0
  9
$DIMALTTZ
 70
     0
  9
$DIMUPT
 70
     0
  9
$DIMDEC
 70
     4
  9
$DIMTDEC
 70
     4
  9
$DIMALTU
 70
     2
  9
$DIMALTTD
 70
     2
  9
$DIMTXSTY
  7
Standard
  9
$DIMAUNIT
 70
     0
  9
$DIMADEC
 70
     0
  9
$DIMALTRND
 40
0.0
  9
$DIMAZIN
 70
     0
  9
$DIMDSEP
 70
    46
  9
$DIMATFIT
 70
     3
  9
$DIMFRAC
 70
     0
  9
$DIMLDRBLK
  1

  9
$DIMLUNIT
 70
     2
  9
$DIMLWD
 70
    -2
  9
$DIMLWE
 70
    -2
  9
$DIMTMOVE
 70
     0
  9
$DIMFXL
 40
1.0
  9
$DIMFXLON
 70
     0
  9
$DIMJOGANG
 40
0.7853981633974483
  9
$DIMTFILL
 70
     0
  9
$DIMTFILLCLR
 70
     0
  9
$DIMARCSYM
 70
     0
  9
$DIMLTYPE
  6

  9
$DIMLTEX1
  6

  9
$DIMLTEX2
  6

  9
$DIMTXTDIRECTION
 70
     0
  9
$LUNITS
 70
     2
  9
$LUPREC
 70
     4
  9
$SKETCHINC
 40
0.1
  9
$FILLETRAD
 40
0.0
  9
$AUNITS
 70
     0
  9
$AUPREC
 70
     0
  9
$MENU
  1
.
  9
$ELEVATION
 40
0.0
  9
$PELEVATION
 40
0.0
  9
$THICKNESS
 40
0.0
  9
$LIMCHECK
 70
     0
  9
$CHAMFERA
 40
0.0
  9
$CHAMFERB
 40
0.0
  9
$CHAMFERC
 40
0.0
  9
$CHAMFERD
 40
0.0
  9
$SKPOLY
 70
     0
  9
$TDCREATE
 40
2461012.661123831
  9
$TDUCREATE
 40
2461012.431957165
  9
$TDUPDATE
 40
2461012.661123831
  9
$TDUUPDATE
 40
2461012.431957165
  9
$TDINDWG
 40
0.0000000116
  9
$TDUSRTIMER
 40
0.0000000116
  9
$USRTIMER
 70
     1
  9
$ANGBASE
 50
0.0
  9
$ANGDIR
 70
     0
  9
$PDMODE
 70
     0
  9
$PDSIZE
 40
0.0
  9
$PLINEWID
 40
0.0
  9
$SPLFRAME
 70
     0
  9
$SPLINETYPE
 70
     6
  9
$SPLINESEGS
 70
     8
  9
$HANDSEED
  5
84
  9
$SURFTAB1
 70
     6
  9
$SURFTAB2
 70
     6
  9
$SURFTYPE
 70
     6
  9
$SURFU
 70
     6
  9
$SURFV
 70
     6
  9
$UCSBASE
  2

  9
$UCSNAME
  2

  9
$UCSORG
 10
0.0
 20
0.0
 30
0.0
  9
$UCSXDIR
 10
1.0
 20
0.0
 30
0.0
  9
$UCSYDIR
 10
0.0
 20
1.0
 30
0.0
  9
$UCSORTHOREF
  2

  9
$UCSORTHOVIEW
 70
     0
  9
$UCSORGTOP
 10
0.0
 20
0.0
 30
0.0
  9
$UCSORGBOTTOM
 10
0.0
 20
0.0
 30
0.0
  9
$UCSORGLEFT
 10
0.0
 20
0.0
 30
0.0
  9
$UCSORGRIGHT
 10
0.0
 20
0.0
 30
0.0
  9
$UCSORGFRONT
 10
0.0
 20
0.0
 30
0.0
  9
$UCSORGBACK
 10
0.0
 20
0.0
 30
0.0
  9
$PUCSBASE
  2

  9
$PUCSNAME
  2

  9
$PUCSORG
 10
0.0
 20
0.0
 30
0.0
  9
$PUCSXDIR
 10
1.0
 20
0.0
 30
0.0
  9
$PUCSYDIR
 10
0.0
 20
1.0
 30
0.0
  9
$PUCSORTHOREF
  2

  9
$PUCSORTHOVIEW
 70
     0
  9
$PUCSORGTOP
 10
0.0
 20
0.0
 30
0.0
  9
$PUCSORGBOTTOM
 10
0.0
 20
0.0
 30
0.0
  9
$PUCSORGLEFT
 10
0.0
 20
0.0
 30
0.0
  9
$PUCSORGRIGHT
 10
0.0
 20
0.0
 30
0.0
  9
$PUCSORGFRONT
 10
0.0
 20
0.0
 30
0.0
  9
$PUCSORGBACK
 10
0.0
 20
0.0
 30
0.0
  9
$USERI1
 70
     0
  9
$USERI2
 70
     0
  9
$USERI3
 70
     0
  9
$USERI4
 70
     0
  9
$USERI5
 70
     0
  9
$USERR1
 40
0.0
  9
$USERR2
 40
0.0
  9
$USERR3
 40
0.0
  9
$USERR4
 40
0.0
  9
$USERR5
 40
0.0
  9
$WORLDVIEW
 70
     1
  9
$SHADEDGE
 70
     3
  9
$SHADEDIF
 70
    70
  9
$TILEMODE
 70
     1
  9
$MAXACTVP
 70
    64
  9
$PINSBASE
 10
0.0
 20
0.0
 30
0.0
  9
$PLIMCHECK
 70
     0
  9
$PEXTMIN
 10
1.000000000000000E+20
 20
1.000000000000000E+20
 30
1.000000000000000E+20
  9
$PEXTMAX
 10
-1.000000000000000E+20
 20
-1.000000000000000E+20
 30
-1.000000000000000E+20
  9
$PLIMMIN
 10
0.0
 20
0.0
  9
$PLIMMAX
 10
12.0
 20
9.0
  9
$UNITMODE
 70
     0
  9
$VISRETAIN
 70
     1
  9
$PLINEGEN
 70
     0
  9
$PSLTSCALE
 70
     1
  9
$TREEDEPTH
 70
  3020
  9
$CMLSTYLE
  2
Standard
  9
$CMLJUST
 70
     0
  9
$CMLSCALE
 40
1.0
  9
$PROXYGRAPHICS
 70
     1
  9
$MEASUREMENT
 70
     0
  9
$CELWEIGHT
370
    -1
  9
$ENDCAPS
280
     0
  9
$JOINSTYLE
280
     0
  9
$LWDISPLAY
290
     0
  9
$INSUNITS
 70
     4
  9
$HYPERLINKBASE
  1

  9
$STYLESHEET
  1

  9
$XEDIT
290
     1
  9
$CEPSNTYPE
380
     0
  9
$PSTYLEMODE
290
     1
  9
$FINGERPRINTGUID
  2
{3eadb0b4-1f15-43e4-89c0-b102216d3c53}
  9
$VERSIONGUID
  2
{FAEB1C32-E019-11D5-929B-00C0DF256EC4}
  9
$EXTNAMES
290
     1
  9
$PSVPSCALE
 40
0.0
  9
$OLESTARTUP
290
     0
  9
$SORTENTS
280
   127
  9
$INDEXCTL
280
     0
  9
$HIDETEXT
280
     1
  9
$XCLIPFRAME
280
     2
  9
$HALOGAP
280
     0
  9
$OBSCOLOR
 70
   257
  9
$OBSLTYPE
280
     0
  9
$INTERSECTIONDISPLAY
280
     0
  9
$INTERSECTIONCOLOR
 70
   257
  9
$DIMASSOC
280
     2
  9
$PROJECTNAME
  1

  9
$CAMERADISPLAY
290
     0
  9
$LENSLENGTH
 40
50.0
  9
$CAMERAHEIGHT
 40
0.0
  9
$STEPSPERSEC
 40
2.0
  9
$STEPSIZE
 40
6.0
  9
$3DDWFPREC
 40
2.0
  9
$PSOLWIDTH
 40
0.25
  9
$PSOLHEIGHT
 40
4.0
  9
$LOFTANG1
 40
1.570796326794897
  9
$LOFTANG2
 40
1.570796326794897
  9
$LOFTMAG1
 40
0.0
  9
$LOFTMAG2
 40
0.0
  9
$LOFTPARAM
 70
     7
  9
$LOFTNORMALS
280
     1
  9
$LATITUDE
 40
37.795
  9
$LONGITUDE
 40
-122.394
  9
$NORTHDIRECTION
 40
0.0
  9
$TIMEZONE
 70
 -8000
  9
$LIGHTGLYPHDISPLAY
280
     1
  9
$TILEMODELIGHTSYNCH
280
     1
  9
$CMATERIAL
347
44
  9
$SOLIDHIST
280
     0
  9
$SHOWHIST
280
     1
  9
$DWFFRAME
280
     2
  9
$DGNFRAME
280
     2
  9
$REALWORLDSCALE
290
     1
  9
$INTERFERECOLOR
 62
   256
  9
$CSHADOW
280
     0
  9
$SHADOWPLANELOCATION
 40
0.0
  0
ENDSEC
  0
SECTION
  2
CLASSES
  0
CLASS
  1
ACDBDICTIONARYWDFLT
  2
AcDbDictionaryWithDefault
  3
ObjectDBX Classes
 90
        0
 91
        3
280
     0
281
     0
  0
CLASS
  1
VISUALSTYLE
  2
AcDbVisualStyle
  3
ObjectDBX Classes
 90
     4095
 91
        3
280
     0
281
     0
  0
CLASS
  1
MATERIAL
  2
AcDbMaterial
  3
ObjectDBX Classes
 90
     1153
 91
        3
280
     0
281
     0
  0
CLASS
  1
SCALE
  2
AcDbScale
  3
ObjectDBX Classes
 90
     1153
 91
        3
280
     0
281
     0
  0
CLASS
  1
TABLESTYLE
  2
AcDbTableStyle
  3
ObjectDBX Classes
 90
     4095
 91
        3
280
     0
281
     0
  0
CLASS
  1
MLEADERSTYLE
  2
AcDbMLeaderStyle
  3
ACDB_MLEADERSTYLE_CLASS
 90
     4095
 91
        3
280
     0
281
     0
  0
CLASS
  1
SUN
  2
AcDbSun
  3
SCENEOE
 90
     1153
 91
        3
280
     0
281
     0
  0
CLASS
  1
DICTIONARYVAR
  2
AcDbDictionaryVar
  3
ObjectDBX Classes
 90
        0
 91
        3
280
     0
281
     0
  0
CLASS
  1
CELLSTYLEMAP
  2
AcDbCellStyleMap
  3
ObjectDBX Classes
 90
     1152
 91
        3
280
     0
281
     0
  0
ENDSEC
  0
SECTION
  2
TABLES
  0
TABLE
  2
VPORT
  5
8
330
0
100
AcDbSymbolTable
 70
     1
  0
VPORT
  5
29
330
8
100
AcDbSymbolTableRecord
100
AcDbViewportTableRecord
  2
*Active
 70
     0
 10
0.0
 20
0.0
 11
1.0
 21
1.0
 12
10.42990654205607
 22
4.5
 13
0.0
 23
0.0
 14
0.5
 24
0.5
 15
0.5
 25
0.5
 16
0.0
 26
0.0
 36
1.0
 17
0.0
 27
0.0
 37
0.0
 40
9.0
 41
1.972972972850329
 42
50.0
 43
0.0
 44
0.0
 50
0.0
 51
0.0
 71
     0
 72
   100
 73
     1
 74
     3
 75
     0
 76
     0
 77
     0
 78
     0
281
     0
 65
     1
110
0.0
120
0.0
130
0.0
111
1.0
121
0.0
131
0.0
112
0.0
122
1.0
132
0.0
 79
     0
146
0.0
348
2F
 60
     3
 61
     5
292
     1
282
     1
141
0.0
142
0.0
 63
   250
361
5D
  0
ENDTAB
  0
TABLE
  2
LTYPE
  5
5
330
0
100
AcDbSymbolTable
 70
     1
  0
LTYPE
  5
14
330
5
100
AcDbSymbolTableRecord
100
AcDbLinetypeTableRecord
  2
ByBlock
 70
     0
  3

 72
    65
 73
     0
 40
0.0
  0
LTYPE
  5
15
330
5
100
AcDbSymbolTableRecord
100
AcDbLinetypeTableRecord
  2
ByLayer
 70
     0
  3

 72
    65
 73
     0
 40
0.0
  0
LTYPE
  5
16
330
5
100
AcDbSymbolTableRecord
100
AcDbLinetypeTableRecord
  2
Continuous
 70
     0
  3
Solid line
 72
    65
 73
     0
 40
0.0
  0
ENDTAB
  0
TABLE
  2
LAYER
  5
2
330
0
100
AcDbSymbolTable
 70
     2
  0
LAYER
  5
10
330
2
100
AcDbSymbolTableRecord
100
AcDbLayerTableRecord
  2
0
 70
     0
 62
     7
  6
Continuous
370
    -3
390
F
347
46
348
0
  0
LAYER
  5
5F
330
2
100
AcDbSymbolTableRecord
100
AcDbLayerTableRecord
  2
Layer 1
 70
     0
 62
     7
  6
Continuous
370
    -3
390
F
347
46
348
0
  0
ENDTAB
  0
TABLE
  2
STYLE
  5
3
330
0
100
AcDbSymbolTable
 70
     1
  0
STYLE
  5
11
330
3
100
AcDbSymbolTableRecord
100
AcDbTextStyleTableRecord
  2
Standard
 70
     0
 40
0.0
 41
1.0
 50
0.0
 71
     0
 42
0.2
  3
txt
  4

  0
ENDTAB
  0
TABLE
  2
VIEW
  5
6
330
0
100
AcDbSymbolTable
 70
     0
  0
ENDTAB
  0
TABLE
  2
UCS
  5
7
330
0
100
AcDbSymbolTable
 70
     0
  0
ENDTAB
  0
TABLE
  2
APPID
  5
9
330
0
100
AcDbSymbolTable
 70
     2
  0
APPID
  5
12
330
9
100
AcDbSymbolTableRecord
100
AcDbRegAppTableRecord
  2
ACAD
 70
     0
  0
APPID
  5
5E
330
9
100
AcDbSymbolTableRecord
100
AcDbRegAppTableRecord
  2
ODA
 70
     0
  0
ENDTAB
  0
TABLE
  2
DIMSTYLE
  5
A
330
0
100
AcDbSymbolTable
 70
     1
100
AcDbDimStyleTable
  0
DIMSTYLE
105
27
330
A
100
AcDbSymbolTableRecord
100
AcDbDimStyleTableRecord
  2
Standard
 70
     0
178
     0
340
11
  0
ENDTAB
  0
TABLE
  2
BLOCK_RECORD
  5
1
330
0
100
AcDbSymbolTable
 70
     1
  0
BLOCK_RECORD
  5
1F
330
1
100
AcDbSymbolTableRecord
100
AcDbBlockTableRecord
  2
*Model_Space
340
22
 70
     0
280
     1
281
     0
  0
BLOCK_RECORD
  5
1B
330
1
100
AcDbSymbolTableRecord
100
AcDbBlockTableRecord
  2
*Paper_Space
340
1E
 70
     0
280
     1
281
     0
  0
BLOCK_RECORD
  5
23
330
1
100
AcDbSymbolTableRecord
100
AcDbBlockTableRecord
  2
*Paper_Space0
340
26
 70
     0
280
     1
281
     0
  0
ENDTAB
  0
ENDSEC
  0
SECTION
  2
BLOCKS
  0
BLOCK
  5
20
330
1F
100
AcDbEntity
  8
0
100
AcDbBlockBegin
  2
*Model_Space
 70
     0
 10
0.0
 20
0.0
 30
0.0
  3
*Model_Space
  1

  0
ENDBLK
  5
21
330
1F
100
AcDbEntity
  8
0
100
AcDbBlockEnd
  0
BLOCK
  5
1C
330
1B
100
AcDbEntity
 67
     1
  8
0
100
AcDbBlockBegin
  2
*Paper_Space
 70
     0
 10
0.0
 20
0.0
 30
0.0
  3
*Paper_Space
  1

  0
ENDBLK
  5
1D
330
1B
100
AcDbEntity
 67
     1
  8
0
100
AcDbBlockEnd
  0
BLOCK
  5
24
330
23
100
AcDbEntity
  8
0
100
AcDbBlockBegin
  2
*Paper_Space0
 70
     0
 10
0.0
 20
0.0
 30
0.0
  3
*Paper_Space0
  1

  0
ENDBLK
  5
25
330
23
100
AcDbEntity
  8
0
100
AcDbBlockEnd
  0
ENDSEC
  0
SECTION
  2
ENTITIES
  0
LWPOLYLINE
  5
60
330
1F
100
AcDbEntity
  8
Layer 1
 62
   250
370
    18
100
AcDbPolyline
 90
        5
 70
     1
 43
0.0
 10
181.5056
 20
-152.9294
 10
861.2184
 20
-152.9294
 10
861.2184
 20
168.152
 10
181.5056
 20
168.152
 10
181.5056
 20
-152.9294
  0
LWPOLYLINE
  5
61
330
1F
100
AcDbEntity
  8
Layer 1
 62
     7
370
    35
100
AcDbPolyline
 90
       33
 70
     1
 43
0.0
 10
467.4825
 20
134.5479
 10
494.8388
 20
131.9689
 10
520.3186
 20
124.5723
 10
543.3761
 20
112.8686
 10
563.4653
 20
97.368
 10
580.0404
 20
78.5812
 10
592.5556
 20
57.0186
 10
600.465
 20
33.1906
 10
603.2228
 20
7.6077
 10
600.465
 20
-17.9752
 10
592.5556
 20
-41.8032
 10
580.0404
 20
-63.3658
 10
563.4653
 20
-82.1526
 10
543.3761
 20
-97.6531
 10
520.3186
 20
-109.3568
 10
494.8388
 20
-116.7534
 10
467.4825
 20
-119.3324
 10
440.1258
 20
-116.7534
 10
414.6456
 20
-109.3568
 10
391.588
 20
-97.6531
 10
371.4986
 20
-82.1526
 10
354.9234
 20
-63.3658
 10
342.4081
 20
-41.8032
 10
334.4987
 20
-17.9752
 10
331.7409
 20
7.6077
 10
334.4987
 20
33.1906
 10
342.4081
 20
57.0186
 10
354.9234
 20
78.5812
 10
371.4986
 20
97.368
 10
391.588
 20
112.8686
 10
414.6456
 20
124.5723
 10
440.1258
 20
131.9689
 10
467.4825
 20
134.5479
  0
LWPOLYLINE
  5
62
330
1F
100
AcDbEntity
  8
Layer 1
 62
     7
370
    35
100
AcDbPolyline
 90
       33
 70
     1
 43
0.0
 10
467.4825
 20
127.6264
 10
493.3476
 20
125.1881
 10
517.4383
 20
118.1948
 10
539.2386
 20
107.1293
 10
558.2324
 20
92.474
 10
573.9037
 20
74.7116
 10
585.7365
 20
54.3247
 10
593.2145
 20
31.7959
 10
595.8219
 20
7.6077
 10
593.2145
 20
-16.5803
 10
585.7365
 20
-39.1092
 10
573.9037
 20
-59.4962
 10
558.2324
 20
-77.2589
 10
539.2386
 20
-91.9144
 10
517.4383
 20
-102.9803
 10
493.3476
 20
-109.9737
 10
467.4825
 20
-112.4121
 10
441.6175
 20
-109.9737
 10
417.5268
 20
-102.9803
 10
395.7263
 20
-91.9144
 10
376.7322
 20
-77.2589
 10
361.0605
 20
-59.4962
 10
349.2275
 20
-39.1092
 10
341.7493
 20
-16.5803
 10
339.1418
 20
7.6077
 10
341.7493
 20
31.7959
 10
349.2275
 20
54.3247
 10
361.0605
 20
74.7116
 10
376.7322
 20
92.474
 10
395.7263
 20
107.1293
 10
417.5268
 20
118.1948
 10
441.6175
 20
125.1881
 10
467.4825
 20
127.6264
  0
LWPOLYLINE
  5
63
330
1F
100
AcDbEntity
  8
Layer 1
 62
     7
370
    35
100
AcDbPolyline
 90
       33
 70
     1
 43
0.0
 10
467.4825
 20
25.1172
 10
471.2557
 20
24.7615
 10
474.7701
 20
23.7413
 10
477.9503
 20
22.1269
 10
480.7211
 20
19.9889
 10
483.0072
 20
17.3975
 10
484.7334
 20
14.4233
 10
485.8242
 20
11.1366
 10
486.2046
 20
7.6077
 10
485.8242
 20
4.079
 10
484.7334
 20
0.7924
 10
483.0072
 20
-2.1818
 10
480.7211
 20
-4.7732
 10
477.9503
 20
-6.9113
 10
474.7701
 20
-8.5258
 10
471.2557
 20
-9.5461
 10
467.4825
 20
-9.9018
 10
463.709
 20
-9.5461
 10
460.1944
 20
-8.5258
 10
457.014
 20
-6.9113
 10
454.243
 20
-4.7732
 10
451.9567
 20
-2.1818
 10
450.2304
 20
0.7924
 10
449.1395
 20
4.079
 10
448.7591
 20
7.6077
 10
449.1395
 20
11.1366
 10
450.2304
 20
14.4233
 10
451.9567
 20
17.3975
 10
454.243
 20
19.9889
 10
457.014
 20
22.1269
 10
460.1944
 20
23.7413
 10
463.709
 20
24.7615
 10
467.4825
 20
25.1172
  0
LWPOLYLINE
  5
64
330
1F
100
AcDbEntity
  8
Layer 1
 62
     7
370
    35
100
AcDbPolyline
 90
       33
 70
     1
 43
0.0
 10
467.4825
 20
17.6496
 10
469.6465
 20
17.4456
 10
471.662
 20
16.8604
 10
473.4861
 20
15.9345
 10
475.0753
 20
14.7083
 10
476.3866
 20
13.2221
 10
477.3767
 20
11.5163
 10
478.0024
 20
9.6314
 10
478.2206
 20
7.6077
 10
478.0024
 20
5.5837
 10
477.3767
 20
3.6986
 10
476.3866
 20
1.9929
 10
475.0753
 20
0.5068
 10
473.4861
 20
-0.7193
 10
471.662
 20
-1.6451
 10
469.6465
 20
-2.2301
 10
467.4825
 20
-2.4341
 10
465.3182
 20
-2.2301
 10
463.3024
 20
-1.6451
 10
461.4783
 20
-0.7193
 10
459.8892
 20
0.5068
 10
458.578
 20
1.9929
 10
457.5881
 20
3.6986
 10
456.9624
 20
5.5837
 10
456.7443
 20
7.6077
 10
456.9624
 20
9.6314
 10
457.5881
 20
11.5163
 10
458.578
 20
13.2221
 10
459.8892
 20
14.7083
 10
461.4783
 20
15.9345
 10
463.3024
 20
16.8604
 10
465.3182
 20
17.4456
 10
467.4825
 20
17.6496
  0
LWPOLYLINE
  5
65
330
1F
100
AcDbEntity
  8
Layer 1
 62
     7
370
    35
100
AcDbPolyline
 90
        4
 70
     0
 43
0.0
 10
346.8536
 20
-117.8927
 10
289.6418
 20
-117.8927
 10
289.6418
 20
134.5479
 10
344.566
 20
134.5479
  0
LWPOLYLINE
  5
66
330
1F
100
AcDbEntity
  8
Layer 1
 62
     7
370
    35
100
AcDbPolyline
 90
        2
 70
     0
 43
0.0
 10
293.2426
 20
-114.9955
 10
286.919
 20
-120.1059
  0
LWPOLYLINE
  5
67
330
1F
100
AcDbEntity
  8
Layer 1
 62
     7
370
    35
100
AcDbPolyline
 90
        2
 70
     0
 43
0.0
 10
293.3132
 20
137.1031
 10
286.9895
 20
131.9921
  0
LWPOLYLINE
  5
68
330
1F
100
AcDbEntity
  8
Layer 1
 62
     7
100
AcDbPolyline
 90
        4
 70
     1
 43
0.0
 10
211.7386
 20
13.8808
 10
211.7386
 20
5.169
 10
205.9728
 20
5.169
 10
211.7386
 20
13.8808
  0
LWPOLYLINE
  5
69
330
1F
100
AcDbEntity
  8
Layer 1
 62
     7
100
AcDbPolyline
 90
       11
 70
     1
 43
0.0
 10
213.3572
 20
3.573
 10
215.264
 20
3.573
 10
215.264
 20
5.169
 10
213.3572
 20
5.169
 10
213.3351
 20
15.5657
 10
211.1616
 20
15.5657
 10
203.2236
 20
3.573
 10
211.7386
 20
3.573
 10
211.7386
 20
0.4919
 10
213.3572
 20
0.4919
 10
213.3572
 20
3.573
  0
LWPOLYLINE
  5
6A
330
1F
100
AcDbEntity
  8
Layer 1
 62
     7
100
AcDbPolyline
 90
      109
 70
     1
 43
0.0
 10
223.7238
 20
13.814
 10
223.9798
 20
13.6402
 10
224.2185
 20
13.4428
 10
224.4398
 20
13.2219
 10
224.6439
 20
12.9774
 10
224.8307
 20
12.7093
 10
225.0002
 20
12.4177
 10
225.1523
 20
12.1025
 10
225.2872
 20
11.7638
 10
225.4379
 20
11.3144
 10
225.5684
 20
10.8584
 10
225.6789
 20
10.3958
 10
225.7692
 20
9.9266
 10
225.8395
 20
9.4508
 10
225.8897
 20
8.9685
 10
225.9198
 20
8.4796
 10
225.9298
 20
7.9841
 10
225.9257
 20
7.741
 10
225.9132
 20
7.4771
 10
225.8925
 20
7.1924
 10
225.8636
 20
6.887
 10
225.7867
 20
6.2911
 10
225.6862
 20
5.7281
 10
225.5621
 20
5.198
 10
225.4145
 20
4.7008
 10
225.2432
 20
4.2365
 10
225.0484
 20
3.8051
 10
224.8301
 20
3.4066
 10
224.5883
 20
3.041
 10
224.3676
 20
2.7656
 10
224.1352
 20
2.527
 10
223.891
 20
2.325
 10
223.635
 20
2.1598
 10
223.3673
 20
2.0312
 10
223.0877
 20
1.9394
 10
222.7964
 20
1.8844
 10
222.4933
 20
1.866
 10
222.1549
 20
1.8842
 10
221.8328
 20
1.9387
 10
221.527
 20
2.0297
 10
221.2375
 20
2.157
 10
220.9643
 20
2.3207
 10
220.7074
 20
2.5207
 10
220.4668
 20
2.7571
 10
220.2425
 20
3.0299
 10
220.1476
 20
3.1623
 10
220.0568
 20
3.2989
 10
219.9701
 20
3.4395
 10
219.8876
 20
3.5843
 10
219.8093
 20
3.7333
 10
219.7351
 20
3.8863
 10
219.6651
 20
4.0435
 10
219.5993
 20
4.2049
 10
219.4795
 20
4.5339
 10
219.3749
 20
4.8672
 10
219.2855
 20
5.2045
 10
219.2112
 20
5.5459
 10
219.1495
 20
5.8869
 10
219.0975
 20
6.2222
 10
219.0552
 20
6.5518
 10
219.0224
 20
6.8759
 10
218.9983
 20
7.2097
 10
218.981
 20
7.5681
 10
218.9707
 20
7.9508
 10
218.9672
 20
8.3573
 10
218.971
 20
8.5727
 10
218.9825
 20
8.8007
 10
219.0016
 20
9.0413
 10
219.0283
 20
9.2945
 10
219.0626
 20
9.5603
 10
219.1046
 20
9.8387
 10
219.1541
 20
10.1299
 10
219.2112
 20
10.4338
 10
219.2847
 20
10.7711
 10
219.3719
 20
11.1071
 10
219.4731
 20
11.4418
 10
219.5883
 20
11.7749
 10
219.6515
 20
11.939
 10
219.7192
 20
12.099
 10
219.7915
 20
12.2548
 10
219.8682
 20
12.4065
 10
219.9494
 20
12.554
 10
220.0351
 20
12.6975
 10
220.1252
 20
12.8367
 10
220.2198
 20
12.9719
 10
220.3193
 20
13.1017
 10
220.4236
 20
13.2248
 10
220.5328
 20
13.3414
 10
220.6469
 20
13.4513
 10
220.7657
 20
13.5547
 10
220.8894
 20
13.6514
 10
221.0179
 20
13.7416
 10
221.1511
 20
13.8251
 10
221.2901
 20
13.9005
 10
221.4353
 20
13.9659
 10
221.5868
 20
14.0212
 10
221.7444
 20
14.0664
 10
221.9083
 20
14.1016
 10
222.0785
 20
14.1267
 10
222.2549
 20
14.1418
 10
222.4375
 20
14.1468
 10
222.6201
 20
14.1416
 10
222.7965
 20
14.126
 10
222.9666
 20
14.1
 10
223.1305
 20
14.0636
 10
223.2882
 20
14.0168
 10
223.4396
 20
13.9596
 10
223.5848
 20
13.892
 10
223.7238
 20
13.814
  0
LWPOLYLINE
  5
6B
330
1F
100
AcDbEntity
  8
Layer 1
 62
     7
100
AcDbPolyline
 90
       65
 70
     1
 43
0.0
 10
222.5153
 20
0.2921
 10
223.1626
 20
0.3332
 10
223.7687
 20
0.4563
 10
224.3336
 20
0.6616
 10
224.8573
 20
0.9489
 10
225.3397
 20
1.3183
 10
225.781
 20
1.7698
 10
226.181
 20
2.3034
 10
226.5398
 20
2.919
 10
226.7918
 20
3.4563
 10
227.0102
 20
4.0234
 10
227.1951
 20
4.6202
 10
227.3463
 20
5.2468
 10
227.4639
 20
5.9032
 10
227.548
 20
6.5893
 10
227.5984
 20
7.3052
 10
227.6152
 20
8.0509
 10
227.5984
 20
8.7966
 10
227.548
 20
9.5124
 10
227.4639
 20
10.1986
 10
227.3463
 20
10.8549
 10
227.1951
 20
11.4815
 10
227.0102
 20
12.0783
 10
226.7918
 20
12.6454
 10
226.5398
 20
13.1827
 10
226.181
 20
13.7983
 10
225.781
 20
14.3318
 10
225.3397
 20
14.7832
 10
224.8573
 20
15.1525
 10
224.3336
 20
15.4397
 10
223.7687
 20
15.6449
 10
223.1626
 20
15.768
 10
222.5153
 20
15.809
 10
221.8678
 20
15.768
 10
221.2616
 20
15.6449
 10
220.6966
 20
15.4397
 10
220.1728
 20
15.1525
 10
219.6903
 20
14.7832
 10
219.2491
 20
14.3318
 10
218.849
 20
13.7983
 10
218.4902
 20
13.1827
 10
218.2382
 20
12.6454
 10
218.0198
 20
12.0783
 10
217.835
 20
11.4815
 10
217.6837
 20
10.8549
 10
217.5661
 20
10.1986
 10
217.482
 20
9.5124
 10
217.4316
 20
8.7966
 10
217.4148
 20
8.0509
 10
217.4316
 20
7.3052
 10
217.482
 20
6.5893
 10
217.5661
 20
5.9032
 10
217.6837
 20
5.2468
 10
217.835
 20
4.6202
 10
218.0198
 20
4.0234
 10
218.2382
 20
3.4563
 10
218.4902
 20
2.919
 10
218.849
 20
2.3034
 10
219.2491
 20
1.7698
 10
219.6903
 20
1.3183
 10
220.1728
 20
0.9489
 10
220.6966
 20
0.6616
 10
221.2616
 20
0.4563
 10
221.8678
 20
0.3332
 10
222.5153
 20
0.2921
  0
LWPOLYLINE
  5
6C
330
1F
100
AcDbEntity
  8
Layer 1
 62
     7
100
AcDbPolyline
 90
      109
 70
     1
 43
0.0
 10
236.1419
 20
13.814
 10
236.3979
 20
13.6402
 10
236.6365
 20
13.4428
 10
236.8579
 20
13.2219
 10
237.062
 20
12.9774
 10
237.2488
 20
12.7093
 10
237.4182
 20
12.4177
 10
237.5704
 20
12.1025
 10
237.7053
 20
11.7638
 10
237.856
 20
11.3144
 10
237.9865
 20
10.8584
 10
238.0969
 20
10.3958
 10
238.1873
 20
9.9266
 10
238.2575
 20
9.4508
 10
238.3077
 20
8.9685
 10
238.3378
 20
8.4796
 10
238.3478
 20
7.9841
 10
238.3437
 20
7.741
 10
238.3313
 20
7.4771
 10
238.3106
 20
7.1924
 10
238.2816
 20
6.887
 10
238.2047
 20
6.2911
 10
238.1042
 20
5.7281
 10
237.9802
 20
5.198
 10
237.8325
 20
4.7008
 10
237.6613
 20
4.2365
 10
237.4665
 20
3.8051
 10
237.2482
 20
3.4066
 10
237.0063
 20
3.041
 10
236.7857
 20
2.7656
 10
236.5533
 20
2.527
 10
236.3091
 20
2.325
 10
236.0531
 20
2.1598
 10
235.7853
 20
2.0312
 10
235.5058
 20
1.9394
 10
235.2144
 20
1.8844
 10
234.9113
 20
1.866
 10
234.573
 20
1.8842
 10
234.2509
 20
1.9387
 10
233.9451
 20
2.0297
 10
233.6556
 20
2.157
 10
233.3824
 20
2.3207
 10
233.1255
 20
2.5207
 10
232.8849
 20
2.7571
 10
232.6606
 20
3.0299
 10
232.5656
 20
3.1623
 10
232.4748
 20
3.2989
 10
232.3881
 20
3.4395
 10
232.3056
 20
3.5843
 10
232.2273
 20
3.7333
 10
232.1531
 20
3.8863
 10
232.0832
 20
4.0435
 10
232.0174
 20
4.2049
 10
231.8976
 20
4.5339
 10
231.793
 20
4.8672
 10
231.7036
 20
5.2045
 10
231.6293
 20
5.5459
 10
231.5676
 20
5.8869
 10
231.5156
 20
6.2222
 10
231.4733
 20
6.5518
 10
231.4405
 20
6.8759
 10
231.4164
 20
7.2097
 10
231.3991
 20
7.5681
 10
231.3888
 20
7.9508
 10
231.3853
 20
8.3573
 10
231.3891
 20
8.5727
 10
231.4006
 20
8.8007
 10
231.4197
 20
9.0413
 10
231.4464
 20
9.2945
 10
231.4807
 20
9.5603
 10
231.5226
 20
9.8387
 10
231.5722
 20
10.1299
 10
231.6293
 20
10.4338
 10
231.7028
 20
10.7711
 10
231.79
 20
11.1071
 10
231.8912
 20
11.4418
 10
232.0064
 20
11.7749
 10
232.0696
 20
11.939
 10
232.1373
 20
12.099
 10
232.2096
 20
12.2548
 10
232.2863
 20
12.4065
 10
232.3675
 20
12.554
 10
232.4532
 20
12.6975
 10
232.5433
 20
12.8367
 10
232.6379
 20
12.9719
 10
232.7374
 20
13.1017
 10
232.8417
 20
13.2248
 10
232.9509
 20
13.3414
 10
233.0649
 20
13.4513
 10
233.1838
 20
13.5547
 10
233.3075
 20
13.6514
 10
233.4359
 20
13.7416
 10
233.5692
 20
13.8251
 10
233.7082
 20
13.9005
 10
233.8534
 20
13.9659
 10
234.0048
 20
14.0212
 10
234.1625
 20
14.0664
 10
234.3264
 20
14.1016
 10
234.4965
 20
14.1267
 10
234.6729
 20
14.1418
 10
234.8555
 20
14.1468
 10
235.0381
 20
14.1416
 10
235.2145
 20
14.126
 10
235.3847
 20
14.1
 10
235.5486
 20
14.0636
 10
235.7062
 20
14.0168
 10
235.8577
 20
13.9596
 10
236.0029
 20
13.892
 10
236.1419
 20
13.814
  0
LWPOLYLINE
  5
6D
330
1F
100
AcDbEntity
  8
Layer 1
 62
     7
100
AcDbPolyline
 90
       65
 70
     1
 43
0.0
 10
234.9334
 20
0.2921
 10
235.5807
 20
0.3332
 10
236.1868
 20
0.4563
 10
236.7517
 20
0.6616
 10
237.2754
 20
0.9489
 10
237.7578
 20
1.3183
 10
238.1991
 20
1.7698
 10
238.5991
 20
2.3034
 10
238.9579
 20
2.919
 10
239.2099
 20
3.4563
 10
239.4283
 20
4.0234
 10
239.6131
 20
4.6202
 10
239.7644
 20
5.2468
 10
239.882
 20
5.9032
 10
239.9661
 20
6.5893
 10
240.0165
 20
7.3052
 10
240.0333
 20
8.0509
 10
240.0165
 20
8.7966
 10
239.9661
 20
9.5124
 10
239.882
 20
10.1986
 10
239.7644
 20
10.8549
 10
239.6131
 20
11.4815
 10
239.4283
 20
12.0783
 10
239.2099
 20
12.6454
 10
238.9579
 20
13.1827
 10
238.5991
 20
13.7983
 10
238.1991
 20
14.3318
 10
237.7578
 20
14.7832
 10
237.2754
 20
15.1525
 10
236.7517
 20
15.4397
 10
236.1868
 20
15.6449
 10
235.5807
 20
15.768
 10
234.9334
 20
15.809
 10
234.2859
 20
15.768
 10
233.6797
 20
15.6449
 10
233.1147
 20
15.4397
 10
232.5909
 20
15.1525
 10
232.1084
 20
14.7832
 10
231.6672
 20
14.3318
 10
231.2671
 20
13.7983
 10
230.9083
 20
13.1827
 10
230.6563
 20
12.6454
 10
230.4379
 20
12.0783
 10
230.2531
 20
11.4815
 10
230.1018
 20
10.8549
 10
229.9842
 20
10.1986
 10
229.9001
 20
9.5124
 10
229.8497
 20
8.7966
 10
229.8329
 20
8.0509
 10
229.8497
 20
7.3052
 10
229.9001
 20
6.5893
 10
229.9842
 20
5.9032
 10
230.1018
 20
5.2468
 10
230.2531
 20
4.6202
 10
230.4379
 20
4.0234
 10
230.6563
 20
3.4563
 10
230.9083
 20
2.919
 10
231.2671
 20
2.3034
 10
231.6672
 20
1.7698
 10
232.1084
 20
1.3183
 10
232.5909
 20
0.9489
 10
233.1147
 20
0.6616
 10
233.6797
 20
0.4563
 10
234.2859
 20
0.3332
 10
234.9334
 20
0.2921
  0
LWPOLYLINE
  5
6E
330
1F
100
AcDbEntity
  8
Layer 1
 62
     7
100
AcDbPolyline
 90
      162
 70
     1
 43
0.0
 10
255.1791
 20
0.536
 10
256.7309
 20
0.536
 10
256.7309
 20
6.632
 10
256.7183
 20
7.0368
 10
256.6803
 20
7.4226
 10
256.6171
 20
7.7892
 10
256.5286
 20
8.1368
 10
256.4148
 20
8.4653
 10
256.2757
 20
8.7747
 10
256.1113
 20
9.0652
 10
255.9216
 20
9.3367
 10
255.8158
 20
9.4663
 10
255.7034
 20
9.5893
 10
255.5845
 20
9.7058
 10
255.459
 20
9.8157
 10
255.3268
 20
9.9191
 10
255.1882
 20
10.0159
 10
255.0429
 20
10.1062
 10
254.891
 20
10.1899
 10
254.7294
 20
10.2653
 10
254.5553
 20
10.3306
 10
254.3688
 20
10.3858
 10
254.1699
 20
10.4309
 10
253.9585
 20
10.466
 10
253.7347
 20
10.4911
 10
253.4984
 20
10.5061
 10
253.2497
 20
10.5111
 10
252.9987
 20
10.5025
 10
252.7557
 20
10.4765
 10
252.5206
 20
10.4332
 10
252.2936
 20
10.3727
 10
252.0745
 20
10.2947
 10
251.8633
 20
10.1995
 10
251.6602
 20
10.0869
 10
251.4649
 20
9.957
 10
251.2954
 20
9.8276
 10
251.1335
 20
9.6885
 10
250.9792
 20
9.54
 10
250.8326
 20
9.3819
 10
250.6936
 20
9.2145
 10
250.5623
 20
9.0378
 10
250.4386
 20
8.852
 10
250.3226
 20
8.657
 10
250.2325
 20
8.8368
 10
250.1341
 20
9.0105
 10
250.0275
 20
9.1774
 10
249.9125
 20
9.3367
 10
249.8066
 20
9.4663
 10
249.6942
 20
9.5893
 10
249.5751
 20
9.7058
 10
249.4495
 20
9.8157
 10
249.3172
 20
9.9191
 10
249.1785
 20
10.0159
 10
249.0331
 20
10.1062
 10
248.8812
 20
10.1899
 10
248.7198
 20
10.2653
 10
248.5458
 20
10.3306
 10
248.3595
 20
10.3858
 10
248.1606
 20
10.4309
 10
247.9493
 20
10.466
 10
247.7255
 20
10.4911
 10
247.4892
 20
10.5061
 10
247.2405
 20
10.5111
 10
246.9895
 20
10.5025
 10
246.7464
 20
10.4765
 10
246.5113
 20
10.4332
 10
246.2841
 20
10.3727
 10
246.0649
 20
10.2947
 10
245.8536
 20
10.1995
 10
245.6504
 20
10.0869
 10
245.4551
 20
9.957
 10
245.2937
 20
9.8338
 10
245.1392
 20
9.7022
 10
244.9916
 20
9.5621
 10
244.851
 20
9.4137
 10
244.7172
 20
9.2567
 10
244.5904
 20
9.0912
 10
244.4705
 20
8.9171
 10
244.3576
 20
8.7343
 10
244.3576
 20
10.2898
 10
242.8058
 20
10.2898
 10
242.8058
 20
0.536
 10
244.3576
 20
0.536
 10
244.3576
 20
5.5275
 10
244.3937
 20
5.8183
 10
244.4409
 20
6.0978
 10
244.4991
 20
6.366
 10
244.5684
 20
6.623
 10
244.6488
 20
6.8689
 10
244.7402
 20
7.1038
 10
244.8429
 20
7.3278
 10
244.9566
 20
7.5409
 10
245.0492
 20
7.6926
 10
245.1493
 20
7.8374
 10
245.257
 20
7.9753
 10
245.3724
 20
8.1062
 10
245.4954
 20
8.2303
 10
245.6259
 20
8.3474
 10
245.7642
 20
8.4576
 10
245.91
 20
8.5608
 10
246.0611
 20
8.6543
 10
246.2149
 20
8.7354
 10
246.3715
 20
8.8039
 10
246.5309
 20
8.8601
 10
246.693
 20
8.9037
 10
246.858
 20
8.9349
 10
247.0257
 20
8.9536
 10
247.1963
 20
8.9598
 10
247.3625
 20
8.9565
 10
247.5177
 20
8.9466
 10
247.6618
 20
8.9301
 10
247.7949
 20
8.907
 10
247.9168
 20
8.8774
 10
248.0277
 20
8.8411
 10
248.1274
 20
8.7983
 10
248.216
 20
8.749
 10
248.4395
 20
8.5838
 10
248.6332
 20
8.3902
 10
248.7971
 20
8.1682
 10
248.9311
 20
7.9178
 10
249.0354
 20
7.639
 10
249.1098
 20
7.3317
 10
249.1545
 20
6.9961
 10
249.1694
 20
6.632
 10
249.1694
 20
0.536
 10
250.7218
 20
0.536
 10
250.7218
 20
6.632
 10
250.7107
 20
7.0052
 10
250.9658
 20
7.5409
 10
251.0584
 20
7.6926
 10
251.1585
 20
7.8374
 10
251.2662
 20
7.9753
 10
251.3816
 20
8.1062
 10
251.5045
 20
8.2303
 10
251.6351
 20
8.3474
 10
251.7733
 20
8.4576
 10
251.9192
 20
8.5608
 10
252.0702
 20
8.6543
 10
252.2241
 20
8.7354
 10
252.3807
 20
8.8039
 10
252.54
 20
8.8601
 10
252.7022
 20
8.9037
 10
252.8672
 20
8.9349
 10
253.0349
 20
8.9536
 10
253.2055
 20
8.9598
 10
253.3717
 20
8.9565
 10
253.5269
 20
8.9466
 10
253.6711
 20
8.9301
 10
253.8041
 20
8.907
 10
253.9261
 20
8.8774
 10
254.0371
 20
8.8411
 10
254.1369
 20
8.7983
 10
254.2257
 20
8.749
 10
254.449
 20
8.5838
 10
254.6426
 20
8.3902
 10
254.8065
 20
8.1682
 10
254.9406
 20
7.9178
 10
255.0449
 20
7.639
 10
255.1195
 20
7.3317
 10
255.1642
 20
6.9961
 10
255.1791
 20
6.632
 10
255.1791
 20
0.536
  0
LWPOLYLINE
  5
6F
330
1F
100
AcDbEntity
  8
Layer 1
 62
     7
100
AcDbPolyline
 90
      162
 70
     1
 43
0.0
 10
272.0981
 20
0.536
 10
273.6499
 20
0.536
 10
273.6499
 20
6.632
 10
273.6373
 20
7.0368
 10
273.5993
 20
7.4226
 10
273.5361
 20
7.7892
 10
273.4476
 20
8.1368
 10
273.3338
 20
8.4653
 10
273.1947
 20
8.7747
 10
273.0303
 20
9.0652
 10
272.8406
 20
9.3367
 10
272.7348
 20
9.4663
 10
272.6224
 20
9.5893
 10
272.5034
 20
9.7058
 10
272.3779
 20
9.8157
 10
272.2458
 20
9.9191
 10
272.1071
 20
10.0159
 10
271.9618
 20
10.1062
 10
271.8099
 20
10.1899
 10
271.6483
 20
10.2653
 10
271.4742
 20
10.3306
 10
271.2878
 20
10.3858
 10
271.0889
 20
10.4309
 10
270.8775
 20
10.466
 10
270.6537
 20
10.4911
 10
270.4174
 20
10.5061
 10
270.1686
 20
10.5111
 10
269.9176
 20
10.5025
 10
269.6746
 20
10.4765
 10
269.4396
 20
10.4332
 10
269.2125
 20
10.3727
 10
268.9934
 20
10.2947
 10
268.7823
 20
10.1995
 10
268.5791
 20
10.0869
 10
268.3838
 20
9.957
 10
268.2143
 20
9.8276
 10
268.0524
 20
9.6885
 10
267.8981
 20
9.54
 10
267.7515
 20
9.3819
 10
267.6126
 20
9.2145
 10
267.4813
 20
9.0378
 10
267.3576
 20
8.852
 10
267.2416
 20
8.657
 10
267.1514
 20
8.8368
 10
267.053
 20
9.0105
 10
266.9464
 20
9.1774
 10
266.8314
 20
9.3367
 10
266.7256
 20
9.4663
 10
266.6131
 20
9.5893
 10
266.4941
 20
9.7058
 10
266.3685
 20
9.8157
 10
266.2362
 20
9.9191
 10
266.0975
 20
10.0159
 10
265.9521
 20
10.1062
 10
265.8002
 20
10.1899
 10
265.6388
 20
10.2653
 10
265.4648
 20
10.3306
 10
265.2785
 20
10.3858
 10
265.0796
 20
10.4309
 10
264.8683
 20
10.466
 10
264.6445
 20
10.4911
 10
264.4082
 20
10.5061
 10
264.1595
 20
10.5111
 10
263.9085
 20
10.5025
 10
263.6654
 20
10.4765
 10
263.4303
 20
10.4332
 10
263.2031
 20
10.3727
 10
262.9839
 20
10.2947
 10
262.7726
 20
10.1995
 10
262.5694
 20
10.0869
 10
262.3741
 20
9.957
 10
262.2127
 20
9.8338
 10
262.0582
 20
9.7022
 10
261.9106
 20
9.5621
 10
261.7699
 20
9.4137
 10
261.6362
 20
9.2567
 10
261.5094
 20
9.0912
 10
261.3895
 20
8.9171
 10
261.2766
 20
8.7343
 10
261.2766
 20
10.2898
 10
259.7248
 20
10.2898
 10
259.7248
 20
0.536
 10
261.2766
 20
0.536
 10
261.2766
 20
5.5275
 10
261.3127
 20
5.8183
 10
261.3598
 20
6.0978
 10
261.418
 20
6.366
 10
261.4873
 20
6.623
 10
261.5677
 20
6.8689
 10
261.6592
 20
7.1038
 10
261.7618
 20
7.3278
 10
261.8756
 20
7.5409
 10
261.9682
 20
7.6926
 10
262.0683
 20
7.8374
 10
262.176
 20
7.9753
 10
262.2914
 20
8.1062
 10
262.4143
 20
8.2303
 10
262.5449
 20
8.3474
 10
262.6831
 20
8.4576
 10
262.829
 20
8.5608
 10
262.98
 20
8.6543
 10
263.1339
 20
8.7354
 10
263.2905
 20
8.8039
 10
263.4498
 20
8.8601
 10
263.612
 20
8.9037
 10
263.777
 20
8.9349
 10
263.9447
 20
8.9536
 10
264.1153
 20
8.9598
 10
264.2815
 20
8.9565
 10
264.4367
 20
8.9466
 10
264.5808
 20
8.9301
 10
264.7139
 20
8.907
 10
264.8358
 20
8.8774
 10
264.9466
 20
8.8411
 10
265.0463
 20
8.7983
 10
265.1349
 20
8.749
 10
265.3584
 20
8.5838
 10
265.5521
 20
8.3902
 10
265.716
 20
8.1682
 10
265.85
 20
7.9178
 10
265.9543
 20
7.639
 10
266.0287
 20
7.3317
 10
266.0734
 20
6.9961
 10
266.0883
 20
6.632
 10
266.0883
 20
0.536
 10
267.6407
 20
0.536
 10
267.6407
 20
6.632
 10
267.6297
 20
7.0052
 10
267.8847
 20
7.5409
 10
267.9773
 20
7.6926
 10
268.0774
 20
7.8374
 10
268.1851
 20
7.9753
 10
268.3005
 20
8.1062
 10
268.4235
 20
8.2303
 10
268.554
 20
8.3474
 10
268.6923
 20
8.4576
 10
268.8381
 20
8.5608
 10
268.9892
 20
8.6543
 10
269.143
 20
8.7354
 10
269.2996
 20
8.8039
 10
269.459
 20
8.8601
 10
269.6212
 20
8.9037
 10
269.7862
 20
8.9349
 10
269.9539
 20
8.9536
 10
270.1245
 20
8.9598
 10
270.2907
 20
8.9565
 10
270.4459
 20
8.9466
 10
270.59
 20
8.9301
 10
270.7231
 20
8.907
 10
270.8451
 20
8.8774
 10
270.956
 20
8.8411
 10
271.0559
 20
8.7983
 10
271.1447
 20
8.749
 10
271.368
 20
8.5838
 10
271.5616
 20
8.3902
 10
271.7255
 20
8.1682
 10
271.8596
 20
7.9178
 10
271.9639
 20
7.639
 10
272.0385
 20
7.3317
 10
272.0832
 20
6.9961
 10
272.0981
 20
6.632
 10
272.0981
 20
0.536
  0
LWPOLYLINE
  5
70
330
1F
100
AcDbEntity
  8
Layer 1
 62
     7
370
    35
100
AcDbPolyline
 90
        4
 70
     0
 43
0.0
 10
688.9409
 20
-29.1077
 10
674.1791
 20
-29.1077
 10
674.1791
 20
36.9597
 10
688.3508
 20
36.9597
  0
LWPOLYLINE
  5
71
330
1F
100
AcDbEntity
  8
Layer 1
 62
     7
370
    35
100
AcDbPolyline
 90
        2
 70
     0
 43
0.0
 10
675.1079
 20
-28.3499
 10
673.4763
 20
-29.6874
  0
LWPOLYLINE
  5
72
330
1F
100
AcDbEntity
  8
Layer 1
 62
     7
370
    35
100
AcDbPolyline
 90
        2
 70
     0
 43
0.0
 10
675.1261
 20
37.6287
 10
673.4948
 20
36.2911
  0
LWPOLYLINE
  5
73
330
1F
100
AcDbEntity
  8
Layer 1
 62
     7
100
AcDbPolyline
 90
        7
 70
     1
 43
0.0
 10
633.6185
 20
-1.4052
 10
634.3845
 20
-1.4052
 10
634.3845
 20
6.1229
 10
632.5456
 20
5.926
 10
632.5456
 20
5.2585
 10
633.6185
 20
5.2585
 10
633.6185
 20
-1.4052
  0
LWPOLYLINE
  5
74
330
1F
100
AcDbEntity
  8
Layer 1
 62
     7
100
AcDbPolyline
 90
       65
 70
     1
 43
0.0
 10
637.9258
 20
1.976
 10
637.7511
 20
1.984
 10
637.5829
 20
2.0081
 10
637.4213
 20
2.0482
 10
637.2661
 20
2.1045
 10
637.1175
 20
2.1767
 10
636.9754
 20
2.2651
 10
636.8398
 20
2.3695
 10
636.7107
 20
2.49
 10
636.594
 20
2.6203
 10
636.4928
 20
2.7568
 10
636.4072
 20
2.8994
 10
636.3371
 20
3.0482
 10
636.2826
 20
3.2031
 10
636.2437
 20
3.3641
 10
636.2203
 20
3.5313
 10
636.2125
 20
3.7047
 10
636.2204
 20
3.8741
 10
636.244
 20
4.0378
 10
636.2834
 20
4.1956
 10
636.3385
 20
4.3475
 10
636.4093
 20
4.4937
 10
636.4958
 20
4.634
 10
636.5981
 20
4.7686
 10
636.7161
 20
4.8973
 10
636.8428
 20
5.0127
 10
636.9768
 20
5.1128
 10
637.1178
 20
5.1974
 10
637.2661
 20
5.2667
 10
637.4216
 20
5.3206
 10
637.5843
 20
5.3591
 10
637.7541
 20
5.3822
 10
637.9312
 20
5.3899
 10
638.1048
 20
5.3819
 10
638.2725
 20
5.3581
 10
638.4345
 20
5.3183
 10
638.5906
 20
5.2626
 10
638.7409
 20
5.191
 10
638.8854
 20
5.1036
 10
639.0241
 20
5.0002
 10
639.1569
 20
4.881
 10
639.2775
 20
4.752
 10
639.3821
 20
4.6167
 10
639.4705
 20
4.4751
 10
639.5429
 20
4.3271
 10
639.5991
 20
4.1728
 10
639.6393
 20
4.0121
 10
639.6634
 20
3.8451
 10
639.6714
 20
3.6717
 10
639.6633
 20
3.5036
 10
639.6389
 20
3.3408
 10
639.5983
 20
3.1836
 10
639.5414
 20
3.0317
 10
639.4683
 20
2.8853
 10
639.3789
 20
2.7444
 10
639.2733
 20
2.609
 10
639.1515
 20
2.4791
 10
639.0287
 20
2.3701
 10
638.8957
 20
2.2727
 10
638.7524
 20
2.1869
 10
638.5989
 20
2.1127
 10
638.4378
 20
2.0528
 10
638.2719
 20
2.0101
 10
638.1012
 20
1.9845
 10
637.9258
 20
1.976
  0
LWPOLYLINE
  5
75
330
1F
100
AcDbEntity
  8
Layer 1
 62
     7
100
AcDbPolyline
 90
       69
 70
     1
 43
0.0
 10
635.4356
 20
3.6499
 10
635.4476
 20
3.3864
 10
635.4834
 20
3.135
 10
635.5433
 20
2.8954
 10
635.627
 20
2.6679
 10
635.7347
 20
2.4523
 10
635.8664
 20
2.2486
 10
636.022
 20
2.057
 10
636.2016
 20
1.8773
 10
636.3852
 20
1.726
 10
636.5816
 20
1.5932
 10
636.7909
 20
1.4791
 10
637.013
 20
1.3837
 10
637.2479
 20
1.3068
 10
637.4957
 20
1.2486
 10
637.7562
 20
1.2091
 10
638.0296
 20
1.1882
 10
638.2484
 20
1.3304
 10
635.9719
 20
-1.4052
 10
636.9788
 20
-1.4052
 10
639.8903
 20
2.1073
 10
640.0212
 20
2.2783
 10
640.1346
 20
2.4563
 10
640.2305
 20
2.6413
 10
640.309
 20
2.8333
 10
640.3701
 20
3.0324
 10
640.4137
 20
3.2385
 10
640.4399
 20
3.4516
 10
640.4486
 20
3.6717
 10
640.4371
 20
3.9254
 10
640.4028
 20
4.1693
 10
640.3455
 20
4.4035
 10
640.2653
 20
4.6279
 10
640.1621
 20
4.8425
 10
640.0361
 20
5.0474
 10
639.8871
 20
5.2426
 10
639.7153
 20
5.428
 10
639.5259
 20
5.5986
 10
639.3273
 20
5.7464
 10
639.1195
 20
5.8714
 10
638.9025
 20
5.9738
 10
638.6762
 20
6.0533
 10
638.4407
 20
6.1101
 10
638.196
 20
6.1442
 10
637.9421
 20
6.1556
 10
637.6845
 20
6.1443
 10
637.4372
 20
6.1105
 10
637.2001
 20
6.0541
 10
636.9733
 20
5.9751
 10
636.7568
 20
5.8736
 10
636.5506
 20
5.7495
 10
636.3546
 20
5.6027
 10
636.1689
 20
5.4334
 10
636.0862
 20
5.3469
 10
636.0081
 20
5.257
 10
635.9344
 20
5.1637
 10
635.8651
 20
5.067
 10
635.8003
 20
4.9668
 10
635.74
 20
4.8631
 10
635.6841
 20
4.7561
 10
635.6326
 20
4.6456
 10
635.5864
 20
4.532
 10
635.5464
 20
4.4152
 10
635.5126
 20
4.2954
 10
635.4849
 20
4.1725
 10
635.4633
 20
4.0465
 10
635.4479
 20
3.9174
 10
635.4387
 20
3.7852
 10
635.4356
 20
3.6499
  0
LWPOLYLINE
  5
76
330
1F
100
AcDbEntity
  8
Layer 1
 62
     7
100
AcDbPolyline
 90
      128
 70
     1
 43
0.0
 10
642.7036
 20
3.2778
 10
643.2072
 20
5.2694
 10
645.8999
 20
5.2694
 10
645.8999
 20
6.0355
 10
642.6271
 20
6.0355
 10
641.7733
 20
2.6981
 10
642.605
 20
2.326
 10
642.7257
 20
2.4081
 10
642.8523
 20
2.4793
 10
642.985
 20
2.5394
 10
643.1236
 20
2.5887
 10
643.2683
 20
2.6269
 10
643.4189
 20
2.6542
 10
643.5755
 20
2.6706
 10
643.7381
 20
2.6761
 10
643.9015
 20
2.6681
 10
644.0595
 20
2.644
 10
644.212
 20
2.6038
 10
644.3591
 20
2.5476
 10
644.5007
 20
2.4752
 10
644.6368
 20
2.3868
 10
644.7675
 20
2.2823
 10
644.8927
 20
2.1617
 10
645.0107
 20
2.0273
 10
645.113
 20
1.8879
 10
645.1995
 20
1.7436
 10
645.2704
 20
1.5943
 10
645.3254
 20
1.44
 10
645.3648
 20
1.2807
 10
645.3884
 20
1.1165
 10
645.3963
 20
0.9473
 10
645.3883
 20
0.7723
 10
645.3641
 20
0.6044
 10
645.3239
 20
0.4435
 10
645.2676
 20
0.2895
 10
645.1953
 20
0.1426
 10
645.1069
 20
0.0027
 10
645.0024
 20
-0.1303
 10
644.8818
 20
-0.2562
 10
644.757
 20
-0.3654
 10
644.6233
 20
-0.4629
 10
644.4807
 20
-0.5487
 10
644.3292
 20
-0.6229
 10
644.249
 20
-0.6549
 10
644.1643
 20
-0.6827
 10
644.0752
 20
-0.7061
 10
643.9816
 20
-0.7254
 10
643.7812
 20
-0.751
 10
643.5629
 20
-0.7596
 10
643.4494
 20
-0.7548
 10
643.3361
 20
-0.7405
 10
643.2229
 20
-0.7165
 10
643.11
 20
-0.683
 10
642.9972
 20
-0.6399
 10
642.8846
 20
-0.5873
 10
642.7721
 20
-0.525
 10
642.6598
 20
-0.4531
 10
642.5517
 20
-0.3736
 10
642.4519
 20
-0.2883
 10
642.3602
 20
-0.1972
 10
642.2767
 20
-0.1003
 10
642.2015
 20
0.0025
 10
642.1344
 20
0.111
 10
642.0756
 20
0.2254
 10
642.0251
 20
0.3456
 10
641.2806
 20
0.1048
 10
641.3538
 20
-0.0753
 10
641.4391
 20
-0.2464
 10
641.5365
 20
-0.4084
 10
641.646
 20
-0.5613
 10
641.7677
 20
-0.7052
 10
641.9015
 20
-0.84
 10
642.0475
 20
-0.9658
 10
642.2055
 20
-1.0824
 10
642.3736
 20
-1.1889
 10
642.5455
 20
-1.2811
 10
642.7212
 20
-1.3592
 10
642.9006
 20
-1.423
 10
643.0837
 20
-1.4727
 10
643.2707
 20
-1.5081
 10
643.4613
 20
-1.5294
 10
643.6558
 20
-1.5365
 10
643.9149
 20
-1.5248
 10
644.1641
 20
-1.4896
 10
644.4034
 20
-1.4311
 10
644.6328
 20
-1.3491
 10
644.8522
 20
-1.2437
 10
645.0618
 20
-1.1149
 10
645.2614
 20
-0.9627
 10
645.4511
 20
-0.7871
 10
645.6229
 20
-0.5964
 10
645.7718
 20
-0.3962
 10
645.8979
 20
-0.1867
 10
646.001
 20
0.0322
 10
646.0812
 20
0.2606
 10
646.1385
 20
0.4983
 10
646.1729
 20
0.7455
 10
646.1844
 20
1.0021
 10
646.1731
 20
1.2572
 10
646.1392
 20
1.5016
 10
646.0828
 20
1.7352
 10
646.0038
 20
1.958
 10
645.9022
 20
2.1701
 10
645.778
 20
2.3714
 10
645.6313
 20
2.5619
 10
645.462
 20
2.7417
 10
645.3755
 20
2.8217
 10
645.2856
 20
2.8974
 10
645.1922
 20
2.9687
 10
645.0954
 20
3.0358
 10
644.9952
 20
3.0987
 10
644.8915
 20
3.1572
 10
644.7844
 20
3.2115
 10
644.6739
 20
3.2615
 10
644.5611
 20
3.3064
 10
644.4474
 20
3.3453
 10
644.3327
 20
3.3782
 10
644.2171
 20
3.4051
 10
644.1005
 20
3.4261
 10
643.983
 20
3.441
 10
643.8646
 20
3.45
 10
643.7453
 20
3.453
 10
643.6237
 20
3.4503
 10
643.4997
 20
3.4421
 10
643.3732
 20
3.4284
 10
643.2443
 20
3.4092
 10
642.979
 20
3.3545
 10
642.7036
 20
3.2778
  0
LWPOLYLINE
  5
77
330
1F
100
AcDbEntity
  8
Layer 1
 62
     7
100
AcDbPolyline
 90
      143
 70
     1
 43
0.0
 10
653.6933
 20
-1.3834
 10
654.4593
 20
-1.3834
 10
654.4593
 20
1.6256
 10
654.4531
 20
1.8254
 10
654.4343
 20
2.0158
 10
654.4031
 20
2.1968
 10
654.3594
 20
2.3684
 10
654.3032
 20
2.5305
 10
654.2346
 20
2.6833
 10
654.1534
 20
2.8267
 10
654.0598
 20
2.9607
 10
653.9521
 20
3.0854
 10
653.8314
 20
3.1972
 10
653.6977
 20
3.296
 10
653.5511
 20
3.3819
 10
653.4713
 20
3.4191
 10
653.3854
 20
3.4513
 10
653.2933
 20
3.4786
 10
653.1951
 20
3.5009
 10
653.0908
 20
3.5182
 10
652.9803
 20
3.5305
 10
652.8637
 20
3.5379
 10
652.7409
 20
3.5404
 10
652.617
 20
3.5361
 10
652.497
 20
3.5233
 10
652.381
 20
3.502
 10
652.2689
 20
3.4721
 10
652.1608
 20
3.4336
 10
652.0566
 20
3.3866
 10
651.9563
 20
3.331
 10
651.8599
 20
3.2669
 10
651.7762
 20
3.203
 10
651.6963
 20
3.1344
 10
651.6201
 20
3.061
 10
651.5478
 20
2.983
 10
651.4792
 20
2.9004
 10
651.4144
 20
2.8132
 10
651.3533
 20
2.7214
 10
651.2961
 20
2.6252
 10
651.0936
 20
2.9607
 10
650.9858
 20
3.0854
 10
650.865
 20
3.1972
 10
650.7313
 20
3.296
 10
650.5845
 20
3.3819
 10
650.5048
 20
3.4191
 10
650.419
 20
3.4513
 10
650.327
 20
3.4786
 10
650.2288
 20
3.5009
 10
650.1245
 20
3.5182
 10
650.0141
 20
3.5305
 10
649.8975
 20
3.5379
 10
649.7747
 20
3.5404
 10
649.6508
 20
3.5361
 10
649.5308
 20
3.5233
 10
649.4147
 20
3.502
 10
649.3026
 20
3.4721
 10
649.1944
 20
3.4336
 10
649.0901
 20
3.3866
 10
648.9897
 20
3.331
 10
648.8933
 20
3.2669
 10
648.8137
 20
3.2061
 10
648.7374
 20
3.1411
 10
648.6646
 20
3.072
 10
648.5952
 20
2.9987
 10
648.5291
 20
2.9212
 10
648.4665
 20
2.8395
 10
648.4074
 20
2.7535
 10
648.3516
 20
2.6633
 10
648.3516
 20
3.4312
 10
647.5856
 20
3.4312
 10
647.5856
 20
-1.3834
 10
648.3516
 20
-1.3834
 10
648.3516
 20
1.0805
 10
648.3694
 20
1.224
 10
648.3927
 20
1.3619
 10
648.4214
 20
1.4943
 10
648.4557
 20
1.6212
 10
648.4953
 20
1.7425
 10
648.5405
 20
1.8585
 10
648.5911
 20
1.9691
 10
648.6473
 20
2.0743
 10
648.693
 20
2.1492
 10
648.7424
 20
2.2206
 10
648.7956
 20
2.2887
 10
648.8525
 20
2.3533
 10
648.9132
 20
2.4146
 10
648.9777
 20
2.4724
 10
649.0459
 20
2.5267
 10
649.1179
 20
2.5777
 10
649.1925
 20
2.6239
 10
649.2684
 20
2.6639
 10
649.3457
 20
2.6977
 10
649.4244
 20
2.7254
 10
649.5044
 20
2.747
 10
649.5859
 20
2.7624
 10
649.6687
 20
2.7716
 10
649.7529
 20
2.7747
 10
649.9115
 20
2.7682
 10
650.0483
 20
2.7486
 10
650.1632
 20
2.7161
 10
650.2562
 20
2.6706
 10
650.3665
 20
2.589
 10
650.4621
 20
2.4935
 10
650.543
 20
2.3839
 10
650.6092
 20
2.2603
 10
650.6606
 20
2.1227
 10
650.6974
 20
1.971
 10
650.7194
 20
1.8053
 10
650.7268
 20
1.6256
 10
650.7268
 20
-1.3834
 10
651.4931
 20
-1.3834
 10
651.4931
 20
1.6256
 10
651.4876
 20
1.8099
 10
651.6135
 20
2.0743
 10
651.6592
 20
2.1492
 10
651.7086
 20
2.2206
 10
651.7618
 20
2.2887
 10
651.8187
 20
2.3533
 10
651.8794
 20
2.4146
 10
651.9439
 20
2.4724
 10
652.0121
 20
2.5267
 10
652.0841
 20
2.5777
 10
652.1587
 20
2.6239
 10
652.2346
 20
2.6639
 10
652.3119
 20
2.6977
 10
652.3906
 20
2.7254
 10
652.4707
 20
2.747
 10
652.5521
 20
2.7624
 10
652.6349
 20
2.7716
 10
652.7191
 20
2.7747
 10
652.8778
 20
2.7682
 10
653.0146
 20
2.7486
 10
653.1296
 20
2.7161
 10
653.2227
 20
2.6706
 10
653.3329
 20
2.589
 10
653.4285
 20
2.4935
 10
653.5094
 20
2.3839
 10
653.5756
 20
2.2603
 10
653.6271
 20
2.1227
 10
653.6639
 20
1.971
 10
653.6859
 20
1.8053
 10
653.6933
 20
1.6256
 10
653.6933
 20
-1.3834
  0
LWPOLYLINE
  5
78
330
1F
100
AcDbEntity
  8
Layer 1
 62
     7
100
AcDbPolyline
 90
      143
 70
     1
 43
0.0
 10
662.0448
 20
-1.3834
 10
662.8108
 20
-1.3834
 10
662.8108
 20
1.6256
 10
662.8046
 20
1.8254
 10
662.7858
 20
2.0158
 10
662.7546
 20
2.1968
 10
662.7109
 20
2.3684
 10
662.6547
 20
2.5305
 10
662.5861
 20
2.6833
 10
662.5049
 20
2.8267
 10
662.4113
 20
2.9607
 10
662.3036
 20
3.0854
 10
662.1829
 20
3.1972
 10
662.0493
 20
3.296
 10
661.9026
 20
3.3819
 10
661.8228
 20
3.4191
 10
661.7369
 20
3.4513
 10
661.6448
 20
3.4786
 10
661.5466
 20
3.5009
 10
661.4423
 20
3.5182
 10
661.3318
 20
3.5305
 10
661.2152
 20
3.5379
 10
661.0924
 20
3.5404
 10
660.9685
 20
3.5361
 10
660.8486
 20
3.5233
 10
660.7326
 20
3.502
 10
660.6205
 20
3.4721
 10
660.5123
 20
3.4336
 10
660.4081
 20
3.3866
 10
660.3078
 20
3.331
 10
660.2114
 20
3.2669
 10
660.1277
 20
3.203
 10
660.0478
 20
3.1344
 10
659.9716
 20
3.061
 10
659.8993
 20
2.983
 10
659.8307
 20
2.9004
 10
659.7659
 20
2.8132
 10
659.7048
 20
2.7214
 10
659.6476
 20
2.6252
 10
659.4451
 20
2.9607
 10
659.3373
 20
3.0854
 10
659.2165
 20
3.1972
 10
659.0828
 20
3.296
 10
658.936
 20
3.3819
 10
658.8563
 20
3.4191
 10
658.7705
 20
3.4513
 10
658.6785
 20
3.4786
 10
658.5803
 20
3.5009
 10
658.476
 20
3.5182
 10
658.3656
 20
3.5305
 10
658.249
 20
3.5379
 10
658.1262
 20
3.5404
 10
658.0023
 20
3.5361
 10
657.8823
 20
3.5233
 10
657.7662
 20
3.502
 10
657.6541
 20
3.4721
 10
657.5459
 20
3.4336
 10
657.4416
 20
3.3866
 10
657.3413
 20
3.331
 10
657.2449
 20
3.2669
 10
657.1652
 20
3.2061
 10
657.089
 20
3.1411
 10
657.0161
 20
3.072
 10
656.9467
 20
2.9987
 10
656.8806
 20
2.9212
 10
656.818
 20
2.8395
 10
656.7589
 20
2.7535
 10
656.7031
 20
2.6633
 10
656.7031
 20
3.4312
 10
655.9371
 20
3.4312
 10
655.9371
 20
-1.3834
 10
656.7031
 20
-1.3834
 10
656.7031
 20
1.0805
 10
656.7209
 20
1.224
 10
656.7442
 20
1.3619
 10
656.7729
 20
1.4943
 10
656.8072
 20
1.6212
 10
656.8468
 20
1.7425
 10
656.892
 20
1.8585
 10
656.9426
 20
1.9691
 10
656.9988
 20
2.0743
 10
657.0445
 20
2.1492
 10
657.0939
 20
2.2206
 10
657.1471
 20
2.2887
 10
657.204
 20
2.3533
 10
657.2647
 20
2.4146
 10
657.3292
 20
2.4724
 10
657.3974
 20
2.5267
 10
657.4694
 20
2.5777
 10
657.544
 20
2.6239
 10
657.6199
 20
2.6639
 10
657.6972
 20
2.6977
 10
657.7759
 20
2.7254
 10
657.8559
 20
2.747
 10
657.9374
 20
2.7624
 10
658.0202
 20
2.7716
 10
658.1044
 20
2.7747
 10
658.263
 20
2.7682
 10
658.3998
 20
2.7486
 10
658.5147
 20
2.7161
 10
658.6077
 20
2.6706
 10
658.718
 20
2.589
 10
658.8136
 20
2.4935
 10
658.8945
 20
2.3839
 10
658.9607
 20
2.2603
 10
659.0121
 20
2.1227
 10
659.0489
 20
1.971
 10
659.0709
 20
1.8053
 10
659.0783
 20
1.6256
 10
659.0783
 20
-1.3834
 10
659.8446
 20
-1.3834
 10
659.8446
 20
1.6256
 10
659.8391
 20
1.8099
 10
659.965
 20
2.0743
 10
660.0107
 20
2.1492
 10
660.0601
 20
2.2206
 10
660.1133
 20
2.2887
 10
660.1703
 20
2.3533
 10
660.231
 20
2.4146
 10
660.2954
 20
2.4724
 10
660.3636
 20
2.5267
 10
660.4356
 20
2.5777
 10
660.5102
 20
2.6239
 10
660.5861
 20
2.6639
 10
660.6634
 20
2.6977
 10
660.7421
 20
2.7254
 10
660.8222
 20
2.747
 10
660.9036
 20
2.7624
 10
660.9864
 20
2.7716
 10
661.0706
 20
2.7747
 10
661.2293
 20
2.7682
 10
661.3661
 20
2.7486
 10
661.4811
 20
2.7161
 10
661.5742
 20
2.6706
 10
661.6844
 20
2.589
 10
661.78
 20
2.4935
 10
661.8609
 20
2.3839
 10
661.9271
 20
2.2603
 10
661.9786
 20
2.1227
 10
662.0154
 20
1.971
 10
662.0374
 20
1.8053
 10
662.0448
 20
1.6256
 10
662.0448
 20
-1.3834
  0
LWPOLYLINE
  5
79
330
1F
100
AcDbEntity
  8
Layer 1
 62
     7
370
    35
100
AcDbPolyline
 90
       39
 70
     0
 43
0.0
 10
760.7463
 20
-28.3423
 10
756.7419
 20
-28.3654
 10
752.7043
 20
-28.4029
 10
748.8019
 20
-28.4446
 10
745.2032
 20
-28.4802
 10
742.0764
 20
-28.4993
 10
739.5901
 20
-28.4919
 10
737.9126
 20
-28.4475
 10
737.2123
 20
-28.3559
 10
736.589
 20
-27.5667
 10
736.0638
 20
-26.3418
 10
735.601
 20
-24.8312
 10
735.1651
 20
-23.1844
 10
734.7205
 20
-21.5513
 10
734.2317
 20
-20.0815
 10
733.663
 20
-18.9247
 10
732.9789
 20
-18.2308
 10
728.5481
 20
-15.0015
 10
725.1805
 20
-10.9683
 10
722.6681
 20
-6.3508
 10
720.8025
 20
-1.369
 10
719.3755
 20
3.7577
 10
718.1789
 20
8.8092
 10
717.0044
 20
13.566
 10
715.6439
 20
17.8083
 10
714.8137
 20
19.5364
 10
713.5352
 20
21.5029
 10
711.766
 20
23.6596
 10
709.4639
 20
25.958
 10
706.5864
 20
28.3499
 10
703.0911
 20
30.787
 10
698.9358
 20
33.2208
 10
694.078
 20
35.6031
 10
693.9994
 20
35.8845
 10
693.9296
 20
36.1826
 10
693.8587
 20
36.5522
 10
693.7763
 20
37.0484
 10
711.3261
 20
37.0484
 10
761.0305
 20
37.0484
  0
LWPOLYLINE
  5
7A
330
1F
100
AcDbEntity
  8
Layer 1
 62
     7
370
    35
100
AcDbPolyline
 90
       39
 70
     0
 43
0.0
 10
760.5756
 20
-28.3423
 10
764.5799
 20
-28.3654
 10
768.6174
 20
-28.4029
 10
772.5197
 20
-28.4446
 10
776.1185
 20
-28.4802
 10
779.2452
 20
-28.4993
 10
781.7316
 20
-28.4919
 10
783.4092
 20
-28.4475
 10
784.1096
 20
-28.3559
 10
784.7327
 20
-27.5667
 10
785.2578
 20
-26.3418
 10
785.7204
 20
-24.8312
 10
786.1563
 20
-23.1844
 10
786.6008
 20
-21.5513
 10
787.0897
 20
-20.0815
 10
787.6585
 20
-18.9247
 10
788.3427
 20
-18.2308
 10
792.7735
 20
-15.0015
 10
796.1411
 20
-10.9683
 10
798.6535
 20
-6.3508
 10
800.5191
 20
-1.369
 10
801.9462
 20
3.7577
 10
803.1428
 20
8.8092
 10
804.3173
 20
13.566
 10
805.6779
 20
17.8083
 10
806.508
 20
19.5364
 10
807.7864
 20
21.5029
 10
809.5556
 20
23.6596
 10
811.8578
 20
25.958
 10
814.7354
 20
28.3499
 10
818.2307
 20
30.787
 10
822.3861
 20
33.2208
 10
827.2439
 20
35.6031
 10
827.3224
 20
35.8845
 10
827.3921
 20
36.1826
 10
827.4632
 20
36.5522
 10
827.5456
 20
37.0484
 10
809.9955
 20
37.0484
 10
760.2908
 20
37.0484
  0
ENDSEC
  0
SECTION
  2
OBJECTS
  0
DICTIONARY
  5
C
330
0
100
AcDbDictionary
281
     1
  3
ACAD_DETAILVIEWSTYLE
350
82
  3
ACAD_GROUP
350
D
  3
ACAD_LAYOUT
350
1A
  3
ACAD_MATERIAL
350
43
  3
ACAD_MLEADERSTYLE
350
5B
  3
ACAD_MLINESTYLE
350
17
  3
ACAD_PLOTSETTINGS
350
19
  3
ACAD_PLOTSTYLENAME
350
E
  3
ACAD_SCALELIST
350
47
  3
ACAD_SECTIONVIEWSTYLE
350
83
  3
ACAD_TABLESTYLE
350
59
  3
ACAD_VISUALSTYLE
350
2A
  3
ACDB_RECOMPOSE_DATA
350
7F
  3
AcDbVariableDictionary
350
7B
  0
SUN
  5
5D
330
29
100
AcDbSun
 90
        1
290
     0
 63
     7
421
 16777215
 40
1.0
291
     1
 91
  2455826
 92
 54000000
292
     0
 70
     2
 71
   256
280
     1
  0
DICTIONARY
  5
82
102
{ACAD_REACTORS
330
C
102
}
330
C
100
AcDbDictionary
281
     1
  0
DICTIONARY
  5
D
102
{ACAD_REACTORS
330
C
102
}
330
C
100
AcDbDictionary
281
     1
  0
DICTIONARY
  5
1A
102
{ACAD_REACTORS
330
C
102
}
330
C
100
AcDbDictionary
281
     1
  3
Layout1
350
1E
  3
Layout2
350
26
  3
Model
350
22
  0
DICTIONARY
  5
43
102
{ACAD_REACTORS
330
C
102
}
330
C
100
AcDbDictionary
281
     1
  3
ByBlock
350
45
  3
ByLayer
350
44
  3
Global
350
46
  0
DICTIONARY
  5
5B
102
{ACAD_REACTORS
330
C
102
}
330
C
100
AcDbDictionary
281
     1
  3
Standard
350
5C
  0
DICTIONARY
  5
17
102
{ACAD_REACTORS
330
C
102
}
330
C
100
AcDbDictionary
281
     1
  3
Standard
350
18
  0
DICTIONARY
  5
19
102
{ACAD_REACTORS
330
C
102
}
330
C
100
AcDbDictionary
281
     1
  0
ACDBDICTIONARYWDFLT
  5
E
102
{ACAD_REACTORS
330
C
102
}
330
C
100
AcDbDictionary
281
     1
  3
Normal
350
F
100
AcDbDictionaryWithDefault
340
F
  0
DICTIONARY
  5
47
102
{ACAD_REACTORS
330
C
102
}
330
C
100
AcDbDictionary
281
     1
  3
A0
350
48
  3
A1
350
49
  3
A2
350
4A
  3
A3
350
4B
  3
A4
350
4C
  3
A5
350
4D
  3
A6
350
4E
  3
A7
350
4F
  3
A8
350
50
  3
A9
350
51
  3
B1
350
52
  3
B2
350
53
  3
B3
350
54
  3
B4
350
55
  3
B5
350
56
  3
B6
350
57
  3
B7
350
58
  0
DICTIONARY
  5
83
102
{ACAD_REACTORS
330
C
102
}
330
C
100
AcDbDictionary
281
     1
  0
DICTIONARY
  5
59
102
{ACAD_REACTORS
330
C
102
}
330
C
100
AcDbDictionary
281
     1
  3
Standard
350
5A
  0
DICTIONARY
  5
2A
102
{ACAD_REACTORS
330
C
102
}
330
C
100
AcDbDictionary
281
     1
  3
2dWireframe
350
2F
  3
Basic
350
32
  3
Brighten
350
36
  3
ColorChange
350
3A
  3
Conceptual
350
34
  3
Dim
350
35
  3
EdgeColorOff
350
3D
  3
Facepattern
350
39
  3
Flat
350
2B
  3
FlatWithEdges
350
2C
  3
Gouraud
350
2D
  3
GouraudWithEdges
350
2E
  3
Hidden
350
31
  3
JitterOff
350
3B
  3
Linepattern
350
38
  3
OverhangOff
350
3C
  3
Realistic
350
33
  3
Shaded
350
42
  3
Shaded with edges
350
41
  3
Shades of Gray
350
3E
  3
Sketchy
350
3F
  3
Thicken
350
37
  3
Wireframe
350
30
  3
X-Ray
350
40
  0
XRECORD
  5
7F
102
{ACAD_REACTORS
330
C
102
}
330
C
100
AcDbXrecord
280
     1
 90
        1
330
5A
  0
DICTIONARY
  5
7B
102
{ACAD_REACTORS
330
C
102
}
330
C
100
AcDbDictionary
281
     1
  3
CANNOSCALE
350
7C
  3
CMLEADERSTYLE
350
81
  3
CTABLESTYLE
350
80
  0
LAYOUT
  5
1E
102
{ACAD_REACTORS
330
1A
102
}
330
1A
100
AcDbPlotSettings
  1

  2
none_device
  4

  6

 40
0.0
 41
0.0
 42
0.0
 43
0.0
 44
0.0
 45
0.0
 46
0.0
 47
0.0
 48
0.0
 49
0.0
140
0.0
141
0.0
142
1.0
143
1.0
 70
   688
 72
     0
 73
     0
 74
     5
  7

 75
    16
 76
     0
 77
     2
 78
   300
147
1.0
148
0.0
149
0.0
100
AcDbLayout
  1
Layout1
 70
     1
 71
     1
 10
0.0
 20
0.0
 11
12.0
 21
9.0
 12
0.0
 22
0.0
 32
0.0
 14
1.000000000000000E+20
 24
1.000000000000000E+20
 34
1.000000000000000E+20
 15
-1.000000000000000E+20
 25
-1.000000000000000E+20
 35
-1.000000000000000E+20
146
0.0
 13
0.0
 23
0.0
 33
0.0
 16
1.0
 26
0.0
 36
0.0
 17
0.0
 27
1.0
 37
0.0
 76
     0
330
1B
  0
LAYOUT
  5
26
102
{ACAD_REACTORS
330
1A
102
}
330
1A
100
AcDbPlotSettings
  1

  2
none_device
  4

  6

 40
0.0
 41
0.0
 42
0.0
 43
0.0
 44
0.0
 45
0.0
 46
0.0
 47
0.0
 48
0.0
 49
0.0
140
0.0
141
0.0
142
1.0
143
1.0
 70
   688
 72
     0
 73
     0
 74
     5
  7

 75
    16
 76
     0
 77
     2
 78
   300
147
1.0
148
0.0
149
0.0
100
AcDbLayout
  1
Layout2
 70
     1
 71
     2
 10
0.0
 20
0.0
 11
0.0
 21
0.0
 12
0.0
 22
0.0
 32
0.0
 14
0.0
 24
0.0
 34
0.0
 15
0.0
 25
0.0
 35
0.0
146
0.0
 13
0.0
 23
0.0
 33
0.0
 16
1.0
 26
0.0
 36
0.0
 17
0.0
 27
1.0
 37
0.0
 76
     0
330
23
  0
LAYOUT
  5
22
102
{ACAD_REACTORS
330
1A
102
}
330
1A
100
AcDbPlotSettings
  1

  2
none_device
  4
Letter_(8.50_x_11.00_Inches)
  6

 40
6.35
 41
6.35
 42
6.35000508
 43
6.35000508
 44
215.9
 45
279.4
 46
0.0
 47
0.0
 48
0.0
 49
0.0
140
0.0
141
0.0
142
1.0
143
1.0
 70
  1712
 72
     0
 73
     0
 74
     0
  7

 75
     0
 76
     0
 77
     2
 78
   300
147
1.0
148
0.0
149
0.0
100
AcDbLayout
  1
Model
 70
     1
 71
     0
 10
0.0
 20
0.0
 11
12.0
 21
9.0
 12
0.0
 22
0.0
 32
0.0
 14
181.4174
 24
-153.0176
 34
0.0
 15
861.3067
 25
168.2402
 35
0.0
146
0.0
 13
0.0
 23
0.0
 33
0.0
 16
1.0
 26
0.0
 36
0.0
 17
0.0
 27
1.0
 37
0.0
 76
     0
330
1F
331
29
  0
MATERIAL
  5
45
102
{ACAD_REACTORS
330
43
102
}
330
43
100
AcDbMaterial
  1
ByBlock
 72
     1
 94
      127
  0
MATERIAL
  5
44
102
{ACAD_REACTORS
330
43
102
}
330
43
100
AcDbMaterial
  1
ByLayer
 72
     1
 94
      127
  0
MATERIAL
  5
46
102
{ACAD_REACTORS
330
43
102
}
330
43
100
AcDbMaterial
  1
Global
 72
     1
 94
      127
  0
MLEADERSTYLE
  5
5C
102
{ACAD_REACTORS
330
5B
102
}
330
5B
100
AcDbMLeaderStyle
179
     2
170
     2
171
     1
172
     0
 90
        2
 40
0.0
 41
0.0
173
     1
 91
-1056964608
340
14
 92
       -2
290
     1
 42
0.09
291
     1
 43
0.36
  3
Standard
341
0
 44
0.18
300

342
11
174
     1
178
     6
175
     1
176
     0
 93
-1056964608
 45
0.18
292
     0
297
     0
 46
0.18
343
0
 94
-1056964608
 47
1.0
 49
1.0
140
1.0
293
     1
141
0.0
294
     1
177
     0
142
1.0
295
     0
296
     0
143
0.125
271
     0
272
     9
273
     9
298
     0
  0
MLINESTYLE
  5
18
102
{ACAD_REACTORS
330
17
102
}
330
17
100
AcDbMlineStyle
  2
Standard
 70
     0
  3

 62
   256
 51
90.0
 52
90.0
 71
     2
 49
0.5
 62
   256
  6
BYLAYER
 49
-0.5
 62
   256
  6
BYLAYER
  0
ACDBPLACEHOLDER
  5
F
102
{ACAD_REACTORS
330
E
102
}
330
E
  0
SCALE
  5
48
102
{ACAD_REACTORS
330
47
102
}
330
47
100
AcDbScale
 70
     0
300
1:1
140
1.0
141
1.0
290
     1
  0
SCALE
  5
49
102
{ACAD_REACTORS
330
47
102
}
330
47
100
AcDbScale
 70
     0
300
1/128" = 1'-0"
140
0.0078125
141
12.0
290
     0
  0
SCALE
  5
4A
102
{ACAD_REACTORS
330
47
102
}
330
47
100
AcDbScale
 70
     0
300
1/64" = 1'-0"
140
0.015625
141
12.0
290
     0
  0
SCALE
  5
4B
102
{ACAD_REACTORS
330
47
102
}
330
47
100
AcDbScale
 70
     0
300
1/32" = 1'-0"
140
0.03125
141
12.0
290
     0
  0
SCALE
  5
4C
102
{ACAD_REACTORS
330
47
102
}
330
47
100
AcDbScale
 70
     0
300
1/16" = 1'-0"
140
0.0625
141
12.0
290
     0
  0
SCALE
  5
4D
102
{ACAD_REACTORS
330
47
102
}
330
47
100
AcDbScale
 70
     0
300
3/32" = 1'-0"
140
0.09375
141
12.0
290
     0
  0
SCALE
  5
4E
102
{ACAD_REACTORS
330
47
102
}
330
47
100
AcDbScale
 70
     0
300
1/8" = 1'-0"
140
0.125
141
12.0
290
     0
  0
SCALE
  5
4F
102
{ACAD_REACTORS
330
47
102
}
330
47
100
AcDbScale
 70
     0
300
3/16" = 1'-0"
140
0.1875
141
12.0
290
     0
  0
SCALE
  5
50
102
{ACAD_REACTORS
330
47
102
}
330
47
100
AcDbScale
 70
     0
300
1/4" = 1'-0"
140
0.25
141
12.0
290
     0
  0
SCALE
  5
51
102
{ACAD_REACTORS
330
47
102
}
330
47
100
AcDbScale
 70
     0
300
3/8" = 1'-0"
140
0.375
141
12.0
290
     0
  0
SCALE
  5
52
102
{ACAD_REACTORS
330
47
102
}
330
47
100
AcDbScale
 70
     0
300
1/2" = 1'-0"
140
0.5
141
12.0
290
     0
  0
SCALE
  5
53
102
{ACAD_REACTORS
330
47
102
}
330
47
100
AcDbScale
 70
     0
300
3/4" = 1'-0"
140
0.75
141
12.0
290
     0
  0
SCALE
  5
54
102
{ACAD_REACTORS
330
47
102
}
330
47
100
AcDbScale
 70
     0
300
1" = 1'-0"
140
1.0
141
12.0
290
     0
  0
SCALE
  5
55
102
{ACAD_REACTORS
330
47
102
}
330
47
100
AcDbScale
 70
     0
300
1-1/2" = 1'-0"
140
1.5
141
12.0
290
     0
  0
SCALE
  5
56
102
{ACAD_REACTORS
330
47
102
}
330
47
100
AcDbScale
 70
     0
300
3" = 1'-0"
140
3.0
141
12.0
290
     0
  0
SCALE
  5
57
102
{ACAD_REACTORS
330
47
102
}
330
47
100
AcDbScale
 70
     0
300
6" = 1'-0"
140
6.0
141
12.0
290
     0
  0
SCALE
  5
58
102
{ACAD_REACTORS
330
47
102
}
330
47
100
AcDbScale
 70
     0
300
1'-0" = 1'-0"
140
12.0
141
12.0
290
     0
  0
TABLESTYLE
  5
5A
102
{ACAD_REACTORS
330
59
102
}
102
{ACAD_XDICTIONARY
360
7D
102
}
330
59
100
AcDbTableStyle
  3
Standard
 70
     0
 71
     0
 40
0.06
 41
0.06
280
     0
281
     0
  7
Standard
140
0.18
170
     2
 62
     0
 63
   257
283
     0
 90
        4
 91
        0
  1

274
    -2
284
     1
 64
     0
275
    -2
285
     1
 65
     0
276
    -2
286
     1
 66
     0
277
    -2
287
     1
 67
     0
278
    -2
288
     1
 68
     0
279
    -2
289
     1
 69
     0
  7
Standard
140
0.25
170
     5
 62
     0
 63
   257
283
     0
 90
        4
 91
        0
  1

274
    -2
284
     1
 64
     0
275
    -2
285
     1
 65
     0
276
    -2
286
     1
 66
     0
277
    -2
287
     1
 67
     0
278
    -2
288
     1
 68
     0
279
    -2
289
     1
 69
     0
  7
Standard
140
0.18
170
     5
 62
     0
 63
   257
283
     0
 90
        4
 91
        0
  1

274
    -2
284
     1
 64
     0
275
    -2
285
     1
 65
     0
276
    -2
286
     1
 66
     0
277
    -2
287
     1
 67
     0
278
    -2
288
     1
 68
     0
279
    -2
289
     1
 69
     0
  0
VISUALSTYLE
  5
2F
102
{ACAD_REACTORS
330
2A
102
}
330
2A
100
AcDbVisualStyle
  2
2dWireframe
 70
     4
177
     3
291
     0
 70
    58
 90
        0
176
     1
 90
        2
176
     1
 90
        0
176
     1
 90
        0
176
     1
 40
0.6
176
     1
 40
30.0
176
     1
 62
     7
420
 16777215
176
     1
 90
        1
176
     1
 90
        4
176
     1
 62
     7
176
     1
 62
   257
176
     1
 90
        1
176
     1
 90
        1
176
     1
 40
1.0
176
     1
 90
        0
176
     1
 62
   257
176
     1
 40
1.0
176
     1
 90
        1
176
     1
 90
        6
176
     1
 90
        2
176
     1
 62
     7
176
     1
 90
        5
176
     1
 90
        0
176
     1
 90
        0
176
     1
290
     0
176
     1
 90
        1
176
     1
 40
0.0
176
     1
 90
        0
176
     1
290
     1
176
     1
290
     1
176
     1
290
     0
176
     1
290
     0
176
     1
290
     0
176
     1
290
     0
176
     1
290
     0
176
     1
290
     0
176
     1
290
     0
176
     1
 90
       50
176
     1
 40
0.0
176
     1
 40
1.0
176
     1
 90
        0
176
     1
 62
    18
420
        0
176
     1
 90
       50
176
     1
 90
        3
176
     1
 62
     5
420
      255
176
     1
290
     0
176
     1
 90
       50
176
     1
 90
       50
176
     1
 90
       50
176
     1
290
     0
176
     1
 90
       50
176
     1
 62
   256
176
     0
 40
1.0
176
     0
 90
        2
176
     1
  1
strokes_ogs.tif
176
     1
290
     0
176
     1
 40
1.0
176
     1
 40
1.0
176
     1
  0
VISUALSTYLE
  5
32
102
{ACAD_REACTORS
330
2A
102
}
330
2A
100
AcDbVisualStyle
  2
Basic
 70
     7
177
     3
291
     1
 70
    58
 90
        1
176
     1
 90
        0
176
     1
 90
        1
176
     1
 90
        0
176
     1
 40
0.6
176
     1
 40
30.0
176
     1
 62
     7
420
 16777215
176
     1
 90
        0
176
     1
 90
        4
176
     1
 62
     7
176
     1
 62
   257
176
     1
 90
        1
176
     1
 90
        1
176
     1
 40
1.0
176
     1
 90
        8
176
     1
 62
     7
176
     1
 40
1.0
176
     1
 90
        1
176
     1
 90
        6
176
     1
 90
        2
176
     1
 62
     7
176
     1
 90
        5
176
     1
 90
        0
176
     1
 90
        0
176
     1
290
     0
176
     1
 90
        1
176
     1
 40
0.0
176
     1
 90
        0
176
     1
290
     0
176
     1
290
     1
176
     1
290
     1
176
     1
290
     0
176
     1
290
     0
176
     1
290
     0
176
     1
290
     0
176
     1
290
     0
176
     1
290
     0
176
     1
 90
       50
176
     1
 40
0.0
176
     1
 40
1.0
176
     1
 90
        0
176
     1
 62
    18
420
        0
176
     1
 90
       50
176
     1
 90
        3
176
     1
 62
     5
420
      255
176
     1
290
     0
176
     1
 90
       50
176
     1
 90
       50
176
     1
 90
       50
176
     1
290
     0
176
     1
 90
       50
176
     1
 62
   256
176
     0
 40
1.0
176
     0
 90
        2
176
     1
  1
strokes_ogs.tif
176
     1
290
     0
176
     1
 40
1.0
176
     1
 40
1.0
176
     1
  0
VISUALSTYLE
  5
36
102
{ACAD_REACTORS
330
2A
102
}
330
2A
100
AcDbVisualStyle
  2
Brighten
 70
    12
177
     3
291
     1
 70
    58
 90
        2
176
     1
 90
        2
176
     1
 90
        0
176
     1
 90
        0
176
     1
 40
0.6
176
     1
 40
30.0
176
     1
 62
     7
420
 16777215
176
     1
 90
        1
176
     1
 90
        4
176
     1
 62
     7
176
     1
 62
   257
176
     1
 90
        1
176
     1
 90
        1
176
     1
 40
1.0
176
     1
 90
        8
176
     1
 62
     7
176
     1
 40
1.0
176
     1
 90
        1
176
     1
 90
        6
176
     1
 90
        2
176
     1
 62
     7
176
     1
 90
        5
176
     1
 90
        0
176
     1
 90
        0
176
     1
290
     0
176
     1
 90
        1
176
     1
 40
50.0
176
     1
 90
        0
176
     1
290
     0
176
     1
290
     1
176
     1
290
     1
176
     1
290
     0
176
     1
290
     0
176
     1
290
     0
176
     1
290
     0
176
     1
290
     0
176
     1
290
     0
176
     1
 90
       50
176
     1
 40
0.0
176
     1
 40
1.0
176
     1
 90
        0
176
     1
 62
    18
420
        0
176
     1
 90
       50
176
     1
 90
        3
176
     1
 62
     5
420
      255
176
     1
290
     0
176
     1
 90
       50
176
     1
 90
       50
176
     1
 90
       50
176
     1
290
     0
176
     1
 90
       50
176
     1
 62
   256
176
     0
 40
1.0
176
     0
 90
        2
176
     1
  1
strokes_ogs.tif
176
     1
290
     0
176
     1
 40
1.0
176
     1
 40
1.0
176
     1
  0
VISUALSTYLE
  5
3A
102
{ACAD_REACTORS
330
2A
102
}
330
2A
100
AcDbVisualStyle
  2
ColorChange
 70
    16
177
     3
291
     1
 70
    58
 90
        2
176
     1
 90
        2
176
     1
 90
        3
176
     1
 90
        0
176
     1
 40
0.6
176
     1
 40
30.0
176
     1
 62
     8
420
  8421504
176
     1
 90
        1
176
     1
 90
        4
176
     1
 62
     7
176
     1
 62
   257
176
     1
 90
        1
176
     1
 90
        1
176
     1
 40
1.0
176
     1
 90
        8
176
     1
 62
     8
420
  8421504
176
     1
 40
1.0
176
     1
 90
        1
176
     1
 90
        6
176
     1
 90
        2
176
     1
 62
     7
176
     1
 90
        5
176
     1
 90
        0
176
     1
 90
        0
176
     1
290
     0
176
     1
 90
        1
176
     1
 40
0.0
176
     1
 90
        0
176
     1
290
     0
176
     1
290
     1
176
     1
290
     1
176
     1
290
     0
176
     1
290
     0
176
     1
290
     0
176
     1
290
     0
176
     1
290
     0
176
     1
290
     0
176
     1
 90
       50
176
     1
 40
0.0
176
     1
 40
1.0
176
     1
 90
        0
176
     1
 62
    18
420
        0
176
     1
 90
       50
176
     1
 90
        3
176
     1
 62
     5
420
      255
176
     1
290
     0
176
     1
 90
       50
176
     1
 90
       50
176
     1
 90
       50
176
     1
290
     0
176
     1
 90
       50
176
     1
 62
   256
176
     0
 40
1.0
176
     0
 90
        2
176
     1
  1
strokes_ogs.tif
176
     1
290
     0
176
     1
 40
1.0
176
     1
 40
1.0
176
     1
  0
VISUALSTYLE
  5
34
102
{ACAD_REACTORS
330
2A
102
}
330
2A
100
AcDbVisualStyle
  2
Conceptual
 70
     9
177
     3
291
     0
 70
    58
 90
        3
176
     1
 90
        2
176
     1
 90
        0
176
     1
 90
        0
176
     1
 40
0.6
176
     1
 40
30.0
176
     1
 62
     7
420
 16777215
176
     1
 90
        2
176
     1
 90
        2
176
     1
 62
     7
176
     1
 62
   257
176
     1
 90
        1
176
     1
 90
        1
176
     1
 40
179.0
176
     1
 90
        8
176
     1
 62
     7
176
     1
 40
1.0
176
     1
 90
        1
176
     1
 90
        6
176
     1
 90
        2
176
     1
 62
     7
176
     1
 90
        3
176
     1
 90
        0
176
     1
 90
        0
176
     1
290
     0
176
     1
 90
        1
176
     1
 40
0.0
176
     1
 90
        0
176
     1
290
     0
176
     1
290
     1
176
     1
290
     1
176
     1
290
     0
176
     1
290
     0
176
     1
290
     0
176
     1
290
     0
176
     1
290
     0
176
     1
290
     0
176
     1
 90
       50
176
     1
 40
0.0
176
     1
 40
1.0
176
     1
 90
        0
176
     1
 62
    18
420
        0
176
     1
 90
       50
176
     1
 90
        3
176
     1
 62
     5
420
      255
176
     1
290
     0
176
     1
 90
       50
176
     1
 90
       50
176
     1
 90
       50
176
     1
290
     0
176
     1
 90
       50
176
     1
 62
   256
176
     0
 40
1.0
176
     0
 90
        2
176
     1
  1
strokes_ogs.tif
176
     1
290
     0
176
     1
 40
1.0
176
     1
 40
1.0
176
     1
  0
VISUALSTYLE
  5
35
102
{ACAD_REACTORS
330
2A
102
}
330
2A
100
AcDbVisualStyle
  2
Dim
 70
    11
177
     3
291
     1
 70
    58
 90
        2
176
     1
 90
        2
176
     1
 90
        0
176
     1
 90
        0
176
     1
 40
0.6
176
     1
 40
30.0
176
     1
 62
     7
420
 16777215
176
     1
 90
        1
176
     1
 90
        4
176
     1
 62
     7
176
     1
 62
   257
176
     1
 90
        1
176
     1
 90
        1
176
     1
 40
1.0
176
     1
 90
        8
176
     1
 62
     7
176
     1
 40
1.0
176
     1
 90
        1
176
     1
 90
        6
176
     1
 90
        2
176
     1
 62
     7
176
     1
 90
        5
176
     1
 90
        0
176
     1
 90
        0
176
     1
290
     0
176
     1
 90
        1
176
     1
 40
-50.0
176
     1
 90
        0
176
     1
290
     0
176
     1
290
     1
176
     1
290
     1
176
     1
290
     0
176
     1
290
     0
176
     1
290
     0
176
     1
290
     0
176
     1
290
     0
176
     1
290
     0
176
     1
 90
       50
176
     1
 40
0.0
176
     1
 40
1.0
176
     1
 90
        0
176
     1
 62
    18
420
        0
176
     1
 90
       50
176
     1
 90
        3
176
     1
 62
     5
420
      255
176
     1
290
     0
176
     1
 90
       50
176
     1
 90
       50
176
     1
 90
       50
176
     1
290
     0
176
     1
 90
       50
176
     1
 62
   256
176
     0
 40
1.0
176
     0
 90
        2
176
     1
  1
strokes_ogs.tif
176
     1
290
     0
176
     1
 40
1.0
176
     1
 40
1.0
176
     1
  0
VISUALSTYLE
  5
3D
102
{ACAD_REACTORS
330
2A
102
}
330
2A
100
AcDbVisualStyle
  2
EdgeColorOff
 70
    22
177
     3
291
     1
 70
    58
 90
        2
176
     0
 90
        2
176
     0
 90
        0
176
     0
 90
        0
176
     0
 40
0.6
176
     0
 40
30.0
176
     0
 62
     7
420
 16777215
176
     0
 90
        1
176
     0
 90
        4
176
     0
 62
     7
176
     0
 62
   257
176
     0
 90
        1
176
     0
 90
        1
176
     0
 40
1.0
176
     0
 90
        8
176
     2
 62
     7
176
     0
 40
1.0
176
     0
 90
        1
176
     0
 90
        6
176
     0
 90
        2
176
     0
 62
     7
176
     0
 90
        5
176
     0
 90
        0
176
     0
 90
        0
176
     0
290
     0
176
     0
 90
        1
176
     0
 40
0.0
176
     0
 90
        0
176
     0
290
     0
176
     0
290
     1
176
     0
290
     1
176
     0
290
     0
176
     0
290
     0
176
     0
290
     0
176
     0
290
     0
176
     0
290
     0
176
     0
290
     0
176
     0
 90
       50
176
     0
 40
0.0
176
     0
 40
1.0
176
     0
 90
        0
176
     0
 62
    18
420
        0
176
     0
 90
       50
176
     0
 90
        3
176
     0
 62
     5
420
      255
176
     0
290
     0
176
     0
 90
       50
176
     0
 90
       50
176
     0
 90
       50
176
     0
290
     0
176
     0
 90
       50
176
     0
 62
   256
176
     0
 40
1.0
176
     0
 90
        2
176
     0
  1
strokes_ogs.tif
176
     0
290
     0
176
     0
 40
1.0
176
     0
 40
1.0
176
     0
  0
VISUALSTYLE
  5
39
102
{ACAD_REACTORS
330
2A
102
}
330
2A
100
AcDbVisualStyle
  2
Facepattern
 70
    15
177
     3
291
     1
 70
    58
 90
        2
176
     1
 90
        2
176
     1
 90
        0
176
     1
 90
        0
176
     1
 40
0.6
176
     1
 40
30.0
176
     1
 62
     7
420
 16777215
176
     1
 90
        1
176
     1
 90
        4
176
     1
 62
     7
176
     1
 62
   257
176
     1
 90
        1
176
     1
 90
        1
176
     1
 40
1.0
176
     1
 90
        8
176
     1
 62
     7
176
     1
 40
1.0
176
     1
 90
        1
176
     1
 90
        6
176
     1
 90
        2
176
     1
 62
     7
176
     1
 90
        5
176
     1
 90
        0
176
     1
 90
        0
176
     1
290
     0
176
     1
 90
        1
176
     1
 40
0.0
176
     1
 90
        0
176
     1
290
     0
176
     1
290
     1
176
     1
290
     1
176
     1
290
     0
176
     1
290
     0
176
     1
290
     0
176
     1
290
     0
176
     1
290
     0
176
     1
290
     0
176
     1
 90
       50
176
     1
 40
0.0
176
     1
 40
1.0
176
     1
 90
        0
176
     1
 62
    18
420
        0
176
     1
 90
       50
176
     1
 90
        3
176
     1
 62
     5
420
      255
176
     1
290
     0
176
     1
 90
       50
176
     1
 90
       50
176
     1
 90
       50
176
     1
290
     0
176
     1
 90
       50
176
     1
 62
   256
176
     0
 40
1.0
176
     0
 90
        2
176
     1
  1
strokes_ogs.tif
176
     1
290
     0
176
     1
 40
1.0
176
     1
 40
1.0
176
     1
  0
VISUALSTYLE
  5
2B
102
{ACAD_REACTORS
330
2A
102
}
330
2A
100
AcDbVisualStyle
  2
Flat
 70
     0
177
     3
291
     1
 70
    58
 90
        2
176
     1
 90
        1
176
     1
 90
        1
176
     1
 90
        2
176
     1
 40
0.6
176
     1
 40
30.0
176
     1
 62
     7
420
 16777215
176
     1
 90
        0
176
     1
 90
        0
176
     1
 62
     7
176
     1
 62
   257
176
     1
 90
        1
176
     1
 90
        1
176
     1
 40
1.0
176
     1
 90
        8
176
     1
 62
     7
176
     1
 40
1.0
176
     1
 90
        1
176
     1
 90
        6
176
     1
 90
        2
176
     1
 62
     7
176
     1
 90
        5
176
     1
 90
        0
176
     1
 90
        0
176
     1
290
     0
176
     1
 90
       13
176
     1
 40
0.0
176
     1
 90
        0
176
     1
290
     0
176
     1
290
     1
176
     1
290
     1
176
     1
290
     0
176
     1
290
     0
176
     1
290
     0
176
     1
290
     0
176
     1
290
     0
176
     1
290
     0
176
     1
 90
       50
176
     1
 40
0.0
176
     1
 40
1.0
176
     1
 90
        0
176
     1
 62
    18
420
        0
176
     1
 90
       50
176
     1
 90
        3
176
     1
 62
     5
420
      255
176
     1
290
     0
176
     1
 90
       50
176
     1
 90
       50
176
     1
 90
       50
176
     1
290
     0
176
     1
 90
       50
176
     1
 62
   256
176
     0
 40
1.0
176
     0
 90
        2
176
     1
  1
strokes_ogs.tif
176
     1
290
     0
176
     1
 40
1.0
176
     1
 40
1.0
176
     1
  0
VISUALSTYLE
  5
2C
102
{ACAD_REACTORS
330
2A
102
}
330
2A
100
AcDbVisualStyle
  2
FlatWithEdges
 70
     1
177
     3
291
     1
 70
    58
 90
        2
176
     1
 90
        1
176
     1
 90
        1
176
     1
 90
        2
176
     1
 40
0.6
176
     1
 40
30.0
176
     1
 62
     7
420
 16777215
176
     1
 90
        1
176
     1
 90
        0
176
     1
 62
     7
176
     1
 62
   257
176
     1
 90
        1
176
     1
 90
        1
176
     1
 40
1.0
176
     1
 90
        0
176
     1
 62
   257
176
     1
 40
1.0
176
     1
 90
        1
176
     1
 90
        6
176
     1
 90
        2
176
     1
 62
     7
176
     1
 90
        5
176
     1
 90
        0
176
     1
 90
        0
176
     1
290
     0
176
     1
 90
       13
176
     1
 40
0.0
176
     1
 90
        0
176
     1
290
     0
176
     1
290
     1
176
     1
290
     1
176
     1
290
     0
176
     1
290
     0
176
     1
290
     0
176
     1
290
     0
176
     1
290
     0
176
     1
290
     0
176
     1
 90
       50
176
     1
 40
0.0
176
     1
 40
1.0
176
     1
 90
        0
176
     1
 62
    18
420
        0
176
     1
 90
       50
176
     1
 90
        3
176
     1
 62
     5
420
      255
176
     1
290
     0
176
     1
 90
       50
176
     1
 90
       50
176
     1
 90
       50
176
     1
290
     0
176
     1
 90
       50
176
     1
 62
   256
176
     0
 40
1.0
176
     0
 90
        2
176
     1
  1
strokes_ogs.tif
176
     1
290
     0
176
     1
 40
1.0
176
     1
 40
1.0
176
     1
  0
VISUALSTYLE
  5
2D
102
{ACAD_REACTORS
330
2A
102
}
330
2A
100
AcDbVisualStyle
  2
Gouraud
 70
     2
177
     3
291
     1
 70
    58
 90
        2
176
     1
 90
        2
176
     1
 90
        1
176
     1
 90
        2
176
     1
 40
0.6
176
     1
 40
30.0
176
     1
 62
     7
420
 16777215
176
     1
 90
        0
176
     1
 90
        0
176
     1
 62
     7
176
     1
 62
   257
176
     1
 90
        1
176
     1
 90
        1
176
     1
 40
1.0
176
     1
 90
        0
176
     1
 62
     7
176
     1
 40
1.0
176
     1
 90
        1
176
     1
 90
        6
176
     1
 90
        2
176
     1
 62
     7
176
     1
 90
        5
176
     1
 90
        0
176
     1
 90
        0
176
     1
290
     0
176
     1
 90
       13
176
     1
 40
0.0
176
     1
 90
        0
176
     1
290
     0
176
     1
290
     1
176
     1
290
     1
176
     1
290
     0
176
     1
290
     0
176
     1
290
     0
176
     1
290
     0
176
     1
290
     0
176
     1
290
     0
176
     1
 90
       50
176
     1
 40
0.0
176
     1
 40
1.0
176
     1
 90
        0
176
     1
 62
    18
420
        0
176
     1
 90
       50
176
     1
 90
        3
176
     1
 62
     5
420
      255
176
     1
290
     0
176
     1
 90
       50
176
     1
 90
       50
176
     1
 90
       50
176
     1
290
     0
176
     1
 90
       50
176
     1
 62
   256
176
     0
 40
1.0
176
     0
 90
        2
176
     1
  1
strokes_ogs.tif
176
     1
290
     0
176
     1
 40
1.0
176
     1
 40
1.0
176
     1
  0
VISUALSTYLE
  5
2E
102
{ACAD_REACTORS
330
2A
102
}
330
2A
100
AcDbVisualStyle
  2
GouraudWithEdges
 70
     3
177
     3
291
     1
 70
    58
 90
        2
176
     1
 90
        2
176
     1
 90
        1
176
     1
 90
        2
176
     1
 40
0.6
176
     1
 40
30.0
176
     1
 62
     7
420
 16777215
176
     1
 90
        1
176
     1
 90
        0
176
     1
 62
     7
176
     1
 62
   257
176
     1
 90
        1
176
     1
 90
        1
176
     1
 40
1.0
176
     1
 90
        0
176
     1
 62
   257
176
     1
 40
1.0
176
     1
 90
        1
176
     1
 90
        6
176
     1
 90
        2
176
     1
 62
     7
176
     1
 90
        5
176
     1
 90
        0
176
     1
 90
        0
176
     1
290
     0
176
     1
 90
       13
176
     1
 40
0.0
176
     1
 90
        0
176
     1
290
     0
176
     1
290
     1
176
     1
290
     1
176
     1
290
     0
176
     1
290
     0
176
     1
290
     0
176
     1
290
     0
176
     1
290
     0
176
     1
290
     0
176
     1
 90
       50
176
     1
 40
0.0
176
     1
 40
1.0
176
     1
 90
        0
176
     1
 62
    18
420
        0
176
     1
 90
       50
176
     1
 90
        3
176
     1
 62
     5
420
      255
176
     1
290
     0
176
     1
 90
       50
176
     1
 90
       50
176
     1
 90
       50
176
     1
290
     0
176
     1
 90
       50
176
     1
 62
   256
176
     0
 40
1.0
176
     0
 90
        2
176
     1
  1
strokes_ogs.tif
176
     1
290
     0
176
     1
 40
1.0
176
     1
 40
1.0
176
     1
  0
VISUALSTYLE
  5
31
102
{ACAD_REACTORS
330
2A
102
}
330
2A
100
AcDbVisualStyle
  2
Hidden
 70
     6
177
     3
291
     0
 70
    58
 90
        1
176
     1
 90
        2
176
     1
 90
        2
176
     1
 90
        0
176
     1
 40
0.6
176
     1
 40
30.0
176
     1
 62
     7
420
 16777215
176
     1
 90
        2
176
     1
 90
        2
176
     1
 62
     7
176
     1
 62
   257
176
     1
 90
        2
176
     1
 90
        1
176
     1
 40
40.0
176
     1
 90
        0
176
     1
 62
   257
176
     1
 40
1.0
176
     1
 90
        1
176
     1
 90
        6
176
     1
 90
        2
176
     1
 62
     7
176
     1
 90
        3
176
     1
 90
        0
176
     1
 90
        0
176
     1
290
     0
176
     1
 90
        1
176
     1
 40
0.0
176
     1
 90
        0
176
     1
290
     0
176
     1
290
     1
176
     1
290
     1
176
     1
290
     0
176
     1
290
     0
176
     1
290
     0
176
     1
290
     0
176
     1
290
     0
176
     1
290
     0
176
     1
 90
       50
176
     1
 40
0.0
176
     1
 40
1.0
176
     1
 90
        0
176
     1
 62
    18
420
        0
176
     1
 90
       50
176
     1
 90
        3
176
     1
 62
     5
420
      255
176
     1
290
     0
176
     1
 90
       50
176
     1
 90
       50
176
     1
 90
       50
176
     1
290
     0
176
     1
 90
       50
176
     1
 62
   256
176
     0
 40
1.0
176
     0
 90
        2
176
     1
  1
strokes_ogs.tif
176
     1
290
     0
176
     1
 40
1.0
176
     1
 40
1.0
176
     1
  0
VISUALSTYLE
  5
3B
102
{ACAD_REACTORS
330
2A
102
}
330
2A
100
AcDbVisualStyle
  2
JitterOff
 70
    20
177
     3
291
     1
 70
    58
 90
        2
176
     0
 90
        2
176
     0
 90
        0
176
     0
 90
        0
176
     0
 40
0.6
176
     0
 40
30.0
176
     0
 62
     7
420
 16777215
176
     0
 90
        1
176
     0
 90
        4
176
     0
 62
     7
176
     0
 62
   257
176
     0
 90
        1
176
     0
 90
        1
176
     0
 40
1.0
176
     0
 90
       10
176
     2
 62
     7
176
     0
 40
1.0
176
     0
 90
        1
176
     0
 90
        6
176
     0
 90
        2
176
     0
 62
     7
176
     0
 90
        5
176
     0
 90
        0
176
     0
 90
        0
176
     0
290
     0
176
     0
 90
        1
176
     0
 40
0.0
176
     0
 90
        0
176
     0
290
     0
176
     0
290
     1
176
     0
290
     1
176
     0
290
     0
176
     0
290
     0
176
     0
290
     0
176
     0
290
     0
176
     0
290
     0
176
     0
290
     0
176
     0
 90
       50
176
     0
 40
0.0
176
     0
 40
1.0
176
     0
 90
        0
176
     0
 62
    18
420
        0
176
     0
 90
       50
176
     0
 90
        3
176
     0
 62
     5
420
      255
176
     0
290
     0
176
     0
 90
       50
176
     0
 90
       50
176
     0
 90
       50
176
     0
290
     0
176
     0
 90
       50
176
     0
 62
   256
176
     0
 40
1.0
176
     0
 90
        2
176
     0
  1
strokes_ogs.tif
176
     0
290
     0
176
     0
 40
1.0
176
     0
 40
1.0
176
     0
  0
VISUALSTYLE
  5
38
102
{ACAD_REACTORS
330
2A
102
}
330
2A
100
AcDbVisualStyle
  2
Linepattern
 70
    14
177
     3
291
     1
 70
    58
 90
        2
176
     1
 90
        2
176
     1
 90
        0
176
     1
 90
        0
176
     1
 40
0.6
176
     1
 40
30.0
176
     1
 62
     7
420
 16777215
176
     1
 90
        1
176
     1
 90
        4
176
     1
 62
     7
176
     1
 62
   257
176
     1
 90
        7
176
     1
 90
        7
176
     1
 40
1.0
176
     1
 90
        8
176
     1
 62
     7
176
     1
 40
1.0
176
     1
 90
        1
176
     1
 90
        6
176
     1
 90
        2
176
     1
 62
     7
176
     1
 90
        5
176
     1
 90
        0
176
     1
 90
        0
176
     1
290
     0
176
     1
 90
        1
176
     1
 40
0.0
176
     1
 90
        0
176
     1
290
     0
176
     1
290
     1
176
     1
290
     1
176
     1
290
     0
176
     1
290
     0
176
     1
290
     0
176
     1
290
     0
176
     1
290
     0
176
     1
290
     0
176
     1
 90
       50
176
     1
 40
0.0
176
     1
 40
1.0
176
     1
 90
        0
176
     1
 62
    18
420
        0
176
     1
 90
       50
176
     1
 90
        3
176
     1
 62
     5
420
      255
176
     1
290
     0
176
     1
 90
       50
176
     1
 90
       50
176
     1
 90
       50
176
     1
290
     0
176
     1
 90
       50
176
     1
 62
   256
176
     0
 40
1.0
176
     0
 90
        2
176
     1
  1
strokes_ogs.tif
176
     1
290
     0
176
     1
 40
1.0
176
     1
 40
1.0
176
     1
  0
VISUALSTYLE
  5
3C
102
{ACAD_REACTORS
330
2A
102
}
330
2A
100
AcDbVisualStyle
  2
OverhangOff
 70
    21
177
     3
291
     1
 70
    58
 90
        2
176
     0
 90
        2
176
     0
 90
        0
176
     0
 90
        0
176
     0
 40
0.6
176
     0
 40
30.0
176
     0
 62
     7
420
 16777215
176
     0
 90
        1
176
     0
 90
        4
176
     0
 62
     7
176
     0
 62
   257
176
     0
 90
        1
176
     0
 90
        1
176
     0
 40
1.0
176
     0
 90
        9
176
     2
 62
     7
176
     0
 40
1.0
176
     0
 90
        1
176
     0
 90
        6
176
     0
 90
        2
176
     0
 62
     7
176
     0
 90
        5
176
     0
 90
        0
176
     0
 90
        0
176
     0
290
     0
176
     0
 90
        1
176
     0
 40
0.0
176
     0
 90
        0
176
     0
290
     0
176
     0
290
     1
176
     0
290
     1
176
     0
290
     0
176
     0
290
     0
176
     0
290
     0
176
     0
290
     0
176
     0
290
     0
176
     0
290
     0
176
     0
 90
       50
176
     0
 40
0.0
176
     0
 40
1.0
176
     0
 90
        0
176
     0
 62
    18
420
        0
176
     0
 90
       50
176
     0
 90
        3
176
     0
 62
     5
420
      255
176
     0
290
     0
176
     0
 90
       50
176
     0
 90
       50
176
     0
 90
       50
176
     0
290
     0
176
     0
 90
       50
176
     0
 62
   256
176
     0
 40
1.0
176
     0
 90
        2
176
     0
  1
strokes_ogs.tif
176
     0
290
     0
176
     0
 40
1.0
176
     0
 40
1.0
176
     0
  0
VISUALSTYLE
  5
33
102
{ACAD_REACTORS
330
2A
102
}
330
2A
100
AcDbVisualStyle
  2
Realistic
 70
     8
177
     3
291
     0
 70
    58
 90
        2
176
     1
 90
        3
176
     1
 90
        0
176
     1
 90
        2
176
     1
 40
0.6
176
     1
 40
30.0
176
     1
 62
     7
420
 16777215
176
     1
 90
        0
176
     1
 90
        0
176
     1
 62
     7
176
     1
 62
   257
176
     1
 90
        1
176
     1
 90
        1
176
     1
 40
1.0
176
     1
 90
        8
176
     1
 62
   257
176
     1
 40
1.0
176
     1
 90
        1
176
     1
 90
        6
176
     1
 90
        2
176
     1
 62
     7
176
     1
 90
        3
176
     1
 90
        0
176
     1
 90
        0
176
     1
290
     0
176
     1
 90
       13
176
     1
 40
0.0
176
     1
 90
        0
176
     1
290
     0
176
     1
290
     1
176
     1
290
     1
176
     1
290
     0
176
     1
290
     0
176
     1
290
     0
176
     1
290
     0
176
     1
290
     0
176
     1
290
     0
176
     1
 90
       50
176
     1
 40
0.0
176
     1
 40
1.0
176
     1
 90
        0
176
     1
 62
    18
420
        0
176
     1
 90
       50
176
     1
 90
        3
176
     1
 62
     5
420
      255
176
     1
290
     0
176
     1
 90
       50
176
     1
 90
       50
176
     1
 90
       50
176
     1
290
     0
176
     1
 90
       50
176
     1
 62
   256
176
     0
 40
1.0
176
     0
 90
        2
176
     1
  1
strokes_ogs.tif
176
     1
290
     0
176
     1
 40
1.0
176
     1
 40
1.0
176
     1
  0
VISUALSTYLE
  5
42
102
{ACAD_REACTORS
330
2A
102
}
330
2A
100
AcDbVisualStyle
  2
Shaded
 70
    27
177
     3
291
     0
 70
    58
 90
        2
176
     1
 90
        2
176
     1
 90
        1
176
     1
 90
        2
176
     1
 40
0.6
176
     1
 40
30.0
176
     1
 62
     7
420
 16777215
176
     1
 90
        0
176
     1
 90
        4
176
     1
 62
     7
176
     1
 62
   257
176
     1
 90
        1
176
     1
 90
        1
176
     1
 40
1.0
176
     1
 90
        8
176
     1
 62
   257
176
     1
 40
1.0
176
     1
 90
        1
176
     1
 90
        6
176
     1
 90
        2
176
     1
 62
     8
420
  7895160
176
     1
 90
        3
176
     1
 90
        0
176
     1
 90
        0
176
     1
290
     0
176
     1
 90
        5
176
     1
 40
0.0
176
     1
 90
        0
176
     1
290
     0
176
     1
290
     1
176
     1
290
     1
176
     1
290
     0
176
     1
290
     0
176
     1
290
     0
176
     1
290
     0
176
     1
290
     0
176
     1
290
     0
176
     1
 90
       50
176
     1
 40
0.0
176
     1
 40
1.0
176
     1
 90
        0
176
     1
 62
    18
420
        0
176
     1
 90
       50
176
     1
 90
        3
176
     1
 62
     5
420
      255
176
     1
290
     0
176
     1
 90
       50
176
     1
 90
       50
176
     1
 90
       50
176
     1
290
     0
176
     1
 90
       50
176
     1
 62
   256
176
     0
 40
1.0
176
     0
 90
        2
176
     1
  1
strokes_ogs.tif
176
     1
290
     0
176
     1
 40
1.0
176
     1
 40
1.0
176
     1
  0
VISUALSTYLE
  5
41
102
{ACAD_REACTORS
330
2A
102
}
330
2A
100
AcDbVisualStyle
  2
Shaded with edges
 70
    26
177
     3
291
     0
 70
    58
 90
        2
176
     1
 90
        2
176
     1
 90
        1
176
     1
 90
        2
176
     1
 40
0.6
176
     1
 40
30.0
176
     1
 62
     7
420
 16777215
176
     1
 90
        1
176
     1
 90
       10
176
     1
 62
     7
176
     1
 62
   257
176
     1
 90
        2
176
     1
 90
        1
176
     1
 40
1.0
176
     1
 90
        8
176
     1
 62
   257
176
     1
 40
1.0
176
     1
 90
        1
176
     1
 90
        6
176
     1
 90
        2
176
     1
 62
     7
176
     1
 90
        3
176
     1
 90
        0
176
     1
 90
        0
176
     1
290
     0
176
     1
 90
        5
176
     1
 40
0.0
176
     1
 90
        0
176
     1
290
     0
176
     1
290
     1
176
     1
290
     1
176
     1
290
     0
176
     1
290
     0
176
     1
290
     0
176
     1
290
     0
176
     1
290
     0
176
     1
290
     0
176
     1
 90
       50
176
     1
 40
0.0
176
     1
 40
1.0
176
     1
 90
        0
176
     1
 62
    18
420
        0
176
     1
 90
       50
176
     1
 90
        3
176
     1
 62
     5
420
      255
176
     1
290
     0
176
     1
 90
       50
176
     1
 90
       50
176
     1
 90
       50
176
     1
290
     0
176
     1
 90
       50
176
     1
 62
   256
176
     0
 40
1.0
176
     0
 90
        2
176
     1
  1
strokes_ogs.tif
176
     1
290
     0
176
     1
 40
1.0
176
     1
 40
1.0
176
     1
  0
VISUALSTYLE
  5
3E
102
{ACAD_REACTORS
330
2A
102
}
330
2A
100
AcDbVisualStyle
  2
Shades of Gray
 70
    23
177
     3
291
     0
 70
    58
 90
        2
176
     1
 90
        2
176
     1
 90
        3
176
     1
 90
        0
176
     1
 40
0.6
176
     1
 40
30.0
176
     1
 62
     7
420
 16777215
176
     1
 90
        2
176
     1
 90
        2
176
     1
 62
     7
176
     1
 62
     7
176
     1
 90
        1
176
     1
 90
        1
176
     1
 40
40.0
176
     1
 90
        8
176
     1
 62
     7
176
     1
 40
1.0
176
     1
 90
        1
176
     1
 90
        6
176
     1
 90
        2
176
     1
 62
     7
176
     1
 90
        3
176
     1
 90
        0
176
     1
 90
        0
176
     1
290
     0
176
     1
 90
        1
176
     1
 40
0.0
176
     1
 90
        0
176
     1
290
     0
176
     1
290
     1
176
     1
290
     1
176
     1
290
     0
176
     1
290
     0
176
     1
290
     0
176
     1
290
     0
176
     1
290
     0
176
     1
290
     0
176
     1
 90
       50
176
     1
 40
0.0
176
     1
 40
1.0
176
     1
 90
        0
176
     1
 62
    18
420
        0
176
     1
 90
       50
176
     1
 90
        3
176
     1
 62
     5
420
      255
176
     1
290
     0
176
     1
 90
       50
176
     1
 90
       50
176
     1
 90
       50
176
     1
290
     0
176
     1
 90
       50
176
     1
 62
   256
176
     0
 40
1.0
176
     0
 90
        2
176
     1
  1
strokes_ogs.tif
176
     1
290
     0
176
     1
 40
1.0
176
     1
 40
1.0
176
     1
  0
VISUALSTYLE
  5
3F
102
{ACAD_REACTORS
330
2A
102
}
330
2A
100
AcDbVisualStyle
  2
Sketchy
 70
    24
177
     3
291
     0
 70
    58
 90
        1
176
     1
 90
        2
176
     1
 90
        2
176
     1
 90
        0
176
     1
 40
0.6
176
     1
 40
30.0
176
     1
 62
     7
420
 16777215
176
     1
 90
        2
176
     1
 90
        2
176
     1
 62
     7
176
     1
 62
     7
176
     1
 90
        1
176
     1
 90
        1
176
     1
 40
40.0
176
     1
 90
       11
176
     1
 62
     7
176
     1
 40
1.0
176
     1
 90
        1
176
     1
 90
        6
176
     1
 90
        2
176
     1
 62
     7
176
     1
 90
        6
176
     1
 90
        0
176
     1
 90
        0
176
     1
290
     0
176
     1
 90
        1
176
     1
 40
0.0
176
     1
 90
        0
176
     1
290
     0
176
     1
290
     1
176
     1
290
     1
176
     1
290
     0
176
     1
290
     0
176
     1
290
     0
176
     1
290
     0
176
     1
290
     0
176
     1
290
     0
176
     1
 90
       50
176
     1
 40
0.0
176
     1
 40
1.0
176
     1
 90
        0
176
     1
 62
    18
420
        0
176
     1
 90
       50
176
     1
 90
        3
176
     1
 62
     5
420
      255
176
     1
290
     0
176
     1
 90
       50
176
     1
 90
       50
176
     1
 90
       50
176
     1
290
     0
176
     1
 90
       50
176
     1
 62
   256
176
     0
 40
1.0
176
     0
 90
        2
176
     1
  1
strokes_ogs.tif
176
     1
290
     0
176
     1
 40
1.0
176
     1
 40
1.0
176
     1
  0
VISUALSTYLE
  5
37
102
{ACAD_REACTORS
330
2A
102
}
330
2A
100
AcDbVisualStyle
  2
Thicken
 70
    13
177
     3
291
     1
 70
    58
 90
        2
176
     1
 90
        2
176
     1
 90
        0
176
     1
 90
        0
176
     1
 40
0.6
176
     1
 40
30.0
176
     1
 62
     7
420
 16777215
176
     1
 90
        1
176
     1
 90
        4
176
     1
 62
     7
176
     1
 62
   257
176
     1
 90
        1
176
     1
 90
        1
176
     1
 40
1.0
176
     1
 90
       12
176
     1
 62
     7
176
     1
 40
1.0
176
     1
 90
        1
176
     1
 90
        6
176
     1
 90
        2
176
     1
 62
     7
176
     1
 90
        5
176
     1
 90
        0
176
     1
 90
        0
176
     1
290
     0
176
     1
 90
        1
176
     1
 40
0.0
176
     1
 90
        0
176
     1
290
     0
176
     1
290
     1
176
     1
290
     1
176
     1
290
     0
176
     1
290
     0
176
     1
290
     0
176
     1
290
     0
176
     1
290
     0
176
     1
290
     0
176
     1
 90
       50
176
     1
 40
0.0
176
     1
 40
1.0
176
     1
 90
        0
176
     1
 62
    18
420
        0
176
     1
 90
       50
176
     1
 90
        3
176
     1
 62
     5
420
      255
176
     1
290
     0
176
     1
 90
       50
176
     1
 90
       50
176
     1
 90
       50
176
     1
290
     0
176
     1
 90
       50
176
     1
 62
   256
176
     0
 40
1.0
176
     0
 90
        2
176
     1
  1
strokes_ogs.tif
176
     1
290
     0
176
     1
 40
1.0
176
     1
 40
1.0
176
     1
  0
VISUALSTYLE
  5
30
102
{ACAD_REACTORS
330
2A
102
}
330
2A
100
AcDbVisualStyle
  2
Wireframe
 70
     5
177
     3
291
     0
 70
    58
 90
        0
176
     1
 90
        2
176
     1
 90
        0
176
     1
 90
        0
176
     1
 40
0.6
176
     1
 40
30.0
176
     1
 62
     7
420
 16777215
176
     1
 90
        1
176
     1
 90
        4
176
     1
 62
     7
176
     1
 62
   257
176
     1
 90
        1
176
     1
 90
        1
176
     1
 40
1.0
176
     1
 90
        0
176
     1
 62
   257
176
     1
 40
1.0
176
     1
 90
        1
176
     1
 90
        6
176
     1
 90
        2
176
     1
 62
     7
176
     1
 90
        3
176
     1
 90
        0
176
     1
 90
        0
176
     1
290
     0
176
     1
 90
        1
176
     1
 40
0.0
176
     1
 90
        0
176
     1
290
     0
176
     1
290
     1
176
     1
290
     1
176
     1
290
     0
176
     1
290
     0
176
     1
290
     0
176
     1
290
     0
176
     1
290
     0
176
     1
290
     0
176
     1
 90
       50
176
     1
 40
0.0
176
     1
 40
1.0
176
     1
 90
        0
176
     1
 62
    18
420
        0
176
     1
 90
       50
176
     1
 90
        3
176
     1
 62
     5
420
      255
176
     1
290
     0
176
     1
 90
       50
176
     1
 90
       50
176
     1
 90
       50
176
     1
290
     0
176
     1
 90
       50
176
     1
 62
   256
176
     0
 40
1.0
176
     0
 90
        2
176
     1
  1
strokes_ogs.tif
176
     1
290
     0
176
     1
 40
1.0
176
     1
 40
1.0
176
     1
  0
VISUALSTYLE
  5
40
102
{ACAD_REACTORS
330
2A
102
}
330
2A
100
AcDbVisualStyle
  2
X-Ray
 70
    25
177
     3
291
     0
 70
    58
 90
        2
176
     1
 90
        2
176
     1
 90
        1
176
     1
 90
        1
176
     1
 40
0.5
176
     1
 40
30.0
176
     1
 62
     7
420
 16777215
176
     1
 90
        1
176
     1
 90
        0
176
     1
 62
     7
176
     1
 62
   257
176
     1
 90
        1
176
     1
 90
        1
176
     1
 40
1.0
176
     1
 90
        8
176
     1
 62
     7
176
     1
 40
1.0
176
     1
 90
        1
176
     1
 90
        6
176
     1
 90
        2
176
     1
 62
     7
176
     1
 90
        3
176
     1
 90
        0
176
     1
 90
        0
176
     1
290
     0
176
     1
 90
       13
176
     1
 40
0.0
176
     1
 90
        0
176
     1
290
     0
176
     1
290
     1
176
     1
290
     1
176
     1
290
     0
176
     1
290
     0
176
     1
290
     0
176
     1
290
     0
176
     1
290
     0
176
     1
290
     0
176
     1
 90
       50
176
     1
 40
0.0
176
     1
 40
1.0
176
     1
 90
        0
176
     1
 62
    18
420
        0
176
     1
 90
       50
176
     1
 90
        3
176
     1
 62
     5
420
      255
176
     1
290
     0
176
     1
 90
       50
176
     1
 90
       50
176
     1
 90
       50
176
     1
290
     0
176
     1
 90
       50
176
     1
 62
   256
176
     0
 40
1.0
176
     0
 90
        2
176
     1
  1
strokes_ogs.tif
176
     1
290
     0
176
     1
 40
1.0
176
     1
 40
1.0
176
     1
  0
DICTIONARYVAR
  5
7C
102
{ACAD_REACTORS
330
7B
102
}
330
7B
100
DictionaryVariables
280
     0
  1
1:1
  0
DICTIONARYVAR
  5
81
102
{ACAD_REACTORS
330
7B
102
}
330
7B
100
DictionaryVariables
280
     0
  1
Standard
  0
DICTIONARYVAR
  5
80
102
{ACAD_REACTORS
330
7B
102
}
330
7B
100
DictionaryVariables
280
     0
  1
Standard
  0
DICTIONARY
  5
7D
330
5A
100
AcDbDictionary
280
     1
281
     1
  3
ACAD_ROUNDTRIP_2008_TABLESTYLE_CELLSTYLEMAP
360
7E
  0
CELLSTYLEMAP
  5
7E
102
{ACAD_REACTORS
330
7D
102
}
330
7D
100
AcDbCellStyleMap
 90
        3
300
CELLSTYLE
  1
TABLEFORMAT_BEGIN
 90
        5
170
     1
 91
        0
 92
    32768
 62
   257
 93
        1
300
CONTENTFORMAT
  1
CONTENTFORMAT_BEGIN
 90
        0
 91
        0
 92
        4
 93
        0
300

 40
0.0
140
1.0
 94
        5
 62
     0
340
11
144
0.25
309
CONTENTFORMAT_END
171
     1
301
MARGIN
  1
CELLMARGIN_BEGIN
 40
0.06
 40
0.06
 40
0.06
 40
0.06
 40
0.06
 40
0.06
309
CELLMARGIN_END
 94
        6
 95
        1
302
GRIDFORMAT
  1
GRIDFORMAT_BEGIN
 90
        0
 91
        1
 62
     0
 92
       -2
340
14
 93
        0
 40
0.045
309
GRIDFORMAT_END
 95
        2
302
GRIDFORMAT
  1
GRIDFORMAT_BEGIN
 90
        0
 91
        1
 62
     0
 92
       -2
340
14
 93
        0
 40
0.045
309
GRIDFORMAT_END
 95
        4
302
GRIDFORMAT
  1
GRIDFORMAT_BEGIN
 90
        0
 91
        1
 62
     0
 92
       -2
340
14
 93
        0
 40
0.045
309
GRIDFORMAT_END
 95
        8
302
GRIDFORMAT
  1
GRIDFORMAT_BEGIN
 90
        0
 91
        1
 62
     0
 92
       -2
340
14
 93
        0
 40
0.045
309
GRIDFORMAT_END
 95
       16
302
GRIDFORMAT
  1
GRIDFORMAT_BEGIN
 90
        0
 91
        1
 62
     0
 92
       -2
340
14
 93
        0
 40
0.045
309
GRIDFORMAT_END
 95
       32
302
GRIDFORMAT
  1
GRIDFORMAT_BEGIN
 90
        0
 91
        1
 62
     0
 92
       -2
340
14
 93
        0
 40
0.045
309
GRIDFORMAT_END
309
TABLEFORMAT_END
  1
CELLSTYLE_BEGIN
 90
        1
 91
        1
300
_TITLE
309
CELLSTYLE_END
300
CELLSTYLE
  1
TABLEFORMAT_BEGIN
 90
        5
170
     1
 91
        0
 92
        0
 62
   257
 93
        1
300
CONTENTFORMAT
  1
CONTENTFORMAT_BEGIN
 90
        0
 91
        0
 92
        4
 93
        0
300

 40
0.0
140
1.0
 94
        5
 62
     0
340
11
144
0.18
309
CONTENTFORMAT_END
171
     1
301
MARGIN
  1
CELLMARGIN_BEGIN
 40
0.06
 40
0.06
 40
0.06
 40
0.06
 40
0.06
 40
0.06
309
CELLMARGIN_END
 94
        6
 95
        1
302
GRIDFORMAT
  1
GRIDFORMAT_BEGIN
 90
        0
 91
        1
 62
     0
 92
       -2
340
14
 93
        0
 40
0.045
309
GRIDFORMAT_END
 95
        2
302
GRIDFORMAT
  1
GRIDFORMAT_BEGIN
 90
        0
 91
        1
 62
     0
 92
       -2
340
14
 93
        0
 40
0.045
309
GRIDFORMAT_END
 95
        4
302
GRIDFORMAT
  1
GRIDFORMAT_BEGIN
 90
        0
 91
        1
 62
     0
 92
       -2
340
14
 93
        0
 40
0.045
309
GRIDFORMAT_END
 95
        8
302
GRIDFORMAT
  1
GRIDFORMAT_BEGIN
 90
        0
 91
        1
 62
     0
 92
       -2
340
14
 93
        0
 40
0.045
309
GRIDFORMAT_END
 95
       16
302
GRIDFORMAT
  1
GRIDFORMAT_BEGIN
 90
        0
 91
        1
 62
     0
 92
       -2
340
14
 93
        0
 40
0.045
309
GRIDFORMAT_END
 95
       32
302
GRIDFORMAT
  1
GRIDFORMAT_BEGIN
 90
        0
 91
        1
 62
     0
 92
       -2
340
14
 93
        0
 40
0.045
309
GRIDFORMAT_END
309
TABLEFORMAT_END
  1
CELLSTYLE_BEGIN
 90
        2
 91
        1
300
_HEADER
309
CELLSTYLE_END
300
CELLSTYLE
  1
TABLEFORMAT_BEGIN
 90
        5
170
     1
 91
        0
 92
        0
 62
   257
 93
        1
300
CONTENTFORMAT
  1
CONTENTFORMAT_BEGIN
 90
        0
 91
        0
 92
        4
 93
        0
300

 40
0.0
140
1.0
 94
        2
 62
     0
340
11
144
0.18
309
CONTENTFORMAT_END
171
     1
301
MARGIN
  1
CELLMARGIN_BEGIN
 40
0.06
 40
0.06
 40
0.06
 40
0.06
 40
0.06
 40
0.06
309
CELLMARGIN_END
 94
        6
 95
        1
302
GRIDFORMAT
  1
GRIDFORMAT_BEGIN
 90
        0
 91
        1
 62
     0
 92
       -2
340
14
 93
        0
 40
0.045
309
GRIDFORMAT_END
 95
        2
302
GRIDFORMAT
  1
GRIDFORMAT_BEGIN
 90
        0
 91
        1
 62
     0
 92
       -2
340
14
 93
        0
 40
0.045
309
GRIDFORMAT_END
 95
        4
302
GRIDFORMAT
  1
GRIDFORMAT_BEGIN
 90
        0
 91
        1
 62
     0
 92
       -2
340
14
 93
        0
 40
0.045
309
GRIDFORMAT_END
 95
        8
302
GRIDFORMAT
  1
GRIDFORMAT_BEGIN
 90
        0
 91
        1
 62
     0
 92
       -2
340
14
 93
        0
 40
0.045
309
GRIDFORMAT_END
 95
       16
302
GRIDFORMAT
  1
GRIDFORMAT_BEGIN
 90
        0
 91
        1
 62
     0
 92
       -2
340
14
 93
        0
 40
0.045
309
GRIDFORMAT_END
 95
       32
302
GRIDFORMAT
  1
GRIDFORMAT_BEGIN
 90
        0
 91
        1
 62
     0
 92
       -2
340
14
 93
        0
 40
0.045
309
GRIDFORMAT_END
309
TABLEFORMAT_END
  1
CELLSTYLE_BEGIN
 90
        3
 91
        2
300
_DATA
309
CELLSTYLE_END
  0
ENDSEC
  0
EOF
