  0
SECTION
  2
HEADER
  9
$ACADVER
  1
AC1027
  9
$ACADMAINTVER
 70
   105
  9
$DWGCODEPAGE
  3
ANSI_1252
  9
$LASTSAVEDBY
  1
Office Desk
  9
$REQUIREDVERSIONS
160
                 0
  9
$INSBASE
 10
0.0
 20
0.0
 30
0.0
  9
$EXTMIN
 10
191.1858
 20
-153.0176
 30
0.0
  9
$EXTMAX
 10
1263.9909
 20
168.2402
 30
0.0
  9
$LIMMIN
 10
0.0
 20
0.0
  9
$LIMMAX
 10
12.0
 20
9.0
  9
$ORTHOMODE
 70
     0
  9
$REGENMODE
 70
     1
  9
$FILLMODE
 70
     1
  9
$QTEXTMODE
 70
     0
  9
$MIRRTEXT
 70
     1
  9
$LTSCALE
 40
1.0
  9
$ATTMODE
 70
     1
  9
$TEXTSIZE
 40
0.2
  9
$TRACEWID
 40
0.05
  9
$TEXTSTYLE
  7
Standard
  9
$CLAYER
  8
0
  9
$CELTYPE
  6
ByLayer
  9
$CECOLOR
 62
   256
  9
$CELTSCALE
 40
1.0
  9
$DISPSILH
 70
     0
  9
$DIMSCALE
 40
1.0
  9
$DIMASZ
 40
0.18
  9
$DIMEXO
 40
0.0625
  9
$DIMDLI
 40
0.38
  9
$DIMRND
 40
0.0
  9
$DIMDLE
 40
0.0
  9
$DIMEXE
 40
0.18
  9
$DIMTP
 40
0.0
  9
$DIMTM
 40
0.0
  9
$DIMTXT
 40
0.18
  9
$DIMCEN
 40
0.09
  9
$DIMTSZ
 40
0.0
  9
$DIMTOL
 70
     0
  9
$DIMLIM
 70
     0
  9
$DIMTIH
 70
     1
  9
$DIMTOH
 70
     1
  9
$DIMSE1
 70
     0
  9
$DIMSE2
 70
     0
  9
$DIMTAD
 70
     0
  9
$DIMZIN
 70
     0
  9
$DIMBLK
  1

  9
$DIMASO
 70
     1
  9
$DIMSHO
 70
     1
  9
$DIMPOST
  1

  9
$DIMAPOST
  1

  9
$DIMALT
 70
     0
  9
$DIMALTD
 70
     2
  9
$DIMALTF
 40
25.4
  9
$DIMLFAC
 40
1.0
  9
$DIMTOFL
 70
     0
  9
$DIMTVP
 40
0.0
  9
$DIMTIX
 70
     0
  9
$DIMSOXD
 70
     0
  9
$DIMSAH
 70
     0
  9
$DIMBLK1
  1

  9
$DIMBLK2
  1

  9
$DIMSTYLE
  2
Standard
  9
$DIMCLRD
 70
     0
  9
$DIMCLRE
 70
     0
  9
$DIMCLRT
 70
     0
  9
$DIMTFAC
 40
1.0
  9
$DIMGAP
 40
0.09
  9
$DIMJUST
 70
     0
  9
$DIMSD1
 70
     0
  9
$DIMSD2
 70
     0
  9
$DIMTOLJ
 70
     1
  9
$DIMTZIN
 70
     0
  9
$DIMALTZ
 70
     0
  9
$DIMALTTZ
 70
     0
  9
$DIMUPT
 70
     0
  9
$DIMDEC
 70
     4
  9
$DIMTDEC
 70
     4
  9
$DIMALTU
 70
     2
  9
$DIMALTTD
 70
     2
  9
$DIMTXSTY
  7
Standard
  9
$DIMAUNIT
 70
     0
  9
$DIMADEC
 70
     0
  9
$DIMALTRND
 40
0.0
  9
$DIMAZIN
 70
     0
  9
$DIMDSEP
 70
    46
  9
$DIMATFIT
 70
     3
  9
$DIMFRAC
 70
     0
  9
$DIMLDRBLK
  1

  9
$DIMLUNIT
 70
     2
  9
$DIMLWD
 70
    -2
  9
$DIMLWE
 70
    -2
  9
$DIMTMOVE
 70
     0
  9
$DIMFXL
 40
1.0
  9
$DIMFXLON
 70
     0
  9
$DIMJOGANG
 40
0.7853981633974483
  9
$DIMTFILL
 70
     0
  9
$DIMTFILLCLR
 70
     0
  9
$DIMARCSYM
 70
     0
  9
$DIMLTYPE
  6

  9
$DIMLTEX1
  6

  9
$DIMLTEX2
  6

  9
$DIMTXTDIRECTION
 70
     0
  9
$LUNITS
 70
     2
  9
$LUPREC
 70
     4
  9
$SKETCHINC
 40
0.1
  9
$FILLETRAD
 40
0.0
  9
$AUNITS
 70
     0
  9
$AUPREC
 70
     0
  9
$MENU
  1
.
  9
$ELEVATION
 40
0.0
  9
$PELEVATION
 40
0.0
  9
$THICKNESS
 40
0.0
  9
$LIMCHECK
 70
     0
  9
$CHAMFERA
 40
0.0
  9
$CHAMFERB
 40
0.0
  9
$CHAMFERC
 40
0.0
  9
$CHAMFERD
 40
0.0
  9
$SKPOLY
 70
     0
  9
$TDCREATE
 40
2461012.662795324
  9
$TDUCREATE
 40
2461012.433628658
  9
$TDUPDATE
 40
2461012.662795324
  9
$TDUUPDATE
 40
2461012.433628658
  9
$TDINDWG
 40
0.0000000116
  9
$TDUSRTIMER
 40
0.0000000116
  9
$USRTIMER
 70
     1
  9
$ANGBASE
 50
0.0
  9
$ANGDIR
 70
     0
  9
$PDMODE
 70
     0
  9
$PDSIZE
 40
0.0
  9
$PLINEWID
 40
0.0
  9
$SPLFRAME
 70
     0
  9
$SPLINETYPE
 70
     6
  9
$SPLINESEGS
 70
     8
  9
$HANDSEED
  5
89
  9
$SURFTAB1
 70
     6
  9
$SURFTAB2
 70
     6
  9
$SURFTYPE
 70
     6
  9
$SURFU
 70
     6
  9
$SURFV
 70
     6
  9
$UCSBASE
  2

  9
$UCSNAME
  2

  9
$UCSORG
 10
0.0
 20
0.0
 30
0.0
  9
$UCSXDIR
 10
1.0
 20
0.0
 30
0.0
  9
$UCSYDIR
 10
0.0
 20
1.0
 30
0.0
  9
$UCSORTHOREF
  2

  9
$UCSORTHOVIEW
 70
     0
  9
$UCSORGTOP
 10
0.0
 20
0.0
 30
0.0
  9
$UCSORGBOTTOM
 10
0.0
 20
0.0
 30
0.0
  9
$UCSORGLEFT
 10
0.0
 20
0.0
 30
0.0
  9
$UCSORGRIGHT
 10
0.0
 20
0.0
 30
0.0
  9
$UCSORGFRONT
 10
0.0
 20
0.0
 30
0.0
  9
$UCSORGBACK
 10
0.0
 20
0.0
 30
0.0
  9
$PUCSBASE
  2

  9
$PUCSNAME
  2

  9
$PUCSORG
 10
0.0
 20
0.0
 30
0.0
  9
$PUCSXDIR
 10
1.0
 20
0.0
 30
0.0
  9
$PUCSYDIR
 10
0.0
 20
1.0
 30
0.0
  9
$PUCSORTHOREF
  2

  9
$PUCSORTHOVIEW
 70
     0
  9
$PUCSORGTOP
 10
0.0
 20
0.0
 30
0.0
  9
$PUCSORGBOTTOM
 10
0.0
 20
0.0
 30
0.0
  9
$PUCSORGLEFT
 10
0.0
 20
0.0
 30
0.0
  9
$PUCSORGRIGHT
 10
0.0
 20
0.0
 30
0.0
  9
$PUCSORGFRONT
 10
0.0
 20
0.0
 30
0.0
  9
$PUCSORGBACK
 10
0.0
 20
0.0
 30
0.0
  9
$USERI1
 70
     0
  9
$USERI2
 70
     0
  9
$USERI3
 70
     0
  9
$USERI4
 70
     0
  9
$USERI5
 70
     0
  9
$USERR1
 40
0.0
  9
$USERR2
 40
0.0
  9
$USERR3
 40
0.0
  9
$USERR4
 40
0.0
  9
$USERR5
 40
0.0
  9
$WORLDVIEW
 70
     1
  9
$SHADEDGE
 70
     3
  9
$SHADEDIF
 70
    70
  9
$TILEMODE
 70
     1
  9
$MAXACTVP
 70
    64
  9
$PINSBASE
 10
0.0
 20
0.0
 30
0.0
  9
$PLIMCHECK
 70
     0
  9
$PEXTMIN
 10
1.000000000000000E+20
 20
1.000000000000000E+20
 30
1.000000000000000E+20
  9
$PEXTMAX
 10
-1.000000000000000E+20
 20
-1.000000000000000E+20
 30
-1.000000000000000E+20
  9
$PLIMMIN
 10
0.0
 20
0.0
  9
$PLIMMAX
 10
12.0
 20
9.0
  9
$UNITMODE
 70
     0
  9
$VISRETAIN
 70
     1
  9
$PLINEGEN
 70
     0
  9
$PSLTSCALE
 70
     1
  9
$TREEDEPTH
 70
  3020
  9
$CMLSTYLE
  2
Standard
  9
$CMLJUST
 70
     0
  9
$CMLSCALE
 40
1.0
  9
$PROXYGRAPHICS
 70
     1
  9
$MEASUREMENT
 70
     0
  9
$CELWEIGHT
370
    -1
  9
$ENDCAPS
280
     0
  9
$JOINSTYLE
280
     0
  9
$LWDISPLAY
290
     0
  9
$INSUNITS
 70
     4
  9
$HYPERLINKBASE
  1

  9
$STYLESHEET
  1

  9
$XEDIT
290
     1
  9
$CEPSNTYPE
380
     0
  9
$PSTYLEMODE
290
     1
  9
$FINGERPRINTGUID
  2
{15405e7a-c047-45df-a37f-fe951d90b6ae}
  9
$VERSIONGUID
  2
{FAEB1C32-E019-11D5-929B-00C0DF256EC4}
  9
$EXTNAMES
290
     1
  9
$PSVPSCALE
 40
0.0
  9
$OLESTARTUP
290
     0
  9
$SORTENTS
280
   127
  9
$INDEXCTL
280
     0
  9
$HIDETEXT
280
     1
  9
$XCLIPFRAME
280
     2
  9
$HALOGAP
280
     0
  9
$OBSCOLOR
 70
   257
  9
$OBSLTYPE
280
     0
  9
$INTERSECTIONDISPLAY
280
     0
  9
$INTERSECTIONCOLOR
 70
   257
  9
$DIMASSOC
280
     2
  9
$PROJECTNAME
  1

  9
$CAMERADISPLAY
290
     0
  9
$LENSLENGTH
 40
50.0
  9
$CAMERAHEIGHT
 40
0.0
  9
$STEPSPERSEC
 40
2.0
  9
$STEPSIZE
 40
6.0
  9
$3DDWFPREC
 40
2.0
  9
$PSOLWIDTH
 40
0.25
  9
$PSOLHEIGHT
 40
4.0
  9
$LOFTANG1
 40
1.570796326794897
  9
$LOFTANG2
 40
1.570796326794897
  9
$LOFTMAG1
 40
0.0
  9
$LOFTMAG2
 40
0.0
  9
$LOFTPARAM
 70
     7
  9
$LOFTNORMALS
280
     1
  9
$LATITUDE
 40
37.795
  9
$LONGITUDE
 40
-122.394
  9
$NORTHDIRECTION
 40
0.0
  9
$TIMEZONE
 70
 -8000
  9
$LIGHTGLYPHDISPLAY
280
     1
  9
$TILEMODELIGHTSYNCH
280
     1
  9
$CMATERIAL
347
44
  9
$SOLIDHIST
280
     0
  9
$SHOWHIST
280
     1
  9
$DWFFRAME
280
     2
  9
$DGNFRAME
280
     2
  9
$REALWORLDSCALE
290
     1
  9
$INTERFERECOLOR
 62
   256
  9
$CSHADOW
280
     0
  9
$SHADOWPLANELOCATION
 40
0.0
  0
ENDSEC
  0
SECTION
  2
CLASSES
  0
CLASS
  1
ACDBDICTIONARYWDFLT
  2
AcDbDictionaryWithDefault
  3
ObjectDBX Classes
 90
        0
 91
        3
280
     0
281
     0
  0
CLASS
  1
VISUALSTYLE
  2
AcDbVisualStyle
  3
ObjectDBX Classes
 90
     4095
 91
        3
280
     0
281
     0
  0
CLASS
  1
MATERIAL
  2
AcDbMaterial
  3
ObjectDBX Classes
 90
     1153
 91
        3
280
     0
281
     0
  0
CLASS
  1
SCALE
  2
AcDbScale
  3
ObjectDBX Classes
 90
     1153
 91
        3
280
     0
281
     0
  0
CLASS
  1
TABLESTYLE
  2
AcDbTableStyle
  3
ObjectDBX Classes
 90
     4095
 91
        3
280
     0
281
     0
  0
CLASS
  1
MLEADERSTYLE
  2
AcDbMLeaderStyle
  3
ACDB_MLEADERSTYLE_CLASS
 90
     4095
 91
        3
280
     0
281
     0
  0
CLASS
  1
SUN
  2
AcDbSun
  3
SCENEOE
 90
     1153
 91
        3
280
     0
281
     0
  0
CLASS
  1
DICTIONARYVAR
  2
AcDbDictionaryVar
  3
ObjectDBX Classes
 90
        0
 91
        3
280
     0
281
     0
  0
CLASS
  1
CELLSTYLEMAP
  2
AcDbCellStyleMap
  3
ObjectDBX Classes
 90
     1152
 91
        3
280
     0
281
     0
  0
ENDSEC
  0
SECTION
  2
TABLES
  0
TABLE
  2
VPORT
  5
8
330
0
100
AcDbSymbolTable
 70
     1
  0
VPORT
  5
29
330
8
100
AcDbSymbolTableRecord
100
AcDbViewportTableRecord
  2
*Active
 70
     0
 10
0.0
 20
0.0
 11
1.0
 21
1.0
 12
10.42990654205607
 22
4.5
 13
0.0
 23
0.0
 14
0.5
 24
0.5
 15
0.5
 25
0.5
 16
0.0
 26
0.0
 36
1.0
 17
0.0
 27
0.0
 37
0.0
 40
9.0
 41
1.972972972850329
 42
50.0
 43
0.0
 44
0.0
 50
0.0
 51
0.0
 71
     0
 72
   100
 73
     1
 74
     3
 75
     0
 76
     0
 77
     0
 78
     0
281
     0
 65
     1
110
0.0
120
0.0
130
0.0
111
1.0
121
0.0
131
0.0
112
0.0
122
1.0
132
0.0
 79
     0
146
0.0
348
2F
 60
     3
 61
     5
292
     1
282
     1
141
0.0
142
0.0
 63
   250
361
5D
  0
ENDTAB
  0
TABLE
  2
LTYPE
  5
5
330
0
100
AcDbSymbolTable
 70
     1
  0
LTYPE
  5
14
330
5
100
AcDbSymbolTableRecord
100
AcDbLinetypeTableRecord
  2
ByBlock
 70
     0
  3

 72
    65
 73
     0
 40
0.0
  0
LTYPE
  5
15
330
5
100
AcDbSymbolTableRecord
100
AcDbLinetypeTableRecord
  2
ByLayer
 70
     0
  3

 72
    65
 73
     0
 40
0.0
  0
LTYPE
  5
16
330
5
100
AcDbSymbolTableRecord
100
AcDbLinetypeTableRecord
  2
Continuous
 70
     0
  3
Solid line
 72
    65
 73
     0
 40
0.0
  0
ENDTAB
  0
TABLE
  2
LAYER
  5
2
330
0
100
AcDbSymbolTable
 70
     2
  0
LAYER
  5
10
330
2
100
AcDbSymbolTableRecord
100
AcDbLayerTableRecord
  2
0
 70
     0
 62
     7
  6
Continuous
370
    -3
390
F
347
46
348
0
  0
LAYER
  5
5F
330
2
100
AcDbSymbolTableRecord
100
AcDbLayerTableRecord
  2
Layer 1
 70
     0
 62
     7
  6
Continuous
370
    -3
390
F
347
46
348
0
  0
ENDTAB
  0
TABLE
  2
STYLE
  5
3
330
0
100
AcDbSymbolTable
 70
     1
  0
STYLE
  5
11
330
3
100
AcDbSymbolTableRecord
100
AcDbTextStyleTableRecord
  2
Standard
 70
     0
 40
0.0
 41
1.0
 50
0.0
 71
     0
 42
0.2
  3
txt
  4

  0
ENDTAB
  0
TABLE
  2
VIEW
  5
6
330
0
100
AcDbSymbolTable
 70
     0
  0
ENDTAB
  0
TABLE
  2
UCS
  5
7
330
0
100
AcDbSymbolTable
 70
     0
  0
ENDTAB
  0
TABLE
  2
APPID
  5
9
330
0
100
AcDbSymbolTable
 70
     2
  0
APPID
  5
12
330
9
100
AcDbSymbolTableRecord
100
AcDbRegAppTableRecord
  2
ACAD
 70
     0
  0
APPID
  5
5E
330
9
100
AcDbSymbolTableRecord
100
AcDbRegAppTableRecord
  2
ODA
 70
     0
  0
ENDTAB
  0
TABLE
  2
DIMSTYLE
  5
A
330
0
100
AcDbSymbolTable
 70
     1
100
AcDbDimStyleTable
  0
DIMSTYLE
105
27
330
A
100
AcDbSymbolTableRecord
100
AcDbDimStyleTableRecord
  2
Standard
 70
     0
178
     0
340
11
  0
ENDTAB
  0
TABLE
  2
BLOCK_RECORD
  5
1
330
0
100
AcDbSymbolTable
 70
     1
  0
BLOCK_RECORD
  5
1F
330
1
100
AcDbSymbolTableRecord
100
AcDbBlockTableRecord
  2
*Model_Space
340
22
 70
     0
280
     1
281
     0
  0
BLOCK_RECORD
  5
1B
330
1
100
AcDbSymbolTableRecord
100
AcDbBlockTableRecord
  2
*Paper_Space
340
1E
 70
     0
280
     1
281
     0
  0
BLOCK_RECORD
  5
23
330
1
100
AcDbSymbolTableRecord
100
AcDbBlockTableRecord
  2
*Paper_Space0
340
26
 70
     0
280
     1
281
     0
  0
ENDTAB
  0
ENDSEC
  0
SECTION
  2
BLOCKS
  0
BLOCK
  5
20
330
1F
100
AcDbEntity
  8
0
100
AcDbBlockBegin
  2
*Model_Space
 70
     0
 10
0.0
 20
0.0
 30
0.0
  3
*Model_Space
  1

  0
ENDBLK
  5
21
330
1F
100
AcDbEntity
  8
0
100
AcDbBlockEnd
  0
BLOCK
  5
1C
330
1B
100
AcDbEntity
 67
     1
  8
0
100
AcDbBlockBegin
  2
*Paper_Space
 70
     0
 10
0.0
 20
0.0
 30
0.0
  3
*Paper_Space
  1

  0
ENDBLK
  5
1D
330
1B
100
AcDbEntity
 67
     1
  8
0
100
AcDbBlockEnd
  0
BLOCK
  5
24
330
23
100
AcDbEntity
  8
0
100
AcDbBlockBegin
  2
*Paper_Space0
 70
     0
 10
0.0
 20
0.0
 30
0.0
  3
*Paper_Space0
  1

  0
ENDBLK
  5
25
330
23
100
AcDbEntity
  8
0
100
AcDbBlockEnd
  0
ENDSEC
  0
SECTION
  2
ENTITIES
  0
LWPOLYLINE
  5
60
330
1F
100
AcDbEntity
  8
Layer 1
 62
   250
370
    18
100
AcDbPolyline
 90
        5
 70
     1
 43
0.0
 10
191.274
 20
-152.9294
 10
1263.9026
 20
-152.9294
 10
1263.9026
 20
168.152
 10
191.274
 20
168.152
 10
191.274
 20
-152.9294
  0
LWPOLYLINE
  5
61
330
1F
100
AcDbEntity
  8
Layer 1
 62
     7
370
    35
100
AcDbPolyline
 90
       33
 70
     1
 43
0.0
 10
493.8736
 20
14.5497
 10
496.6958
 20
14.2836
 10
499.3245
 20
13.5203
 10
501.7032
 20
12.3125
 10
503.7756
 20
10.713
 10
505.4856
 20
8.7743
 10
506.7767
 20
6.5491
 10
507.5926
 20
4.0902
 10
507.8771
 20
1.4501
 10
507.5926
 20
-1.1898
 10
506.7767
 20
-3.6487
 10
505.4856
 20
-5.8738
 10
503.7756
 20
-7.8124
 10
501.7032
 20
-9.412
 10
499.3245
 20
-10.6197
 10
496.6958
 20
-11.383
 10
493.8736
 20
-11.6491
 10
491.0512
 20
-11.383
 10
488.4224
 20
-10.6197
 10
486.0435
 20
-9.412
 10
483.9709
 20
-7.8124
 10
482.2609
 20
-5.8738
 10
480.9697
 20
-3.6487
 10
480.1537
 20
-1.1898
 10
479.8692
 20
1.4501
 10
480.1537
 20
4.0902
 10
480.9697
 20
6.5491
 10
482.2609
 20
8.7743
 10
483.9709
 20
10.713
 10
486.0435
 20
12.3125
 10
488.4224
 20
13.5203
 10
491.0512
 20
14.2836
 10
493.8736
 20
14.5497
  0
LWPOLYLINE
  5
62
330
1F
100
AcDbEntity
  8
Layer 1
 62
     7
370
    35
100
AcDbPolyline
 90
       33
 70
     1
 43
0.0
 10
493.8736
 20
8.9633
 10
495.4922
 20
8.8107
 10
496.9998
 20
8.3729
 10
498.3641
 20
7.6801
 10
499.5528
 20
6.7627
 10
500.5335
 20
5.6507
 10
501.2741
 20
4.3745
 10
501.7421
 20
2.9642
 10
501.9053
 20
1.4501
 10
501.7421
 20
-0.0642
 10
501.2741
 20
-1.4746
 10
500.5335
 20
-2.7508
 10
499.5528
 20
-3.8628
 10
498.3641
 20
-4.7802
 10
496.9998
 20
-5.4728
 10
495.4922
 20
-5.9106
 10
493.8736
 20
-6.0632
 10
492.2548
 20
-5.9106
 10
490.747
 20
-5.4728
 10
489.3827
 20
-4.7802
 10
488.1941
 20
-3.8628
 10
487.2134
 20
-2.7508
 10
486.473
 20
-1.4746
 10
486.0051
 20
-0.0642
 10
485.8419
 20
1.4501
 10
486.0051
 20
2.9642
 10
486.473
 20
4.3745
 10
487.2134
 20
5.6507
 10
488.1941
 20
6.7627
 10
489.3827
 20
7.6801
 10
490.747
 20
8.3729
 10
492.2548
 20
8.8107
 10
493.8736
 20
8.9633
  0
LWPOLYLINE
  5
63
330
1F
100
AcDbEntity
  8
Layer 1
 62
     7
370
    35
100
AcDbPolyline
 90
        4
 70
     0
 43
0.0
 10
358.4007
 20
-80.8295
 10
315.6088
 20
-80.8295
 10
315.6088
 20
84.8379
 10
356.6892
 20
84.8379
  0
LWPOLYLINE
  5
64
330
1F
100
AcDbEntity
  8
Layer 1
 62
     7
370
    35
100
AcDbPolyline
 90
        2
 70
     0
 43
0.0
 10
318.3021
 20
-78.9279
 10
313.5717
 20
-82.2822
  0
LWPOLYLINE
  5
65
330
1F
100
AcDbEntity
  8
Layer 1
 62
     7
370
    35
100
AcDbPolyline
 90
        2
 70
     0
 43
0.0
 10
318.3548
 20
86.5153
 10
313.624
 20
83.161
  0
LWPOLYLINE
  5
66
330
1F
100
AcDbEntity
  8
Layer 1
 62
     7
100
AcDbPolyline
 90
      137
 70
     1
 43
0.0
 10
256.6346
 20
-3.7494
 10
256.804
 20
-3.6735
 10
256.9682
 20
-3.5908
 10
257.1273
 20
-3.5014
 10
257.2812
 20
-3.4052
 10
257.43
 20
-3.3023
 10
257.5736
 20
-3.1927
 10
257.712
 20
-3.0764
 10
257.8453
 20
-2.9533
 10
258.1076
 20
-2.6749
 10
258.335
 20
-2.381
 10
258.5274
 20
-2.0717
 10
258.6848
 20
-1.7468
 10
258.8072
 20
-1.4063
 10
258.8947
 20
-1.0503
 10
258.9472
 20
-0.6787
 10
258.9647
 20
-0.2915
 10
258.9469
 20
0.096
 10
258.8937
 20
0.4684
 10
258.8049
 20
0.8258
 10
258.6807
 20
1.1681
 10
258.5209
 20
1.4954
 10
258.3257
 20
1.8076
 10
258.095
 20
2.1048
 10
257.8288
 20
2.3869
 10
257.5534
 20
2.6305
 10
257.2605
 20
2.845
 10
256.9499
 20
3.0306
 10
256.6218
 20
3.1871
 10
256.2761
 20
3.3146
 10
255.9127
 20
3.413
 10
255.5318
 20
3.4824
 10
255.1332
 20
3.5227
 10
254.6356
 20
3.2242
 10
258.1686
 20
7.4038
 10
252.0982
 20
7.4038
 10
252.0982
 20
6.2427
 10
255.8133
 20
6.2427
 10
252.3968
 20
2.2626
 10
253.2759
 20
1.5496
 10
253.4795
 20
1.7361
 10
253.6925
 20
1.8978
 10
253.9148
 20
2.0346
 10
254.1465
 20
2.1465
 10
254.3875
 20
2.2336
 10
254.6378
 20
2.2958
 10
254.8975
 20
2.3332
 10
255.1666
 20
2.3456
 10
255.4352
 20
2.3335
 10
255.6937
 20
2.2974
 10
255.942
 20
2.2371
 10
256.1803
 20
2.1527
 10
256.4085
 20
2.0442
 10
256.6266
 20
1.9117
 10
256.8346
 20
1.755
 10
257.0326
 20
1.5743
 10
257.2133
 20
1.3767
 10
257.3699
 20
1.1696
 10
257.5024
 20
0.9528
 10
257.6108
 20
0.7264
 10
257.6951
 20
0.4904
 10
257.7553
 20
0.2448
 10
257.7915
 20
-0.0103
 10
257.8035
 20
-0.275
 10
257.7912
 20
-0.5338
 10
257.7543
 20
-0.7839
 10
257.6928
 20
-1.0251
 10
257.6067
 20
-1.2575
 10
257.4959
 20
-1.4811
 10
257.3605
 20
-1.6959
 10
257.2004
 20
-1.9019
 10
257.0157
 20
-2.0991
 10
256.9246
 20
-2.1839
 10
256.8297
 20
-2.2643
 10
256.7308
 20
-2.3404
 10
256.6281
 20
-2.412
 10
256.5215
 20
-2.4793
 10
256.4109
 20
-2.5422
 10
256.2966
 20
-2.6007
 10
256.1783
 20
-2.6548
 10
256.055
 20
-2.7033
 10
255.9254
 20
-2.7454
 10
255.7896
 20
-2.781
 10
255.6476
 20
-2.8102
 10
255.4993
 20
-2.8329
 10
255.3448
 20
-2.8491
 10
255.1841
 20
-2.8589
 10
255.0171
 20
-2.8621
 10
254.8472
 20
-2.855
 10
254.6773
 20
-2.8336
 10
254.5073
 20
-2.7979
 10
254.3373
 20
-2.748
 10
254.1673
 20
-2.6838
 10
253.9973
 20
-2.6053
 10
253.8273
 20
-2.5127
 10
253.6574
 20
-2.4058
 10
253.4936
 20
-2.2867
 10
253.3422
 20
-2.1576
 10
253.2033
 20
-2.0183
 10
253.0768
 20
-1.869
 10
252.9628
 20
-1.7095
 10
252.8612
 20
-1.5399
 10
252.772
 20
-1.3603
 10
252.6953
 20
-1.1705
 10
251.5676
 20
-1.552
 10
251.6747
 20
-1.8222
 10
251.8012
 20
-2.0795
 10
251.9473
 20
-2.3238
 10
252.1127
 20
-2.5552
 10
252.2977
 20
-2.7736
 10
252.502
 20
-2.9791
 10
252.7258
 20
-3.1717
 10
252.9691
 20
-3.3513
 10
253.0886
 20
-3.43
 10
253.211
 20
-3.5042
 10
253.3363
 20
-3.574
 10
253.4644
 20
-3.6395
 10
253.5954
 20
-3.7005
 10
253.7292
 20
-3.7571
 10
253.8659
 20
-3.8093
 10
254.0055
 20
-3.8571
 10
254.1484
 20
-3.8998
 10
254.2953
 20
-3.9369
 10
254.446
 20
-3.9682
 10
254.6006
 20
-3.9939
 10
254.7591
 20
-4.0139
 10
254.9214
 20
-4.0282
 10
255.0877
 20
-4.0367
 10
255.2579
 20
-4.0396
 10
255.4299
 20
-4.0351
 10
255.6019
 20
-4.0215
 10
255.774
 20
-3.9988
 10
255.9461
 20
-3.9671
 10
256.1182
 20
-3.9263
 10
256.2903
 20
-3.8764
 10
256.4624
 20
-3.8174
 10
256.6346
 20
-3.7494
  0
LWPOLYLINE
  5
67
330
1F
100
AcDbEntity
  8
Layer 1
 62
     7
100
AcDbPolyline
 90
       73
 70
     1
 43
0.0
 10
263.6171
 20
2.2791
 10
263.8817
 20
2.2669
 10
264.1364
 20
2.2304
 10
264.3812
 20
2.1694
 10
264.6163
 20
2.0842
 10
264.8415
 20
1.9745
 10
265.0569
 20
1.8406
 10
265.2625
 20
1.6822
 10
265.4583
 20
1.4996
 10
265.6352
 20
1.3022
 10
265.7884
 20
1.0954
 10
265.9181
 20
0.8793
 10
266.0242
 20
0.6539
 10
266.1067
 20
0.4192
 10
266.1656
 20
0.1751
 10
266.2009
 20
-0.0783
 10
266.2127
 20
-0.341
 10
266.2008
 20
-0.5978
 10
266.165
 20
-0.8458
 10
266.1055
 20
-1.0851
 10
266.022
 20
-1.3155
 10
265.9147
 20
-1.5371
 10
265.7836
 20
-1.7499
 10
265.6285
 20
-1.9539
 10
265.4496
 20
-2.149
 10
265.2576
 20
-2.3239
 10
265.0547
 20
-2.4755
 10
264.8409
 20
-2.6037
 10
264.6162
 20
-2.7087
 10
264.3807
 20
-2.7902
 10
264.1343
 20
-2.8485
 10
263.877
 20
-2.8835
 10
263.6088
 20
-2.8951
 10
263.3458
 20
-2.8831
 10
263.0916
 20
-2.8469
 10
262.8462
 20
-2.7867
 10
262.6096
 20
-2.7024
 10
262.3818
 20
-2.5939
 10
262.1628
 20
-2.4614
 10
261.9526
 20
-2.3047
 10
261.7511
 20
-2.1238
 10
261.5684
 20
-1.9283
 10
261.4101
 20
-1.7232
 10
261.2761
 20
-1.5086
 10
261.1665
 20
-1.2843
 10
261.0812
 20
-1.0505
 10
261.0202
 20
-0.8071
 10
260.9837
 20
-0.5541
 10
260.9715
 20
-0.2915
 10
260.9837
 20
-0.0302
 10
261.0202
 20
0.221
 10
261.0812
 20
0.4621
 10
261.1665
 20
0.6931
 10
261.2761
 20
0.914
 10
261.4101
 20
1.1248
 10
261.5684
 20
1.3255
 10
261.7511
 20
1.5161
 10
261.8442
 20
1.6011
 10
261.9409
 20
1.6816
 10
262.0413
 20
1.7576
 10
262.1452
 20
1.8292
 10
262.2528
 20
1.8965
 10
262.364
 20
1.9593
 10
262.4788
 20
2.0177
 10
262.5972
 20
2.0718
 10
262.7183
 20
2.1204
 10
262.8412
 20
2.1625
 10
262.9659
 20
2.1981
 10
263.0925
 20
2.2272
 10
263.2209
 20
2.2499
 10
263.3511
 20
2.2661
 10
263.4832
 20
2.2759
 10
263.6171
 20
2.2791
  0
LWPOLYLINE
  5
68
330
1F
100
AcDbEntity
  8
Layer 1
 62
     7
100
AcDbPolyline
 90
       69
 70
     1
 43
0.0
 10
267.3903
 20
-0.2585
 10
267.3722
 20
0.1408
 10
267.3177
 20
0.522
 10
267.227
 20
0.8851
 10
267.1
 20
1.23
 10
266.9368
 20
1.5567
 10
266.7372
 20
1.8653
 10
266.5013
 20
2.1558
 10
266.2292
 20
2.4281
 10
265.951
 20
2.6577
 10
265.6534
 20
2.8589
 10
265.3364
 20
3.032
 10
264.9999
 20
3.1768
 10
264.6439
 20
3.2933
 10
264.2685
 20
3.3815
 10
263.8736
 20
3.4414
 10
263.4593
 20
3.4731
 10
263.1278
 20
3.2576
 10
266.5777
 20
7.4038
 10
265.0515
 20
7.4038
 10
260.6399
 20
2.0801
 10
260.4416
 20
1.8208
 10
260.2698
 20
1.5509
 10
260.1245
 20
1.2704
 10
260.0056
 20
0.9792
 10
259.9131
 20
0.6775
 10
259.8471
 20
0.3651
 10
259.8075
 20
0.0421
 10
259.7943
 20
-0.2915
 10
259.8117
 20
-0.6758
 10
259.8637
 20
-1.0454
 10
259.9505
 20
-1.4003
 10
260.072
 20
-1.7404
 10
260.2282
 20
-2.0657
 10
260.4192
 20
-2.3763
 10
260.6449
 20
-2.6722
 10
260.9054
 20
-2.9533
 10
261.1922
 20
-3.2117
 10
261.4931
 20
-3.4357
 10
261.8079
 20
-3.6253
 10
262.1368
 20
-3.7804
 10
262.4796
 20
-3.901
 10
262.8365
 20
-3.9872
 10
263.2074
 20
-4.0389
 10
263.5923
 20
-4.0561
 10
263.9825
 20
-4.039
 10
264.3572
 20
-3.9877
 10
264.7163
 20
-3.9021
 10
265.0599
 20
-3.7824
 10
265.388
 20
-3.6285
 10
265.7006
 20
-3.4404
 10
265.9977
 20
-3.2181
 10
266.2792
 20
-2.9616
 10
266.4043
 20
-2.8304
 10
266.5227
 20
-2.694
 10
266.6344
 20
-2.5525
 10
266.7394
 20
-2.4058
 10
266.8376
 20
-2.254
 10
266.9291
 20
-2.097
 10
267.0138
 20
-1.9348
 10
267.0918
 20
-1.7675
 10
267.1618
 20
-1.5951
 10
267.2224
 20
-1.4181
 10
267.2737
 20
-1.2364
 10
267.3157
 20
-1.0501
 10
267.3483
 20
-0.8592
 10
267.3716
 20
-0.6636
 10
267.3856
 20
-0.4634
 10
267.3903
 20
-0.2585
  0
LWPOLYLINE
  5
69
330
1F
100
AcDbEntity
  8
Layer 1
 62
     7
100
AcDbPolyline
 90
      136
 70
     1
 43
0.0
 10
270.8073
 20
3.2242
 10
271.5704
 20
6.2427
 10
275.6505
 20
6.2427
 10
275.6505
 20
7.4038
 10
270.6913
 20
7.4038
 10
269.3976
 20
2.3456
 10
270.6578
 20
1.7816
 10
270.8407
 20
1.906
 10
271.0326
 20
2.0138
 10
271.2337
 20
2.105
 10
271.4437
 20
2.1796
 10
271.6629
 20
2.2376
 10
271.8911
 20
2.279
 10
272.1284
 20
2.3038
 10
272.3748
 20
2.3121
 10
272.6224
 20
2.2999
 10
272.8618
 20
2.2634
 10
273.0929
 20
2.2026
 10
273.3157
 20
2.1174
 10
273.5303
 20
2.0078
 10
273.7366
 20
1.8738
 10
273.9346
 20
1.7154
 10
274.1243
 20
1.5326
 10
274.3031
 20
1.3289
 10
274.4581
 20
1.1176
 10
274.5893
 20
0.8988
 10
274.6966
 20
0.6725
 10
274.7801
 20
0.4387
 10
274.8397
 20
0.1973
 10
274.8755
 20
-0.0516
 10
274.8874
 20
-0.308
 10
274.8752
 20
-0.5732
 10
274.8387
 20
-0.8277
 10
274.7777
 20
-1.0717
 10
274.6925
 20
-1.305
 10
274.5828
 20
-1.5277
 10
274.4488
 20
-1.7398
 10
274.2905
 20
-1.9412
 10
274.1078
 20
-2.1321
 10
274.0149
 20
-2.2171
 10
273.9187
 20
-2.2976
 10
273.8191
 20
-2.3737
 10
273.7161
 20
-2.4454
 10
273.6097
 20
-2.5126
 10
273.4999
 20
-2.5754
 10
273.3869
 20
-2.6338
 10
273.2704
 20
-2.6878
 10
273.1489
 20
-2.7364
 10
273.0206
 20
-2.7785
 10
272.8856
 20
-2.8141
 10
272.7438
 20
-2.8432
 10
272.5953
 20
-2.8659
 10
272.44
 20
-2.8821
 10
272.278
 20
-2.8919
 10
272.1092
 20
-2.8951
 10
271.9372
 20
-2.8879
 10
271.7655
 20
-2.8661
 10
271.5941
 20
-2.8299
 10
271.423
 20
-2.7791
 10
271.2521
 20
-2.7138
 10
271.0814
 20
-2.634
 10
270.911
 20
-2.5396
 10
270.7408
 20
-2.4306
 10
270.5771
 20
-2.3101
 10
270.4258
 20
-2.1808
 10
270.2869
 20
-2.0428
 10
270.1604
 20
-1.8958
 10
270.0464
 20
-1.7401
 10
269.9448
 20
-1.5756
 10
269.8557
 20
-1.4022
 10
269.7791
 20
-1.22
 10
268.651
 20
-1.585
 10
268.7618
 20
-1.8579
 10
268.8911
 20
-2.1172
 10
269.0387
 20
-2.3627
 10
269.2047
 20
-2.5946
 10
269.3891
 20
-2.8127
 10
269.5918
 20
-3.017
 10
269.813
 20
-3.2076
 10
270.0525
 20
-3.3844
 10
270.3073
 20
-3.5458
 10
270.5677
 20
-3.6856
 10
270.8339
 20
-3.8039
 10
271.1057
 20
-3.9006
 10
271.3832
 20
-3.9759
 10
271.6664
 20
-4.0296
 10
271.9554
 20
-4.0619
 10
272.25
 20
-4.0726
 10
272.6427
 20
-4.0548
 10
273.0203
 20
-4.0016
 10
273.3829
 20
-3.9129
 10
273.7304
 20
-3.7886
 10
274.0629
 20
-3.6289
 10
274.3804
 20
-3.4337
 10
274.6829
 20
-3.203
 10
274.9704
 20
-2.9368
 10
275.2308
 20
-2.6477
 10
275.4565
 20
-2.3443
 10
275.6474
 20
-2.0267
 10
275.8037
 20
-1.6949
 10
275.9252
 20
-1.3488
 10
276.012
 20
-0.9885
 10
276.0641
 20
-0.6139
 10
276.0815
 20
-0.225
 10
276.0644
 20
0.1617
 10
276.0131
 20
0.532
 10
275.9275
 20
0.8861
 10
275.8078
 20
1.2238
 10
275.6539
 20
1.5452
 10
275.4657
 20
1.8503
 10
275.2434
 20
2.1391
 10
274.9869
 20
2.4116
 10
274.8558
 20
2.5328
 10
274.7196
 20
2.6475
 10
274.5781
 20
2.7557
 10
274.4314
 20
2.8574
 10
274.2796
 20
2.9526
 10
274.1225
 20
3.0414
 10
273.9602
 20
3.1236
 10
273.7927
 20
3.1994
 10
273.6219
 20
3.2674
 10
273.4496
 20
3.3264
 10
273.2758
 20
3.3763
 10
273.1006
 20
3.4171
 10
272.924
 20
3.4489
 10
272.746
 20
3.4716
 10
272.5666
 20
3.4852
 10
272.3858
 20
3.4897
 10
272.2015
 20
3.4856
 10
272.0136
 20
3.4731
 10
271.822
 20
3.4524
 10
271.6266
 20
3.4233
 10
271.4275
 20
3.386
 10
271.2246
 20
3.3404
 10
271.0179
 20
3.2864
 10
270.8073
 20
3.2242
  0
LWPOLYLINE
  5
6A
330
1F
100
AcDbEntity
  8
Layer 1
 62
     7
100
AcDbPolyline
 90
      162
 70
     1
 43
0.0
 10
287.4596
 20
-3.8406
 10
288.6203
 20
-3.8406
 10
288.6203
 20
0.7201
 10
288.6108
 20
1.023
 10
288.5825
 20
1.3115
 10
288.5352
 20
1.5858
 10
288.469
 20
1.8459
 10
288.3838
 20
2.0916
 10
288.2798
 20
2.3232
 10
288.1569
 20
2.5405
 10
288.015
 20
2.7436
 10
287.9358
 20
2.8405
 10
287.8518
 20
2.9326
 10
287.7628
 20
3.0197
 10
287.6689
 20
3.1019
 10
287.5701
 20
3.1793
 10
287.4664
 20
3.2517
 10
287.3577
 20
3.3193
 10
287.2441
 20
3.3819
 10
287.1232
 20
3.4383
 10
286.993
 20
3.4872
 10
286.8535
 20
3.5285
 10
286.7047
 20
3.5622
 10
286.5466
 20
3.5885
 10
286.3792
 20
3.6072
 10
286.2025
 20
3.6185
 10
286.0164
 20
3.6222
 10
285.8287
 20
3.6157
 10
285.6469
 20
3.5963
 10
285.4712
 20
3.564
 10
285.3013
 20
3.5186
 10
285.1374
 20
3.4604
 10
284.9795
 20
3.3891
 10
284.8275
 20
3.3049
 10
284.6815
 20
3.2077
 10
284.5547
 20
3.1109
 10
284.4336
 20
3.0068
 10
284.3182
 20
2.8957
 10
284.2086
 20
2.7774
 10
284.1046
 20
2.6522
 10
284.0064
 20
2.52
 10
283.9139
 20
2.381
 10
283.8271
 20
2.2351
 10
283.7597
 20
2.3695
 10
283.6861
 20
2.4995
 10
283.6063
 20
2.6244
 10
283.5203
 20
2.7436
 10
283.4411
 20
2.8405
 10
283.357
 20
2.9326
 10
283.268
 20
3.0197
 10
283.174
 20
3.1019
 10
283.0751
 20
3.1793
 10
282.9713
 20
3.2517
 10
282.8626
 20
3.3193
 10
282.749
 20
3.3819
 10
282.6282
 20
3.4383
 10
282.4982
 20
3.4872
 10
282.3588
 20
3.5285
 10
282.21
 20
3.5622
 10
282.052
 20
3.5885
 10
281.8846
 20
3.6072
 10
281.7079
 20
3.6185
 10
281.5218
 20
3.6222
 10
281.334
 20
3.6157
 10
281.1522
 20
3.5963
 10
280.9764
 20
3.564
 10
280.8064
 20
3.5186
 10
280.6425
 20
3.4604
 10
280.4845
 20
3.3891
 10
280.3325
 20
3.3049
 10
280.1864
 20
3.2077
 10
280.0657
 20
3.1155
 10
279.9501
 20
3.017
 10
279.8397
 20
2.9122
 10
279.7345
 20
2.8012
 10
279.6345
 20
2.6837
 10
279.5396
 20
2.5599
 10
279.45
 20
2.4296
 10
279.3655
 20
2.2929
 10
279.3655
 20
3.4566
 10
278.2048
 20
3.4566
 10
278.2048
 20
-3.8406
 10
279.3655
 20
-3.8406
 10
279.3655
 20
-0.1062
 10
279.3925
 20
0.1113
 10
279.4278
 20
0.3204
 10
279.4713
 20
0.521
 10
279.5231
 20
0.7133
 10
279.5832
 20
0.8973
 10
279.6517
 20
1.0731
 10
279.7284
 20
1.2406
 10
279.8135
 20
1.4001
 10
279.8827
 20
1.5136
 10
279.9577
 20
1.6219
 10
280.0383
 20
1.7251
 10
280.1245
 20
1.823
 10
280.2165
 20
1.9158
 10
280.3142
 20
2.0035
 10
280.4176
 20
2.0859
 10
280.5267
 20
2.1631
 10
280.6397
 20
2.2331
 10
280.7547
 20
2.2937
 10
280.8718
 20
2.345
 10
280.991
 20
2.387
 10
281.1123
 20
2.4196
 10
281.2357
 20
2.4429
 10
281.3612
 20
2.4569
 10
281.4888
 20
2.4616
 10
281.6131
 20
2.4591
 10
281.7292
 20
2.4517
 10
281.837
 20
2.4394
 10
281.9365
 20
2.4221
 10
282.0277
 20
2.3999
 10
282.1106
 20
2.3728
 10
282.1852
 20
2.3408
 10
282.2514
 20
2.3039
 10
282.4186
 20
2.1803
 10
282.5635
 20
2.0355
 10
282.686
 20
1.8694
 10
282.7863
 20
1.682
 10
282.8643
 20
1.4734
 10
282.92
 20
1.2436
 10
282.9534
 20
0.9925
 10
282.9645
 20
0.7201
 10
282.9645
 20
-3.8406
 10
284.1257
 20
-3.8406
 10
284.1257
 20
0.7201
 10
284.1174
 20
0.9993
 10
284.3082
 20
1.4001
 10
284.3774
 20
1.5136
 10
284.4523
 20
1.6219
 10
284.5329
 20
1.7251
 10
284.6192
 20
1.823
 10
284.7111
 20
1.9158
 10
284.8088
 20
2.0035
 10
284.9122
 20
2.0859
 10
285.0213
 20
2.1631
 10
285.1343
 20
2.2331
 10
285.2493
 20
2.2937
 10
285.3665
 20
2.345
 10
285.4857
 20
2.387
 10
285.607
 20
2.4196
 10
285.7303
 20
2.4429
 10
285.8558
 20
2.4569
 10
285.9834
 20
2.4616
 10
286.1077
 20
2.4591
 10
286.2238
 20
2.4517
 10
286.3316
 20
2.4394
 10
286.4312
 20
2.4221
 10
286.5224
 20
2.3999
 10
286.6054
 20
2.3728
 10
286.6801
 20
2.3408
 10
286.7465
 20
2.3039
 10
286.9135
 20
2.1803
 10
287.0584
 20
2.0355
 10
287.1809
 20
1.8694
 10
287.2812
 20
1.682
 10
287.3592
 20
1.4734
 10
287.415
 20
1.2436
 10
287.4484
 20
0.9925
 10
287.4596
 20
0.7201
 10
287.4596
 20
-3.8406
  0
LWPOLYLINE
  5
6B
330
1F
100
AcDbEntity
  8
Layer 1
 62
     7
100
AcDbPolyline
 90
      162
 70
     1
 43
0.0
 10
300.1144
 20
-3.8406
 10
301.2751
 20
-3.8406
 10
301.2751
 20
0.7201
 10
301.2656
 20
1.023
 10
301.2373
 20
1.3115
 10
301.19
 20
1.5858
 10
301.1238
 20
1.8459
 10
301.0386
 20
2.0916
 10
300.9346
 20
2.3232
 10
300.8116
 20
2.5405
 10
300.6697
 20
2.7436
 10
300.5906
 20
2.8405
 10
300.5065
 20
2.9326
 10
300.4176
 20
3.0197
 10
300.3237
 20
3.1019
 10
300.2249
 20
3.1793
 10
300.1212
 20
3.2517
 10
300.0125
 20
3.3193
 10
299.8989
 20
3.3819
 10
299.778
 20
3.4383
 10
299.6478
 20
3.4872
 10
299.5083
 20
3.5285
 10
299.3595
 20
3.5622
 10
299.2014
 20
3.5885
 10
299.034
 20
3.6072
 10
298.8573
 20
3.6185
 10
298.6712
 20
3.6222
 10
298.4835
 20
3.6157
 10
298.3017
 20
3.5963
 10
298.1259
 20
3.564
 10
297.9561
 20
3.5186
 10
297.7922
 20
3.4604
 10
297.6343
 20
3.3891
 10
297.4823
 20
3.3049
 10
297.3363
 20
3.2077
 10
297.2095
 20
3.1109
 10
297.0884
 20
3.0068
 10
296.973
 20
2.8957
 10
296.8634
 20
2.7774
 10
296.7594
 20
2.6522
 10
296.6612
 20
2.52
 10
296.5687
 20
2.381
 10
296.4819
 20
2.2351
 10
296.4145
 20
2.3695
 10
296.3409
 20
2.4995
 10
296.2611
 20
2.6244
 10
296.1751
 20
2.7436
 10
296.0959
 20
2.8405
 10
296.0118
 20
2.9326
 10
295.9228
 20
3.0197
 10
295.8288
 20
3.1019
 10
295.7299
 20
3.1793
 10
295.6261
 20
3.2517
 10
295.5174
 20
3.3193
 10
295.4038
 20
3.3819
 10
295.283
 20
3.4383
 10
295.153
 20
3.4872
 10
295.0136
 20
3.5285
 10
294.8648
 20
3.5622
 10
294.7068
 20
3.5885
 10
294.5394
 20
3.6072
 10
294.3627
 20
3.6185
 10
294.1766
 20
3.6222
 10
293.9888
 20
3.6157
 10
293.807
 20
3.5963
 10
293.6312
 20
3.564
 10
293.4612
 20
3.5186
 10
293.2973
 20
3.4604
 10
293.1393
 20
3.3891
 10
292.9873
 20
3.3049
 10
292.8412
 20
3.2077
 10
292.7205
 20
3.1155
 10
292.6049
 20
3.017
 10
292.4945
 20
2.9122
 10
292.3893
 20
2.8012
 10
292.2893
 20
2.6837
 10
292.1944
 20
2.5599
 10
292.1048
 20
2.4296
 10
292.0203
 20
2.2929
 10
292.0203
 20
3.4566
 10
290.8596
 20
3.4566
 10
290.8596
 20
-3.8406
 10
292.0203
 20
-3.8406
 10
292.0203
 20
-0.1062
 10
292.0473
 20
0.1113
 10
292.0826
 20
0.3204
 10
292.1261
 20
0.521
 10
292.1779
 20
0.7133
 10
292.238
 20
0.8973
 10
292.3065
 20
1.0731
 10
292.3832
 20
1.2406
 10
292.4683
 20
1.4001
 10
292.5375
 20
1.5136
 10
292.6124
 20
1.6219
 10
292.693
 20
1.7251
 10
292.7793
 20
1.823
 10
292.8713
 20
1.9158
 10
292.9689
 20
2.0035
 10
293.0723
 20
2.0859
 10
293.1814
 20
2.1631
 10
293.2944
 20
2.2331
 10
293.4095
 20
2.2937
 10
293.5266
 20
2.345
 10
293.6458
 20
2.387
 10
293.7671
 20
2.4196
 10
293.8905
 20
2.4429
 10
294.016
 20
2.4569
 10
294.1436
 20
2.4616
 10
294.2679
 20
2.4591
 10
294.384
 20
2.4517
 10
294.4917
 20
2.4394
 10
294.5912
 20
2.4221
 10
294.6824
 20
2.3999
 10
294.7653
 20
2.3728
 10
294.8399
 20
2.3408
 10
294.9062
 20
2.3039
 10
295.0734
 20
2.1803
 10
295.2182
 20
2.0355
 10
295.3408
 20
1.8694
 10
295.4411
 20
1.682
 10
295.519
 20
1.4734
 10
295.5747
 20
1.2436
 10
295.6082
 20
0.9925
 10
295.6193
 20
0.7201
 10
295.6193
 20
-3.8406
 10
296.7804
 20
-3.8406
 10
296.7804
 20
0.7201
 10
296.7722
 20
0.9993
 10
296.963
 20
1.4001
 10
297.0322
 20
1.5136
 10
297.1071
 20
1.6219
 10
297.1877
 20
1.7251
 10
297.274
 20
1.823
 10
297.3659
 20
1.9158
 10
297.4636
 20
2.0035
 10
297.567
 20
2.0859
 10
297.6761
 20
2.1631
 10
297.7891
 20
2.2331
 10
297.9041
 20
2.2937
 10
298.0213
 20
2.345
 10
298.1405
 20
2.387
 10
298.2618
 20
2.4196
 10
298.3851
 20
2.4429
 10
298.5106
 20
2.4569
 10
298.6382
 20
2.4616
 10
298.7625
 20
2.4591
 10
298.8786
 20
2.4517
 10
298.9864
 20
2.4394
 10
299.086
 20
2.4221
 10
299.1772
 20
2.3999
 10
299.2602
 20
2.3728
 10
299.3349
 20
2.3408
 10
299.4013
 20
2.3039
 10
299.5683
 20
2.1803
 10
299.7132
 20
2.0355
 10
299.8357
 20
1.8694
 10
299.936
 20
1.682
 10
300.014
 20
1.4734
 10
300.0698
 20
1.2436
 10
300.1032
 20
0.9925
 10
300.1144
 20
0.7201
 10
300.1144
 20
-3.8406
  0
LWPOLYLINE
  5
6C
330
1F
100
AcDbEntity
  8
Layer 1
 62
     7
370
    35
100
AcDbPolyline
 90
        4
 70
     0
 43
0.0
 10
789.123
 20
-54.1037
 10
757.0
 20
-54.1037
 10
757.0
 20
35.766
 10
787.8375
 20
35.766
  0
LWPOLYLINE
  5
6D
330
1F
100
AcDbEntity
  8
Layer 1
 62
     7
370
    35
100
AcDbPolyline
 90
        2
 70
     0
 43
0.0
 10
759.0224
 20
-53.0733
 10
755.4715
 20
-54.8925
  0
LWPOLYLINE
  5
6E
330
1F
100
AcDbEntity
  8
Layer 1
 62
     7
370
    35
100
AcDbPolyline
 90
        2
 70
     0
 43
0.0
 10
759.0619
 20
36.6756
 10
755.511
 20
34.8564
  0
LWPOLYLINE
  5
6F
330
1F
100
AcDbEntity
  8
Layer 1
 62
     7
100
AcDbPolyline
 90
        7
 70
     1
 43
0.0
 10
668.741
 20
-16.0322
 10
670.4078
 20
-16.0322
 10
670.4078
 20
-2.373
 10
666.4064
 20
-2.7303
 10
666.4064
 20
-3.9413
 10
668.741
 20
-3.9413
 10
668.741
 20
-16.0322
  0
LWPOLYLINE
  5
70
330
1F
100
AcDbEntity
  8
Layer 1
 62
     7
100
AcDbPolyline
 90
      136
 70
     1
 43
0.0
 10
676.315
 20
-7.5352
 10
677.4109
 20
-3.9215
 10
683.2701
 20
-3.9215
 10
683.2701
 20
-2.5316
 10
676.1484
 20
-2.5316
 10
674.2906
 20
-8.587
 10
676.1004
 20
-9.2621
 10
676.363
 20
-9.1132
 10
676.6386
 20
-8.9841
 10
676.9273
 20
-8.875
 10
677.229
 20
-8.7857
 10
677.5437
 20
-8.7162
 10
677.8714
 20
-8.6667
 10
678.2122
 20
-8.6369
 10
678.566
 20
-8.627
 10
678.9216
 20
-8.6416
 10
679.2654
 20
-8.6853
 10
679.5973
 20
-8.7581
 10
679.9173
 20
-8.8602
 10
680.2254
 20
-8.9914
 10
680.5216
 20
-9.1518
 10
680.806
 20
-9.3414
 10
681.0784
 20
-9.5602
 10
681.3352
 20
-9.8041
 10
681.5577
 20
-10.057
 10
681.7461
 20
-10.3189
 10
681.9002
 20
-10.5899
 10
682.02
 20
-10.8698
 10
682.1057
 20
-11.1587
 10
682.1571
 20
-11.4567
 10
682.1742
 20
-11.7636
 10
682.1567
 20
-12.0811
 10
682.1042
 20
-12.3858
 10
682.0167
 20
-12.6778
 10
681.8942
 20
-12.9572
 10
681.7368
 20
-13.2238
 10
681.5444
 20
-13.4777
 10
681.317
 20
-13.7188
 10
681.0547
 20
-13.9473
 10
680.9214
 20
-14.049
 10
680.7832
 20
-14.1454
 10
680.6401
 20
-14.2365
 10
680.4922
 20
-14.3224
 10
680.3394
 20
-14.4029
 10
680.1818
 20
-14.4781
 10
680.0194
 20
-14.548
 10
679.8521
 20
-14.6126
 10
679.6776
 20
-14.6707
 10
679.4934
 20
-14.7211
 10
679.2995
 20
-14.7637
 10
679.096
 20
-14.7986
 10
678.8827
 20
-14.8258
 10
678.6597
 20
-14.8452
 10
678.4271
 20
-14.8568
 10
678.1847
 20
-14.8607
 10
677.9377
 20
-14.852
 10
677.6911
 20
-14.826
 10
677.445
 20
-14.7826
 10
677.1992
 20
-14.7219
 10
676.9538
 20
-14.6437
 10
676.7087
 20
-14.5481
 10
676.464
 20
-14.4351
 10
676.2196
 20
-14.3047
 10
675.9845
 20
-14.1605
 10
675.7672
 20
-14.0057
 10
675.5677
 20
-13.8403
 10
675.3861
 20
-13.6645
 10
675.2223
 20
-13.4781
 10
675.0765
 20
-13.2811
 10
674.9486
 20
-13.0736
 10
674.8386
 20
-12.8555
 10
673.2185
 20
-13.2924
 10
673.3777
 20
-13.6192
 10
673.5632
 20
-13.9295
 10
673.7752
 20
-14.2235
 10
674.0136
 20
-14.501
 10
674.2784
 20
-14.7621
 10
674.5696
 20
-15.0067
 10
674.8872
 20
-15.2348
 10
675.2311
 20
-15.4465
 10
675.5969
 20
-15.6397
 10
675.971
 20
-15.8071
 10
676.3532
 20
-15.9487
 10
676.7435
 20
-16.0645
 10
677.1421
 20
-16.1546
 10
677.5488
 20
-16.2189
 10
677.9638
 20
-16.2575
 10
678.3869
 20
-16.2704
 10
678.9508
 20
-16.2491
 10
679.493
 20
-16.1854
 10
680.0137
 20
-16.0791
 10
680.5128
 20
-15.9304
 10
680.9903
 20
-15.7392
 10
681.4462
 20
-15.5055
 10
681.8806
 20
-15.2293
 10
682.2934
 20
-14.9107
 10
682.6673
 20
-14.5646
 10
682.9914
 20
-14.2014
 10
683.2657
 20
-13.8212
 10
683.4901
 20
-13.424
 10
683.6647
 20
-13.0097
 10
683.7893
 20
-12.5783
 10
683.8642
 20
-12.1298
 10
683.8891
 20
-11.6643
 10
683.8645
 20
-11.2014
 10
683.7908
 20
-10.758
 10
683.668
 20
-10.3342
 10
683.496
 20
-9.9298
 10
683.2749
 20
-9.545
 10
683.0048
 20
-9.1798
 10
682.6855
 20
-8.8341
 10
682.3171
 20
-8.5079
 10
682.1289
 20
-8.3628
 10
681.9332
 20
-8.2255
 10
681.7301
 20
-8.096
 10
681.5195
 20
-7.9742
 10
681.3014
 20
-7.8602
 10
681.0758
 20
-7.754
 10
680.8427
 20
-7.6555
 10
680.6022
 20
-7.5648
 10
680.3569
 20
-7.4834
 10
680.1095
 20
-7.4128
 10
679.8599
 20
-7.3531
 10
679.6083
 20
-7.3043
 10
679.3547
 20
-7.2663
 10
679.099
 20
-7.2391
 10
678.8414
 20
-7.2228
 10
678.5818
 20
-7.2174
 10
678.3172
 20
-7.2224
 10
678.0473
 20
-7.2373
 10
677.7722
 20
-7.2621
 10
677.4916
 20
-7.2968
 10
677.2057
 20
-7.3415
 10
676.9143
 20
-7.3961
 10
676.6175
 20
-7.4607
 10
676.315
 20
-7.5352
  0
LWPOLYLINE
  5
71
330
1F
100
AcDbEntity
  8
Layer 1
 62
     7
100
AcDbPolyline
 90
      109
 70
     1
 43
0.0
 10
693.1188
 20
-4.1005
 10
693.3938
 20
-4.2562
 10
693.6501
 20
-4.433
 10
693.8879
 20
-4.6308
 10
694.1071
 20
-4.8498
 10
694.3077
 20
-5.0899
 10
694.4898
 20
-5.3511
 10
694.6532
 20
-5.6333
 10
694.7981
 20
-5.9367
 10
694.9599
 20
-6.3392
 10
695.1001
 20
-6.7476
 10
695.2187
 20
-7.162
 10
695.3158
 20
-7.5822
 10
695.3912
 20
-8.0083
 10
695.4451
 20
-8.4403
 10
695.4774
 20
-8.8782
 10
695.4882
 20
-9.322
 10
695.4838
 20
-9.5397
 10
695.4704
 20
-9.776
 10
695.4482
 20
-10.031
 10
695.4171
 20
-10.3046
 10
695.3345
 20
-10.8382
 10
695.2266
 20
-11.3425
 10
695.0933
 20
-11.8172
 10
694.9347
 20
-12.2626
 10
694.7508
 20
-12.6784
 10
694.5416
 20
-13.0648
 10
694.3071
 20
-13.4217
 10
694.0473
 20
-13.7492
 10
693.8103
 20
-13.9958
 10
693.5607
 20
-14.2096
 10
693.2984
 20
-14.3904
 10
693.0234
 20
-14.5384
 10
692.7358
 20
-14.6535
 10
692.4355
 20
-14.7357
 10
692.1226
 20
-14.7851
 10
691.797
 20
-14.8015
 10
691.4336
 20
-14.7852
 10
691.0876
 20
-14.7363
 10
690.7592
 20
-14.6549
 10
690.4482
 20
-14.5409
 10
690.1548
 20
-14.3943
 10
689.8788
 20
-14.2151
 10
689.6204
 20
-14.0033
 10
689.3795
 20
-13.759
 10
689.2775
 20
-13.6404
 10
689.18
 20
-13.5182
 10
689.0869
 20
-13.3922
 10
688.9983
 20
-13.2625
 10
688.9142
 20
-13.1291
 10
688.8345
 20
-12.992
 10
688.7594
 20
-12.8512
 10
688.6887
 20
-12.7067
 10
688.56
 20
-12.412
 10
688.4476
 20
-12.1136
 10
688.3516
 20
-11.8114
 10
688.2718
 20
-11.5056
 10
688.2055
 20
-11.2002
 10
688.1496
 20
-10.9
 10
688.1042
 20
-10.6047
 10
688.069
 20
-10.3145
 10
688.043
 20
-10.0155
 10
688.0245
 20
-9.6945
 10
688.0134
 20
-9.3518
 10
688.0097
 20
-8.9877
 10
688.0138
 20
-8.7947
 10
688.0261
 20
-8.5905
 10
688.0466
 20
-8.3751
 10
688.0753
 20
-8.1483
 10
688.1122
 20
-7.9103
 10
688.1572
 20
-7.6608
 10
688.2104
 20
-7.4001
 10
688.2718
 20
-7.1279
 10
688.3507
 20
-6.8258
 10
688.4444
 20
-6.5249
 10
688.553
 20
-6.2252
 10
688.6768
 20
-5.9268
 10
688.7447
 20
-5.7798
 10
688.8174
 20
-5.6365
 10
688.895
 20
-5.497
 10
688.9774
 20
-5.3611
 10
689.0647
 20
-5.229
 10
689.1567
 20
-5.1005
 10
689.2535
 20
-4.9758
 10
689.3551
 20
-4.8547
 10
689.4619
 20
-4.7385
 10
689.574
 20
-4.6282
 10
689.6913
 20
-4.5238
 10
689.8138
 20
-4.4253
 10
689.9415
 20
-4.3328
 10
690.0743
 20
-4.2461
 10
690.2123
 20
-4.1654
 10
690.3555
 20
-4.0906
 10
690.5048
 20
-4.0231
 10
690.6607
 20
-3.9645
 10
690.8234
 20
-3.915
 10
690.9927
 20
-3.8745
 10
691.1687
 20
-3.8429
 10
691.3515
 20
-3.8204
 10
691.5409
 20
-3.8069
 10
691.7371
 20
-3.8024
 10
691.9333
 20
-3.8071
 10
692.1227
 20
-3.821
 10
692.3055
 20
-3.8443
 10
692.4815
 20
-3.8769
 10
692.6509
 20
-3.9189
 10
692.8135
 20
-3.9701
 10
692.9695
 20
-4.0306
 10
693.1188
 20
-4.1005
  0
LWPOLYLINE
  5
72
330
1F
100
AcDbEntity
  8
Layer 1
 62
     7
100
AcDbPolyline
 90
       65
 70
     1
 43
0.0
 10
691.8207
 20
-16.2111
 10
692.516
 20
-16.1743
 10
693.167
 20
-16.064
 10
693.7738
 20
-15.8802
 10
694.3363
 20
-15.6229
 10
694.8545
 20
-15.292
 10
695.3284
 20
-14.8876
 10
695.7581
 20
-14.4098
 10
696.1435
 20
-13.8584
 10
696.4142
 20
-13.3772
 10
696.6488
 20
-12.8693
 10
696.8473
 20
-12.3348
 10
697.0098
 20
-11.7736
 10
697.1361
 20
-11.1857
 10
697.2264
 20
-10.5712
 10
697.2805
 20
-9.93
 10
697.2986
 20
-9.2621
 10
697.2805
 20
-8.5943
 10
697.2264
 20
-7.9531
 10
697.1361
 20
-7.3386
 10
697.0098
 20
-6.7507
 10
696.8473
 20
-6.1895
 10
696.6488
 20
-5.655
 10
696.4142
 20
-5.1471
 10
696.1435
 20
-4.6659
 10
695.7581
 20
-4.1146
 10
695.3284
 20
-3.6367
 10
694.8545
 20
-3.2325
 10
694.3363
 20
-2.9017
 10
693.7738
 20
-2.6444
 10
693.167
 20
-2.4607
 10
692.516
 20
-2.3504
 10
691.8207
 20
-2.3137
 10
691.1252
 20
-2.3504
 10
690.4741
 20
-2.4607
 10
689.8672
 20
-2.6444
 10
689.3047
 20
-2.9017
 10
688.7864
 20
-3.2325
 10
688.3124
 20
-3.6367
 10
687.8827
 20
-4.1146
 10
687.4973
 20
-4.6659
 10
687.2267
 20
-5.1471
 10
686.9921
 20
-5.655
 10
686.7935
 20
-6.1895
 10
686.6311
 20
-6.7507
 10
686.5047
 20
-7.3386
 10
686.4144
 20
-7.9531
 10
686.3603
 20
-8.5943
 10
686.3422
 20
-9.2621
 10
686.3603
 20
-9.93
 10
686.4144
 20
-10.5712
 10
686.5047
 20
-11.1857
 10
686.6311
 20
-11.7736
 10
686.7935
 20
-12.3348
 10
686.9921
 20
-12.8693
 10
687.2267
 20
-13.3772
 10
687.4973
 20
-13.8584
 10
687.8827
 20
-14.4098
 10
688.3124
 20
-14.8876
 10
688.7864
 20
-15.292
 10
689.3047
 20
-15.6229
 10
689.8672
 20
-15.8802
 10
690.4741
 20
-16.064
 10
691.1252
 20
-16.1743
 10
691.8207
 20
-16.2111
  0
LWPOLYLINE
  5
73
330
1F
100
AcDbEntity
  8
Layer 1
 62
     7
100
AcDbPolyline
 90
      162
 70
     1
 43
0.0
 10
713.5669
 20
-15.9927
 10
715.2337
 20
-15.9927
 10
715.2337
 20
-10.5329
 10
715.2201
 20
-10.1703
 10
715.1794
 20
-9.8249
 10
715.1115
 20
-9.4965
 10
715.0164
 20
-9.1852
 10
714.8942
 20
-8.891
 10
714.7447
 20
-8.6138
 10
714.5682
 20
-8.3537
 10
714.3644
 20
-8.1105
 10
714.2507
 20
-7.9944
 10
714.13
 20
-7.8843
 10
714.0023
 20
-7.7799
 10
713.8675
 20
-7.6815
 10
713.7256
 20
-7.5889
 10
713.5766
 20
-7.5022
 10
713.4205
 20
-7.4214
 10
713.2574
 20
-7.3464
 10
713.0838
 20
-7.2789
 10
712.8968
 20
-7.2204
 10
712.6965
 20
-7.1709
 10
712.4829
 20
-7.1305
 10
712.2558
 20
-7.0991
 10
712.0154
 20
-7.0766
 10
711.7616
 20
-7.0632
 10
711.4944
 20
-7.0587
 10
711.2248
 20
-7.0664
 10
710.9638
 20
-7.0897
 10
710.7114
 20
-7.1284
 10
710.4675
 20
-7.1827
 10
710.2322
 20
-7.2525
 10
710.0054
 20
-7.3378
 10
709.7871
 20
-7.4386
 10
709.5774
 20
-7.555
 10
709.3953
 20
-7.6709
 10
709.2214
 20
-7.7954
 10
709.0557
 20
-7.9285
 10
708.8983
 20
-8.07
 10
708.749
 20
-8.2199
 10
708.608
 20
-8.3781
 10
708.4751
 20
-8.5446
 10
708.3505
 20
-8.7192
 10
708.2537
 20
-8.5583
 10
708.148
 20
-8.4027
 10
708.0334
 20
-8.2532
 10
707.9099
 20
-8.1105
 10
707.7962
 20
-7.9944
 10
707.6754
 20
-7.8843
 10
707.5476
 20
-7.7799
 10
707.4126
 20
-7.6815
 10
707.2706
 20
-7.5889
 10
707.1215
 20
-7.5022
 10
706.9654
 20
-7.4214
 10
706.8022
 20
-7.3464
 10
706.6288
 20
-7.2789
 10
706.442
 20
-7.2204
 10
706.2418
 20
-7.1709
 10
706.0283
 20
-7.1305
 10
705.8013
 20
-7.0991
 10
705.5609
 20
-7.0766
 10
705.3071
 20
-7.0632
 10
705.0399
 20
-7.0587
 10
704.7703
 20
-7.0664
 10
704.5092
 20
-7.0897
 10
704.2567
 20
-7.1284
 10
704.0127
 20
-7.1827
 10
703.7772
 20
-7.2525
 10
703.5503
 20
-7.3378
 10
703.332
 20
-7.4386
 10
703.1222
 20
-7.555
 10
702.9488
 20
-7.6654
 10
702.7829
 20
-7.7832
 10
702.6244
 20
-7.9086
 10
702.4733
 20
-8.0416
 10
702.3296
 20
-8.1822
 10
702.1934
 20
-8.3304
 10
702.0647
 20
-8.4864
 10
701.9434
 20
-8.6501
 10
701.9434
 20
-7.2569
 10
700.2766
 20
-7.2569
 10
700.2766
 20
-15.9927
 10
701.9434
 20
-15.9927
 10
701.9434
 20
-11.5221
 10
701.9822
 20
-11.2617
 10
702.0328
 20
-11.0114
 10
702.0953
 20
-10.7712
 10
702.1698
 20
-10.541
 10
702.2561
 20
-10.3208
 10
702.3544
 20
-10.1104
 10
702.4646
 20
-9.9098
 10
702.5868
 20
-9.7189
 10
702.6862
 20
-9.583
 10
702.7938
 20
-9.4533
 10
702.9095
 20
-9.3298
 10
703.0334
 20
-9.2125
 10
703.1655
 20
-9.1014
 10
703.3058
 20
-8.9966
 10
703.4542
 20
-8.8979
 10
703.6109
 20
-8.8054
 10
703.7731
 20
-8.7217
 10
703.9384
 20
-8.6491
 10
704.1066
 20
-8.5877
 10
704.2777
 20
-8.5374
 10
704.4519
 20
-8.4983
 10
704.6291
 20
-8.4704
 10
704.8093
 20
-8.4537
 10
704.9925
 20
-8.4481
 10
705.1711
 20
-8.4511
 10
705.3378
 20
-8.4599
 10
705.4926
 20
-8.4747
 10
705.6355
 20
-8.4954
 10
705.7664
 20
-8.5219
 10
705.8855
 20
-8.5544
 10
705.9926
 20
-8.5927
 10
706.0877
 20
-8.6369
 10
706.3278
 20
-8.7849
 10
706.5358
 20
-8.9583
 10
706.7118
 20
-9.1571
 10
706.8558
 20
-9.3814
 10
706.9678
 20
-9.6311
 10
707.0478
 20
-9.9062
 10
707.0958
 20
-10.2068
 10
707.1118
 20
-10.5329
 10
707.1118
 20
-15.9927
 10
708.7792
 20
-15.9927
 10
708.7792
 20
-10.5329
 10
708.7674
 20
-10.1986
 10
709.0413
 20
-9.7189
 10
709.1407
 20
-9.583
 10
709.2483
 20
-9.4533
 10
709.364
 20
-9.3298
 10
709.4879
 20
-9.2125
 10
709.62
 20
-9.1014
 10
709.7603
 20
-8.9966
 10
709.9087
 20
-8.8979
 10
710.0654
 20
-8.8054
 10
710.2276
 20
-8.7217
 10
710.3929
 20
-8.6491
 10
710.5611
 20
-8.5877
 10
710.7322
 20
-8.5374
 10
710.9064
 20
-8.4983
 10
711.0836
 20
-8.4704
 10
711.2638
 20
-8.4537
 10
711.447
 20
-8.4481
 10
711.6256
 20
-8.4511
 10
711.7923
 20
-8.4599
 10
711.9471
 20
-8.4747
 10
712.0901
 20
-8.4954
 10
712.2211
 20
-8.5219
 10
712.3403
 20
-8.5544
 10
712.4475
 20
-8.5927
 10
712.5429
 20
-8.6369
 10
712.7828
 20
-8.7849
 10
712.9907
 20
-8.9583
 10
713.1667
 20
-9.1571
 10
713.3107
 20
-9.3814
 10
713.4228
 20
-9.6311
 10
713.5028
 20
-9.9062
 10
713.5509
 20
-10.2068
 10
713.5669
 20
-10.5329
 10
713.5669
 20
-15.9927
  0
LWPOLYLINE
  5
74
330
1F
100
AcDbEntity
  8
Layer 1
 62
     7
100
AcDbPolyline
 90
      162
 70
     1
 43
0.0
 10
731.7398
 20
-15.9927
 10
733.4066
 20
-15.9927
 10
733.4066
 20
-10.5329
 10
733.393
 20
-10.1703
 10
733.3523
 20
-9.8249
 10
733.2843
 20
-9.4965
 10
733.1893
 20
-9.1852
 10
733.067
 20
-8.891
 10
732.9176
 20
-8.6138
 10
732.741
 20
-8.3537
 10
732.5373
 20
-8.1105
 10
732.4236
 20
-7.9944
 10
732.3029
 20
-7.8843
 10
732.1752
 20
-7.7799
 10
732.0403
 20
-7.6815
 10
731.8984
 20
-7.5889
 10
731.7494
 20
-7.5022
 10
731.5934
 20
-7.4214
 10
731.4302
 20
-7.3464
 10
731.2566
 20
-7.2789
 10
731.0697
 20
-7.2204
 10
730.8694
 20
-7.1709
 10
730.6557
 20
-7.1305
 10
730.4287
 20
-7.0991
 10
730.1883
 20
-7.0766
 10
729.9345
 20
-7.0632
 10
729.6673
 20
-7.0587
 10
729.3977
 20
-7.0664
 10
729.1367
 20
-7.0897
 10
728.8843
 20
-7.1284
 10
728.6404
 20
-7.1827
 10
728.405
 20
-7.2525
 10
728.1782
 20
-7.3378
 10
727.96
 20
-7.4386
 10
727.7502
 20
-7.555
 10
727.5681
 20
-7.6709
 10
727.3942
 20
-7.7954
 10
727.2286
 20
-7.9285
 10
727.0711
 20
-8.07
 10
726.9218
 20
-8.2199
 10
726.7808
 20
-8.3781
 10
726.6479
 20
-8.5446
 10
726.5233
 20
-8.7192
 10
726.4265
 20
-8.5583
 10
726.3208
 20
-8.4027
 10
726.2062
 20
-8.2532
 10
726.0828
 20
-8.1105
 10
725.9691
 20
-7.9944
 10
725.8483
 20
-7.8843
 10
725.7205
 20
-7.7799
 10
725.5855
 20
-7.6815
 10
725.4435
 20
-7.5889
 10
725.2944
 20
-7.5022
 10
725.1383
 20
-7.4214
 10
724.9751
 20
-7.3464
 10
724.8017
 20
-7.2789
 10
724.6149
 20
-7.2204
 10
724.4147
 20
-7.1709
 10
724.2011
 20
-7.1305
 10
723.9741
 20
-7.0991
 10
723.7337
 20
-7.0766
 10
723.48
 20
-7.0632
 10
723.2128
 20
-7.0587
 10
722.9432
 20
-7.0664
 10
722.6821
 20
-7.0897
 10
722.4295
 20
-7.1284
 10
722.1855
 20
-7.1827
 10
721.9501
 20
-7.2525
 10
721.7232
 20
-7.3378
 10
721.5049
 20
-7.4386
 10
721.2951
 20
-7.555
 10
721.1217
 20
-7.6654
 10
720.9558
 20
-7.7832
 10
720.7972
 20
-7.9086
 10
720.6462
 20
-8.0416
 10
720.5025
 20
-8.1822
 10
720.3663
 20
-8.3304
 10
720.2376
 20
-8.4864
 10
720.1163
 20
-8.6501
 10
720.1163
 20
-7.2569
 10
718.4495
 20
-7.2569
 10
718.4495
 20
-15.9927
 10
720.1163
 20
-15.9927
 10
720.1163
 20
-11.5221
 10
720.155
 20
-11.2617
 10
720.2057
 20
-11.0114
 10
720.2682
 20
-10.7712
 10
720.3426
 20
-10.541
 10
720.429
 20
-10.3208
 10
720.5273
 20
-10.1104
 10
720.6375
 20
-9.9098
 10
720.7597
 20
-9.7189
 10
720.8591
 20
-9.583
 10
720.9667
 20
-9.4533
 10
721.0824
 20
-9.3298
 10
721.2063
 20
-9.2125
 10
721.3383
 20
-9.1014
 10
721.4786
 20
-8.9966
 10
721.627
 20
-8.8979
 10
721.7837
 20
-8.8054
 10
721.9459
 20
-8.7217
 10
722.1112
 20
-8.6491
 10
722.2794
 20
-8.5877
 10
722.4506
 20
-8.5374
 10
722.6248
 20
-8.4983
 10
722.802
 20
-8.4704
 10
722.9822
 20
-8.4537
 10
723.1654
 20
-8.4481
 10
723.3439
 20
-8.4511
 10
723.5106
 20
-8.4599
 10
723.6654
 20
-8.4747
 10
723.8083
 20
-8.4954
 10
723.9393
 20
-8.5219
 10
724.0583
 20
-8.5544
 10
724.1654
 20
-8.5927
 10
724.2606
 20
-8.6369
 10
724.5007
 20
-8.7849
 10
724.7087
 20
-8.9583
 10
724.8847
 20
-9.1571
 10
725.0287
 20
-9.3814
 10
725.1407
 20
-9.6311
 10
725.2206
 20
-9.9062
 10
725.2686
 20
-10.2068
 10
725.2846
 20
-10.5329
 10
725.2846
 20
-15.9927
 10
726.9521
 20
-15.9927
 10
726.9521
 20
-10.5329
 10
726.9402
 20
-10.1986
 10
727.2142
 20
-9.7189
 10
727.3136
 20
-9.583
 10
727.4212
 20
-9.4533
 10
727.5369
 20
-9.3298
 10
727.6608
 20
-9.2125
 10
727.7928
 20
-9.1014
 10
727.9331
 20
-8.9966
 10
728.0815
 20
-8.8979
 10
728.2382
 20
-8.8054
 10
728.4004
 20
-8.7217
 10
728.5657
 20
-8.6491
 10
728.7339
 20
-8.5877
 10
728.9051
 20
-8.5374
 10
729.0793
 20
-8.4983
 10
729.2565
 20
-8.4704
 10
729.4367
 20
-8.4537
 10
729.6199
 20
-8.4481
 10
729.7984
 20
-8.4511
 10
729.9651
 20
-8.4599
 10
730.1199
 20
-8.4747
 10
730.2629
 20
-8.4954
 10
730.3939
 20
-8.5219
 10
730.5131
 20
-8.5544
 10
730.6203
 20
-8.5927
 10
730.7157
 20
-8.6369
 10
730.9556
 20
-8.7849
 10
731.1636
 20
-8.9583
 10
731.3396
 20
-9.1571
 10
731.4836
 20
-9.3814
 10
731.5957
 20
-9.6311
 10
731.6757
 20
-9.9062
 10
731.7238
 20
-10.2068
 10
731.7398
 20
-10.5329
 10
731.7398
 20
-15.9927
  0
LWPOLYLINE
  5
75
330
1F
100
AcDbEntity
  8
Layer 1
 62
     7
370
    35
100
AcDbPolyline
 90
       37
 70
     1
 43
0.0
 10
454.7637
 20
87.1568
 10
530.8515
 20
87.1568
 10
548.0702
 20
85.4075
 10
564.1337
 20
80.3941
 10
578.6903
 20
72.468
 10
591.3887
 20
61.9808
 10
601.8771
 20
49.2838
 10
609.8041
 20
34.7287
 10
614.818
 20
18.667
 10
616.5675
 20
1.4501
 10
616.5675
 20
1.4487
 10
614.818
 20
-15.7677
 10
609.8041
 20
-31.8291
 10
601.8771
 20
-46.384
 10
591.3887
 20
-59.0809
 10
578.6903
 20
-69.5682
 10
564.1337
 20
-77.4943
 10
548.0702
 20
-82.5078
 10
530.8515
 20
-84.2571
 10
454.7637
 20
-84.2571
 10
437.5451
 20
-82.5078
 10
421.4818
 20
-77.4943
 10
406.9251
 20
-69.5682
 10
394.2268
 20
-59.0809
 10
383.7383
 20
-46.384
 10
375.8113
 20
-31.8291
 10
370.7973
 20
-15.7677
 10
369.0478
 20
1.4487
 10
369.0478
 20
1.4501
 10
370.7973
 20
18.667
 10
375.8113
 20
34.7287
 10
383.7383
 20
49.2838
 10
394.2268
 20
61.9808
 10
406.9251
 20
72.468
 10
421.4818
 20
80.3941
 10
437.5451
 20
85.4075
 10
454.7637
 20
87.1568
  0
LWPOLYLINE
  5
76
330
1F
100
AcDbEntity
  8
Layer 1
 62
     7
370
    35
100
AcDbPolyline
 90
       37
 70
     1
 43
0.0
 10
455.7304
 20
84.9792
 10
529.8853
 20
84.9792
 10
546.6665
 20
83.2744
 10
562.3217
 20
78.3884
 10
576.5085
 20
70.6637
 10
588.884
 20
60.4429
 10
599.1059
 20
48.0687
 10
606.8314
 20
33.8836
 10
611.7179
 20
18.2302
 10
613.4229
 20
1.451
 10
613.4229
 20
1.4487
 10
611.7179
 20
-15.3303
 10
606.8314
 20
-30.9836
 10
599.1059
 20
-45.1688
 10
588.884
 20
-57.5432
 10
576.5085
 20
-67.7641
 10
562.3217
 20
-75.489
 10
546.6665
 20
-80.3751
 10
529.8853
 20
-82.08
 10
455.7304
 20
-82.08
 10
438.9493
 20
-80.3751
 10
423.2941
 20
-75.489
 10
409.1073
 20
-67.7641
 10
396.7316
 20
-57.5432
 10
386.5096
 20
-45.1688
 10
378.784
 20
-30.9836
 10
373.8973
 20
-15.3303
 10
372.1923
 20
1.4487
 10
372.1923
 20
1.451
 10
373.8973
 20
18.2302
 10
378.784
 20
33.8836
 10
386.5096
 20
48.0687
 10
396.7316
 20
60.4429
 10
409.1073
 20
70.6637
 10
423.2941
 20
78.3884
 10
438.9493
 20
83.2744
 10
455.7304
 20
84.9792
  0
LWPOLYLINE
  5
77
330
1F
100
AcDbEntity
  8
Layer 1
 62
     7
370
    35
100
AcDbPolyline
 90
        5
 70
     1
 43
0.0
 10
835.5335
 20
33.0104
 10
1190.5873
 20
33.0104
 10
1190.5873
 20
-51.2273
 10
835.5335
 20
-51.2273
 10
835.5335
 20
33.0104
  0
LWPOLYLINE
  5
78
330
1F
100
AcDbEntity
  8
Layer 1
 62
     7
370
    35
100
AcDbPolyline
 90
        4
 70
     0
 43
0.0
 10
837.1107
 20
48.3186
 10
837.1107
 20
75.093
 10
1189.8359
 20
75.093
 10
1189.8359
 20
49.3901
  0
LWPOLYLINE
  5
79
330
1F
100
AcDbEntity
  8
Layer 1
 62
     7
370
    35
100
AcDbPolyline
 90
        2
 70
     0
 43
0.0
 10
841.1582
 20
73.4088
 10
834.0175
 20
76.3676
  0
LWPOLYLINE
  5
7A
330
1F
100
AcDbEntity
  8
Layer 1
 62
     7
370
    35
100
AcDbPolyline
 90
        2
 70
     0
 43
0.0
 10
1193.4066
 20
73.3753
 10
1186.2665
 20
76.3347
  0
LWPOLYLINE
  5
7B
330
1F
100
AcDbEntity
  8
Layer 1
 62
     7
100
AcDbPolyline
 90
      136
 70
     1
 43
0.0
 10
979.5366
 20
89.8863
 10
980.6324
 20
93.4999
 10
986.4916
 20
93.4999
 10
986.4916
 20
94.8898
 10
979.37
 20
94.8898
 10
977.5122
 20
88.8345
 10
979.3219
 20
88.1593
 10
979.5845
 20
88.3083
 10
979.8601
 20
88.4373
 10
980.1488
 20
88.5465
 10
980.4505
 20
88.6358
 10
980.7652
 20
88.7052
 10
981.0929
 20
88.7548
 10
981.4337
 20
88.7845
 10
981.7875
 20
88.7944
 10
982.1431
 20
88.7798
 10
982.4869
 20
88.7361
 10
982.8188
 20
88.6633
 10
983.1388
 20
88.5612
 10
983.4469
 20
88.43
 10
983.7431
 20
88.2696
 10
984.0275
 20
88.08
 10
984.2999
 20
87.8612
 10
984.5567
 20
87.6173
 10
984.7793
 20
87.3644
 10
984.9676
 20
87.1025
 10
985.1218
 20
86.8315
 10
985.2416
 20
86.5516
 10
985.3273
 20
86.2627
 10
985.3787
 20
85.9647
 10
985.3958
 20
85.6578
 10
985.3783
 20
85.3403
 10
985.3258
 20
85.0356
 10
985.2383
 20
84.7436
 10
985.1158
 20
84.4643
 10
984.9584
 20
84.1976
 10
984.7659
 20
83.9438
 10
984.5385
 20
83.7026
 10
984.2762
 20
83.4741
 10
984.1429
 20
83.3724
 10
984.0047
 20
83.276
 10
983.8616
 20
83.1849
 10
983.7137
 20
83.099
 10
983.561
 20
83.0185
 10
983.4034
 20
82.9433
 10
983.2409
 20
82.8734
 10
983.0737
 20
82.8088
 10
982.8992
 20
82.7507
 10
982.715
 20
82.7003
 10
982.5211
 20
82.6577
 10
982.3175
 20
82.6228
 10
982.1042
 20
82.5956
 10
981.8812
 20
82.5762
 10
981.6486
 20
82.5646
 10
981.4062
 20
82.5607
 10
981.1592
 20
82.5694
 10
980.9126
 20
82.5954
 10
980.6665
 20
82.6388
 10
980.4207
 20
82.6996
 10
980.1753
 20
82.7778
 10
979.9302
 20
82.8734
 10
979.6855
 20
82.9864
 10
979.4411
 20
83.1168
 10
979.206
 20
83.261
 10
978.9887
 20
83.4158
 10
978.7892
 20
83.5811
 10
978.6076
 20
83.757
 10
978.4439
 20
83.9434
 10
978.298
 20
84.1404
 10
978.1701
 20
84.3479
 10
978.0601
 20
84.566
 10
976.4401
 20
84.129
 10
976.5993
 20
83.8023
 10
976.7848
 20
83.4919
 10
976.9968
 20
83.198
 10
977.2352
 20
82.9205
 10
977.5
 20
82.6594
 10
977.7911
 20
82.4148
 10
978.1087
 20
82.1866
 10
978.4526
 20
81.975
 10
978.8185
 20
81.7818
 10
979.1925
 20
81.6144
 10
979.5747
 20
81.4728
 10
979.9651
 20
81.3569
 10
980.3636
 20
81.2668
 10
980.7703
 20
81.2025
 10
981.1853
 20
81.1639
 10
981.6084
 20
81.151
 10
982.1723
 20
81.1723
 10
982.7146
 20
81.236
 10
983.2352
 20
81.3423
 10
983.7343
 20
81.491
 10
984.2118
 20
81.6822
 10
984.6678
 20
81.9159
 10
985.1022
 20
82.1921
 10
985.515
 20
82.5107
 10
985.8889
 20
82.8568
 10
986.213
 20
83.22
 10
986.4872
 20
83.6002
 10
986.7116
 20
83.9974
 10
986.8862
 20
84.4117
 10
987.0108
 20
84.8431
 10
987.0857
 20
85.2916
 10
987.1106
 20
85.7571
 10
987.086
 20
86.22
 10
987.0123
 20
86.6634
 10
986.8895
 20
87.0872
 10
986.7175
 20
87.4916
 10
986.4965
 20
87.8764
 10
986.2263
 20
88.2416
 10
985.907
 20
88.5873
 10
985.5387
 20
88.9135
 10
985.3505
 20
89.0587
 10
985.1548
 20
89.196
 10
984.9516
 20
89.3255
 10
984.741
 20
89.4473
 10
984.5229
 20
89.5612
 10
984.2973
 20
89.6674
 10
984.0643
 20
89.7659
 10
983.8238
 20
89.8566
 10
983.5785
 20
89.9381
 10
983.331
 20
90.0086
 10
983.0815
 20
90.0684
 10
982.8299
 20
90.1172
 10
982.5762
 20
90.1552
 10
982.3205
 20
90.1824
 10
982.0629
 20
90.1987
 10
981.8033
 20
90.2041
 10
981.5387
 20
90.1991
 10
981.2688
 20
90.1842
 10
980.9937
 20
90.1594
 10
980.7132
 20
90.1246
 10
980.4273
 20
90.0799
 10
980.1359
 20
90.0253
 10
979.839
 20
89.9608
 10
979.5366
 20
89.8863
  0
LWPOLYLINE
  5
7C
330
1F
100
AcDbEntity
  8
Layer 1
 62
     7
100
AcDbPolyline
 90
       87
 70
     1
 43
0.0
 10
989.8739
 20
81.3893
 10
1001.2828
 20
81.3893
 10
1001.2828
 20
82.7792
 10
993.899
 20
82.7792
 10
999.5435
 20
87.4446
 10
999.9121
 20
87.7805
 10
1000.2314
 20
88.1331
 10
1000.5016
 20
88.5026
 10
1000.7227
 20
88.8888
 10
1000.8945
 20
89.2917
 10
1001.0173
 20
89.7114
 10
1001.091
 20
90.1478
 10
1001.1155
 20
90.601
 10
1001.0904
 20
91.0645
 10
1001.0151
 20
91.5094
 10
1000.8896
 20
91.9357
 10
1000.7138
 20
92.3433
 10
1000.4878
 20
92.7323
 10
1000.2115
 20
93.1027
 10
999.8849
 20
93.4544
 10
999.508
 20
93.7875
 10
999.0892
 20
94.097
 10
998.6519
 20
94.3652
 10
998.196
 20
94.5922
 10
997.7215
 20
94.7778
 10
997.2284
 20
94.9221
 10
996.7167
 20
95.0252
 10
996.1865
 20
95.0871
 10
995.6376
 20
95.1077
 10
995.0676
 20
95.086
 10
994.5189
 20
95.0209
 10
993.9914
 20
94.9124
 10
993.4851
 20
94.7605
 10
992.9999
 20
94.5652
 10
992.536
 20
94.3264
 10
992.0933
 20
94.0441
 10
991.6718
 20
93.7184
 10
991.2966
 20
93.3679
 10
990.9745
 20
92.9992
 10
990.7057
 20
92.6122
 10
990.49
 20
92.2069
 10
990.3276
 20
91.7833
 10
990.2184
 20
91.3415
 10
990.1624
 20
90.8813
 10
990.1597
 20
90.4028
 10
991.8503
 20
90.4028
 10
991.8363
 20
90.7131
 10
991.8624
 20
91.0163
 10
991.9287
 20
91.3124
 10
992.0351
 20
91.6013
 10
992.1817
 20
91.8831
 10
992.3684
 20
92.1578
 10
992.5954
 20
92.4254
 10
992.8625
 20
92.6858
 10
993.1485
 20
92.9185
 10
993.4493
 20
93.1202
 10
993.7649
 20
93.2908
 10
994.0954
 20
93.4303
 10
994.4407
 20
93.5388
 10
994.8008
 20
93.6163
 10
995.1759
 20
93.6628
 10
995.5658
 20
93.6783
 10
995.9487
 20
93.6644
 10
996.3171
 20
93.6225
 10
996.6709
 20
93.5528
 10
997.0102
 20
93.4551
 10
997.3349
 20
93.3295
 10
997.645
 20
93.176
 10
997.9407
 20
92.9946
 10
998.2218
 20
92.7852
 10
998.4813
 20
92.5538
 10
998.7063
 20
92.3112
 10
998.8967
 20
92.0575
 10
999.0525
 20
91.7926
 10
999.1737
 20
91.5165
 10
999.2602
 20
91.2293
 10
999.3122
 20
90.9309
 10
999.3295
 20
90.6213
 10
999.3127
 20
90.3047
 10
999.2625
 20
90.0006
 10
999.1787
 20
89.709
 10
999.0614
 20
89.4298
 10
998.9106
 20
89.163
 10
998.7263
 20
88.9086
 10
998.5086
 20
88.6666
 10
998.2574
 20
88.4371
 10
989.8739
 20
81.3893
  0
LWPOLYLINE
  5
7D
330
1F
100
AcDbEntity
  8
Layer 1
 62
     7
100
AcDbPolyline
 90
        7
 70
     1
 43
0.0
 10
1006.7843
 20
81.3893
 10
1013.906
 20
94.83
 10
1003.7359
 20
94.83
 10
1003.7359
 20
93.4401
 10
1011.3099
 20
93.4401
 10
1004.9265
 20
81.3893
 10
1006.7843
 20
81.3893
  0
LWPOLYLINE
  5
7E
330
1F
100
AcDbEntity
  8
Layer 1
 62
     7
100
AcDbPolyline
 90
      162
 70
     1
 43
0.0
 10
1029.8404
 20
81.4288
 10
1031.5072
 20
81.4288
 10
1031.5072
 20
86.8885
 10
1031.4936
 20
87.2511
 10
1031.4529
 20
87.5965
 10
1031.3849
 20
87.9249
 10
1031.2899
 20
88.2362
 10
1031.1676
 20
88.5305
 10
1031.0182
 20
88.8077
 10
1030.8416
 20
89.0678
 10
1030.6379
 20
89.311
 10
1030.5242
 20
89.4271
 10
1030.4035
 20
89.5372
 10
1030.2758
 20
89.6416
 10
1030.141
 20
89.74
 10
1029.9991
 20
89.8326
 10
1029.8501
 20
89.9193
 10
1029.694
 20
90.0001
 10
1029.5309
 20
90.0751
 10
1029.3573
 20
90.1426
 10
1029.1703
 20
90.2011
 10
1028.97
 20
90.2505
 10
1028.7563
 20
90.2909
 10
1028.5293
 20
90.3224
 10
1028.2889
 20
90.3448
 10
1028.0351
 20
90.3582
 10
1027.7679
 20
90.3627
 10
1027.4983
 20
90.355
 10
1027.2373
 20
90.3317
 10
1026.9849
 20
90.293
 10
1026.741
 20
90.2387
 10
1026.5056
 20
90.169
 10
1026.2788
 20
90.0837
 10
1026.0606
 20
89.9829
 10
1025.8508
 20
89.8665
 10
1025.6687
 20
89.7506
 10
1025.4948
 20
89.6261
 10
1025.3292
 20
89.493
 10
1025.1717
 20
89.3515
 10
1025.0225
 20
89.2015
 10
1024.8814
 20
89.0433
 10
1024.7486
 20
88.8768
 10
1024.624
 20
88.7022
 10
1024.5272
 20
88.8632
 10
1024.4214
 20
89.0187
 10
1024.3068
 20
89.1682
 10
1024.1834
 20
89.311
 10
1024.0697
 20
89.4271
 10
1023.9489
 20
89.5372
 10
1023.8211
 20
89.6416
 10
1023.6861
 20
89.74
 10
1023.5441
 20
89.8326
 10
1023.395
 20
89.9193
 10
1023.2389
 20
90.0001
 10
1023.0757
 20
90.0751
 10
1022.9023
 20
90.1426
 10
1022.7155
 20
90.2011
 10
1022.5153
 20
90.2505
 10
1022.3017
 20
90.2909
 10
1022.0747
 20
90.3224
 10
1021.8343
 20
90.3448
 10
1021.5806
 20
90.3582
 10
1021.3134
 20
90.3627
 10
1021.0438
 20
90.355
 10
1020.7827
 20
90.3317
 10
1020.5302
 20
90.293
 10
1020.2862
 20
90.2387
 10
1020.0507
 20
90.169
 10
1019.8238
 20
90.0837
 10
1019.6055
 20
89.9829
 10
1019.3957
 20
89.8665
 10
1019.2223
 20
89.7561
 10
1019.0564
 20
89.6382
 10
1018.8978
 20
89.5128
 10
1018.7468
 20
89.3799
 10
1018.6031
 20
89.2393
 10
1018.4669
 20
89.091
 10
1018.3382
 20
88.9351
 10
1018.2169
 20
88.7714
 10
1018.2169
 20
90.1646
 10
1016.5501
 20
90.1646
 10
1016.5501
 20
81.4288
 10
1018.2169
 20
81.4288
 10
1018.2169
 20
85.8993
 10
1018.2557
 20
86.1598
 10
1018.3063
 20
86.41
 10
1018.3688
 20
86.6502
 10
1018.4433
 20
86.8804
 10
1018.5296
 20
87.1007
 10
1018.6279
 20
87.311
 10
1018.7381
 20
87.5117
 10
1018.8603
 20
87.7026
 10
1018.9597
 20
87.8385
 10
1019.0673
 20
87.9681
 10
1019.183
 20
88.0916
 10
1019.3069
 20
88.2089
 10
1019.4389
 20
88.32
 10
1019.5792
 20
88.4249
 10
1019.7276
 20
88.5236
 10
1019.8843
 20
88.616
 10
1020.0465
 20
88.6998
 10
1020.2118
 20
88.7724
 10
1020.38
 20
88.8338
 10
1020.5512
 20
88.8841
 10
1020.7254
 20
88.9231
 10
1020.9026
 20
88.9511
 10
1021.0828
 20
88.9678
 10
1021.266
 20
88.9734
 10
1021.4445
 20
88.9704
 10
1021.6112
 20
88.9616
 10
1021.766
 20
88.9468
 10
1021.9089
 20
88.9261
 10
1022.0399
 20
88.8995
 10
1022.1589
 20
88.867
 10
1022.266
 20
88.8287
 10
1022.3612
 20
88.7845
 10
1022.6013
 20
88.6366
 10
1022.8093
 20
88.4632
 10
1022.9853
 20
88.2644
 10
1023.1293
 20
88.0401
 10
1023.2413
 20
87.7904
 10
1023.3212
 20
87.5152
 10
1023.3692
 20
87.2146
 10
1023.3852
 20
86.8885
 10
1023.3852
 20
81.4288
 10
1025.0527
 20
81.4288
 10
1025.0527
 20
86.8885
 10
1025.0408
 20
87.2228
 10
1025.3148
 20
87.7026
 10
1025.4142
 20
87.8385
 10
1025.5218
 20
87.9681
 10
1025.6375
 20
88.0916
 10
1025.7614
 20
88.2089
 10
1025.8934
 20
88.32
 10
1026.0337
 20
88.4249
 10
1026.1821
 20
88.5236
 10
1026.3388
 20
88.616
 10
1026.5011
 20
88.6998
 10
1026.6663
 20
88.7724
 10
1026.8345
 20
88.8338
 10
1027.0057
 20
88.8841
 10
1027.1799
 20
88.9231
 10
1027.3571
 20
88.9511
 10
1027.5373
 20
88.9678
 10
1027.7205
 20
88.9734
 10
1027.899
 20
88.9704
 10
1028.0657
 20
88.9616
 10
1028.2205
 20
88.9468
 10
1028.3635
 20
88.9261
 10
1028.4945
 20
88.8995
 10
1028.6137
 20
88.867
 10
1028.7209
 20
88.8287
 10
1028.8163
 20
88.7845
 10
1029.0562
 20
88.6366
 10
1029.2642
 20
88.4632
 10
1029.4402
 20
88.2644
 10
1029.5842
 20
88.0401
 10
1029.6963
 20
87.7904
 10
1029.7763
 20
87.5152
 10
1029.8244
 20
87.2146
 10
1029.8404
 20
86.8885
 10
1029.8404
 20
81.4288
  0
LWPOLYLINE
  5
7F
330
1F
100
AcDbEntity
  8
Layer 1
 62
     7
100
AcDbPolyline
 90
      162
 70
     1
 43
0.0
 10
1048.0132
 20
81.4288
 10
1049.68
 20
81.4288
 10
1049.68
 20
86.8885
 10
1049.6664
 20
87.2511
 10
1049.6257
 20
87.5965
 10
1049.5578
 20
87.9249
 10
1049.4627
 20
88.2362
 10
1049.3405
 20
88.5305
 10
1049.191
 20
88.8077
 10
1049.0145
 20
89.0678
 10
1048.8107
 20
89.311
 10
1048.697
 20
89.4271
 10
1048.5763
 20
89.5372
 10
1048.4486
 20
89.6416
 10
1048.3138
 20
89.74
 10
1048.1719
 20
89.8326
 10
1048.0229
 20
89.9193
 10
1047.8668
 20
90.0001
 10
1047.7037
 20
90.0751
 10
1047.5301
 20
90.1426
 10
1047.3431
 20
90.2011
 10
1047.1428
 20
90.2505
 10
1046.9292
 20
90.2909
 10
1046.7021
 20
90.3224
 10
1046.4617
 20
90.3448
 10
1046.208
 20
90.3582
 10
1045.9408
 20
90.3627
 10
1045.6712
 20
90.355
 10
1045.4102
 20
90.3317
 10
1045.1577
 20
90.293
 10
1044.9138
 20
90.2387
 10
1044.6785
 20
90.169
 10
1044.4517
 20
90.0837
 10
1044.2334
 20
89.9829
 10
1044.0237
 20
89.8665
 10
1043.8416
 20
89.7506
 10
1043.6677
 20
89.6261
 10
1043.502
 20
89.493
 10
1043.3446
 20
89.3515
 10
1043.1953
 20
89.2015
 10
1043.0543
 20
89.0433
 10
1042.9214
 20
88.8768
 10
1042.7968
 20
88.7022
 10
1042.7
 20
88.8632
 10
1042.5943
 20
89.0187
 10
1042.4797
 20
89.1682
 10
1042.3562
 20
89.311
 10
1042.2425
 20
89.4271
 10
1042.1217
 20
89.5372
 10
1041.9939
 20
89.6416
 10
1041.8589
 20
89.74
 10
1041.7169
 20
89.8326
 10
1041.5678
 20
89.9193
 10
1041.4117
 20
90.0001
 10
1041.2485
 20
90.0751
 10
1041.0751
 20
90.1426
 10
1040.8883
 20
90.2011
 10
1040.6881
 20
90.2505
 10
1040.4746
 20
90.2909
 10
1040.2476
 20
90.3224
 10
1040.0072
 20
90.3448
 10
1039.7534
 20
90.3582
 10
1039.4862
 20
90.3627
 10
1039.2166
 20
90.355
 10
1038.9555
 20
90.3317
 10
1038.703
 20
90.293
 10
1038.459
 20
90.2387
 10
1038.2235
 20
90.169
 10
1037.9966
 20
90.0837
 10
1037.7783
 20
89.9829
 10
1037.5685
 20
89.8665
 10
1037.3951
 20
89.7561
 10
1037.2292
 20
89.6382
 10
1037.0707
 20
89.5128
 10
1036.9196
 20
89.3799
 10
1036.7759
 20
89.2393
 10
1036.6397
 20
89.091
 10
1036.511
 20
88.9351
 10
1036.3897
 20
88.7714
 10
1036.3897
 20
90.1646
 10
1034.7229
 20
90.1646
 10
1034.7229
 20
81.4288
 10
1036.3897
 20
81.4288
 10
1036.3897
 20
85.8993
 10
1036.4285
 20
86.1598
 10
1036.4791
 20
86.41
 10
1036.5416
 20
86.6502
 10
1036.6161
 20
86.8804
 10
1036.7024
 20
87.1007
 10
1036.8007
 20
87.311
 10
1036.9109
 20
87.5117
 10
1037.0331
 20
87.7026
 10
1037.1325
 20
87.8385
 10
1037.2401
 20
87.9681
 10
1037.3558
 20
88.0916
 10
1037.4797
 20
88.2089
 10
1037.6118
 20
88.32
 10
1037.7521
 20
88.4249
 10
1037.9005
 20
88.5236
 10
1038.0572
 20
88.616
 10
1038.2194
 20
88.6998
 10
1038.3847
 20
88.7724
 10
1038.5529
 20
88.8338
 10
1038.724
 20
88.8841
 10
1038.8982
 20
88.9231
 10
1039.0754
 20
88.9511
 10
1039.2556
 20
88.9678
 10
1039.4388
 20
88.9734
 10
1039.6174
 20
88.9704
 10
1039.7841
 20
88.9616
 10
1039.9389
 20
88.9468
 10
1040.0818
 20
88.9261
 10
1040.2127
 20
88.8995
 10
1040.3318
 20
88.867
 10
1040.4389
 20
88.8287
 10
1040.534
 20
88.7845
 10
1040.7741
 20
88.6366
 10
1040.9821
 20
88.4632
 10
1041.1581
 20
88.2644
 10
1041.3021
 20
88.0401
 10
1041.4141
 20
87.7904
 10
1041.4941
 20
87.5152
 10
1041.5421
 20
87.2146
 10
1041.5581
 20
86.8885
 10
1041.5581
 20
81.4288
 10
1043.2255
 20
81.4288
 10
1043.2255
 20
86.8885
 10
1043.2137
 20
87.2228
 10
1043.4876
 20
87.7026
 10
1043.587
 20
87.8385
 10
1043.6946
 20
87.9681
 10
1043.8103
 20
88.0916
 10
1043.9342
 20
88.2089
 10
1044.0663
 20
88.32
 10
1044.2066
 20
88.4249
 10
1044.355
 20
88.5236
 10
1044.5117
 20
88.616
 10
1044.6739
 20
88.6998
 10
1044.8392
 20
88.7724
 10
1045.0074
 20
88.8338
 10
1045.1785
 20
88.8841
 10
1045.3527
 20
88.9231
 10
1045.5299
 20
88.9511
 10
1045.7101
 20
88.9678
 10
1045.8933
 20
88.9734
 10
1046.0719
 20
88.9704
 10
1046.2386
 20
88.9616
 10
1046.3934
 20
88.9468
 10
1046.5364
 20
88.9261
 10
1046.6674
 20
88.8995
 10
1046.7866
 20
88.867
 10
1046.8938
 20
88.8287
 10
1046.9892
 20
88.7845
 10
1047.2291
 20
88.6366
 10
1047.437
 20
88.4632
 10
1047.613
 20
88.2644
 10
1047.757
 20
88.0401
 10
1047.8691
 20
87.7904
 10
1047.9491
 20
87.5152
 10
1047.9972
 20
87.2146
 10
1048.0132
 20
86.8885
 10
1048.0132
 20
81.4288
  0
ENDSEC
  0
SECTION
  2
OBJECTS
  0
DICTIONARY
  5
C
330
0
100
AcDbDictionary
281
     1
  3
ACAD_DETAILVIEWSTYLE
350
87
  3
ACAD_GROUP
350
D
  3
ACAD_LAYOUT
350
1A
  3
ACAD_MATERIAL
350
43
  3
ACAD_MLEADERSTYLE
350
5B
  3
ACAD_MLINESTYLE
350
17
  3
ACAD_PLOTSETTINGS
350
19
  3
ACAD_PLOTSTYLENAME
350
E
  3
ACAD_SCALELIST
350
47
  3
ACAD_SECTIONVIEWSTYLE
350
88
  3
ACAD_TABLESTYLE
350
59
  3
ACAD_VISUALSTYLE
350
2A
  3
ACDB_RECOMPOSE_DATA
350
84
  3
AcDbVariableDictionary
350
80
  0
SUN
  5
5D
330
29
100
AcDbSun
 90
        1
290
     0
 63
     7
421
 16777215
 40
1.0
291
     1
 91
  2455826
 92
 54000000
292
     0
 70
     2
 71
   256
280
     1
  0
DICTIONARY
  5
87
102
{ACAD_REACTORS
330
C
102
}
330
C
100
AcDbDictionary
281
     1
  0
DICTIONARY
  5
D
102
{ACAD_REACTORS
330
C
102
}
330
C
100
AcDbDictionary
281
     1
  0
DICTIONARY
  5
1A
102
{ACAD_REACTORS
330
C
102
}
330
C
100
AcDbDictionary
281
     1
  3
Layout1
350
1E
  3
Layout2
350
26
  3
Model
350
22
  0
DICTIONARY
  5
43
102
{ACAD_REACTORS
330
C
102
}
330
C
100
AcDbDictionary
281
     1
  3
ByBlock
350
45
  3
ByLayer
350
44
  3
Global
350
46
  0
DICTIONARY
  5
5B
102
{ACAD_REACTORS
330
C
102
}
330
C
100
AcDbDictionary
281
     1
  3
Standard
350
5C
  0
DICTIONARY
  5
17
102
{ACAD_REACTORS
330
C
102
}
330
C
100
AcDbDictionary
281
     1
  3
Standard
350
18
  0
DICTIONARY
  5
19
102
{ACAD_REACTORS
330
C
102
}
330
C
100
AcDbDictionary
281
     1
  0
ACDBDICTIONARYWDFLT
  5
E
102
{ACAD_REACTORS
330
C
102
}
330
C
100
AcDbDictionary
281
     1
  3
Normal
350
F
100
AcDbDictionaryWithDefault
340
F
  0
DICTIONARY
  5
47
102
{ACAD_REACTORS
330
C
102
}
330
C
100
AcDbDictionary
281
     1
  3
A0
350
48
  3
A1
350
49
  3
A2
350
4A
  3
A3
350
4B
  3
A4
350
4C
  3
A5
350
4D
  3
A6
350
4E
  3
A7
350
4F
  3
A8
350
50
  3
A9
350
51
  3
B1
350
52
  3
B2
350
53
  3
B3
350
54
  3
B4
350
55
  3
B5
350
56
  3
B6
350
57
  3
B7
350
58
  0
DICTIONARY
  5
88
102
{ACAD_REACTORS
330
C
102
}
330
C
100
AcDbDictionary
281
     1
  0
DICTIONARY
  5
59
102
{ACAD_REACTORS
330
C
102
}
330
C
100
AcDbDictionary
281
     1
  3
Standard
350
5A
  0
DICTIONARY
  5
2A
102
{ACAD_REACTORS
330
C
102
}
330
C
100
AcDbDictionary
281
     1
  3
2dWireframe
350
2F
  3
Basic
350
32
  3
Brighten
350
36
  3
ColorChange
350
3A
  3
Conceptual
350
34
  3
Dim
350
35
  3
EdgeColorOff
350
3D
  3
Facepattern
350
39
  3
Flat
350
2B
  3
FlatWithEdges
350
2C
  3
Gouraud
350
2D
  3
GouraudWithEdges
350
2E
  3
Hidden
350
31
  3
JitterOff
350
3B
  3
Linepattern
350
38
  3
OverhangOff
350
3C
  3
Realistic
350
33
  3
Shaded
350
42
  3
Shaded with edges
350
41
  3
Shades of Gray
350
3E
  3
Sketchy
350
3F
  3
Thicken
350
37
  3
Wireframe
350
30
  3
X-Ray
350
40
  0
XRECORD
  5
84
102
{ACAD_REACTORS
330
C
102
}
330
C
100
AcDbXrecord
280
     1
 90
        1
330
5A
  0
DICTIONARY
  5
80
102
{ACAD_REACTORS
330
C
102
}
330
C
100
AcDbDictionary
281
     1
  3
CANNOSCALE
350
81
  3
CMLEADERSTYLE
350
86
  3
CTABLESTYLE
350
85
  0
LAYOUT
  5
1E
102
{ACAD_REACTORS
330
1A
102
}
330
1A
100
AcDbPlotSettings
  1

  2
none_device
  4

  6

 40
0.0
 41
0.0
 42
0.0
 43
0.0
 44
0.0
 45
0.0
 46
0.0
 47
0.0
 48
0.0
 49
0.0
140
0.0
141
0.0
142
1.0
143
1.0
 70
   688
 72
     0
 73
     0
 74
     5
  7

 75
    16
 76
     0
 77
     2
 78
   300
147
1.0
148
0.0
149
0.0
100
AcDbLayout
  1
Layout1
 70
     1
 71
     1
 10
0.0
 20
0.0
 11
12.0
 21
9.0
 12
0.0
 22
0.0
 32
0.0
 14
1.000000000000000E+20
 24
1.000000000000000E+20
 34
1.000000000000000E+20
 15
-1.000000000000000E+20
 25
-1.000000000000000E+20
 35
-1.000000000000000E+20
146
0.0
 13
0.0
 23
0.0
 33
0.0
 16
1.0
 26
0.0
 36
0.0
 17
0.0
 27
1.0
 37
0.0
 76
     0
330
1B
  0
LAYOUT
  5
26
102
{ACAD_REACTORS
330
1A
102
}
330
1A
100
AcDbPlotSettings
  1

  2
none_device
  4

  6

 40
0.0
 41
0.0
 42
0.0
 43
0.0
 44
0.0
 45
0.0
 46
0.0
 47
0.0
 48
0.0
 49
0.0
140
0.0
141
0.0
142
1.0
143
1.0
 70
   688
 72
     0
 73
     0
 74
     5
  7

 75
    16
 76
     0
 77
     2
 78
   300
147
1.0
148
0.0
149
0.0
100
AcDbLayout
  1
Layout2
 70
     1
 71
     2
 10
0.0
 20
0.0
 11
0.0
 21
0.0
 12
0.0
 22
0.0
 32
0.0
 14
0.0
 24
0.0
 34
0.0
 15
0.0
 25
0.0
 35
0.0
146
0.0
 13
0.0
 23
0.0
 33
0.0
 16
1.0
 26
0.0
 36
0.0
 17
0.0
 27
1.0
 37
0.0
 76
     0
330
23
  0
LAYOUT
  5
22
102
{ACAD_REACTORS
330
1A
102
}
330
1A
100
AcDbPlotSettings
  1

  2
none_device
  4
Letter_(8.50_x_11.00_Inches)
  6

 40
6.35
 41
6.35
 42
6.35000508
 43
6.35000508
 44
215.9
 45
279.4
 46
0.0
 47
0.0
 48
0.0
 49
0.0
140
0.0
141
0.0
142
1.0
143
1.0
 70
  1712
 72
     0
 73
     0
 74
     0
  7

 75
     0
 76
     0
 77
     2
 78
   300
147
1.0
148
0.0
149
0.0
100
AcDbLayout
  1
Model
 70
     1
 71
     0
 10
0.0
 20
0.0
 11
12.0
 21
9.0
 12
0.0
 22
0.0
 32
0.0
 14
191.1858
 24
-153.0176
 34
0.0
 15
1263.9909
 25
168.2402
 35
0.0
146
0.0
 13
0.0
 23
0.0
 33
0.0
 16
1.0
 26
0.0
 36
0.0
 17
0.0
 27
1.0
 37
0.0
 76
     0
330
1F
331
29
  0
MATERIAL
  5
45
102
{ACAD_REACTORS
330
43
102
}
330
43
100
AcDbMaterial
  1
ByBlock
 72
     1
 94
      127
  0
MATERIAL
  5
44
102
{ACAD_REACTORS
330
43
102
}
330
43
100
AcDbMaterial
  1
ByLayer
 72
     1
 94
      127
  0
MATERIAL
  5
46
102
{ACAD_REACTORS
330
43
102
}
330
43
100
AcDbMaterial
  1
Global
 72
     1
 94
      127
  0
MLEADERSTYLE
  5
5C
102
{ACAD_REACTORS
330
5B
102
}
330
5B
100
AcDbMLeaderStyle
179
     2
170
     2
171
     1
172
     0
 90
        2
 40
0.0
 41
0.0
173
     1
 91
-1056964608
340
14
 92
       -2
290
     1
 42
0.09
291
     1
 43
0.36
  3
Standard
341
0
 44
0.18
300

342
11
174
     1
178
     6
175
     1
176
     0
 93
-1056964608
 45
0.18
292
     0
297
     0
 46
0.18
343
0
 94
-1056964608
 47
1.0
 49
1.0
140
1.0
293
     1
141
0.0
294
     1
177
     0
142
1.0
295
     0
296
     0
143
0.125
271
     0
272
     9
273
     9
298
     0
  0
MLINESTYLE
  5
18
102
{ACAD_REACTORS
330
17
102
}
330
17
100
AcDbMlineStyle
  2
Standard
 70
     0
  3

 62
   256
 51
90.0
 52
90.0
 71
     2
 49
0.5
 62
   256
  6
BYLAYER
 49
-0.5
 62
   256
  6
BYLAYER
  0
ACDBPLACEHOLDER
  5
F
102
{ACAD_REACTORS
330
E
102
}
330
E
  0
SCALE
  5
48
102
{ACAD_REACTORS
330
47
102
}
330
47
100
AcDbScale
 70
     0
300
1:1
140
1.0
141
1.0
290
     1
  0
SCALE
  5
49
102
{ACAD_REACTORS
330
47
102
}
330
47
100
AcDbScale
 70
     0
300
1/128" = 1'-0"
140
0.0078125
141
12.0
290
     0
  0
SCALE
  5
4A
102
{ACAD_REACTORS
330
47
102
}
330
47
100
AcDbScale
 70
     0
300
1/64" = 1'-0"
140
0.015625
141
12.0
290
     0
  0
SCALE
  5
4B
102
{ACAD_REACTORS
330
47
102
}
330
47
100
AcDbScale
 70
     0
300
1/32" = 1'-0"
140
0.03125
141
12.0
290
     0
  0
SCALE
  5
4C
102
{ACAD_REACTORS
330
47
102
}
330
47
100
AcDbScale
 70
     0
300
1/16" = 1'-0"
140
0.0625
141
12.0
290
     0
  0
SCALE
  5
4D
102
{ACAD_REACTORS
330
47
102
}
330
47
100
AcDbScale
 70
     0
300
3/32" = 1'-0"
140
0.09375
141
12.0
290
     0
  0
SCALE
  5
4E
102
{ACAD_REACTORS
330
47
102
}
330
47
100
AcDbScale
 70
     0
300
1/8" = 1'-0"
140
0.125
141
12.0
290
     0
  0
SCALE
  5
4F
102
{ACAD_REACTORS
330
47
102
}
330
47
100
AcDbScale
 70
     0
300
3/16" = 1'-0"
140
0.1875
141
12.0
290
     0
  0
SCALE
  5
50
102
{ACAD_REACTORS
330
47
102
}
330
47
100
AcDbScale
 70
     0
300
1/4" = 1'-0"
140
0.25
141
12.0
290
     0
  0
SCALE
  5
51
102
{ACAD_REACTORS
330
47
102
}
330
47
100
AcDbScale
 70
     0
300
3/8" = 1'-0"
140
0.375
141
12.0
290
     0
  0
SCALE
  5
52
102
{ACAD_REACTORS
330
47
102
}
330
47
100
AcDbScale
 70
     0
300
1/2" = 1'-0"
140
0.5
141
12.0
290
     0
  0
SCALE
  5
53
102
{ACAD_REACTORS
330
47
102
}
330
47
100
AcDbScale
 70
     0
300
3/4" = 1'-0"
140
0.75
141
12.0
290
     0
  0
SCALE
  5
54
102
{ACAD_REACTORS
330
47
102
}
330
47
100
AcDbScale
 70
     0
300
1" = 1'-0"
140
1.0
141
12.0
290
     0
  0
SCALE
  5
55
102
{ACAD_REACTORS
330
47
102
}
330
47
100
AcDbScale
 70
     0
300
1-1/2" = 1'-0"
140
1.5
141
12.0
290
     0
  0
SCALE
  5
56
102
{ACAD_REACTORS
330
47
102
}
330
47
100
AcDbScale
 70
     0
300
3" = 1'-0"
140
3.0
141
12.0
290
     0
  0
SCALE
  5
57
102
{ACAD_REACTORS
330
47
102
}
330
47
100
AcDbScale
 70
     0
300
6" = 1'-0"
140
6.0
141
12.0
290
     0
  0
SCALE
  5
58
102
{ACAD_REACTORS
330
47
102
}
330
47
100
AcDbScale
 70
     0
300
1'-0" = 1'-0"
140
12.0
141
12.0
290
     0
  0
TABLESTYLE
  5
5A
102
{ACAD_REACTORS
330
59
102
}
102
{ACAD_XDICTIONARY
360
82
102
}
330
59
100
AcDbTableStyle
  3
Standard
 70
     0
 71
     0
 40
0.06
 41
0.06
280
     0
281
     0
  7
Standard
140
0.18
170
     2
 62
     0
 63
   257
283
     0
 90
        4
 91
        0
  1

274
    -2
284
     1
 64
     0
275
    -2
285
     1
 65
     0
276
    -2
286
     1
 66
     0
277
    -2
287
     1
 67
     0
278
    -2
288
     1
 68
     0
279
    -2
289
     1
 69
     0
  7
Standard
140
0.25
170
     5
 62
     0
 63
   257
283
     0
 90
        4
 91
        0
  1

274
    -2
284
     1
 64
     0
275
    -2
285
     1
 65
     0
276
    -2
286
     1
 66
     0
277
    -2
287
     1
 67
     0
278
    -2
288
     1
 68
     0
279
    -2
289
     1
 69
     0
  7
Standard
140
0.18
170
     5
 62
     0
 63
   257
283
     0
 90
        4
 91
        0
  1

274
    -2
284
     1
 64
     0
275
    -2
285
     1
 65
     0
276
    -2
286
     1
 66
     0
277
    -2
287
     1
 67
     0
278
    -2
288
     1
 68
     0
279
    -2
289
     1
 69
     0
  0
VISUALSTYLE
  5
2F
102
{ACAD_REACTORS
330
2A
102
}
330
2A
100
AcDbVisualStyle
  2
2dWireframe
 70
     4
177
     3
291
     0
 70
    58
 90
        0
176
     1
 90
        2
176
     1
 90
        0
176
     1
 90
        0
176
     1
 40
0.6
176
     1
 40
30.0
176
     1
 62
     7
420
 16777215
176
     1
 90
        1
176
     1
 90
        4
176
     1
 62
     7
176
     1
 62
   257
176
     1
 90
        1
176
     1
 90
        1
176
     1
 40
1.0
176
     1
 90
        0
176
     1
 62
   257
176
     1
 40
1.0
176
     1
 90
        1
176
     1
 90
        6
176
     1
 90
        2
176
     1
 62
     7
176
     1
 90
        5
176
     1
 90
        0
176
     1
 90
        0
176
     1
290
     0
176
     1
 90
        1
176
     1
 40
0.0
176
     1
 90
        0
176
     1
290
     1
176
     1
290
     1
176
     1
290
     0
176
     1
290
     0
176
     1
290
     0
176
     1
290
     0
176
     1
290
     0
176
     1
290
     0
176
     1
290
     0
176
     1
 90
       50
176
     1
 40
0.0
176
     1
 40
1.0
176
     1
 90
        0
176
     1
 62
    18
420
        0
176
     1
 90
       50
176
     1
 90
        3
176
     1
 62
     5
420
      255
176
     1
290
     0
176
     1
 90
       50
176
     1
 90
       50
176
     1
 90
       50
176
     1
290
     0
176
     1
 90
       50
176
     1
 62
   256
176
     0
 40
1.0
176
     0
 90
        2
176
     1
  1
strokes_ogs.tif
176
     1
290
     0
176
     1
 40
1.0
176
     1
 40
1.0
176
     1
  0
VISUALSTYLE
  5
32
102
{ACAD_REACTORS
330
2A
102
}
330
2A
100
AcDbVisualStyle
  2
Basic
 70
     7
177
     3
291
     1
 70
    58
 90
        1
176
     1
 90
        0
176
     1
 90
        1
176
     1
 90
        0
176
     1
 40
0.6
176
     1
 40
30.0
176
     1
 62
     7
420
 16777215
176
     1
 90
        0
176
     1
 90
        4
176
     1
 62
     7
176
     1
 62
   257
176
     1
 90
        1
176
     1
 90
        1
176
     1
 40
1.0
176
     1
 90
        8
176
     1
 62
     7
176
     1
 40
1.0
176
     1
 90
        1
176
     1
 90
        6
176
     1
 90
        2
176
     1
 62
     7
176
     1
 90
        5
176
     1
 90
        0
176
     1
 90
        0
176
     1
290
     0
176
     1
 90
        1
176
     1
 40
0.0
176
     1
 90
        0
176
     1
290
     0
176
     1
290
     1
176
     1
290
     1
176
     1
290
     0
176
     1
290
     0
176
     1
290
     0
176
     1
290
     0
176
     1
290
     0
176
     1
290
     0
176
     1
 90
       50
176
     1
 40
0.0
176
     1
 40
1.0
176
     1
 90
        0
176
     1
 62
    18
420
        0
176
     1
 90
       50
176
     1
 90
        3
176
     1
 62
     5
420
      255
176
     1
290
     0
176
     1
 90
       50
176
     1
 90
       50
176
     1
 90
       50
176
     1
290
     0
176
     1
 90
       50
176
     1
 62
   256
176
     0
 40
1.0
176
     0
 90
        2
176
     1
  1
strokes_ogs.tif
176
     1
290
     0
176
     1
 40
1.0
176
     1
 40
1.0
176
     1
  0
VISUALSTYLE
  5
36
102
{ACAD_REACTORS
330
2A
102
}
330
2A
100
AcDbVisualStyle
  2
Brighten
 70
    12
177
     3
291
     1
 70
    58
 90
        2
176
     1
 90
        2
176
     1
 90
        0
176
     1
 90
        0
176
     1
 40
0.6
176
     1
 40
30.0
176
     1
 62
     7
420
 16777215
176
     1
 90
        1
176
     1
 90
        4
176
     1
 62
     7
176
     1
 62
   257
176
     1
 90
        1
176
     1
 90
        1
176
     1
 40
1.0
176
     1
 90
        8
176
     1
 62
     7
176
     1
 40
1.0
176
     1
 90
        1
176
     1
 90
        6
176
     1
 90
        2
176
     1
 62
     7
176
     1
 90
        5
176
     1
 90
        0
176
     1
 90
        0
176
     1
290
     0
176
     1
 90
        1
176
     1
 40
50.0
176
     1
 90
        0
176
     1
290
     0
176
     1
290
     1
176
     1
290
     1
176
     1
290
     0
176
     1
290
     0
176
     1
290
     0
176
     1
290
     0
176
     1
290
     0
176
     1
290
     0
176
     1
 90
       50
176
     1
 40
0.0
176
     1
 40
1.0
176
     1
 90
        0
176
     1
 62
    18
420
        0
176
     1
 90
       50
176
     1
 90
        3
176
     1
 62
     5
420
      255
176
     1
290
     0
176
     1
 90
       50
176
     1
 90
       50
176
     1
 90
       50
176
     1
290
     0
176
     1
 90
       50
176
     1
 62
   256
176
     0
 40
1.0
176
     0
 90
        2
176
     1
  1
strokes_ogs.tif
176
     1
290
     0
176
     1
 40
1.0
176
     1
 40
1.0
176
     1
  0
VISUALSTYLE
  5
3A
102
{ACAD_REACTORS
330
2A
102
}
330
2A
100
AcDbVisualStyle
  2
ColorChange
 70
    16
177
     3
291
     1
 70
    58
 90
        2
176
     1
 90
        2
176
     1
 90
        3
176
     1
 90
        0
176
     1
 40
0.6
176
     1
 40
30.0
176
     1
 62
     8
420
  8421504
176
     1
 90
        1
176
     1
 90
        4
176
     1
 62
     7
176
     1
 62
   257
176
     1
 90
        1
176
     1
 90
        1
176
     1
 40
1.0
176
     1
 90
        8
176
     1
 62
     8
420
  8421504
176
     1
 40
1.0
176
     1
 90
        1
176
     1
 90
        6
176
     1
 90
        2
176
     1
 62
     7
176
     1
 90
        5
176
     1
 90
        0
176
     1
 90
        0
176
     1
290
     0
176
     1
 90
        1
176
     1
 40
0.0
176
     1
 90
        0
176
     1
290
     0
176
     1
290
     1
176
     1
290
     1
176
     1
290
     0
176
     1
290
     0
176
     1
290
     0
176
     1
290
     0
176
     1
290
     0
176
     1
290
     0
176
     1
 90
       50
176
     1
 40
0.0
176
     1
 40
1.0
176
     1
 90
        0
176
     1
 62
    18
420
        0
176
     1
 90
       50
176
     1
 90
        3
176
     1
 62
     5
420
      255
176
     1
290
     0
176
     1
 90
       50
176
     1
 90
       50
176
     1
 90
       50
176
     1
290
     0
176
     1
 90
       50
176
     1
 62
   256
176
     0
 40
1.0
176
     0
 90
        2
176
     1
  1
strokes_ogs.tif
176
     1
290
     0
176
     1
 40
1.0
176
     1
 40
1.0
176
     1
  0
VISUALSTYLE
  5
34
102
{ACAD_REACTORS
330
2A
102
}
330
2A
100
AcDbVisualStyle
  2
Conceptual
 70
     9
177
     3
291
     0
 70
    58
 90
        3
176
     1
 90
        2
176
     1
 90
        0
176
     1
 90
        0
176
     1
 40
0.6
176
     1
 40
30.0
176
     1
 62
     7
420
 16777215
176
     1
 90
        2
176
     1
 90
        2
176
     1
 62
     7
176
     1
 62
   257
176
     1
 90
        1
176
     1
 90
        1
176
     1
 40
179.0
176
     1
 90
        8
176
     1
 62
     7
176
     1
 40
1.0
176
     1
 90
        1
176
     1
 90
        6
176
     1
 90
        2
176
     1
 62
     7
176
     1
 90
        3
176
     1
 90
        0
176
     1
 90
        0
176
     1
290
     0
176
     1
 90
        1
176
     1
 40
0.0
176
     1
 90
        0
176
     1
290
     0
176
     1
290
     1
176
     1
290
     1
176
     1
290
     0
176
     1
290
     0
176
     1
290
     0
176
     1
290
     0
176
     1
290
     0
176
     1
290
     0
176
     1
 90
       50
176
     1
 40
0.0
176
     1
 40
1.0
176
     1
 90
        0
176
     1
 62
    18
420
        0
176
     1
 90
       50
176
     1
 90
        3
176
     1
 62
     5
420
      255
176
     1
290
     0
176
     1
 90
       50
176
     1
 90
       50
176
     1
 90
       50
176
     1
290
     0
176
     1
 90
       50
176
     1
 62
   256
176
     0
 40
1.0
176
     0
 90
        2
176
     1
  1
strokes_ogs.tif
176
     1
290
     0
176
     1
 40
1.0
176
     1
 40
1.0
176
     1
  0
VISUALSTYLE
  5
35
102
{ACAD_REACTORS
330
2A
102
}
330
2A
100
AcDbVisualStyle
  2
Dim
 70
    11
177
     3
291
     1
 70
    58
 90
        2
176
     1
 90
        2
176
     1
 90
        0
176
     1
 90
        0
176
     1
 40
0.6
176
     1
 40
30.0
176
     1
 62
     7
420
 16777215
176
     1
 90
        1
176
     1
 90
        4
176
     1
 62
     7
176
     1
 62
   257
176
     1
 90
        1
176
     1
 90
        1
176
     1
 40
1.0
176
     1
 90
        8
176
     1
 62
     7
176
     1
 40
1.0
176
     1
 90
        1
176
     1
 90
        6
176
     1
 90
        2
176
     1
 62
     7
176
     1
 90
        5
176
     1
 90
        0
176
     1
 90
        0
176
     1
290
     0
176
     1
 90
        1
176
     1
 40
-50.0
176
     1
 90
        0
176
     1
290
     0
176
     1
290
     1
176
     1
290
     1
176
     1
290
     0
176
     1
290
     0
176
     1
290
     0
176
     1
290
     0
176
     1
290
     0
176
     1
290
     0
176
     1
 90
       50
176
     1
 40
0.0
176
     1
 40
1.0
176
     1
 90
        0
176
     1
 62
    18
420
        0
176
     1
 90
       50
176
     1
 90
        3
176
     1
 62
     5
420
      255
176
     1
290
     0
176
     1
 90
       50
176
     1
 90
       50
176
     1
 90
       50
176
     1
290
     0
176
     1
 90
       50
176
     1
 62
   256
176
     0
 40
1.0
176
     0
 90
        2
176
     1
  1
strokes_ogs.tif
176
     1
290
     0
176
     1
 40
1.0
176
     1
 40
1.0
176
     1
  0
VISUALSTYLE
  5
3D
102
{ACAD_REACTORS
330
2A
102
}
330
2A
100
AcDbVisualStyle
  2
EdgeColorOff
 70
    22
177
     3
291
     1
 70
    58
 90
        2
176
     0
 90
        2
176
     0
 90
        0
176
     0
 90
        0
176
     0
 40
0.6
176
     0
 40
30.0
176
     0
 62
     7
420
 16777215
176
     0
 90
        1
176
     0
 90
        4
176
     0
 62
     7
176
     0
 62
   257
176
     0
 90
        1
176
     0
 90
        1
176
     0
 40
1.0
176
     0
 90
        8
176
     2
 62
     7
176
     0
 40
1.0
176
     0
 90
        1
176
     0
 90
        6
176
     0
 90
        2
176
     0
 62
     7
176
     0
 90
        5
176
     0
 90
        0
176
     0
 90
        0
176
     0
290
     0
176
     0
 90
        1
176
     0
 40
0.0
176
     0
 90
        0
176
     0
290
     0
176
     0
290
     1
176
     0
290
     1
176
     0
290
     0
176
     0
290
     0
176
     0
290
     0
176
     0
290
     0
176
     0
290
     0
176
     0
290
     0
176
     0
 90
       50
176
     0
 40
0.0
176
     0
 40
1.0
176
     0
 90
        0
176
     0
 62
    18
420
        0
176
     0
 90
       50
176
     0
 90
        3
176
     0
 62
     5
420
      255
176
     0
290
     0
176
     0
 90
       50
176
     0
 90
       50
176
     0
 90
       50
176
     0
290
     0
176
     0
 90
       50
176
     0
 62
   256
176
     0
 40
1.0
176
     0
 90
        2
176
     0
  1
strokes_ogs.tif
176
     0
290
     0
176
     0
 40
1.0
176
     0
 40
1.0
176
     0
  0
VISUALSTYLE
  5
39
102
{ACAD_REACTORS
330
2A
102
}
330
2A
100
AcDbVisualStyle
  2
Facepattern
 70
    15
177
     3
291
     1
 70
    58
 90
        2
176
     1
 90
        2
176
     1
 90
        0
176
     1
 90
        0
176
     1
 40
0.6
176
     1
 40
30.0
176
     1
 62
     7
420
 16777215
176
     1
 90
        1
176
     1
 90
        4
176
     1
 62
     7
176
     1
 62
   257
176
     1
 90
        1
176
     1
 90
        1
176
     1
 40
1.0
176
     1
 90
        8
176
     1
 62
     7
176
     1
 40
1.0
176
     1
 90
        1
176
     1
 90
        6
176
     1
 90
        2
176
     1
 62
     7
176
     1
 90
        5
176
     1
 90
        0
176
     1
 90
        0
176
     1
290
     0
176
     1
 90
        1
176
     1
 40
0.0
176
     1
 90
        0
176
     1
290
     0
176
     1
290
     1
176
     1
290
     1
176
     1
290
     0
176
     1
290
     0
176
     1
290
     0
176
     1
290
     0
176
     1
290
     0
176
     1
290
     0
176
     1
 90
       50
176
     1
 40
0.0
176
     1
 40
1.0
176
     1
 90
        0
176
     1
 62
    18
420
        0
176
     1
 90
       50
176
     1
 90
        3
176
     1
 62
     5
420
      255
176
     1
290
     0
176
     1
 90
       50
176
     1
 90
       50
176
     1
 90
       50
176
     1
290
     0
176
     1
 90
       50
176
     1
 62
   256
176
     0
 40
1.0
176
     0
 90
        2
176
     1
  1
strokes_ogs.tif
176
     1
290
     0
176
     1
 40
1.0
176
     1
 40
1.0
176
     1
  0
VISUALSTYLE
  5
2B
102
{ACAD_REACTORS
330
2A
102
}
330
2A
100
AcDbVisualStyle
  2
Flat
 70
     0
177
     3
291
     1
 70
    58
 90
        2
176
     1
 90
        1
176
     1
 90
        1
176
     1
 90
        2
176
     1
 40
0.6
176
     1
 40
30.0
176
     1
 62
     7
420
 16777215
176
     1
 90
        0
176
     1
 90
        0
176
     1
 62
     7
176
     1
 62
   257
176
     1
 90
        1
176
     1
 90
        1
176
     1
 40
1.0
176
     1
 90
        8
176
     1
 62
     7
176
     1
 40
1.0
176
     1
 90
        1
176
     1
 90
        6
176
     1
 90
        2
176
     1
 62
     7
176
     1
 90
        5
176
     1
 90
        0
176
     1
 90
        0
176
     1
290
     0
176
     1
 90
       13
176
     1
 40
0.0
176
     1
 90
        0
176
     1
290
     0
176
     1
290
     1
176
     1
290
     1
176
     1
290
     0
176
     1
290
     0
176
     1
290
     0
176
     1
290
     0
176
     1
290
     0
176
     1
290
     0
176
     1
 90
       50
176
     1
 40
0.0
176
     1
 40
1.0
176
     1
 90
        0
176
     1
 62
    18
420
        0
176
     1
 90
       50
176
     1
 90
        3
176
     1
 62
     5
420
      255
176
     1
290
     0
176
     1
 90
       50
176
     1
 90
       50
176
     1
 90
       50
176
     1
290
     0
176
     1
 90
       50
176
     1
 62
   256
176
     0
 40
1.0
176
     0
 90
        2
176
     1
  1
strokes_ogs.tif
176
     1
290
     0
176
     1
 40
1.0
176
     1
 40
1.0
176
     1
  0
VISUALSTYLE
  5
2C
102
{ACAD_REACTORS
330
2A
102
}
330
2A
100
AcDbVisualStyle
  2
FlatWithEdges
 70
     1
177
     3
291
     1
 70
    58
 90
        2
176
     1
 90
        1
176
     1
 90
        1
176
     1
 90
        2
176
     1
 40
0.6
176
     1
 40
30.0
176
     1
 62
     7
420
 16777215
176
     1
 90
        1
176
     1
 90
        0
176
     1
 62
     7
176
     1
 62
   257
176
     1
 90
        1
176
     1
 90
        1
176
     1
 40
1.0
176
     1
 90
        0
176
     1
 62
   257
176
     1
 40
1.0
176
     1
 90
        1
176
     1
 90
        6
176
     1
 90
        2
176
     1
 62
     7
176
     1
 90
        5
176
     1
 90
        0
176
     1
 90
        0
176
     1
290
     0
176
     1
 90
       13
176
     1
 40
0.0
176
     1
 90
        0
176
     1
290
     0
176
     1
290
     1
176
     1
290
     1
176
     1
290
     0
176
     1
290
     0
176
     1
290
     0
176
     1
290
     0
176
     1
290
     0
176
     1
290
     0
176
     1
 90
       50
176
     1
 40
0.0
176
     1
 40
1.0
176
     1
 90
        0
176
     1
 62
    18
420
        0
176
     1
 90
       50
176
     1
 90
        3
176
     1
 62
     5
420
      255
176
     1
290
     0
176
     1
 90
       50
176
     1
 90
       50
176
     1
 90
       50
176
     1
290
     0
176
     1
 90
       50
176
     1
 62
   256
176
     0
 40
1.0
176
     0
 90
        2
176
     1
  1
strokes_ogs.tif
176
     1
290
     0
176
     1
 40
1.0
176
     1
 40
1.0
176
     1
  0
VISUALSTYLE
  5
2D
102
{ACAD_REACTORS
330
2A
102
}
330
2A
100
AcDbVisualStyle
  2
Gouraud
 70
     2
177
     3
291
     1
 70
    58
 90
        2
176
     1
 90
        2
176
     1
 90
        1
176
     1
 90
        2
176
     1
 40
0.6
176
     1
 40
30.0
176
     1
 62
     7
420
 16777215
176
     1
 90
        0
176
     1
 90
        0
176
     1
 62
     7
176
     1
 62
   257
176
     1
 90
        1
176
     1
 90
        1
176
     1
 40
1.0
176
     1
 90
        0
176
     1
 62
     7
176
     1
 40
1.0
176
     1
 90
        1
176
     1
 90
        6
176
     1
 90
        2
176
     1
 62
     7
176
     1
 90
        5
176
     1
 90
        0
176
     1
 90
        0
176
     1
290
     0
176
     1
 90
       13
176
     1
 40
0.0
176
     1
 90
        0
176
     1
290
     0
176
     1
290
     1
176
     1
290
     1
176
     1
290
     0
176
     1
290
     0
176
     1
290
     0
176
     1
290
     0
176
     1
290
     0
176
     1
290
     0
176
     1
 90
       50
176
     1
 40
0.0
176
     1
 40
1.0
176
     1
 90
        0
176
     1
 62
    18
420
        0
176
     1
 90
       50
176
     1
 90
        3
176
     1
 62
     5
420
      255
176
     1
290
     0
176
     1
 90
       50
176
     1
 90
       50
176
     1
 90
       50
176
     1
290
     0
176
     1
 90
       50
176
     1
 62
   256
176
     0
 40
1.0
176
     0
 90
        2
176
     1
  1
strokes_ogs.tif
176
     1
290
     0
176
     1
 40
1.0
176
     1
 40
1.0
176
     1
  0
VISUALSTYLE
  5
2E
102
{ACAD_REACTORS
330
2A
102
}
330
2A
100
AcDbVisualStyle
  2
GouraudWithEdges
 70
     3
177
     3
291
     1
 70
    58
 90
        2
176
     1
 90
        2
176
     1
 90
        1
176
     1
 90
        2
176
     1
 40
0.6
176
     1
 40
30.0
176
     1
 62
     7
420
 16777215
176
     1
 90
        1
176
     1
 90
        0
176
     1
 62
     7
176
     1
 62
   257
176
     1
 90
        1
176
     1
 90
        1
176
     1
 40
1.0
176
     1
 90
        0
176
     1
 62
   257
176
     1
 40
1.0
176
     1
 90
        1
176
     1
 90
        6
176
     1
 90
        2
176
     1
 62
     7
176
     1
 90
        5
176
     1
 90
        0
176
     1
 90
        0
176
     1
290
     0
176
     1
 90
       13
176
     1
 40
0.0
176
     1
 90
        0
176
     1
290
     0
176
     1
290
     1
176
     1
290
     1
176
     1
290
     0
176
     1
290
     0
176
     1
290
     0
176
     1
290
     0
176
     1
290
     0
176
     1
290
     0
176
     1
 90
       50
176
     1
 40
0.0
176
     1
 40
1.0
176
     1
 90
        0
176
     1
 62
    18
420
        0
176
     1
 90
       50
176
     1
 90
        3
176
     1
 62
     5
420
      255
176
     1
290
     0
176
     1
 90
       50
176
     1
 90
       50
176
     1
 90
       50
176
     1
290
     0
176
     1
 90
       50
176
     1
 62
   256
176
     0
 40
1.0
176
     0
 90
        2
176
     1
  1
strokes_ogs.tif
176
     1
290
     0
176
     1
 40
1.0
176
     1
 40
1.0
176
     1
  0
VISUALSTYLE
  5
31
102
{ACAD_REACTORS
330
2A
102
}
330
2A
100
AcDbVisualStyle
  2
Hidden
 70
     6
177
     3
291
     0
 70
    58
 90
        1
176
     1
 90
        2
176
     1
 90
        2
176
     1
 90
        0
176
     1
 40
0.6
176
     1
 40
30.0
176
     1
 62
     7
420
 16777215
176
     1
 90
        2
176
     1
 90
        2
176
     1
 62
     7
176
     1
 62
   257
176
     1
 90
        2
176
     1
 90
        1
176
     1
 40
40.0
176
     1
 90
        0
176
     1
 62
   257
176
     1
 40
1.0
176
     1
 90
        1
176
     1
 90
        6
176
     1
 90
        2
176
     1
 62
     7
176
     1
 90
        3
176
     1
 90
        0
176
     1
 90
        0
176
     1
290
     0
176
     1
 90
        1
176
     1
 40
0.0
176
     1
 90
        0
176
     1
290
     0
176
     1
290
     1
176
     1
290
     1
176
     1
290
     0
176
     1
290
     0
176
     1
290
     0
176
     1
290
     0
176
     1
290
     0
176
     1
290
     0
176
     1
 90
       50
176
     1
 40
0.0
176
     1
 40
1.0
176
     1
 90
        0
176
     1
 62
    18
420
        0
176
     1
 90
       50
176
     1
 90
        3
176
     1
 62
     5
420
      255
176
     1
290
     0
176
     1
 90
       50
176
     1
 90
       50
176
     1
 90
       50
176
     1
290
     0
176
     1
 90
       50
176
     1
 62
   256
176
     0
 40
1.0
176
     0
 90
        2
176
     1
  1
strokes_ogs.tif
176
     1
290
     0
176
     1
 40
1.0
176
     1
 40
1.0
176
     1
  0
VISUALSTYLE
  5
3B
102
{ACAD_REACTORS
330
2A
102
}
330
2A
100
AcDbVisualStyle
  2
JitterOff
 70
    20
177
     3
291
     1
 70
    58
 90
        2
176
     0
 90
        2
176
     0
 90
        0
176
     0
 90
        0
176
     0
 40
0.6
176
     0
 40
30.0
176
     0
 62
     7
420
 16777215
176
     0
 90
        1
176
     0
 90
        4
176
     0
 62
     7
176
     0
 62
   257
176
     0
 90
        1
176
     0
 90
        1
176
     0
 40
1.0
176
     0
 90
       10
176
     2
 62
     7
176
     0
 40
1.0
176
     0
 90
        1
176
     0
 90
        6
176
     0
 90
        2
176
     0
 62
     7
176
     0
 90
        5
176
     0
 90
        0
176
     0
 90
        0
176
     0
290
     0
176
     0
 90
        1
176
     0
 40
0.0
176
     0
 90
        0
176
     0
290
     0
176
     0
290
     1
176
     0
290
     1
176
     0
290
     0
176
     0
290
     0
176
     0
290
     0
176
     0
290
     0
176
     0
290
     0
176
     0
290
     0
176
     0
 90
       50
176
     0
 40
0.0
176
     0
 40
1.0
176
     0
 90
        0
176
     0
 62
    18
420
        0
176
     0
 90
       50
176
     0
 90
        3
176
     0
 62
     5
420
      255
176
     0
290
     0
176
     0
 90
       50
176
     0
 90
       50
176
     0
 90
       50
176
     0
290
     0
176
     0
 90
       50
176
     0
 62
   256
176
     0
 40
1.0
176
     0
 90
        2
176
     0
  1
strokes_ogs.tif
176
     0
290
     0
176
     0
 40
1.0
176
     0
 40
1.0
176
     0
  0
VISUALSTYLE
  5
38
102
{ACAD_REACTORS
330
2A
102
}
330
2A
100
AcDbVisualStyle
  2
Linepattern
 70
    14
177
     3
291
     1
 70
    58
 90
        2
176
     1
 90
        2
176
     1
 90
        0
176
     1
 90
        0
176
     1
 40
0.6
176
     1
 40
30.0
176
     1
 62
     7
420
 16777215
176
     1
 90
        1
176
     1
 90
        4
176
     1
 62
     7
176
     1
 62
   257
176
     1
 90
        7
176
     1
 90
        7
176
     1
 40
1.0
176
     1
 90
        8
176
     1
 62
     7
176
     1
 40
1.0
176
     1
 90
        1
176
     1
 90
        6
176
     1
 90
        2
176
     1
 62
     7
176
     1
 90
        5
176
     1
 90
        0
176
     1
 90
        0
176
     1
290
     0
176
     1
 90
        1
176
     1
 40
0.0
176
     1
 90
        0
176
     1
290
     0
176
     1
290
     1
176
     1
290
     1
176
     1
290
     0
176
     1
290
     0
176
     1
290
     0
176
     1
290
     0
176
     1
290
     0
176
     1
290
     0
176
     1
 90
       50
176
     1
 40
0.0
176
     1
 40
1.0
176
     1
 90
        0
176
     1
 62
    18
420
        0
176
     1
 90
       50
176
     1
 90
        3
176
     1
 62
     5
420
      255
176
     1
290
     0
176
     1
 90
       50
176
     1
 90
       50
176
     1
 90
       50
176
     1
290
     0
176
     1
 90
       50
176
     1
 62
   256
176
     0
 40
1.0
176
     0
 90
        2
176
     1
  1
strokes_ogs.tif
176
     1
290
     0
176
     1
 40
1.0
176
     1
 40
1.0
176
     1
  0
VISUALSTYLE
  5
3C
102
{ACAD_REACTORS
330
2A
102
}
330
2A
100
AcDbVisualStyle
  2
OverhangOff
 70
    21
177
     3
291
     1
 70
    58
 90
        2
176
     0
 90
        2
176
     0
 90
        0
176
     0
 90
        0
176
     0
 40
0.6
176
     0
 40
30.0
176
     0
 62
     7
420
 16777215
176
     0
 90
        1
176
     0
 90
        4
176
     0
 62
     7
176
     0
 62
   257
176
     0
 90
        1
176
     0
 90
        1
176
     0
 40
1.0
176
     0
 90
        9
176
     2
 62
     7
176
     0
 40
1.0
176
     0
 90
        1
176
     0
 90
        6
176
     0
 90
        2
176
     0
 62
     7
176
     0
 90
        5
176
     0
 90
        0
176
     0
 90
        0
176
     0
290
     0
176
     0
 90
        1
176
     0
 40
0.0
176
     0
 90
        0
176
     0
290
     0
176
     0
290
     1
176
     0
290
     1
176
     0
290
     0
176
     0
290
     0
176
     0
290
     0
176
     0
290
     0
176
     0
290
     0
176
     0
290
     0
176
     0
 90
       50
176
     0
 40
0.0
176
     0
 40
1.0
176
     0
 90
        0
176
     0
 62
    18
420
        0
176
     0
 90
       50
176
     0
 90
        3
176
     0
 62
     5
420
      255
176
     0
290
     0
176
     0
 90
       50
176
     0
 90
       50
176
     0
 90
       50
176
     0
290
     0
176
     0
 90
       50
176
     0
 62
   256
176
     0
 40
1.0
176
     0
 90
        2
176
     0
  1
strokes_ogs.tif
176
     0
290
     0
176
     0
 40
1.0
176
     0
 40
1.0
176
     0
  0
VISUALSTYLE
  5
33
102
{ACAD_REACTORS
330
2A
102
}
330
2A
100
AcDbVisualStyle
  2
Realistic
 70
     8
177
     3
291
     0
 70
    58
 90
        2
176
     1
 90
        3
176
     1
 90
        0
176
     1
 90
        2
176
     1
 40
0.6
176
     1
 40
30.0
176
     1
 62
     7
420
 16777215
176
     1
 90
        0
176
     1
 90
        0
176
     1
 62
     7
176
     1
 62
   257
176
     1
 90
        1
176
     1
 90
        1
176
     1
 40
1.0
176
     1
 90
        8
176
     1
 62
   257
176
     1
 40
1.0
176
     1
 90
        1
176
     1
 90
        6
176
     1
 90
        2
176
     1
 62
     7
176
     1
 90
        3
176
     1
 90
        0
176
     1
 90
        0
176
     1
290
     0
176
     1
 90
       13
176
     1
 40
0.0
176
     1
 90
        0
176
     1
290
     0
176
     1
290
     1
176
     1
290
     1
176
     1
290
     0
176
     1
290
     0
176
     1
290
     0
176
     1
290
     0
176
     1
290
     0
176
     1
290
     0
176
     1
 90
       50
176
     1
 40
0.0
176
     1
 40
1.0
176
     1
 90
        0
176
     1
 62
    18
420
        0
176
     1
 90
       50
176
     1
 90
        3
176
     1
 62
     5
420
      255
176
     1
290
     0
176
     1
 90
       50
176
     1
 90
       50
176
     1
 90
       50
176
     1
290
     0
176
     1
 90
       50
176
     1
 62
   256
176
     0
 40
1.0
176
     0
 90
        2
176
     1
  1
strokes_ogs.tif
176
     1
290
     0
176
     1
 40
1.0
176
     1
 40
1.0
176
     1
  0
VISUALSTYLE
  5
42
102
{ACAD_REACTORS
330
2A
102
}
330
2A
100
AcDbVisualStyle
  2
Shaded
 70
    27
177
     3
291
     0
 70
    58
 90
        2
176
     1
 90
        2
176
     1
 90
        1
176
     1
 90
        2
176
     1
 40
0.6
176
     1
 40
30.0
176
     1
 62
     7
420
 16777215
176
     1
 90
        0
176
     1
 90
        4
176
     1
 62
     7
176
     1
 62
   257
176
     1
 90
        1
176
     1
 90
        1
176
     1
 40
1.0
176
     1
 90
        8
176
     1
 62
   257
176
     1
 40
1.0
176
     1
 90
        1
176
     1
 90
        6
176
     1
 90
        2
176
     1
 62
     8
420
  7895160
176
     1
 90
        3
176
     1
 90
        0
176
     1
 90
        0
176
     1
290
     0
176
     1
 90
        5
176
     1
 40
0.0
176
     1
 90
        0
176
     1
290
     0
176
     1
290
     1
176
     1
290
     1
176
     1
290
     0
176
     1
290
     0
176
     1
290
     0
176
     1
290
     0
176
     1
290
     0
176
     1
290
     0
176
     1
 90
       50
176
     1
 40
0.0
176
     1
 40
1.0
176
     1
 90
        0
176
     1
 62
    18
420
        0
176
     1
 90
       50
176
     1
 90
        3
176
     1
 62
     5
420
      255
176
     1
290
     0
176
     1
 90
       50
176
     1
 90
       50
176
     1
 90
       50
176
     1
290
     0
176
     1
 90
       50
176
     1
 62
   256
176
     0
 40
1.0
176
     0
 90
        2
176
     1
  1
strokes_ogs.tif
176
     1
290
     0
176
     1
 40
1.0
176
     1
 40
1.0
176
     1
  0
VISUALSTYLE
  5
41
102
{ACAD_REACTORS
330
2A
102
}
330
2A
100
AcDbVisualStyle
  2
Shaded with edges
 70
    26
177
     3
291
     0
 70
    58
 90
        2
176
     1
 90
        2
176
     1
 90
        1
176
     1
 90
        2
176
     1
 40
0.6
176
     1
 40
30.0
176
     1
 62
     7
420
 16777215
176
     1
 90
        1
176
     1
 90
       10
176
     1
 62
     7
176
     1
 62
   257
176
     1
 90
        2
176
     1
 90
        1
176
     1
 40
1.0
176
     1
 90
        8
176
     1
 62
   257
176
     1
 40
1.0
176
     1
 90
        1
176
     1
 90
        6
176
     1
 90
        2
176
     1
 62
     7
176
     1
 90
        3
176
     1
 90
        0
176
     1
 90
        0
176
     1
290
     0
176
     1
 90
        5
176
     1
 40
0.0
176
     1
 90
        0
176
     1
290
     0
176
     1
290
     1
176
     1
290
     1
176
     1
290
     0
176
     1
290
     0
176
     1
290
     0
176
     1
290
     0
176
     1
290
     0
176
     1
290
     0
176
     1
 90
       50
176
     1
 40
0.0
176
     1
 40
1.0
176
     1
 90
        0
176
     1
 62
    18
420
        0
176
     1
 90
       50
176
     1
 90
        3
176
     1
 62
     5
420
      255
176
     1
290
     0
176
     1
 90
       50
176
     1
 90
       50
176
     1
 90
       50
176
     1
290
     0
176
     1
 90
       50
176
     1
 62
   256
176
     0
 40
1.0
176
     0
 90
        2
176
     1
  1
strokes_ogs.tif
176
     1
290
     0
176
     1
 40
1.0
176
     1
 40
1.0
176
     1
  0
VISUALSTYLE
  5
3E
102
{ACAD_REACTORS
330
2A
102
}
330
2A
100
AcDbVisualStyle
  2
Shades of Gray
 70
    23
177
     3
291
     0
 70
    58
 90
        2
176
     1
 90
        2
176
     1
 90
        3
176
     1
 90
        0
176
     1
 40
0.6
176
     1
 40
30.0
176
     1
 62
     7
420
 16777215
176
     1
 90
        2
176
     1
 90
        2
176
     1
 62
     7
176
     1
 62
     7
176
     1
 90
        1
176
     1
 90
        1
176
     1
 40
40.0
176
     1
 90
        8
176
     1
 62
     7
176
     1
 40
1.0
176
     1
 90
        1
176
     1
 90
        6
176
     1
 90
        2
176
     1
 62
     7
176
     1
 90
        3
176
     1
 90
        0
176
     1
 90
        0
176
     1
290
     0
176
     1
 90
        1
176
     1
 40
0.0
176
     1
 90
        0
176
     1
290
     0
176
     1
290
     1
176
     1
290
     1
176
     1
290
     0
176
     1
290
     0
176
     1
290
     0
176
     1
290
     0
176
     1
290
     0
176
     1
290
     0
176
     1
 90
       50
176
     1
 40
0.0
176
     1
 40
1.0
176
     1
 90
        0
176
     1
 62
    18
420
        0
176
     1
 90
       50
176
     1
 90
        3
176
     1
 62
     5
420
      255
176
     1
290
     0
176
     1
 90
       50
176
     1
 90
       50
176
     1
 90
       50
176
     1
290
     0
176
     1
 90
       50
176
     1
 62
   256
176
     0
 40
1.0
176
     0
 90
        2
176
     1
  1
strokes_ogs.tif
176
     1
290
     0
176
     1
 40
1.0
176
     1
 40
1.0
176
     1
  0
VISUALSTYLE
  5
3F
102
{ACAD_REACTORS
330
2A
102
}
330
2A
100
AcDbVisualStyle
  2
Sketchy
 70
    24
177
     3
291
     0
 70
    58
 90
        1
176
     1
 90
        2
176
     1
 90
        2
176
     1
 90
        0
176
     1
 40
0.6
176
     1
 40
30.0
176
     1
 62
     7
420
 16777215
176
     1
 90
        2
176
     1
 90
        2
176
     1
 62
     7
176
     1
 62
     7
176
     1
 90
        1
176
     1
 90
        1
176
     1
 40
40.0
176
     1
 90
       11
176
     1
 62
     7
176
     1
 40
1.0
176
     1
 90
        1
176
     1
 90
        6
176
     1
 90
        2
176
     1
 62
     7
176
     1
 90
        6
176
     1
 90
        0
176
     1
 90
        0
176
     1
290
     0
176
     1
 90
        1
176
     1
 40
0.0
176
     1
 90
        0
176
     1
290
     0
176
     1
290
     1
176
     1
290
     1
176
     1
290
     0
176
     1
290
     0
176
     1
290
     0
176
     1
290
     0
176
     1
290
     0
176
     1
290
     0
176
     1
 90
       50
176
     1
 40
0.0
176
     1
 40
1.0
176
     1
 90
        0
176
     1
 62
    18
420
        0
176
     1
 90
       50
176
     1
 90
        3
176
     1
 62
     5
420
      255
176
     1
290
     0
176
     1
 90
       50
176
     1
 90
       50
176
     1
 90
       50
176
     1
290
     0
176
     1
 90
       50
176
     1
 62
   256
176
     0
 40
1.0
176
     0
 90
        2
176
     1
  1
strokes_ogs.tif
176
     1
290
     0
176
     1
 40
1.0
176
     1
 40
1.0
176
     1
  0
VISUALSTYLE
  5
37
102
{ACAD_REACTORS
330
2A
102
}
330
2A
100
AcDbVisualStyle
  2
Thicken
 70
    13
177
     3
291
     1
 70
    58
 90
        2
176
     1
 90
        2
176
     1
 90
        0
176
     1
 90
        0
176
     1
 40
0.6
176
     1
 40
30.0
176
     1
 62
     7
420
 16777215
176
     1
 90
        1
176
     1
 90
        4
176
     1
 62
     7
176
     1
 62
   257
176
     1
 90
        1
176
     1
 90
        1
176
     1
 40
1.0
176
     1
 90
       12
176
     1
 62
     7
176
     1
 40
1.0
176
     1
 90
        1
176
     1
 90
        6
176
     1
 90
        2
176
     1
 62
     7
176
     1
 90
        5
176
     1
 90
        0
176
     1
 90
        0
176
     1
290
     0
176
     1
 90
        1
176
     1
 40
0.0
176
     1
 90
        0
176
     1
290
     0
176
     1
290
     1
176
     1
290
     1
176
     1
290
     0
176
     1
290
     0
176
     1
290
     0
176
     1
290
     0
176
     1
290
     0
176
     1
290
     0
176
     1
 90
       50
176
     1
 40
0.0
176
     1
 40
1.0
176
     1
 90
        0
176
     1
 62
    18
420
        0
176
     1
 90
       50
176
     1
 90
        3
176
     1
 62
     5
420
      255
176
     1
290
     0
176
     1
 90
       50
176
     1
 90
       50
176
     1
 90
       50
176
     1
290
     0
176
     1
 90
       50
176
     1
 62
   256
176
     0
 40
1.0
176
     0
 90
        2
176
     1
  1
strokes_ogs.tif
176
     1
290
     0
176
     1
 40
1.0
176
     1
 40
1.0
176
     1
  0
VISUALSTYLE
  5
30
102
{ACAD_REACTORS
330
2A
102
}
330
2A
100
AcDbVisualStyle
  2
Wireframe
 70
     5
177
     3
291
     0
 70
    58
 90
        0
176
     1
 90
        2
176
     1
 90
        0
176
     1
 90
        0
176
     1
 40
0.6
176
     1
 40
30.0
176
     1
 62
     7
420
 16777215
176
     1
 90
        1
176
     1
 90
        4
176
     1
 62
     7
176
     1
 62
   257
176
     1
 90
        1
176
     1
 90
        1
176
     1
 40
1.0
176
     1
 90
        0
176
     1
 62
   257
176
     1
 40
1.0
176
     1
 90
        1
176
     1
 90
        6
176
     1
 90
        2
176
     1
 62
     7
176
     1
 90
        3
176
     1
 90
        0
176
     1
 90
        0
176
     1
290
     0
176
     1
 90
        1
176
     1
 40
0.0
176
     1
 90
        0
176
     1
290
     0
176
     1
290
     1
176
     1
290
     1
176
     1
290
     0
176
     1
290
     0
176
     1
290
     0
176
     1
290
     0
176
     1
290
     0
176
     1
290
     0
176
     1
 90
       50
176
     1
 40
0.0
176
     1
 40
1.0
176
     1
 90
        0
176
     1
 62
    18
420
        0
176
     1
 90
       50
176
     1
 90
        3
176
     1
 62
     5
420
      255
176
     1
290
     0
176
     1
 90
       50
176
     1
 90
       50
176
     1
 90
       50
176
     1
290
     0
176
     1
 90
       50
176
     1
 62
   256
176
     0
 40
1.0
176
     0
 90
        2
176
     1
  1
strokes_ogs.tif
176
     1
290
     0
176
     1
 40
1.0
176
     1
 40
1.0
176
     1
  0
VISUALSTYLE
  5
40
102
{ACAD_REACTORS
330
2A
102
}
330
2A
100
AcDbVisualStyle
  2
X-Ray
 70
    25
177
     3
291
     0
 70
    58
 90
        2
176
     1
 90
        2
176
     1
 90
        1
176
     1
 90
        1
176
     1
 40
0.5
176
     1
 40
30.0
176
     1
 62
     7
420
 16777215
176
     1
 90
        1
176
     1
 90
        0
176
     1
 62
     7
176
     1
 62
   257
176
     1
 90
        1
176
     1
 90
        1
176
     1
 40
1.0
176
     1
 90
        8
176
     1
 62
     7
176
     1
 40
1.0
176
     1
 90
        1
176
     1
 90
        6
176
     1
 90
        2
176
     1
 62
     7
176
     1
 90
        3
176
     1
 90
        0
176
     1
 90
        0
176
     1
290
     0
176
     1
 90
       13
176
     1
 40
0.0
176
     1
 90
        0
176
     1
290
     0
176
     1
290
     1
176
     1
290
     1
176
     1
290
     0
176
     1
290
     0
176
     1
290
     0
176
     1
290
     0
176
     1
290
     0
176
     1
290
     0
176
     1
 90
       50
176
     1
 40
0.0
176
     1
 40
1.0
176
     1
 90
        0
176
     1
 62
    18
420
        0
176
     1
 90
       50
176
     1
 90
        3
176
     1
 62
     5
420
      255
176
     1
290
     0
176
     1
 90
       50
176
     1
 90
       50
176
     1
 90
       50
176
     1
290
     0
176
     1
 90
       50
176
     1
 62
   256
176
     0
 40
1.0
176
     0
 90
        2
176
     1
  1
strokes_ogs.tif
176
     1
290
     0
176
     1
 40
1.0
176
     1
 40
1.0
176
     1
  0
DICTIONARYVAR
  5
81
102
{ACAD_REACTORS
330
80
102
}
330
80
100
DictionaryVariables
280
     0
  1
1:1
  0
DICTIONARYVAR
  5
86
102
{ACAD_REACTORS
330
80
102
}
330
80
100
DictionaryVariables
280
     0
  1
Standard
  0
DICTIONARYVAR
  5
85
102
{ACAD_REACTORS
330
80
102
}
330
80
100
DictionaryVariables
280
     0
  1
Standard
  0
DICTIONARY
  5
82
330
5A
100
AcDbDictionary
280
     1
281
     1
  3
ACAD_ROUNDTRIP_2008_TABLESTYLE_CELLSTYLEMAP
360
83
  0
CELLSTYLEMAP
  5
83
102
{ACAD_REACTORS
330
82
102
}
330
82
100
AcDbCellStyleMap
 90
        3
300
CELLSTYLE
  1
TABLEFORMAT_BEGIN
 90
        5
170
     1
 91
        0
 92
    32768
 62
   257
 93
        1
300
CONTENTFORMAT
  1
CONTENTFORMAT_BEGIN
 90
        0
 91
        0
 92
        4
 93
        0
300

 40
0.0
140
1.0
 94
        5
 62
     0
340
11
144
0.25
309
CONTENTFORMAT_END
171
     1
301
MARGIN
  1
CELLMARGIN_BEGIN
 40
0.06
 40
0.06
 40
0.06
 40
0.06
 40
0.06
 40
0.06
309
CELLMARGIN_END
 94
        6
 95
        1
302
GRIDFORMAT
  1
GRIDFORMAT_BEGIN
 90
        0
 91
        1
 62
     0
 92
       -2
340
14
 93
        0
 40
0.045
309
GRIDFORMAT_END
 95
        2
302
GRIDFORMAT
  1
GRIDFORMAT_BEGIN
 90
        0
 91
        1
 62
     0
 92
       -2
340
14
 93
        0
 40
0.045
309
GRIDFORMAT_END
 95
        4
302
GRIDFORMAT
  1
GRIDFORMAT_BEGIN
 90
        0
 91
        1
 62
     0
 92
       -2
340
14
 93
        0
 40
0.045
309
GRIDFORMAT_END
 95
        8
302
GRIDFORMAT
  1
GRIDFORMAT_BEGIN
 90
        0
 91
        1
 62
     0
 92
       -2
340
14
 93
        0
 40
0.045
309
GRIDFORMAT_END
 95
       16
302
GRIDFORMAT
  1
GRIDFORMAT_BEGIN
 90
        0
 91
        1
 62
     0
 92
       -2
340
14
 93
        0
 40
0.045
309
GRIDFORMAT_END
 95
       32
302
GRIDFORMAT
  1
GRIDFORMAT_BEGIN
 90
        0
 91
        1
 62
     0
 92
       -2
340
14
 93
        0
 40
0.045
309
GRIDFORMAT_END
309
TABLEFORMAT_END
  1
CELLSTYLE_BEGIN
 90
        1
 91
        1
300
_TITLE
309
CELLSTYLE_END
300
CELLSTYLE
  1
TABLEFORMAT_BEGIN
 90
        5
170
     1
 91
        0
 92
        0
 62
   257
 93
        1
300
CONTENTFORMAT
  1
CONTENTFORMAT_BEGIN
 90
        0
 91
        0
 92
        4
 93
        0
300

 40
0.0
140
1.0
 94
        5
 62
     0
340
11
144
0.18
309
CONTENTFORMAT_END
171
     1
301
MARGIN
  1
CELLMARGIN_BEGIN
 40
0.06
 40
0.06
 40
0.06
 40
0.06
 40
0.06
 40
0.06
309
CELLMARGIN_END
 94
        6
 95
        1
302
GRIDFORMAT
  1
GRIDFORMAT_BEGIN
 90
        0
 91
        1
 62
     0
 92
       -2
340
14
 93
        0
 40
0.045
309
GRIDFORMAT_END
 95
        2
302
GRIDFORMAT
  1
GRIDFORMAT_BEGIN
 90
        0
 91
        1
 62
     0
 92
       -2
340
14
 93
        0
 40
0.045
309
GRIDFORMAT_END
 95
        4
302
GRIDFORMAT
  1
GRIDFORMAT_BEGIN
 90
        0
 91
        1
 62
     0
 92
       -2
340
14
 93
        0
 40
0.045
309
GRIDFORMAT_END
 95
        8
302
GRIDFORMAT
  1
GRIDFORMAT_BEGIN
 90
        0
 91
        1
 62
     0
 92
       -2
340
14
 93
        0
 40
0.045
309
GRIDFORMAT_END
 95
       16
302
GRIDFORMAT
  1
GRIDFORMAT_BEGIN
 90
        0
 91
        1
 62
     0
 92
       -2
340
14
 93
        0
 40
0.045
309
GRIDFORMAT_END
 95
       32
302
GRIDFORMAT
  1
GRIDFORMAT_BEGIN
 90
        0
 91
        1
 62
     0
 92
       -2
340
14
 93
        0
 40
0.045
309
GRIDFORMAT_END
309
TABLEFORMAT_END
  1
CELLSTYLE_BEGIN
 90
        2
 91
        1
300
_HEADER
309
CELLSTYLE_END
300
CELLSTYLE
  1
TABLEFORMAT_BEGIN
 90
        5
170
     1
 91
        0
 92
        0
 62
   257
 93
        1
300
CONTENTFORMAT
  1
CONTENTFORMAT_BEGIN
 90
        0
 91
        0
 92
        4
 93
        0
300

 40
0.0
140
1.0
 94
        2
 62
     0
340
11
144
0.18
309
CONTENTFORMAT_END
171
     1
301
MARGIN
  1
CELLMARGIN_BEGIN
 40
0.06
 40
0.06
 40
0.06
 40
0.06
 40
0.06
 40
0.06
309
CELLMARGIN_END
 94
        6
 95
        1
302
GRIDFORMAT
  1
GRIDFORMAT_BEGIN
 90
        0
 91
        1
 62
     0
 92
       -2
340
14
 93
        0
 40
0.045
309
GRIDFORMAT_END
 95
        2
302
GRIDFORMAT
  1
GRIDFORMAT_BEGIN
 90
        0
 91
        1
 62
     0
 92
       -2
340
14
 93
        0
 40
0.045
309
GRIDFORMAT_END
 95
        4
302
GRIDFORMAT
  1
GRIDFORMAT_BEGIN
 90
        0
 91
        1
 62
     0
 92
       -2
340
14
 93
        0
 40
0.045
309
GRIDFORMAT_END
 95
        8
302
GRIDFORMAT
  1
GRIDFORMAT_BEGIN
 90
        0
 91
        1
 62
     0
 92
       -2
340
14
 93
        0
 40
0.045
309
GRIDFORMAT_END
 95
       16
302
GRIDFORMAT
  1
GRIDFORMAT_BEGIN
 90
        0
 91
        1
 62
     0
 92
       -2
340
14
 93
        0
 40
0.045
309
GRIDFORMAT_END
 95
       32
302
GRIDFORMAT
  1
GRIDFORMAT_BEGIN
 90
        0
 91
        1
 62
     0
 92
       -2
340
14
 93
        0
 40
0.045
309
GRIDFORMAT_END
309
TABLEFORMAT_END
  1
CELLSTYLE_BEGIN
 90
        3
 91
        2
300
_DATA
309
CELLSTYLE_END
  0
ENDSEC
  0
EOF
