  0
SECTION
  2
HEADER
  9
$ACADVER
  1
AC1027
  9
$ACADMAINTVER
 70
   105
  9
$DWGCODEPAGE
  3
ANSI_1252
  9
$LASTSAVEDBY
  1
Office Desk
  9
$REQUIREDVERSIONS
160
                 0
  9
$INSBASE
 10
0.0
 20
0.0
 30
0.0
  9
$EXTMIN
 10
191.1858
 20
-153.0176
 30
0.0
  9
$EXTMAX
 10
1263.9909
 20
168.2402
 30
0.0
  9
$LIMMIN
 10
0.0
 20
0.0
  9
$LIMMAX
 10
12.0
 20
9.0
  9
$ORTHOMODE
 70
     0
  9
$REGENMODE
 70
     1
  9
$FILLMODE
 70
     1
  9
$QTEXTMODE
 70
     0
  9
$MIRRTEXT
 70
     1
  9
$LTSCALE
 40
1.0
  9
$ATTMODE
 70
     1
  9
$TEXTSIZE
 40
0.2
  9
$TRACEWID
 40
0.05
  9
$TEXTSTYLE
  7
Standard
  9
$CLAYER
  8
0
  9
$CELTYPE
  6
ByLayer
  9
$CECOLOR
 62
   256
  9
$CELTSCALE
 40
1.0
  9
$DISPSILH
 70
     0
  9
$DIMSCALE
 40
1.0
  9
$DIMASZ
 40
0.18
  9
$DIMEXO
 40
0.0625
  9
$DIMDLI
 40
0.38
  9
$DIMRND
 40
0.0
  9
$DIMDLE
 40
0.0
  9
$DIMEXE
 40
0.18
  9
$DIMTP
 40
0.0
  9
$DIMTM
 40
0.0
  9
$DIMTXT
 40
0.18
  9
$DIMCEN
 40
0.09
  9
$DIMTSZ
 40
0.0
  9
$DIMTOL
 70
     0
  9
$DIMLIM
 70
     0
  9
$DIMTIH
 70
     1
  9
$DIMTOH
 70
     1
  9
$DIMSE1
 70
     0
  9
$DIMSE2
 70
     0
  9
$DIMTAD
 70
     0
  9
$DIMZIN
 70
     0
  9
$DIMBLK
  1

  9
$DIMASO
 70
     1
  9
$DIMSHO
 70
     1
  9
$DIMPOST
  1

  9
$DIMAPOST
  1

  9
$DIMALT
 70
     0
  9
$DIMALTD
 70
     2
  9
$DIMALTF
 40
25.4
  9
$DIMLFAC
 40
1.0
  9
$DIMTOFL
 70
     0
  9
$DIMTVP
 40
0.0
  9
$DIMTIX
 70
     0
  9
$DIMSOXD
 70
     0
  9
$DIMSAH
 70
     0
  9
$DIMBLK1
  1

  9
$DIMBLK2
  1

  9
$DIMSTYLE
  2
Standard
  9
$DIMCLRD
 70
     0
  9
$DIMCLRE
 70
     0
  9
$DIMCLRT
 70
     0
  9
$DIMTFAC
 40
1.0
  9
$DIMGAP
 40
0.09
  9
$DIMJUST
 70
     0
  9
$DIMSD1
 70
     0
  9
$DIMSD2
 70
     0
  9
$DIMTOLJ
 70
     1
  9
$DIMTZIN
 70
     0
  9
$DIMALTZ
 70
     0
  9
$DIMALTTZ
 70
     0
  9
$DIMUPT
 70
     0
  9
$DIMDEC
 70
     4
  9
$DIMTDEC
 70
     4
  9
$DIMALTU
 70
     2
  9
$DIMALTTD
 70
     2
  9
$DIMTXSTY
  7
Standard
  9
$DIMAUNIT
 70
     0
  9
$DIMADEC
 70
     0
  9
$DIMALTRND
 40
0.0
  9
$DIMAZIN
 70
     0
  9
$DIMDSEP
 70
    46
  9
$DIMATFIT
 70
     3
  9
$DIMFRAC
 70
     0
  9
$DIMLDRBLK
  1

  9
$DIMLUNIT
 70
     2
  9
$DIMLWD
 70
    -2
  9
$DIMLWE
 70
    -2
  9
$DIMTMOVE
 70
     0
  9
$DIMFXL
 40
1.0
  9
$DIMFXLON
 70
     0
  9
$DIMJOGANG
 40
0.7853981633974483
  9
$DIMTFILL
 70
     0
  9
$DIMTFILLCLR
 70
     0
  9
$DIMARCSYM
 70
     0
  9
$DIMLTYPE
  6

  9
$DIMLTEX1
  6

  9
$DIMLTEX2
  6

  9
$DIMTXTDIRECTION
 70
     0
  9
$LUNITS
 70
     2
  9
$LUPREC
 70
     4
  9
$SKETCHINC
 40
0.1
  9
$FILLETRAD
 40
0.0
  9
$AUNITS
 70
     0
  9
$AUPREC
 70
     0
  9
$MENU
  1
.
  9
$ELEVATION
 40
0.0
  9
$PELEVATION
 40
0.0
  9
$THICKNESS
 40
0.0
  9
$LIMCHECK
 70
     0
  9
$CHAMFERA
 40
0.0
  9
$CHAMFERB
 40
0.0
  9
$CHAMFERC
 40
0.0
  9
$CHAMFERD
 40
0.0
  9
$SKPOLY
 70
     0
  9
$TDCREATE
 40
2461012.664833253
  9
$TDUCREATE
 40
2461012.435666586
  9
$TDUPDATE
 40
2461012.664833253
  9
$TDUUPDATE
 40
2461012.435666586
  9
$TDINDWG
 40
0.0000000116
  9
$TDUSRTIMER
 40
0.0000000116
  9
$USRTIMER
 70
     1
  9
$ANGBASE
 50
0.0
  9
$ANGDIR
 70
     0
  9
$PDMODE
 70
     0
  9
$PDSIZE
 40
0.0
  9
$PLINEWID
 40
0.0
  9
$SPLFRAME
 70
     0
  9
$SPLINETYPE
 70
     6
  9
$SPLINESEGS
 70
     8
  9
$HANDSEED
  5
8A
  9
$SURFTAB1
 70
     6
  9
$SURFTAB2
 70
     6
  9
$SURFTYPE
 70
     6
  9
$SURFU
 70
     6
  9
$SURFV
 70
     6
  9
$UCSBASE
  2

  9
$UCSNAME
  2

  9
$UCSORG
 10
0.0
 20
0.0
 30
0.0
  9
$UCSXDIR
 10
1.0
 20
0.0
 30
0.0
  9
$UCSYDIR
 10
0.0
 20
1.0
 30
0.0
  9
$UCSORTHOREF
  2

  9
$UCSORTHOVIEW
 70
     0
  9
$UCSORGTOP
 10
0.0
 20
0.0
 30
0.0
  9
$UCSORGBOTTOM
 10
0.0
 20
0.0
 30
0.0
  9
$UCSORGLEFT
 10
0.0
 20
0.0
 30
0.0
  9
$UCSORGRIGHT
 10
0.0
 20
0.0
 30
0.0
  9
$UCSORGFRONT
 10
0.0
 20
0.0
 30
0.0
  9
$UCSORGBACK
 10
0.0
 20
0.0
 30
0.0
  9
$PUCSBASE
  2

  9
$PUCSNAME
  2

  9
$PUCSORG
 10
0.0
 20
0.0
 30
0.0
  9
$PUCSXDIR
 10
1.0
 20
0.0
 30
0.0
  9
$PUCSYDIR
 10
0.0
 20
1.0
 30
0.0
  9
$PUCSORTHOREF
  2

  9
$PUCSORTHOVIEW
 70
     0
  9
$PUCSORGTOP
 10
0.0
 20
0.0
 30
0.0
  9
$PUCSORGBOTTOM
 10
0.0
 20
0.0
 30
0.0
  9
$PUCSORGLEFT
 10
0.0
 20
0.0
 30
0.0
  9
$PUCSORGRIGHT
 10
0.0
 20
0.0
 30
0.0
  9
$PUCSORGFRONT
 10
0.0
 20
0.0
 30
0.0
  9
$PUCSORGBACK
 10
0.0
 20
0.0
 30
0.0
  9
$USERI1
 70
     0
  9
$USERI2
 70
     0
  9
$USERI3
 70
     0
  9
$USERI4
 70
     0
  9
$USERI5
 70
     0
  9
$USERR1
 40
0.0
  9
$USERR2
 40
0.0
  9
$USERR3
 40
0.0
  9
$USERR4
 40
0.0
  9
$USERR5
 40
0.0
  9
$WORLDVIEW
 70
     1
  9
$SHADEDGE
 70
     3
  9
$SHADEDIF
 70
    70
  9
$TILEMODE
 70
     1
  9
$MAXACTVP
 70
    64
  9
$PINSBASE
 10
0.0
 20
0.0
 30
0.0
  9
$PLIMCHECK
 70
     0
  9
$PEXTMIN
 10
1.000000000000000E+20
 20
1.000000000000000E+20
 30
1.000000000000000E+20
  9
$PEXTMAX
 10
-1.000000000000000E+20
 20
-1.000000000000000E+20
 30
-1.000000000000000E+20
  9
$PLIMMIN
 10
0.0
 20
0.0
  9
$PLIMMAX
 10
12.0
 20
9.0
  9
$UNITMODE
 70
     0
  9
$VISRETAIN
 70
     1
  9
$PLINEGEN
 70
     0
  9
$PSLTSCALE
 70
     1
  9
$TREEDEPTH
 70
  3020
  9
$CMLSTYLE
  2
Standard
  9
$CMLJUST
 70
     0
  9
$CMLSCALE
 40
1.0
  9
$PROXYGRAPHICS
 70
     1
  9
$MEASUREMENT
 70
     0
  9
$CELWEIGHT
370
    -1
  9
$ENDCAPS
280
     0
  9
$JOINSTYLE
280
     0
  9
$LWDISPLAY
290
     0
  9
$INSUNITS
 70
     4
  9
$HYPERLINKBASE
  1

  9
$STYLESHEET
  1

  9
$XEDIT
290
     1
  9
$CEPSNTYPE
380
     0
  9
$PSTYLEMODE
290
     1
  9
$FINGERPRINTGUID
  2
{e5b393a6-bef0-43c7-adf9-4f83f6419e67}
  9
$VERSIONGUID
  2
{FAEB1C32-E019-11D5-929B-00C0DF256EC4}
  9
$EXTNAMES
290
     1
  9
$PSVPSCALE
 40
0.0
  9
$OLESTARTUP
290
     0
  9
$SORTENTS
280
   127
  9
$INDEXCTL
280
     0
  9
$HIDETEXT
280
     1
  9
$XCLIPFRAME
280
     2
  9
$HALOGAP
280
     0
  9
$OBSCOLOR
 70
   257
  9
$OBSLTYPE
280
     0
  9
$INTERSECTIONDISPLAY
280
     0
  9
$INTERSECTIONCOLOR
 70
   257
  9
$DIMASSOC
280
     2
  9
$PROJECTNAME
  1

  9
$CAMERADISPLAY
290
     0
  9
$LENSLENGTH
 40
50.0
  9
$CAMERAHEIGHT
 40
0.0
  9
$STEPSPERSEC
 40
2.0
  9
$STEPSIZE
 40
6.0
  9
$3DDWFPREC
 40
2.0
  9
$PSOLWIDTH
 40
0.25
  9
$PSOLHEIGHT
 40
4.0
  9
$LOFTANG1
 40
1.570796326794897
  9
$LOFTANG2
 40
1.570796326794897
  9
$LOFTMAG1
 40
0.0
  9
$LOFTMAG2
 40
0.0
  9
$LOFTPARAM
 70
     7
  9
$LOFTNORMALS
280
     1
  9
$LATITUDE
 40
37.795
  9
$LONGITUDE
 40
-122.394
  9
$NORTHDIRECTION
 40
0.0
  9
$TIMEZONE
 70
 -8000
  9
$LIGHTGLYPHDISPLAY
280
     1
  9
$TILEMODELIGHTSYNCH
280
     1
  9
$CMATERIAL
347
44
  9
$SOLIDHIST
280
     0
  9
$SHOWHIST
280
     1
  9
$DWFFRAME
280
     2
  9
$DGNFRAME
280
     2
  9
$REALWORLDSCALE
290
     1
  9
$INTERFERECOLOR
 62
   256
  9
$CSHADOW
280
     0
  9
$SHADOWPLANELOCATION
 40
0.0
  0
ENDSEC
  0
SECTION
  2
CLASSES
  0
CLASS
  1
ACDBDICTIONARYWDFLT
  2
AcDbDictionaryWithDefault
  3
ObjectDBX Classes
 90
        0
 91
        3
280
     0
281
     0
  0
CLASS
  1
VISUALSTYLE
  2
AcDbVisualStyle
  3
ObjectDBX Classes
 90
     4095
 91
        3
280
     0
281
     0
  0
CLASS
  1
MATERIAL
  2
AcDbMaterial
  3
ObjectDBX Classes
 90
     1153
 91
        3
280
     0
281
     0
  0
CLASS
  1
SCALE
  2
AcDbScale
  3
ObjectDBX Classes
 90
     1153
 91
        3
280
     0
281
     0
  0
CLASS
  1
TABLESTYLE
  2
AcDbTableStyle
  3
ObjectDBX Classes
 90
     4095
 91
        3
280
     0
281
     0
  0
CLASS
  1
MLEADERSTYLE
  2
AcDbMLeaderStyle
  3
ACDB_MLEADERSTYLE_CLASS
 90
     4095
 91
        3
280
     0
281
     0
  0
CLASS
  1
SUN
  2
AcDbSun
  3
SCENEOE
 90
     1153
 91
        3
280
     0
281
     0
  0
CLASS
  1
DICTIONARYVAR
  2
AcDbDictionaryVar
  3
ObjectDBX Classes
 90
        0
 91
        3
280
     0
281
     0
  0
CLASS
  1
CELLSTYLEMAP
  2
AcDbCellStyleMap
  3
ObjectDBX Classes
 90
     1152
 91
        3
280
     0
281
     0
  0
ENDSEC
  0
SECTION
  2
TABLES
  0
TABLE
  2
VPORT
  5
8
330
0
100
AcDbSymbolTable
 70
     1
  0
VPORT
  5
29
330
8
100
AcDbSymbolTableRecord
100
AcDbViewportTableRecord
  2
*Active
 70
     0
 10
0.0
 20
0.0
 11
1.0
 21
1.0
 12
10.42990654205607
 22
4.5
 13
0.0
 23
0.0
 14
0.5
 24
0.5
 15
0.5
 25
0.5
 16
0.0
 26
0.0
 36
1.0
 17
0.0
 27
0.0
 37
0.0
 40
9.0
 41
1.972972972850329
 42
50.0
 43
0.0
 44
0.0
 50
0.0
 51
0.0
 71
     0
 72
   100
 73
     1
 74
     3
 75
     0
 76
     0
 77
     0
 78
     0
281
     0
 65
     1
110
0.0
120
0.0
130
0.0
111
1.0
121
0.0
131
0.0
112
0.0
122
1.0
132
0.0
 79
     0
146
0.0
348
2F
 60
     3
 61
     5
292
     1
282
     1
141
0.0
142
0.0
 63
   250
361
5D
  0
ENDTAB
  0
TABLE
  2
LTYPE
  5
5
330
0
100
AcDbSymbolTable
 70
     1
  0
LTYPE
  5
14
330
5
100
AcDbSymbolTableRecord
100
AcDbLinetypeTableRecord
  2
ByBlock
 70
     0
  3

 72
    65
 73
     0
 40
0.0
  0
LTYPE
  5
15
330
5
100
AcDbSymbolTableRecord
100
AcDbLinetypeTableRecord
  2
ByLayer
 70
     0
  3

 72
    65
 73
     0
 40
0.0
  0
LTYPE
  5
16
330
5
100
AcDbSymbolTableRecord
100
AcDbLinetypeTableRecord
  2
Continuous
 70
     0
  3
Solid line
 72
    65
 73
     0
 40
0.0
  0
ENDTAB
  0
TABLE
  2
LAYER
  5
2
330
0
100
AcDbSymbolTable
 70
     2
  0
LAYER
  5
10
330
2
100
AcDbSymbolTableRecord
100
AcDbLayerTableRecord
  2
0
 70
     0
 62
     7
  6
Continuous
370
    -3
390
F
347
46
348
0
  0
LAYER
  5
5F
330
2
100
AcDbSymbolTableRecord
100
AcDbLayerTableRecord
  2
Layer 1
 70
     0
 62
     7
  6
Continuous
370
    -3
390
F
347
46
348
0
  0
ENDTAB
  0
TABLE
  2
STYLE
  5
3
330
0
100
AcDbSymbolTable
 70
     1
  0
STYLE
  5
11
330
3
100
AcDbSymbolTableRecord
100
AcDbTextStyleTableRecord
  2
Standard
 70
     0
 40
0.0
 41
1.0
 50
0.0
 71
     0
 42
0.2
  3
txt
  4

  0
ENDTAB
  0
TABLE
  2
VIEW
  5
6
330
0
100
AcDbSymbolTable
 70
     0
  0
ENDTAB
  0
TABLE
  2
UCS
  5
7
330
0
100
AcDbSymbolTable
 70
     0
  0
ENDTAB
  0
TABLE
  2
APPID
  5
9
330
0
100
AcDbSymbolTable
 70
     2
  0
APPID
  5
12
330
9
100
AcDbSymbolTableRecord
100
AcDbRegAppTableRecord
  2
ACAD
 70
     0
  0
APPID
  5
5E
330
9
100
AcDbSymbolTableRecord
100
AcDbRegAppTableRecord
  2
ODA
 70
     0
  0
ENDTAB
  0
TABLE
  2
DIMSTYLE
  5
A
330
0
100
AcDbSymbolTable
 70
     1
100
AcDbDimStyleTable
  0
DIMSTYLE
105
27
330
A
100
AcDbSymbolTableRecord
100
AcDbDimStyleTableRecord
  2
Standard
 70
     0
178
     0
340
11
  0
ENDTAB
  0
TABLE
  2
BLOCK_RECORD
  5
1
330
0
100
AcDbSymbolTable
 70
     1
  0
BLOCK_RECORD
  5
1F
330
1
100
AcDbSymbolTableRecord
100
AcDbBlockTableRecord
  2
*Model_Space
340
22
 70
     0
280
     1
281
     0
  0
BLOCK_RECORD
  5
1B
330
1
100
AcDbSymbolTableRecord
100
AcDbBlockTableRecord
  2
*Paper_Space
340
1E
 70
     0
280
     1
281
     0
  0
BLOCK_RECORD
  5
23
330
1
100
AcDbSymbolTableRecord
100
AcDbBlockTableRecord
  2
*Paper_Space0
340
26
 70
     0
280
     1
281
     0
  0
ENDTAB
  0
ENDSEC
  0
SECTION
  2
BLOCKS
  0
BLOCK
  5
20
330
1F
100
AcDbEntity
  8
0
100
AcDbBlockBegin
  2
*Model_Space
 70
     0
 10
0.0
 20
0.0
 30
0.0
  3
*Model_Space
  1

  0
ENDBLK
  5
21
330
1F
100
AcDbEntity
  8
0
100
AcDbBlockEnd
  0
BLOCK
  5
1C
330
1B
100
AcDbEntity
 67
     1
  8
0
100
AcDbBlockBegin
  2
*Paper_Space
 70
     0
 10
0.0
 20
0.0
 30
0.0
  3
*Paper_Space
  1

  0
ENDBLK
  5
1D
330
1B
100
AcDbEntity
 67
     1
  8
0
100
AcDbBlockEnd
  0
BLOCK
  5
24
330
23
100
AcDbEntity
  8
0
100
AcDbBlockBegin
  2
*Paper_Space0
 70
     0
 10
0.0
 20
0.0
 30
0.0
  3
*Paper_Space0
  1

  0
ENDBLK
  5
25
330
23
100
AcDbEntity
  8
0
100
AcDbBlockEnd
  0
ENDSEC
  0
SECTION
  2
ENTITIES
  0
LWPOLYLINE
  5
60
330
1F
100
AcDbEntity
  8
Layer 1
 62
   250
370
    18
100
AcDbPolyline
 90
        5
 70
     1
 43
0.0
 10
191.274
 20
-152.9294
 10
1263.9026
 20
-152.9294
 10
1263.9026
 20
168.152
 10
191.274
 20
168.152
 10
191.274
 20
-152.9294
  0
LWPOLYLINE
  5
61
330
1F
100
AcDbEntity
  8
Layer 1
 62
     7
370
    35
100
AcDbPolyline
 90
       33
 70
     1
 43
0.0
 10
493.9666
 20
22.4807
 10
496.7502
 20
22.2182
 10
499.3428
 20
21.4655
 10
501.6889
 20
20.2744
 10
503.7329
 20
18.6968
 10
505.4194
 20
16.7848
 10
506.6928
 20
14.5902
 10
507.4976
 20
12.1649
 10
507.7782
 20
9.561
 10
507.4976
 20
6.9573
 10
506.6928
 20
4.5322
 10
505.4194
 20
2.3376
 10
503.7329
 20
0.4255
 10
501.6889
 20
-1.1522
 10
499.3428
 20
-2.3434
 10
496.7502
 20
-3.0963
 10
493.9666
 20
-3.3588
 10
491.1829
 20
-3.0963
 10
488.5901
 20
-2.3434
 10
486.2438
 20
-1.1522
 10
484.1996
 20
0.4255
 10
482.513
 20
2.3376
 10
481.2395
 20
4.5322
 10
480.4347
 20
6.9573
 10
480.1541
 20
9.561
 10
480.4347
 20
12.1649
 10
481.2395
 20
14.5902
 10
482.513
 20
16.7848
 10
484.1996
 20
18.6968
 10
486.2438
 20
20.2744
 10
488.5901
 20
21.4655
 10
491.1829
 20
22.2182
 10
493.9666
 20
22.4807
  0
LWPOLYLINE
  5
62
330
1F
100
AcDbEntity
  8
Layer 1
 62
     7
370
    35
100
AcDbPolyline
 90
       33
 70
     1
 43
0.0
 10
493.9666
 20
16.9708
 10
495.5631
 20
16.8203
 10
497.0502
 20
16.3885
 10
498.3958
 20
15.7053
 10
499.5682
 20
14.8006
 10
500.5354
 20
13.7039
 10
501.2658
 20
12.4453
 10
501.7274
 20
11.0544
 10
501.8883
 20
9.561
 10
501.7274
 20
8.0676
 10
501.2658
 20
6.6766
 10
500.5354
 20
5.4178
 10
499.5682
 20
4.3211
 10
498.3958
 20
3.4162
 10
497.0502
 20
2.733
 10
495.5631
 20
2.3012
 10
493.9666
 20
2.1506
 10
492.3699
 20
2.3012
 10
490.8829
 20
2.733
 10
489.5373
 20
3.4162
 10
488.365
 20
4.3211
 10
487.3977
 20
5.4178
 10
486.6674
 20
6.6766
 10
486.2059
 20
8.0676
 10
486.045
 20
9.561
 10
486.2059
 20
11.0544
 10
486.6674
 20
12.4453
 10
487.3977
 20
13.7039
 10
488.365
 20
14.8006
 10
489.5373
 20
15.7053
 10
490.8829
 20
16.3885
 10
492.3699
 20
16.8203
 10
493.9666
 20
16.9708
  0
LWPOLYLINE
  5
63
330
1F
100
AcDbEntity
  8
Layer 1
 62
     7
370
    35
100
AcDbPolyline
 90
        4
 70
     0
 43
0.0
 10
360.3497
 20
-71.5906
 10
318.1443
 20
-71.5906
 10
318.1443
 20
91.8066
 10
358.6616
 20
91.8066
  0
LWPOLYLINE
  5
64
330
1F
100
AcDbEntity
  8
Layer 1
 62
     7
370
    35
100
AcDbPolyline
 90
        2
 70
     0
 43
0.0
 10
320.8004
 20
-69.7152
 10
316.1352
 20
-73.0238
  0
LWPOLYLINE
  5
65
330
1F
100
AcDbEntity
  8
Layer 1
 62
     7
370
    35
100
AcDbPolyline
 90
        2
 70
     0
 43
0.0
 10
320.8524
 20
93.4601
 10
316.1867
 20
90.153
  0
LWPOLYLINE
  5
66
330
1F
100
AcDbEntity
  8
Layer 1
 62
     7
100
AcDbPolyline
 90
      137
 70
     1
 43
0.0
 10
259.9773
 20
4.4334
 10
260.1444
 20
4.5083
 10
260.3065
 20
4.5898
 10
260.4633
 20
4.678
 10
260.6151
 20
4.7728
 10
260.7617
 20
4.8742
 10
260.9033
 20
4.9822
 10
261.0397
 20
5.0969
 10
261.1711
 20
5.2182
 10
261.43
 20
5.4927
 10
261.6543
 20
5.7826
 10
261.8441
 20
6.0878
 10
261.9995
 20
6.4083
 10
262.1203
 20
6.7441
 10
262.2066
 20
7.0953
 10
262.2583
 20
7.4618
 10
262.2756
 20
7.8436
 10
262.2581
 20
8.2257
 10
262.2056
 20
8.5929
 10
262.118
 20
8.9453
 10
261.9954
 20
9.2829
 10
261.8378
 20
9.6056
 10
261.6452
 20
9.9135
 10
261.4176
 20
10.2065
 10
261.1549
 20
10.4847
 10
260.8835
 20
10.7249
 10
260.5948
 20
10.9366
 10
260.2886
 20
11.1196
 10
259.9651
 20
11.2739
 10
259.6241
 20
11.3997
 10
259.2658
 20
11.4968
 10
258.89
 20
11.5653
 10
258.4969
 20
11.6052
 10
258.006
 20
11.3107
 10
261.4902
 20
15.4326
 10
255.5036
 20
15.4326
 10
255.5036
 20
14.2875
 10
259.1674
 20
14.2875
 10
255.7981
 20
10.3625
 10
256.665
 20
9.6591
 10
256.8658
 20
9.843
 10
257.0758
 20
10.0025
 10
257.2951
 20
10.1373
 10
257.5236
 20
10.2477
 10
257.7613
 20
10.3335
 10
258.0082
 20
10.3949
 10
258.2644
 20
10.4316
 10
258.5298
 20
10.4439
 10
258.7947
 20
10.432
 10
259.0495
 20
10.3964
 10
259.2944
 20
10.337
 10
259.5294
 20
10.2539
 10
259.7543
 20
10.147
 10
259.9694
 20
10.0164
 10
260.1744
 20
9.8619
 10
260.3695
 20
9.6837
 10
260.5478
 20
9.4888
 10
260.7023
 20
9.2845
 10
260.8331
 20
9.0707
 10
260.9401
 20
8.8474
 10
261.0234
 20
8.6147
 10
261.0828
 20
8.3725
 10
261.1185
 20
8.1209
 10
261.1304
 20
7.8598
 10
261.1183
 20
7.6045
 10
261.0818
 20
7.3579
 10
261.0211
 20
7.12
 10
260.9361
 20
6.8908
 10
260.8268
 20
6.6704
 10
260.6932
 20
6.4586
 10
260.5354
 20
6.2555
 10
260.3533
 20
6.061
 10
260.2634
 20
5.9772
 10
260.1698
 20
5.8978
 10
260.0723
 20
5.8227
 10
259.971
 20
5.7521
 10
259.8659
 20
5.6857
 10
259.7569
 20
5.6237
 10
259.644
 20
5.566
 10
259.5272
 20
5.5127
 10
259.4056
 20
5.4649
 10
259.2778
 20
5.4235
 10
259.1439
 20
5.3884
 10
259.0038
 20
5.3596
 10
258.8576
 20
5.3373
 10
258.7054
 20
5.3213
 10
258.547
 20
5.3117
 10
258.3825
 20
5.3085
 10
258.2148
 20
5.3155
 10
258.0471
 20
5.3366
 10
257.8794
 20
5.3717
 10
257.7117
 20
5.4208
 10
257.544
 20
5.4841
 10
257.3763
 20
5.5613
 10
257.2087
 20
5.6527
 10
257.041
 20
5.7581
 10
256.8794
 20
5.8756
 10
256.7302
 20
6.003
 10
256.5932
 20
6.1404
 10
256.4685
 20
6.2878
 10
256.356
 20
6.4451
 10
256.2558
 20
6.6124
 10
256.1678
 20
6.7896
 10
256.0921
 20
6.9768
 10
254.9798
 20
6.6004
 10
255.0856
 20
6.3338
 10
255.2106
 20
6.0801
 10
255.3546
 20
5.8391
 10
255.5178
 20
5.6109
 10
255.7001
 20
5.3955
 10
255.9016
 20
5.1929
 10
256.1223
 20
5.0031
 10
256.3621
 20
4.8261
 10
256.48
 20
4.7484
 10
256.6008
 20
4.6751
 10
256.7244
 20
4.6062
 10
256.8509
 20
4.5417
 10
256.9801
 20
4.4815
 10
257.1122
 20
4.4256
 10
257.247
 20
4.3741
 10
257.3846
 20
4.3269
 10
257.5255
 20
4.2848
 10
257.6703
 20
4.2483
 10
257.8189
 20
4.2174
 10
257.9714
 20
4.1922
 10
258.1277
 20
4.1725
 10
258.2878
 20
4.1585
 10
258.4518
 20
4.1501
 10
258.6196
 20
4.1473
 10
258.7893
 20
4.1518
 10
258.959
 20
4.1652
 10
259.1288
 20
4.1875
 10
259.2985
 20
4.2188
 10
259.4682
 20
4.259
 10
259.6379
 20
4.3082
 10
259.8076
 20
4.3663
 10
259.9773
 20
4.4334
  0
LWPOLYLINE
  5
67
330
1F
100
AcDbEntity
  8
Layer 1
 62
     7
100
AcDbPolyline
 90
       73
 70
     1
 43
0.0
 10
266.8637
 20
10.3787
 10
267.1247
 20
10.3667
 10
267.3759
 20
10.3307
 10
267.6175
 20
10.2706
 10
267.8493
 20
10.1865
 10
268.0714
 20
10.0784
 10
268.2838
 20
9.9463
 10
268.4865
 20
9.7902
 10
268.6795
 20
9.61
 10
268.8538
 20
9.4153
 10
269.0049
 20
9.2114
 10
269.1328
 20
8.9982
 10
269.2374
 20
8.7759
 10
269.3189
 20
8.5444
 10
269.377
 20
8.3036
 10
269.412
 20
8.0537
 10
269.4236
 20
7.7945
 10
269.4118
 20
7.5412
 10
269.3766
 20
7.2966
 10
269.3178
 20
7.0607
 10
269.2355
 20
6.8335
 10
269.1297
 20
6.615
 10
269.0003
 20
6.4052
 10
268.8475
 20
6.2042
 10
268.6711
 20
6.0119
 10
268.4817
 20
5.8393
 10
268.2815
 20
5.6898
 10
268.0706
 20
5.5632
 10
267.849
 20
5.4597
 10
267.6167
 20
5.3792
 10
267.3737
 20
5.3216
 10
267.1199
 20
5.2871
 10
266.8554
 20
5.2756
 10
266.596
 20
5.2875
 10
266.3452
 20
5.3232
 10
266.1032
 20
5.3826
 10
265.8699
 20
5.4659
 10
265.6452
 20
5.5729
 10
265.4293
 20
5.7036
 10
265.222
 20
5.8581
 10
265.0235
 20
6.0364
 10
264.8433
 20
6.2291
 10
264.6872
 20
6.4313
 10
264.5551
 20
6.643
 10
264.447
 20
6.8642
 10
264.3629
 20
7.0948
 10
264.3028
 20
7.335
 10
264.2668
 20
7.5846
 10
264.2548
 20
7.8436
 10
264.2668
 20
8.1013
 10
264.3028
 20
8.349
 10
264.3629
 20
8.5868
 10
264.447
 20
8.8146
 10
264.5551
 20
9.0325
 10
264.6872
 20
9.2404
 10
264.8433
 20
9.4383
 10
265.0235
 20
9.6262
 10
265.1153
 20
9.7099
 10
265.2106
 20
9.7892
 10
265.3095
 20
9.8642
 10
265.4119
 20
9.9349
 10
265.5179
 20
10.0012
 10
265.6275
 20
10.0632
 10
265.7407
 20
10.1208
 10
265.8575
 20
10.174
 10
265.9771
 20
10.222
 10
266.0984
 20
10.2635
 10
266.2216
 20
10.2987
 10
266.3464
 20
10.3275
 10
266.4731
 20
10.3499
 10
266.6015
 20
10.3659
 10
266.7317
 20
10.3755
 10
266.8637
 20
10.3787
  0
LWPOLYLINE
  5
68
330
1F
100
AcDbEntity
  8
Layer 1
 62
     7
100
AcDbPolyline
 90
       69
 70
     1
 43
0.0
 10
270.585
 20
7.876
 10
270.5671
 20
8.2699
 10
270.5134
 20
8.6459
 10
270.4239
 20
9.004
 10
270.2986
 20
9.3442
 10
270.1376
 20
9.6664
 10
269.9408
 20
9.9708
 10
269.7082
 20
10.2573
 10
269.4398
 20
10.5259
 10
269.1655
 20
10.7522
 10
268.872
 20
10.9506
 10
268.5593
 20
11.1212
 10
268.2275
 20
11.2639
 10
267.8764
 20
11.3788
 10
267.5062
 20
11.4658
 10
267.1167
 20
11.5249
 10
266.7081
 20
11.5561
 10
266.3812
 20
11.3436
 10
269.7834
 20
15.4326
 10
268.2784
 20
15.4326
 10
263.9274
 20
10.1823
 10
263.7319
 20
9.9266
 10
263.5624
 20
9.6604
 10
263.4191
 20
9.3838
 10
263.3018
 20
9.0967
 10
263.2106
 20
8.7991
 10
263.1455
 20
8.4911
 10
263.1064
 20
8.1726
 10
263.0934
 20
7.8436
 10
263.1105
 20
7.4644
 10
263.1619
 20
7.0998
 10
263.2475
 20
6.7498
 10
263.3673
 20
6.4144
 10
263.5214
 20
6.0935
 10
263.7097
 20
5.7872
 10
263.9322
 20
5.4955
 10
264.189
 20
5.2182
 10
264.472
 20
4.9633
 10
264.7688
 20
4.7424
 10
265.0793
 20
4.5555
 10
265.4037
 20
4.4026
 10
265.7418
 20
4.2836
 10
266.0938
 20
4.1986
 10
266.4596
 20
4.1476
 10
266.8392
 20
4.1306
 10
267.224
 20
4.1475
 10
267.5935
 20
4.1981
 10
267.9477
 20
4.2825
 10
268.2866
 20
4.4007
 10
268.6102
 20
4.5525
 10
268.9185
 20
4.7381
 10
269.2114
 20
4.9574
 10
269.4889
 20
5.2104
 10
269.6124
 20
5.3396
 10
269.7292
 20
5.4739
 10
269.8394
 20
5.6134
 10
269.9429
 20
5.758
 10
270.0397
 20
5.9078
 10
270.13
 20
6.0627
 10
270.2135
 20
6.2227
 10
270.2905
 20
6.3878
 10
270.3595
 20
6.5578
 10
270.4193
 20
6.7324
 10
270.4699
 20
6.9116
 10
270.5114
 20
7.0953
 10
270.5436
 20
7.2836
 10
270.5666
 20
7.4765
 10
270.5804
 20
7.674
 10
270.585
 20
7.876
  0
LWPOLYLINE
  5
69
330
1F
100
AcDbEntity
  8
Layer 1
 62
     7
100
AcDbPolyline
 90
       92
 70
     1
 43
0.0
 10
276.498
 20
14.1403
 10
276.6867
 20
14.012
 10
276.8627
 20
13.8663
 10
277.026
 20
13.7033
 10
277.1765
 20
13.5229
 10
277.3143
 20
13.3251
 10
277.4393
 20
13.11
 10
277.5516
 20
12.8775
 10
277.6511
 20
12.6276
 10
277.7622
 20
12.2959
 10
277.8585
 20
11.9594
 10
277.94
 20
11.6181
 10
278.0067
 20
11.272
 10
278.0585
 20
10.921
 10
278.0956
 20
10.5652
 10
278.1178
 20
10.2044
 10
278.1252
 20
9.8388
 10
278.0762
 20
9.0294
 10
278.0194
 20
8.5897
 10
277.9453
 20
8.1743
 10
277.8538
 20
7.7832
 10
277.7449
 20
7.4163
 10
277.6186
 20
7.0737
 10
277.475
 20
6.7554
 10
277.314
 20
6.4613
 10
277.1357
 20
6.1915
 10
276.9729
 20
5.9884
 10
276.8014
 20
5.8123
 10
276.6212
 20
5.6634
 10
276.4324
 20
5.5415
 10
276.2348
 20
5.4466
 10
276.0286
 20
5.3789
 10
275.8136
 20
5.3383
 10
275.5899
 20
5.3247
 10
275.3404
 20
5.3381
 10
275.1029
 20
5.3784
 10
274.8773
 20
5.4454
 10
274.6638
 20
5.5393
 10
274.4622
 20
5.6601
 10
274.2727
 20
5.8076
 10
274.0952
 20
5.982
 10
273.9298
 20
6.1832
 10
273.7927
 20
6.3817
 10
273.668
 20
6.5924
 10
273.5554
 20
6.8152
 10
273.4551
 20
7.0504
 10
273.3669
 20
7.2931
 10
273.2898
 20
7.5389
 10
273.2238
 20
7.7878
 10
273.1689
 20
8.0399
 10
273.03
 20
9.0211
 10
272.9893
 20
10.1141
 10
272.9921
 20
10.2731
 10
273.0005
 20
10.4413
 10
273.0146
 20
10.6188
 10
273.0342
 20
10.8055
 10
273.0595
 20
11.0015
 10
273.0903
 20
11.2069
 10
273.1268
 20
11.4217
 10
273.1689
 20
11.6459
 10
273.2232
 20
11.895
 10
273.2877
 20
12.1429
 10
273.3623
 20
12.3897
 10
273.4473
 20
12.6354
 10
273.5438
 20
12.8748
 10
273.6537
 20
13.1018
 10
273.777
 20
13.3165
 10
273.9136
 20
13.5189
 10
273.9868
 20
13.6146
 10
274.0637
 20
13.7054
 10
274.1442
 20
13.7914
 10
274.2283
 20
13.8726
 10
274.3159
 20
13.9489
 10
274.4072
 20
14.0203
 10
274.5019
 20
14.0869
 10
274.6003
 20
14.1486
 10
274.7028
 20
14.2042
 10
274.8099
 20
14.2523
 10
274.9216
 20
14.2931
 10
275.038
 20
14.3264
 10
275.1589
 20
14.3524
 10
275.2844
 20
14.3709
 10
275.4145
 20
14.382
 10
275.5492
 20
14.3857
 10
275.6838
 20
14.3819
 10
275.8139
 20
14.3703
 10
275.9394
 20
14.3511
 10
276.0602
 20
14.3243
 10
276.1765
 20
14.2898
 10
276.2883
 20
14.2476
 10
276.3954
 20
14.1978
 10
276.498
 20
14.1403
  0
LWPOLYLINE
  5
6A
330
1F
100
AcDbEntity
  8
Layer 1
 62
     7
100
AcDbPolyline
 90
       65
 70
     1
 43
0.0
 10
275.6061
 20
4.1635
 10
276.0837
 20
4.1938
 10
276.5308
 20
4.2846
 10
276.9476
 20
4.436
 10
277.3339
 20
4.648
 10
277.6899
 20
4.9205
 10
278.0154
 20
5.2537
 10
278.3106
 20
5.6474
 10
278.5754
 20
6.1017
 10
278.7612
 20
6.4981
 10
278.9223
 20
6.9164
 10
279.0587
 20
7.3567
 10
279.1702
 20
7.819
 10
279.257
 20
8.3032
 10
279.319
 20
8.8094
 10
279.3562
 20
9.3376
 10
279.3686
 20
9.8878
 10
279.3562
 20
10.438
 10
279.319
 20
10.9663
 10
279.257
 20
11.4725
 10
279.1702
 20
11.9569
 10
279.0587
 20
12.4192
 10
278.9223
 20
12.8595
 10
278.7612
 20
13.2777
 10
278.5754
 20
13.674
 10
278.3106
 20
14.1283
 10
278.0154
 20
14.522
 10
277.6899
 20
14.8552
 10
277.3339
 20
15.1277
 10
276.9476
 20
15.3397
 10
276.5308
 20
15.4911
 10
276.0837
 20
15.5819
 10
275.6061
 20
15.6122
 10
275.1286
 20
15.5819
 10
274.6814
 20
15.4911
 10
274.2647
 20
15.3397
 10
273.8784
 20
15.1277
 10
273.5225
 20
14.8552
 10
273.197
 20
14.522
 10
272.902
 20
14.1283
 10
272.6373
 20
13.674
 10
272.4515
 20
13.2777
 10
272.2904
 20
12.8595
 10
272.154
 20
12.4192
 10
272.0425
 20
11.9569
 10
271.9557
 20
11.4725
 10
271.8937
 20
10.9663
 10
271.8565
 20
10.438
 10
271.8441
 20
9.8878
 10
271.8565
 20
9.3376
 10
271.8937
 20
8.8094
 10
271.9557
 20
8.3032
 10
272.0425
 20
7.819
 10
272.154
 20
7.3567
 10
272.2904
 20
6.9164
 10
272.4515
 20
6.4981
 10
272.6373
 20
6.1017
 10
272.902
 20
5.6474
 10
273.197
 20
5.2537
 10
273.5225
 20
4.9205
 10
273.8784
 20
4.648
 10
274.2647
 20
4.436
 10
274.6814
 20
4.2846
 10
275.1286
 20
4.1938
 10
275.6061
 20
4.1635
  0
LWPOLYLINE
  5
6B
330
1F
100
AcDbEntity
  8
Layer 1
 62
     7
100
AcDbPolyline
 90
      162
 70
     1
 43
0.0
 10
290.5403
 20
4.3436
 10
291.6855
 20
4.3436
 10
291.6855
 20
8.8409
 10
291.6762
 20
9.1396
 10
291.6482
 20
9.4242
 10
291.6016
 20
9.6947
 10
291.5363
 20
9.9512
 10
291.4524
 20
10.1936
 10
291.3498
 20
10.422
 10
291.2285
 20
10.6363
 10
291.0886
 20
10.8366
 10
291.0105
 20
10.9323
 10
290.9276
 20
11.0231
 10
290.8397
 20
11.1091
 10
290.7471
 20
11.1903
 10
290.6495
 20
11.2666
 10
290.5471
 20
11.338
 10
290.4399
 20
11.4046
 10
290.3278
 20
11.4663
 10
290.2087
 20
11.5219
 10
290.0804
 20
11.57
 10
289.9428
 20
11.6108
 10
289.7961
 20
11.6441
 10
289.6402
 20
11.6701
 10
289.4751
 20
11.6886
 10
289.3008
 20
11.6997
 10
289.1173
 20
11.7034
 10
288.9321
 20
11.697
 10
288.7528
 20
11.6778
 10
288.5794
 20
11.6458
 10
288.4119
 20
11.6011
 10
288.2503
 20
11.5436
 10
288.0946
 20
11.4733
 10
287.9447
 20
11.3903
 10
287.8008
 20
11.2945
 10
287.6758
 20
11.1989
 10
287.5565
 20
11.0963
 10
287.4428
 20
10.9866
 10
287.3347
 20
10.87
 10
287.2322
 20
10.7464
 10
287.1353
 20
10.616
 10
287.044
 20
10.4789
 10
286.9584
 20
10.335
 10
286.892
 20
10.4679
 10
286.8193
 20
10.5961
 10
286.7405
 20
10.7191
 10
286.6556
 20
10.8366
 10
286.5775
 20
10.9323
 10
286.4946
 20
11.0231
 10
286.4068
 20
11.1091
 10
286.3142
 20
11.1903
 10
286.2168
 20
11.2666
 10
286.1144
 20
11.338
 10
286.0073
 20
11.4046
 10
285.8952
 20
11.4663
 10
285.7761
 20
11.5219
 10
285.6478
 20
11.57
 10
285.5103
 20
11.6108
 10
285.3636
 20
11.6441
 10
285.2077
 20
11.6701
 10
285.0426
 20
11.6886
 10
284.8682
 20
11.6997
 10
284.6847
 20
11.7034
 10
284.4995
 20
11.697
 10
284.3203
 20
11.6778
 10
284.1468
 20
11.6458
 10
283.9793
 20
11.6011
 10
283.8176
 20
11.5436
 10
283.6618
 20
11.4733
 10
283.5118
 20
11.3903
 10
283.3677
 20
11.2945
 10
283.2486
 20
11.2035
 10
283.1347
 20
11.1063
 10
283.0259
 20
11.0029
 10
282.9222
 20
10.8933
 10
282.8236
 20
10.7775
 10
282.7301
 20
10.6554
 10
282.6416
 20
10.5271
 10
282.5583
 20
10.3924
 10
282.5583
 20
11.5399
 10
281.4131
 20
11.5399
 10
281.4131
 20
4.3436
 10
282.5583
 20
4.3436
 10
282.5583
 20
8.0262
 10
282.5849
 20
8.2407
 10
282.6196
 20
8.4468
 10
282.6625
 20
8.6447
 10
282.7137
 20
8.8344
 10
282.773
 20
9.0159
 10
282.8405
 20
9.1893
 10
282.9162
 20
9.3546
 10
283.0001
 20
9.5119
 10
283.0683
 20
9.6238
 10
283.1421
 20
9.7307
 10
283.2215
 20
9.8324
 10
283.3066
 20
9.929
 10
283.3973
 20
10.0205
 10
283.4936
 20
10.1069
 10
283.5955
 20
10.1881
 10
283.703
 20
10.2643
 10
283.8145
 20
10.3331
 10
283.928
 20
10.3928
 10
284.0436
 20
10.4434
 10
284.1612
 20
10.4847
 10
284.2808
 20
10.5169
 10
284.4025
 20
10.5399
 10
284.5262
 20
10.5537
 10
284.6518
 20
10.5583
 10
284.7745
 20
10.5559
 10
284.8891
 20
10.5486
 10
284.9954
 20
10.5365
 10
285.0936
 20
10.5196
 10
285.1836
 20
10.4978
 10
285.2653
 20
10.4711
 10
285.3389
 20
10.4396
 10
285.4043
 20
10.4032
 10
285.5691
 20
10.2812
 10
285.712
 20
10.1383
 10
285.8329
 20
9.9745
 10
285.9319
 20
9.7898
 10
286.0088
 20
9.584
 10
286.0638
 20
9.3573
 10
286.0968
 20
9.1096
 10
286.1078
 20
8.8409
 10
286.1078
 20
4.3436
 10
287.253
 20
4.3436
 10
287.253
 20
8.8409
 10
287.2446
 20
9.1163
 10
287.4326
 20
9.5119
 10
287.5009
 20
9.6238
 10
287.5748
 20
9.7307
 10
287.6543
 20
9.8324
 10
287.7394
 20
9.929
 10
287.8301
 20
10.0205
 10
287.9264
 20
10.1069
 10
288.0284
 20
10.1881
 10
288.136
 20
10.2643
 10
288.2475
 20
10.3331
 10
288.3609
 20
10.3928
 10
288.4765
 20
10.4434
 10
288.5941
 20
10.4847
 10
288.7137
 20
10.5169
 10
288.8354
 20
10.5399
 10
288.9591
 20
10.5537
 10
289.0849
 20
10.5583
 10
289.2075
 20
10.5559
 10
289.3219
 20
10.5486
 10
289.4282
 20
10.5365
 10
289.5263
 20
10.5196
 10
289.6163
 20
10.4978
 10
289.6981
 20
10.4711
 10
289.7718
 20
10.4396
 10
289.8374
 20
10.4032
 10
290.0022
 20
10.2812
 10
290.145
 20
10.1383
 10
290.2658
 20
9.9745
 10
290.3647
 20
9.7898
 10
290.4415
 20
9.584
 10
290.4964
 20
9.3573
 10
290.5293
 20
9.1096
 10
290.5403
 20
8.8409
 10
290.5403
 20
4.3436
  0
LWPOLYLINE
  5
6C
330
1F
100
AcDbEntity
  8
Layer 1
 62
     7
100
AcDbPolyline
 90
      162
 70
     1
 43
0.0
 10
303.0206
 20
4.3436
 10
304.1658
 20
4.3436
 10
304.1658
 20
8.8409
 10
304.1565
 20
9.1396
 10
304.1285
 20
9.4242
 10
304.0819
 20
9.6947
 10
304.0166
 20
9.9512
 10
303.9327
 20
10.1936
 10
303.8301
 20
10.422
 10
303.7088
 20
10.6363
 10
303.5689
 20
10.8366
 10
303.4908
 20
10.9323
 10
303.4079
 20
11.0231
 10
303.32
 20
11.1091
 10
303.2274
 20
11.1903
 10
303.1298
 20
11.2666
 10
303.0274
 20
11.338
 10
302.9202
 20
11.4046
 10
302.8081
 20
11.4663
 10
302.689
 20
11.5219
 10
302.5607
 20
11.57
 10
302.4232
 20
11.6108
 10
302.2765
 20
11.6441
 10
302.1206
 20
11.6701
 10
301.9555
 20
11.6886
 10
301.7811
 20
11.6997
 10
301.5976
 20
11.7034
 10
301.4124
 20
11.697
 10
301.2331
 20
11.6778
 10
301.0597
 20
11.6458
 10
300.8922
 20
11.6011
 10
300.7306
 20
11.5436
 10
300.5749
 20
11.4733
 10
300.425
 20
11.3903
 10
300.2811
 20
11.2945
 10
300.1561
 20
11.1989
 10
300.0368
 20
11.0963
 10
299.9231
 20
10.9866
 10
299.815
 20
10.87
 10
299.7126
 20
10.7464
 10
299.6157
 20
10.616
 10
299.5244
 20
10.4789
 10
299.4388
 20
10.335
 10
299.3723
 20
10.4679
 10
299.2997
 20
10.5961
 10
299.2208
 20
10.7191
 10
299.1359
 20
10.8366
 10
299.0578
 20
10.9323
 10
298.9749
 20
11.0231
 10
298.8872
 20
11.1091
 10
298.7946
 20
11.1903
 10
298.6971
 20
11.2666
 10
298.5948
 20
11.338
 10
298.4876
 20
11.4046
 10
298.3755
 20
11.4663
 10
298.2564
 20
11.5219
 10
298.1281
 20
11.57
 10
297.9906
 20
11.6108
 10
297.8439
 20
11.6441
 10
297.688
 20
11.6701
 10
297.5229
 20
11.6886
 10
297.3486
 20
11.6997
 10
297.1651
 20
11.7034
 10
296.9799
 20
11.697
 10
296.8006
 20
11.6778
 10
296.6272
 20
11.6458
 10
296.4597
 20
11.6011
 10
296.298
 20
11.5436
 10
296.1422
 20
11.4733
 10
295.9922
 20
11.3903
 10
295.8481
 20
11.2945
 10
295.729
 20
11.2035
 10
295.615
 20
11.1063
 10
295.5062
 20
11.0029
 10
295.4025
 20
10.8933
 10
295.3039
 20
10.7775
 10
295.2104
 20
10.6554
 10
295.1219
 20
10.5271
 10
295.0386
 20
10.3924
 10
295.0386
 20
11.5399
 10
293.8934
 20
11.5399
 10
293.8934
 20
4.3436
 10
295.0386
 20
4.3436
 10
295.0386
 20
8.0262
 10
295.0652
 20
8.2407
 10
295.0999
 20
8.4468
 10
295.1429
 20
8.6447
 10
295.194
 20
8.8344
 10
295.2533
 20
9.0159
 10
295.3208
 20
9.1893
 10
295.3965
 20
9.3546
 10
295.4804
 20
9.5119
 10
295.5486
 20
9.6238
 10
295.6224
 20
9.7307
 10
295.7019
 20
9.8324
 10
295.787
 20
9.929
 10
295.8777
 20
10.0205
 10
295.974
 20
10.1069
 10
296.0758
 20
10.1881
 10
296.1833
 20
10.2643
 10
296.2948
 20
10.3331
 10
296.4084
 20
10.3928
 10
296.524
 20
10.4434
 10
296.6416
 20
10.4847
 10
296.7612
 20
10.5169
 10
296.8829
 20
10.5399
 10
297.0066
 20
10.5537
 10
297.1322
 20
10.5583
 10
297.2549
 20
10.5559
 10
297.3695
 20
10.5486
 10
297.4758
 20
10.5365
 10
297.574
 20
10.5196
 10
297.6639
 20
10.4978
 10
297.7457
 20
10.4711
 10
297.8193
 20
10.4396
 10
297.8847
 20
10.4032
 10
298.0495
 20
10.2812
 10
298.1924
 20
10.1383
 10
298.3133
 20
9.9745
 10
298.4122
 20
9.7898
 10
298.4891
 20
9.584
 10
298.5441
 20
9.3573
 10
298.5771
 20
9.1096
 10
298.5881
 20
8.8409
 10
298.5881
 20
4.3436
 10
299.7333
 20
4.3436
 10
299.7333
 20
8.8409
 10
299.7249
 20
9.1163
 10
299.913
 20
9.5119
 10
299.9813
 20
9.6238
 10
300.0552
 20
9.7307
 10
300.1347
 20
9.8324
 10
300.2197
 20
9.929
 10
300.3104
 20
10.0205
 10
300.4068
 20
10.1069
 10
300.5088
 20
10.1881
 10
300.6164
 20
10.2643
 10
300.7279
 20
10.3331
 10
300.8413
 20
10.3928
 10
300.9569
 20
10.4434
 10
301.0744
 20
10.4847
 10
301.194
 20
10.5169
 10
301.3157
 20
10.5399
 10
301.4394
 20
10.5537
 10
301.5652
 20
10.5583
 10
301.6878
 20
10.5559
 10
301.8022
 20
10.5486
 10
301.9085
 20
10.5365
 10
302.0066
 20
10.5196
 10
302.0966
 20
10.4978
 10
302.1785
 20
10.4711
 10
302.2522
 20
10.4396
 10
302.3177
 20
10.4032
 10
302.4825
 20
10.2812
 10
302.6253
 20
10.1383
 10
302.7461
 20
9.9745
 10
302.845
 20
9.7898
 10
302.9218
 20
9.584
 10
302.9767
 20
9.3573
 10
303.0096
 20
9.1096
 10
303.0206
 20
8.8409
 10
303.0206
 20
4.3436
  0
LWPOLYLINE
  5
6D
330
1F
100
AcDbEntity
  8
Layer 1
 62
     7
370
    35
100
AcDbPolyline
 90
       37
 70
     1
 43
0.0
 10
455.3927
 20
94.0933
 10
530.4382
 20
94.0933
 10
547.421
 20
92.368
 10
563.2644
 20
87.4232
 10
577.6217
 20
79.6056
 10
590.146
 20
69.262
 10
600.4908
 20
56.739
 10
608.3092
 20
42.3834
 10
613.2545
 20
26.5418
 10
614.98
 20
9.561
 10
614.98
 20
9.56
 10
613.2545
 20
-7.4207
 10
608.3092
 20
-23.2621
 10
600.4908
 20
-37.6176
 10
590.146
 20
-50.1404
 10
577.6217
 20
-60.4839
 10
563.2644
 20
-68.3013
 10
547.421
 20
-73.246
 10
530.4382
 20
-74.9713
 10
455.3927
 20
-74.9713
 10
438.41
 20
-73.246
 10
422.5667
 20
-68.3013
 10
408.2095
 20
-60.4839
 10
395.6851
 20
-50.1404
 10
385.3402
 20
-37.6176
 10
377.5218
 20
-23.2621
 10
372.5764
 20
-7.4207
 10
370.8509
 20
9.56
 10
370.8509
 20
9.561
 10
372.5764
 20
26.5418
 10
377.5218
 20
42.3834
 10
385.3402
 20
56.739
 10
395.6851
 20
69.262
 10
408.2095
 20
79.6056
 10
422.5667
 20
87.4232
 10
438.41
 20
92.368
 10
455.3927
 20
94.0933
  0
LWPOLYLINE
  5
6E
330
1F
100
AcDbEntity
  8
Layer 1
 62
     7
370
    35
100
AcDbPolyline
 90
       37
 70
     1
 43
0.0
 10
456.346
 20
91.946
 10
529.4849
 20
91.946
 10
546.0363
 20
90.2645
 10
561.4772
 20
85.4454
 10
575.4696
 20
77.8264
 10
587.6756
 20
67.7457
 10
597.7574
 20
55.5409
 10
605.377
 20
41.5501
 10
610.1966
 20
26.1111
 10
611.8782
 20
9.5619
 10
611.8782
 20
9.56
 10
610.1966
 20
-6.9892
 10
605.377
 20
-22.4281
 10
597.7574
 20
-36.4188
 10
587.6756
 20
-48.6235
 10
575.4696
 20
-58.7041
 10
561.4772
 20
-66.323
 10
546.0363
 20
-71.1421
 10
529.4849
 20
-72.8235
 10
456.346
 20
-72.8235
 10
439.7948
 20
-71.1421
 10
424.3541
 20
-66.323
 10
410.3617
 20
-58.7041
 10
398.1556
 20
-48.6235
 10
388.0737
 20
-36.4188
 10
380.454
 20
-22.4281
 10
375.6343
 20
-6.9892
 10
373.9527
 20
9.56
 10
373.9527
 20
9.5619
 10
375.6343
 20
26.1111
 10
380.454
 20
41.5501
 10
388.0737
 20
55.5409
 10
398.1556
 20
67.7457
 10
410.3617
 20
77.8264
 10
424.3541
 20
85.4454
 10
439.7948
 20
90.2645
 10
456.346
 20
91.946
  0
LWPOLYLINE
  5
6F
330
1F
100
AcDbEntity
  8
Layer 1
 62
     7
370
    35
100
AcDbPolyline
 90
        4
 70
     0
 43
0.0
 10
792.2796
 20
-51.854
 10
760.2785
 20
-51.854
 10
760.2785
 20
38.0167
 10
790.9989
 20
38.0167
  0
LWPOLYLINE
  5
70
330
1F
100
AcDbEntity
  8
Layer 1
 62
     7
370
    35
100
AcDbPolyline
 90
        2
 70
     0
 43
0.0
 10
762.2934
 20
-50.8228
 10
758.7557
 20
-52.6417
  0
LWPOLYLINE
  5
71
330
1F
100
AcDbEntity
  8
Layer 1
 62
     7
370
    35
100
AcDbPolyline
 90
        2
 70
     0
 43
0.0
 10
762.3329
 20
38.9267
 10
758.7953
 20
37.1073
  0
LWPOLYLINE
  5
72
330
1F
100
AcDbEntity
  8
Layer 1
 62
     7
100
AcDbPolyline
 90
        7
 70
     1
 43
0.0
 10
672.3542
 20
-13.7819
 10
674.0151
 20
-13.7819
 10
674.0151
 20
-0.1228
 10
670.0289
 20
-0.4802
 10
670.0289
 20
-1.6909
 10
672.3542
 20
-1.6909
 10
672.3542
 20
-13.7819
  0
LWPOLYLINE
  5
73
330
1F
100
AcDbEntity
  8
Layer 1
 62
     7
100
AcDbPolyline
 90
      136
 70
     1
 43
0.0
 10
679.8995
 20
-5.2843
 10
680.9911
 20
-1.6713
 10
686.828
 20
-1.6713
 10
686.828
 20
-0.2816
 10
679.7339
 20
-0.2816
 10
677.8826
 20
-6.3369
 10
679.6863
 20
-7.0118
 10
679.9478
 20
-6.8629
 10
680.2222
 20
-6.7339
 10
680.5097
 20
-6.6247
 10
680.8102
 20
-6.5354
 10
681.1236
 20
-6.466
 10
681.45
 20
-6.4164
 10
681.7894
 20
-6.3866
 10
682.1418
 20
-6.3767
 10
682.4964
 20
-6.3913
 10
682.8391
 20
-6.435
 10
683.1698
 20
-6.5079
 10
683.4887
 20
-6.6099
 10
683.7957
 20
-6.7411
 10
684.0908
 20
-6.9014
 10
684.3741
 20
-7.091
 10
684.6455
 20
-7.3097
 10
684.9012
 20
-7.5536
 10
685.1229
 20
-7.8066
 10
685.3104
 20
-8.0685
 10
685.4638
 20
-8.3395
 10
685.5831
 20
-8.6194
 10
685.6683
 20
-8.9084
 10
685.7194
 20
-9.2064
 10
685.7364
 20
-9.5135
 10
685.719
 20
-9.8309
 10
685.6667
 20
-10.1357
 10
685.5796
 20
-10.4277
 10
685.4577
 20
-10.7071
 10
685.3009
 20
-10.9737
 10
685.1092
 20
-11.2275
 10
684.8827
 20
-11.4687
 10
684.6213
 20
-11.697
 10
684.4884
 20
-11.7987
 10
684.3507
 20
-11.8951
 10
684.2082
 20
-11.9862
 10
684.0609
 20
-12.072
 10
683.9088
 20
-12.1525
 10
683.7518
 20
-12.2277
 10
683.5899
 20
-12.2977
 10
683.4231
 20
-12.3624
 10
683.2493
 20
-12.4206
 10
683.0658
 20
-12.471
 10
682.8727
 20
-12.5136
 10
682.6699
 20
-12.5485
 10
682.4574
 20
-12.5756
 10
682.2353
 20
-12.5949
 10
682.0036
 20
-12.6065
 10
681.7622
 20
-12.6104
 10
681.5162
 20
-12.6017
 10
681.2707
 20
-12.5757
 10
681.0254
 20
-12.5323
 10
680.7806
 20
-12.4715
 10
680.5361
 20
-12.3933
 10
680.2921
 20
-12.2977
 10
680.0483
 20
-12.1848
 10
679.805
 20
-12.0544
 10
679.5705
 20
-11.9103
 10
679.3539
 20
-11.7555
 10
679.1551
 20
-11.5903
 10
678.9741
 20
-11.4144
 10
678.811
 20
-11.228
 10
678.6657
 20
-11.031
 10
678.5381
 20
-10.8234
 10
678.4284
 20
-10.6053
 10
676.8152
 20
-11.0423
 10
676.9737
 20
-11.369
 10
677.1585
 20
-11.6794
 10
677.3696
 20
-11.9733
 10
677.6071
 20
-12.2507
 10
677.8709
 20
-12.5117
 10
678.161
 20
-12.7563
 10
678.4773
 20
-12.9844
 10
678.82
 20
-13.1961
 10
679.1844
 20
-13.3892
 10
679.557
 20
-13.5566
 10
679.9378
 20
-13.6983
 10
680.3267
 20
-13.8142
 10
680.7238
 20
-13.9044
 10
681.129
 20
-13.9688
 10
681.5425
 20
-14.0074
 10
681.9641
 20
-14.0203
 10
682.5258
 20
-13.9991
 10
683.066
 20
-13.9353
 10
683.5847
 20
-13.8291
 10
684.0818
 20
-13.6803
 10
684.5574
 20
-13.4891
 10
685.0115
 20
-13.2553
 10
685.444
 20
-12.9791
 10
685.8551
 20
-12.6603
 10
686.2278
 20
-12.3141
 10
686.5507
 20
-11.951
 10
686.824
 20
-11.5708
 10
687.0475
 20
-11.1736
 10
687.2214
 20
-10.7593
 10
687.3456
 20
-10.328
 10
687.4201
 20
-9.8797
 10
687.4449
 20
-9.4142
 10
687.4204
 20
-8.9512
 10
687.3471
 20
-8.5077
 10
687.2248
 20
-8.0838
 10
687.0536
 20
-7.6794
 10
686.8334
 20
-7.2945
 10
686.5643
 20
-6.9292
 10
686.2462
 20
-6.5834
 10
685.8792
 20
-6.2572
 10
685.6915
 20
-6.1123
 10
685.4964
 20
-5.9751
 10
685.2939
 20
-5.8456
 10
685.0841
 20
-5.7238
 10
684.8668
 20
-5.6097
 10
684.6422
 20
-5.5034
 10
684.4101
 20
-5.4049
 10
684.1707
 20
-5.3141
 10
683.9264
 20
-5.2328
 10
683.68
 20
-5.1623
 10
683.4313
 20
-5.1026
 10
683.1806
 20
-5.0538
 10
682.9278
 20
-5.0157
 10
682.6731
 20
-4.9886
 10
682.4164
 20
-4.9722
 10
682.1578
 20
-4.9668
 10
681.8942
 20
-4.9718
 10
681.6253
 20
-4.9867
 10
681.3512
 20
-5.0115
 10
681.0717
 20
-5.0462
 10
680.7868
 20
-5.0909
 10
680.4965
 20
-5.1455
 10
680.2007
 20
-5.2099
 10
679.8995
 20
-5.2843
  0
LWPOLYLINE
  5
74
330
1F
100
AcDbEntity
  8
Layer 1
 62
     7
100
AcDbPolyline
 90
      109
 70
     1
 43
0.0
 10
696.6397
 20
-1.8497
 10
696.9136
 20
-2.0054
 10
697.169
 20
-2.1823
 10
697.4059
 20
-2.3803
 10
697.6242
 20
-2.5994
 10
697.8241
 20
-2.8395
 10
698.0055
 20
-3.1008
 10
698.1683
 20
-3.3831
 10
698.3126
 20
-3.6865
 10
698.4738
 20
-4.089
 10
698.6136
 20
-4.4973
 10
698.7318
 20
-4.9116
 10
698.8286
 20
-5.3318
 10
698.9038
 20
-5.7578
 10
698.9576
 20
-6.1898
 10
698.9898
 20
-6.6276
 10
699.0006
 20
-7.0713
 10
698.9962
 20
-7.2891
 10
698.9829
 20
-7.5255
 10
698.9607
 20
-7.7804
 10
698.9295
 20
-8.0542
 10
698.8472
 20
-8.5879
 10
698.7397
 20
-9.0922
 10
698.6069
 20
-9.5669
 10
698.4489
 20
-10.0121
 10
698.2657
 20
-10.4279
 10
698.0573
 20
-10.8142
 10
697.8237
 20
-11.171
 10
697.565
 20
-11.4984
 10
697.3288
 20
-11.7451
 10
697.0801
 20
-11.959
 10
696.8187
 20
-12.1399
 10
696.5447
 20
-12.2879
 10
696.2581
 20
-12.403
 10
695.9589
 20
-12.4852
 10
695.6472
 20
-12.5345
 10
695.3228
 20
-12.5509
 10
694.9608
 20
-12.5346
 10
694.6162
 20
-12.4858
 10
694.289
 20
-12.4044
 10
693.9792
 20
-12.2904
 10
693.6868
 20
-12.1438
 10
693.4119
 20
-11.9647
 10
693.1544
 20
-11.7529
 10
692.9143
 20
-11.5085
 10
692.8127
 20
-11.3901
 10
692.7155
 20
-11.2679
 10
692.6228
 20
-11.1421
 10
692.5346
 20
-11.0124
 10
692.4508
 20
-10.8791
 10
692.3715
 20
-10.742
 10
692.2967
 20
-10.6012
 10
692.2263
 20
-10.4566
 10
692.0981
 20
-10.1618
 10
691.9861
 20
-9.8634
 10
691.8905
 20
-9.5612
 10
691.8113
 20
-9.2554
 10
691.7452
 20
-8.95
 10
691.6895
 20
-8.6498
 10
691.6443
 20
-8.3546
 10
691.6095
 20
-8.0643
 10
691.5835
 20
-7.7651
 10
691.5648
 20
-7.444
 10
691.5536
 20
-7.1014
 10
691.5498
 20
-6.7374
 10
691.5539
 20
-6.5444
 10
691.5661
 20
-6.3402
 10
691.5866
 20
-6.1247
 10
691.6152
 20
-5.898
 10
691.6519
 20
-5.6599
 10
691.6969
 20
-5.4106
 10
691.75
 20
-5.1498
 10
691.8113
 20
-4.8776
 10
691.8897
 20
-4.5753
 10
691.9831
 20
-4.2745
 10
692.0913
 20
-3.9748
 10
692.2143
 20
-3.6764
 10
692.2821
 20
-3.5293
 10
692.3546
 20
-3.386
 10
692.4319
 20
-3.2463
 10
692.5141
 20
-3.1105
 10
692.601
 20
-2.9783
 10
692.6928
 20
-2.8499
 10
692.7894
 20
-2.7252
 10
692.8908
 20
-2.6043
 10
692.9972
 20
-2.4881
 10
693.1088
 20
-2.3779
 10
693.2256
 20
-2.2735
 10
693.3475
 20
-2.1751
 10
693.4746
 20
-2.0825
 10
693.6069
 20
-1.9958
 10
693.7445
 20
-1.915
 10
693.8872
 20
-1.8401
 10
694.0359
 20
-1.7726
 10
694.1912
 20
-1.7142
 10
694.3532
 20
-1.6647
 10
694.522
 20
-1.6242
 10
694.6973
 20
-1.5928
 10
694.8795
 20
-1.5703
 10
695.0683
 20
-1.5568
 10
695.2638
 20
-1.5523
 10
695.4591
 20
-1.557
 10
695.6477
 20
-1.5709
 10
695.8297
 20
-1.5942
 10
696.005
 20
-1.6267
 10
696.1737
 20
-1.6685
 10
696.3357
 20
-1.7197
 10
696.491
 20
-1.78
 10
696.6397
 20
-1.8497
  0
LWPOLYLINE
  5
75
330
1F
100
AcDbEntity
  8
Layer 1
 62
     7
100
AcDbPolyline
 90
       65
 70
     1
 43
0.0
 10
695.3462
 20
-13.9603
 10
696.039
 20
-13.9236
 10
696.6877
 20
-13.8133
 10
697.2922
 20
-13.6296
 10
697.8526
 20
-13.3723
 10
698.3689
 20
-13.0415
 10
698.8411
 20
-12.6372
 10
699.2691
 20
-12.1593
 10
699.653
 20
-11.6078
 10
699.9227
 20
-11.1267
 10
700.1564
 20
-10.619
 10
700.3542
 20
-10.0845
 10
700.516
 20
-9.5233
 10
700.6418
 20
-8.9355
 10
700.7317
 20
-8.3209
 10
700.7856
 20
-7.6797
 10
700.8036
 20
-7.0118
 10
700.7856
 20
-6.3439
 10
700.7317
 20
-5.7026
 10
700.6418
 20
-5.0881
 10
700.516
 20
-4.5002
 10
700.3542
 20
-3.939
 10
700.1564
 20
-3.4046
 10
699.9227
 20
-2.8968
 10
699.653
 20
-2.4158
 10
699.2691
 20
-1.8643
 10
698.8411
 20
-1.3864
 10
698.3689
 20
-0.9821
 10
697.8526
 20
-0.6513
 10
697.2922
 20
-0.394
 10
696.6877
 20
-0.2103
 10
696.039
 20
-0.1
 10
695.3462
 20
-0.0633
 10
694.6536
 20
-0.1
 10
694.0052
 20
-0.2103
 10
693.4007
 20
-0.394
 10
692.8404
 20
-0.6513
 10
692.3242
 20
-0.9821
 10
691.8521
 20
-1.3864
 10
691.4241
 20
-1.8643
 10
691.0402
 20
-2.4158
 10
690.7703
 20
-2.8968
 10
690.5364
 20
-3.4046
 10
690.3385
 20
-3.939
 10
690.1766
 20
-4.5002
 10
690.0507
 20
-5.0881
 10
689.9608
 20
-5.7026
 10
689.9069
 20
-6.3439
 10
689.8889
 20
-7.0118
 10
689.9069
 20
-7.6797
 10
689.9608
 20
-8.3209
 10
690.0507
 20
-8.9355
 10
690.1766
 20
-9.5233
 10
690.3385
 20
-10.0845
 10
690.5364
 20
-10.619
 10
690.7703
 20
-11.1267
 10
691.0402
 20
-11.6078
 10
691.4241
 20
-12.1593
 10
691.8521
 20
-12.6372
 10
692.3242
 20
-13.0415
 10
692.8404
 20
-13.3723
 10
693.4007
 20
-13.6296
 10
694.0052
 20
-13.8133
 10
694.6536
 20
-13.9236
 10
695.3462
 20
-13.9603
  0
LWPOLYLINE
  5
76
330
1F
100
AcDbEntity
  8
Layer 1
 62
     7
100
AcDbPolyline
 90
      162
 70
     1
 43
0.0
 10
717.01
 20
-13.742
 10
718.6709
 20
-13.742
 10
718.6709
 20
-8.2825
 10
718.6574
 20
-7.9199
 10
718.6168
 20
-7.5745
 10
718.5492
 20
-7.2461
 10
718.4545
 20
-6.9348
 10
718.3327
 20
-6.6406
 10
718.1838
 20
-6.3634
 10
718.0077
 20
-6.1034
 10
717.8046
 20
-5.8605
 10
717.6914
 20
-5.7442
 10
717.5711
 20
-5.6338
 10
717.4438
 20
-5.5294
 10
717.3094
 20
-5.4308
 10
717.168
 20
-5.3382
 10
717.0195
 20
-5.2515
 10
716.864
 20
-5.1707
 10
716.7016
 20
-5.0958
 10
716.5287
 20
-5.0284
 10
716.3426
 20
-4.9699
 10
716.1431
 20
-4.9205
 10
715.9304
 20
-4.88
 10
715.7042
 20
-4.8485
 10
715.4647
 20
-4.826
 10
715.2118
 20
-4.8125
 10
714.9455
 20
-4.808
 10
714.677
 20
-4.8158
 10
714.4169
 20
-4.839
 10
714.1655
 20
-4.8778
 10
713.9225
 20
-4.9321
 10
713.6881
 20
-5.0019
 10
713.4621
 20
-5.0873
 10
713.2447
 20
-5.1881
 10
713.0358
 20
-5.3045
 10
712.8544
 20
-5.4205
 10
712.6811
 20
-5.5452
 10
712.5161
 20
-5.6783
 10
712.3593
 20
-5.8198
 10
712.2106
 20
-5.9697
 10
712.0701
 20
-6.128
 10
711.9377
 20
-6.2946
 10
711.8135
 20
-6.4693
 10
711.7171
 20
-6.3081
 10
711.6118
 20
-6.1525
 10
711.4978
 20
-6.0031
 10
711.375
 20
-5.8605
 10
711.2616
 20
-5.7442
 10
711.1412
 20
-5.6338
 10
711.0138
 20
-5.5294
 10
710.8794
 20
-5.4308
 10
710.738
 20
-5.3382
 10
710.5895
 20
-5.2515
 10
710.4339
 20
-5.1707
 10
710.2713
 20
-5.0958
 10
710.0986
 20
-5.0284
 10
709.9126
 20
-4.9699
 10
709.7132
 20
-4.9205
 10
709.5004
 20
-4.88
 10
709.2741
 20
-4.8485
 10
709.0346
 20
-4.826
 10
708.7816
 20
-4.8125
 10
708.5152
 20
-4.808
 10
708.2467
 20
-4.8158
 10
707.9867
 20
-4.839
 10
707.7352
 20
-4.8778
 10
707.4923
 20
-4.9321
 10
707.2578
 20
-5.0019
 10
707.0319
 20
-5.0873
 10
706.8145
 20
-5.1881
 10
706.6056
 20
-5.3045
 10
706.4328
 20
-5.4149
 10
706.2674
 20
-5.5328
 10
706.1094
 20
-5.6583
 10
705.9589
 20
-5.7913
 10
705.8157
 20
-5.9319
 10
705.68
 20
-6.0802
 10
705.5517
 20
-6.2361
 10
705.4308
 20
-6.3997
 10
705.4308
 20
-5.0066
 10
703.77
 20
-5.0066
 10
703.77
 20
-13.742
 10
705.4308
 20
-13.742
 10
705.4308
 20
-9.2717
 10
705.4694
 20
-9.0113
 10
705.5198
 20
-8.761
 10
705.5821
 20
-8.5209
 10
705.6563
 20
-8.2908
 10
705.7423
 20
-8.0705
 10
705.8402
 20
-7.8601
 10
705.95
 20
-7.6595
 10
706.0718
 20
-7.4685
 10
706.1707
 20
-7.3325
 10
706.2777
 20
-7.2028
 10
706.393
 20
-7.0794
 10
706.5164
 20
-6.9621
 10
706.648
 20
-6.8511
 10
706.7877
 20
-6.7462
 10
706.9356
 20
-6.6476
 10
707.0917
 20
-6.5551
 10
707.2533
 20
-6.4713
 10
707.418
 20
-6.3987
 10
707.5855
 20
-6.3373
 10
707.7561
 20
-6.287
 10
707.9297
 20
-6.2479
 10
708.1062
 20
-6.22
 10
708.2858
 20
-6.2033
 10
708.4683
 20
-6.1977
 10
708.6462
 20
-6.2006
 10
708.8122
 20
-6.2095
 10
708.9664
 20
-6.2242
 10
709.1088
 20
-6.2449
 10
709.2392
 20
-6.2714
 10
709.3578
 20
-6.3038
 10
709.4645
 20
-6.342
 10
709.5592
 20
-6.3862
 10
709.7985
 20
-6.5342
 10
710.0058
 20
-6.7077
 10
710.1812
 20
-6.9066
 10
710.3247
 20
-7.131
 10
710.4363
 20
-7.3807
 10
710.516
 20
-7.6559
 10
710.5638
 20
-7.9565
 10
710.5797
 20
-8.2825
 10
710.5797
 20
-13.742
 10
712.2406
 20
-13.742
 10
712.2406
 20
-8.2825
 10
712.2285
 20
-7.9482
 10
712.5014
 20
-7.4685
 10
712.6005
 20
-7.3325
 10
712.7077
 20
-7.2028
 10
712.8231
 20
-7.0794
 10
712.9466
 20
-6.9621
 10
713.0782
 20
-6.8511
 10
713.218
 20
-6.7462
 10
713.3659
 20
-6.6476
 10
713.522
 20
-6.5551
 10
713.6836
 20
-6.4713
 10
713.8482
 20
-6.3987
 10
714.0158
 20
-6.3373
 10
714.1864
 20
-6.287
 10
714.3599
 20
-6.2479
 10
714.5364
 20
-6.22
 10
714.716
 20
-6.2033
 10
714.8985
 20
-6.1977
 10
715.0764
 20
-6.2006
 10
715.2424
 20
-6.2095
 10
715.3965
 20
-6.2242
 10
715.5388
 20
-6.2449
 10
715.6692
 20
-6.2714
 10
715.7878
 20
-6.3038
 10
715.8946
 20
-6.342
 10
715.9895
 20
-6.3862
 10
716.2287
 20
-6.5342
 10
716.436
 20
-6.7077
 10
716.6114
 20
-6.9066
 10
716.7549
 20
-7.131
 10
716.8665
 20
-7.3807
 10
716.9462
 20
-7.6559
 10
716.9941
 20
-7.9565
 10
717.01
 20
-8.2825
 10
717.01
 20
-13.742
  0
LWPOLYLINE
  5
77
330
1F
100
AcDbEntity
  8
Layer 1
 62
     7
100
AcDbPolyline
 90
      162
 70
     1
 43
0.0
 10
735.114
 20
-13.742
 10
736.7748
 20
-13.742
 10
736.7748
 20
-8.2825
 10
736.7613
 20
-7.9199
 10
736.7207
 20
-7.5745
 10
736.6531
 20
-7.2461
 10
736.5584
 20
-6.9348
 10
736.4366
 20
-6.6406
 10
736.2877
 20
-6.3634
 10
736.1117
 20
-6.1034
 10
735.9085
 20
-5.8605
 10
735.7953
 20
-5.7442
 10
735.6751
 20
-5.6338
 10
735.5478
 20
-5.5294
 10
735.4134
 20
-5.4308
 10
735.2719
 20
-5.3382
 10
735.1235
 20
-5.2515
 10
734.968
 20
-5.1707
 10
734.8055
 20
-5.0958
 10
734.6327
 20
-5.0284
 10
734.4465
 20
-4.9699
 10
734.2471
 20
-4.9205
 10
734.0343
 20
-4.88
 10
733.8082
 20
-4.8485
 10
733.5687
 20
-4.826
 10
733.3158
 20
-4.8125
 10
733.0494
 20
-4.808
 10
732.7809
 20
-4.8158
 10
732.5209
 20
-4.839
 10
732.2694
 20
-4.8778
 10
732.0265
 20
-4.9321
 10
731.792
 20
-5.0019
 10
731.5661
 20
-5.0873
 10
731.3487
 20
-5.1881
 10
731.1398
 20
-5.3045
 10
730.9584
 20
-5.4205
 10
730.7851
 20
-5.5452
 10
730.6201
 20
-5.6783
 10
730.4633
 20
-5.8198
 10
730.3146
 20
-5.9697
 10
730.1741
 20
-6.128
 10
730.0417
 20
-6.2946
 10
729.9174
 20
-6.4693
 10
729.821
 20
-6.3081
 10
729.7158
 20
-6.1525
 10
729.6018
 20
-6.0031
 10
729.4789
 20
-5.8605
 10
729.3655
 20
-5.7442
 10
729.2452
 20
-5.6338
 10
729.1178
 20
-5.5294
 10
728.9834
 20
-5.4308
 10
728.842
 20
-5.3382
 10
728.6935
 20
-5.2515
 10
728.5379
 20
-5.1707
 10
728.3753
 20
-5.0958
 10
728.2026
 20
-5.0284
 10
728.0166
 20
-4.9699
 10
727.8172
 20
-4.9205
 10
727.6044
 20
-4.88
 10
727.3781
 20
-4.8485
 10
727.1386
 20
-4.826
 10
726.8856
 20
-4.8125
 10
726.6192
 20
-4.808
 10
726.3507
 20
-4.8158
 10
726.0906
 20
-4.839
 10
725.8392
 20
-4.8778
 10
725.5962
 20
-4.9321
 10
725.3618
 20
-5.0019
 10
725.1358
 20
-5.0873
 10
724.9184
 20
-5.1881
 10
724.7095
 20
-5.3045
 10
724.5367
 20
-5.4149
 10
724.3713
 20
-5.5328
 10
724.2134
 20
-5.6583
 10
724.0628
 20
-5.7913
 10
723.9197
 20
-5.9319
 10
723.784
 20
-6.0802
 10
723.6557
 20
-6.2361
 10
723.5348
 20
-6.3997
 10
723.5348
 20
-5.0066
 10
721.8739
 20
-5.0066
 10
721.8739
 20
-13.742
 10
723.5348
 20
-13.742
 10
723.5348
 20
-9.2717
 10
723.5734
 20
-9.0113
 10
723.6238
 20
-8.761
 10
723.6861
 20
-8.5209
 10
723.7603
 20
-8.2908
 10
723.8463
 20
-8.0705
 10
723.9442
 20
-7.8601
 10
724.054
 20
-7.6595
 10
724.1758
 20
-7.4685
 10
724.2747
 20
-7.3325
 10
724.3817
 20
-7.2028
 10
724.497
 20
-7.0794
 10
724.6204
 20
-6.9621
 10
724.7519
 20
-6.8511
 10
724.8917
 20
-6.7462
 10
725.0396
 20
-6.6476
 10
725.1957
 20
-6.5551
 10
725.3573
 20
-6.4713
 10
725.5219
 20
-6.3987
 10
725.6895
 20
-6.3373
 10
725.8601
 20
-6.287
 10
726.0336
 20
-6.2479
 10
726.2101
 20
-6.22
 10
726.3897
 20
-6.2033
 10
726.5722
 20
-6.1977
 10
726.7501
 20
-6.2006
 10
726.9162
 20
-6.2095
 10
727.0704
 20
-6.2242
 10
727.2128
 20
-6.2449
 10
727.3432
 20
-6.2714
 10
727.4618
 20
-6.3038
 10
727.5685
 20
-6.342
 10
727.6632
 20
-6.3862
 10
727.9024
 20
-6.5342
 10
728.1097
 20
-6.7077
 10
728.2851
 20
-6.9066
 10
728.4286
 20
-7.131
 10
728.5402
 20
-7.3807
 10
728.6199
 20
-7.6559
 10
728.6678
 20
-7.9565
 10
728.6837
 20
-8.2825
 10
728.6837
 20
-13.742
 10
730.3446
 20
-13.742
 10
730.3446
 20
-8.2825
 10
730.3325
 20
-7.9482
 10
730.6054
 20
-7.4685
 10
730.7045
 20
-7.3325
 10
730.8117
 20
-7.2028
 10
730.9271
 20
-7.0794
 10
731.0506
 20
-6.9621
 10
731.1822
 20
-6.8511
 10
731.3219
 20
-6.7462
 10
731.4698
 20
-6.6476
 10
731.6259
 20
-6.5551
 10
731.7875
 20
-6.4713
 10
731.9522
 20
-6.3987
 10
732.1197
 20
-6.3373
 10
732.2903
 20
-6.287
 10
732.4639
 20
-6.2479
 10
732.6404
 20
-6.22
 10
732.82
 20
-6.2033
 10
733.0025
 20
-6.1977
 10
733.1804
 20
-6.2006
 10
733.3463
 20
-6.2095
 10
733.5005
 20
-6.2242
 10
733.6428
 20
-6.2449
 10
733.7732
 20
-6.2714
 10
733.8918
 20
-6.3038
 10
733.9985
 20
-6.342
 10
734.0934
 20
-6.3862
 10
734.3327
 20
-6.5342
 10
734.54
 20
-6.7077
 10
734.7154
 20
-6.9066
 10
734.8589
 20
-7.131
 10
734.9705
 20
-7.3807
 10
735.0502
 20
-7.6559
 10
735.0981
 20
-7.9565
 10
735.114
 20
-8.2825
 10
735.114
 20
-13.742
  0
LWPOLYLINE
  5
78
330
1F
100
AcDbEntity
  8
Layer 1
 62
     7
370
    35
100
AcDbPolyline
 90
        5
 70
     1
 43
0.0
 10
838.5138
 20
35.2614
 10
1192.2203
 20
35.2614
 10
1192.2203
 20
-48.977
 10
838.5138
 20
-48.977
 10
838.5138
 20
35.2614
  0
LWPOLYLINE
  5
79
330
1F
100
AcDbEntity
  8
Layer 1
 62
     7
370
    35
100
AcDbPolyline
 90
        4
 70
     0
 43
0.0
 10
840.0854
 20
50.5694
 10
840.0854
 20
77.3445
 10
1191.472
 20
77.3445
 10
1191.472
 20
51.6404
  0
LWPOLYLINE
  5
7A
330
1F
100
AcDbEntity
  8
Layer 1
 62
     7
370
    35
100
AcDbPolyline
 90
        2
 70
     0
 43
0.0
 10
844.1173
 20
75.6591
 10
837.0038
 20
78.6186
  0
LWPOLYLINE
  5
7B
330
1F
100
AcDbEntity
  8
Layer 1
 62
     7
370
    35
100
AcDbPolyline
 90
        2
 70
     0
 43
0.0
 10
1195.0291
 20
75.6266
 10
1187.9163
 20
78.5866
  0
LWPOLYLINE
  5
7C
330
1F
100
AcDbEntity
  8
Layer 1
 62
     7
100
AcDbPolyline
 90
      136
 70
     1
 43
0.0
 10
981.2944
 20
92.1374
 10
982.386
 20
95.7505
 10
988.2228
 20
95.7505
 10
988.2228
 20
97.1402
 10
981.1288
 20
97.1402
 10
979.2775
 20
91.0849
 10
981.0812
 20
90.41
 10
981.3427
 20
90.5589
 10
981.6171
 20
90.6879
 10
981.9046
 20
90.7971
 10
982.2051
 20
90.8864
 10
982.5185
 20
90.9558
 10
982.8449
 20
91.0054
 10
983.1843
 20
91.0352
 10
983.5366
 20
91.0451
 10
983.8912
 20
91.0305
 10
984.2339
 20
90.9868
 10
984.5646
 20
90.9139
 10
984.8835
 20
90.8119
 10
985.1905
 20
90.6807
 10
985.4856
 20
90.5204
 10
985.7689
 20
90.3308
 10
986.0403
 20
90.1121
 10
986.296
 20
89.8682
 10
986.5177
 20
89.6152
 10
986.7052
 20
89.3533
 10
986.8586
 20
89.0824
 10
986.9779
 20
88.8024
 10
987.0631
 20
88.5134
 10
987.1142
 20
88.2154
 10
987.1312
 20
87.9083
 10
987.1138
 20
87.5909
 10
987.0616
 20
87.2861
 10
986.9745
 20
86.994
 10
986.8526
 20
86.7147
 10
986.6958
 20
86.4481
 10
986.5041
 20
86.1942
 10
986.2776
 20
85.9531
 10
986.0162
 20
85.7247
 10
985.8833
 20
85.623
 10
985.7456
 20
85.5267
 10
985.6031
 20
85.4356
 10
985.4558
 20
85.3498
 10
985.3036
 20
85.2693
 10
985.1466
 20
85.194
 10
984.9847
 20
85.124
 10
984.8179
 20
85.0593
 10
984.6441
 20
85.0011
 10
984.4607
 20
84.9507
 10
984.2675
 20
84.9081
 10
984.0647
 20
84.8733
 10
983.8523
 20
84.8462
 10
983.6302
 20
84.8269
 10
983.3984
 20
84.8153
 10
983.1571
 20
84.8114
 10
982.9111
 20
84.8201
 10
982.6655
 20
84.8461
 10
982.4203
 20
84.8895
 10
982.1754
 20
84.9503
 10
981.9309
 20
85.0285
 10
981.6869
 20
85.1241
 10
981.4431
 20
85.237
 10
981.1998
 20
85.3674
 10
980.9653
 20
85.5115
 10
980.7487
 20
85.6662
 10
980.5499
 20
85.8315
 10
980.369
 20
86.0074
 10
980.2058
 20
86.1938
 10
980.0605
 20
86.3908
 10
979.933
 20
86.5984
 10
979.8233
 20
86.8165
 10
978.21
 20
86.3795
 10
978.3685
 20
86.0528
 10
978.5534
 20
85.7424
 10
978.7645
 20
85.4485
 10
979.002
 20
85.1711
 10
979.2658
 20
84.91
 10
979.5558
 20
84.6655
 10
979.8722
 20
84.4373
 10
980.2148
 20
84.2256
 10
980.5792
 20
84.0325
 10
980.9518
 20
83.8651
 10
981.3326
 20
83.7235
 10
981.7215
 20
83.6076
 10
982.1186
 20
83.5174
 10
982.5238
 20
83.453
 10
982.9373
 20
83.4144
 10
983.3589
 20
83.4015
 10
983.9207
 20
83.4227
 10
984.4609
 20
83.4865
 10
984.9795
 20
83.5927
 10
985.4766
 20
83.7415
 10
985.9522
 20
83.9327
 10
986.4063
 20
84.1664
 10
986.8388
 20
84.4427
 10
987.2499
 20
84.7614
 10
987.6226
 20
85.1076
 10
987.9455
 20
85.4708
 10
988.2188
 20
85.851
 10
988.4423
 20
86.2482
 10
988.6162
 20
86.6624
 10
988.7404
 20
87.0938
 10
988.8149
 20
87.5421
 10
988.8397
 20
88.0076
 10
988.8152
 20
88.4706
 10
988.7419
 20
88.9141
 10
988.6196
 20
89.338
 10
988.4484
 20
89.7424
 10
988.2282
 20
90.1273
 10
987.9591
 20
90.4926
 10
987.6411
 20
90.8384
 10
987.2741
 20
91.1646
 10
987.0863
 20
91.3095
 10
986.8912
 20
91.4467
 10
986.6888
 20
91.5762
 10
986.4789
 20
91.698
 10
986.2617
 20
91.812
 10
986.0371
 20
91.9184
 10
985.805
 20
92.0169
 10
985.5656
 20
92.1077
 10
985.3213
 20
92.189
 10
985.0749
 20
92.2595
 10
984.8262
 20
92.3191
 10
984.5755
 20
92.368
 10
984.3227
 20
92.406
 10
984.068
 20
92.4332
 10
983.8113
 20
92.4496
 10
983.5527
 20
92.455
 10
983.2891
 20
92.45
 10
983.0202
 20
92.4351
 10
982.746
 20
92.4103
 10
982.4665
 20
92.3755
 10
982.1816
 20
92.3308
 10
981.8914
 20
92.2763
 10
981.5956
 20
92.2118
 10
981.2944
 20
92.1374
  0
LWPOLYLINE
  5
7D
330
1F
100
AcDbEntity
  8
Layer 1
 62
     7
100
AcDbPolyline
 90
       87
 70
     1
 43
0.0
 10
991.5922
 20
83.6399
 10
1002.9581
 20
83.6399
 10
1002.9581
 20
85.0296
 10
995.6025
 20
85.0296
 10
1001.2262
 20
89.6952
 10
1001.5932
 20
90.0312
 10
1001.9113
 20
90.3839
 10
1002.1804
 20
90.7534
 10
1002.4005
 20
91.1397
 10
1002.5717
 20
91.5427
 10
1002.694
 20
91.9625
 10
1002.7673
 20
92.399
 10
1002.7918
 20
92.8522
 10
1002.7668
 20
93.3156
 10
1002.6917
 20
93.7604
 10
1002.5666
 20
94.1866
 10
1002.3914
 20
94.5942
 10
1002.1662
 20
94.9832
 10
1001.8909
 20
95.3535
 10
1001.5655
 20
95.7052
 10
1001.19
 20
96.0383
 10
1000.7731
 20
96.3478
 10
1000.3376
 20
96.616
 10
999.8835
 20
96.8429
 10
999.4109
 20
97.0285
 10
998.9196
 20
97.1729
 10
998.4098
 20
97.276
 10
997.8814
 20
97.3379
 10
997.3345
 20
97.3585
 10
996.7667
 20
97.3368
 10
996.2201
 20
97.2717
 10
995.6946
 20
97.1632
 10
995.1902
 20
97.0112
 10
994.7069
 20
96.8158
 10
994.2447
 20
96.5769
 10
993.8037
 20
96.2946
 10
993.3838
 20
95.9688
 10
993.01
 20
95.6184
 10
992.6892
 20
95.2498
 10
992.4213
 20
94.8629
 10
992.2065
 20
94.4576
 10
992.0447
 20
94.0341
 10
991.9359
 20
93.5923
 10
991.88
 20
93.1321
 10
991.8772
 20
92.6536
 10
993.5622
 20
92.6536
 10
993.548
 20
92.9639
 10
993.5739
 20
93.2671
 10
993.6398
 20
93.5631
 10
993.7457
 20
93.8521
 10
993.8917
 20
94.1338
 10
994.0778
 20
94.4085
 10
994.3039
 20
94.676
 10
994.57
 20
94.9365
 10
994.8547
 20
95.1692
 10
995.1543
 20
95.3709
 10
995.4687
 20
95.5416
 10
995.798
 20
95.6813
 10
996.1421
 20
95.7899
 10
996.501
 20
95.8674
 10
996.8748
 20
95.914
 10
997.2634
 20
95.9295
 10
997.6447
 20
95.9155
 10
998.0115
 20
95.8736
 10
998.3638
 20
95.8038
 10
998.7018
 20
95.7061
 10
999.0253
 20
95.5804
 10
999.3344
 20
95.4268
 10
999.629
 20
95.2453
 10
999.9093
 20
95.0358
 10
1000.1679
 20
94.8044
 10
1000.3919
 20
94.5619
 10
1000.5815
 20
94.3082
 10
1000.7366
 20
94.0432
 10
1000.8572
 20
93.7671
 10
1000.9434
 20
93.4799
 10
1000.9951
 20
93.1814
 10
1001.0123
 20
92.8718
 10
1000.9956
 20
92.5555
 10
1000.9455
 20
92.2515
 10
1000.8621
 20
91.9599
 10
1000.7453
 20
91.6807
 10
1000.5952
 20
91.4138
 10
1000.4117
 20
91.1594
 10
1000.1949
 20
90.9173
 10
999.9448
 20
90.6877
 10
991.5922
 20
83.6399
  0
LWPOLYLINE
  5
7E
330
1F
100
AcDbEntity
  8
Layer 1
 62
     7
100
AcDbPolyline
 90
      136
 70
     1
 43
0.0
 10
1008.9371
 20
92.1374
 10
1010.0287
 20
95.7505
 10
1015.8656
 20
95.7505
 10
1015.8656
 20
97.1402
 10
1008.7715
 20
97.1402
 10
1006.9202
 20
91.0849
 10
1008.7239
 20
90.41
 10
1008.9854
 20
90.5589
 10
1009.2598
 20
90.6879
 10
1009.5473
 20
90.7971
 10
1009.8478
 20
90.8864
 10
1010.1612
 20
90.9558
 10
1010.4876
 20
91.0054
 10
1010.827
 20
91.0352
 10
1011.1793
 20
91.0451
 10
1011.5339
 20
91.0305
 10
1011.8766
 20
90.9868
 10
1012.2074
 20
90.9139
 10
1012.5263
 20
90.8119
 10
1012.8332
 20
90.6807
 10
1013.1283
 20
90.5204
 10
1013.4116
 20
90.3308
 10
1013.683
 20
90.1121
 10
1013.9388
 20
89.8682
 10
1014.1604
 20
89.6152
 10
1014.3479
 20
89.3533
 10
1014.5014
 20
89.0824
 10
1014.6206
 20
88.8024
 10
1014.7059
 20
88.5134
 10
1014.757
 20
88.2154
 10
1014.774
 20
87.9083
 10
1014.7566
 20
87.5909
 10
1014.7043
 20
87.2861
 10
1014.6172
 20
86.994
 10
1014.4953
 20
86.7147
 10
1014.3385
 20
86.4481
 10
1014.1468
 20
86.1942
 10
1013.9203
 20
85.9531
 10
1013.6589
 20
85.7247
 10
1013.526
 20
85.623
 10
1013.3883
 20
85.5267
 10
1013.2458
 20
85.4356
 10
1013.0985
 20
85.3498
 10
1012.9464
 20
85.2693
 10
1012.7894
 20
85.194
 10
1012.6275
 20
85.124
 10
1012.4607
 20
85.0593
 10
1012.2869
 20
85.0011
 10
1012.1034
 20
84.9507
 10
1011.9103
 20
84.9081
 10
1011.7075
 20
84.8733
 10
1011.495
 20
84.8462
 10
1011.2729
 20
84.8269
 10
1011.0412
 20
84.8153
 10
1010.7998
 20
84.8114
 10
1010.5538
 20
84.8201
 10
1010.3083
 20
84.8461
 10
1010.063
 20
84.8895
 10
1009.8182
 20
84.9503
 10
1009.5737
 20
85.0285
 10
1009.3297
 20
85.1241
 10
1009.0859
 20
85.237
 10
1008.8426
 20
85.3674
 10
1008.6081
 20
85.5115
 10
1008.3915
 20
85.6662
 10
1008.1927
 20
85.8315
 10
1008.0117
 20
86.0074
 10
1007.8486
 20
86.1938
 10
1007.7033
 20
86.3908
 10
1007.5757
 20
86.5984
 10
1007.466
 20
86.8165
 10
1005.8527
 20
86.3795
 10
1006.0112
 20
86.0528
 10
1006.1961
 20
85.7424
 10
1006.4072
 20
85.4485
 10
1006.6447
 20
85.1711
 10
1006.9085
 20
84.91
 10
1007.1986
 20
84.6655
 10
1007.5149
 20
84.4373
 10
1007.8576
 20
84.2256
 10
1008.222
 20
84.0325
 10
1008.5946
 20
83.8651
 10
1008.9753
 20
83.7235
 10
1009.3642
 20
83.6076
 10
1009.7613
 20
83.5174
 10
1010.1666
 20
83.453
 10
1010.58
 20
83.4144
 10
1011.0016
 20
83.4015
 10
1011.5634
 20
83.4227
 10
1012.1036
 20
83.4865
 10
1012.6223
 20
83.5927
 10
1013.1194
 20
83.7415
 10
1013.595
 20
83.9327
 10
1014.0491
 20
84.1664
 10
1014.4816
 20
84.4427
 10
1014.8927
 20
84.7614
 10
1015.2653
 20
85.1076
 10
1015.5883
 20
85.4708
 10
1015.8615
 20
85.851
 10
1016.0851
 20
86.2482
 10
1016.259
 20
86.6624
 10
1016.3832
 20
87.0938
 10
1016.4577
 20
87.5421
 10
1016.4825
 20
88.0076
 10
1016.458
 20
88.4706
 10
1016.3847
 20
88.9141
 10
1016.2624
 20
89.338
 10
1016.0912
 20
89.7424
 10
1015.871
 20
90.1273
 10
1015.6019
 20
90.4926
 10
1015.2838
 20
90.8384
 10
1014.9168
 20
91.1646
 10
1014.7291
 20
91.3095
 10
1014.534
 20
91.4467
 10
1014.3315
 20
91.5762
 10
1014.1217
 20
91.698
 10
1013.9044
 20
91.812
 10
1013.6798
 20
91.9184
 10
1013.4477
 20
92.0169
 10
1013.2083
 20
92.1077
 10
1012.964
 20
92.189
 10
1012.7176
 20
92.2595
 10
1012.4689
 20
92.3191
 10
1012.2182
 20
92.368
 10
1011.9654
 20
92.406
 10
1011.7107
 20
92.4332
 10
1011.454
 20
92.4496
 10
1011.1954
 20
92.455
 10
1010.9318
 20
92.45
 10
1010.6629
 20
92.4351
 10
1010.3888
 20
92.4103
 10
1010.1093
 20
92.3755
 10
1009.8244
 20
92.3308
 10
1009.5341
 20
92.2763
 10
1009.2383
 20
92.2118
 10
1008.9371
 20
92.1374
  0
LWPOLYLINE
  5
7F
330
1F
100
AcDbEntity
  8
Layer 1
 62
     7
100
AcDbPolyline
 90
      162
 70
     1
 43
0.0
 10
1032.7599
 20
83.6797
 10
1034.4208
 20
83.6797
 10
1034.4208
 20
89.1392
 10
1034.4073
 20
89.5018
 10
1034.3667
 20
89.8473
 10
1034.2991
 20
90.1757
 10
1034.2044
 20
90.487
 10
1034.0826
 20
90.7812
 10
1033.9337
 20
91.0583
 10
1033.7577
 20
91.3183
 10
1033.5545
 20
91.5612
 10
1033.4413
 20
91.6775
 10
1033.3211
 20
91.7879
 10
1033.1937
 20
91.8924
 10
1033.0593
 20
91.9909
 10
1032.9179
 20
92.0835
 10
1032.7694
 20
92.1702
 10
1032.614
 20
92.251
 10
1032.4515
 20
92.3259
 10
1032.2787
 20
92.3934
 10
1032.0925
 20
92.4518
 10
1031.8931
 20
92.5013
 10
1031.6803
 20
92.5418
 10
1031.4542
 20
92.5732
 10
1031.2147
 20
92.5957
 10
1030.9618
 20
92.6092
 10
1030.6954
 20
92.6137
 10
1030.4269
 20
92.6059
 10
1030.1669
 20
92.5827
 10
1029.9154
 20
92.5439
 10
1029.6725
 20
92.4896
 10
1029.438
 20
92.4198
 10
1029.2121
 20
92.3344
 10
1028.9947
 20
92.2336
 10
1028.7858
 20
92.1172
 10
1028.6043
 20
92.0012
 10
1028.4311
 20
91.8766
 10
1028.266
 20
91.7435
 10
1028.1092
 20
91.602
 10
1027.9605
 20
91.452
 10
1027.82
 20
91.2938
 10
1027.6876
 20
91.1272
 10
1027.5634
 20
90.9525
 10
1027.467
 20
91.1137
 10
1027.3617
 20
91.2693
 10
1027.2477
 20
91.4187
 10
1027.1249
 20
91.5612
 10
1027.0115
 20
91.6775
 10
1026.8912
 20
91.7879
 10
1026.7638
 20
91.8924
 10
1026.6294
 20
91.9909
 10
1026.4879
 20
92.0835
 10
1026.3394
 20
92.1702
 10
1026.1839
 20
92.251
 10
1026.0212
 20
92.3259
 10
1025.8486
 20
92.3934
 10
1025.6625
 20
92.4518
 10
1025.4631
 20
92.5013
 10
1025.2503
 20
92.5418
 10
1025.0241
 20
92.5732
 10
1024.7845
 20
92.5957
 10
1024.5315
 20
92.6092
 10
1024.2651
 20
92.6137
 10
1023.9966
 20
92.6059
 10
1023.7366
 20
92.5827
 10
1023.4851
 20
92.5439
 10
1023.2422
 20
92.4896
 10
1023.0077
 20
92.4198
 10
1022.7818
 20
92.3344
 10
1022.5644
 20
92.2336
 10
1022.3555
 20
92.1172
 10
1022.1827
 20
92.0068
 10
1022.0173
 20
91.8889
 10
1021.8593
 20
91.7635
 10
1021.7088
 20
91.6305
 10
1021.5657
 20
91.4899
 10
1021.4299
 20
91.3416
 10
1021.3017
 20
91.1857
 10
1021.1808
 20
91.0221
 10
1021.1808
 20
92.4151
 10
1019.5199
 20
92.4151
 10
1019.5199
 20
83.6797
 10
1021.1808
 20
83.6797
 10
1021.1808
 20
88.1501
 10
1021.2194
 20
88.4105
 10
1021.2698
 20
88.6607
 10
1021.3321
 20
88.9009
 10
1021.4062
 20
89.131
 10
1021.4923
 20
89.3512
 10
1021.5902
 20
89.5617
 10
1021.7
 20
89.7623
 10
1021.8218
 20
89.9533
 10
1021.9207
 20
90.0892
 10
1022.0277
 20
90.2189
 10
1022.143
 20
90.3424
 10
1022.2663
 20
90.4596
 10
1022.3979
 20
90.5707
 10
1022.5376
 20
90.6755
 10
1022.6855
 20
90.7742
 10
1022.8416
 20
90.8667
 10
1023.0033
 20
90.9505
 10
1023.1679
 20
91.0231
 10
1023.3355
 20
91.0845
 10
1023.5061
 20
91.1348
 10
1023.6796
 20
91.1739
 10
1023.8561
 20
91.2018
 10
1024.0357
 20
91.2185
 10
1024.2182
 20
91.2241
 10
1024.3961
 20
91.2212
 10
1024.5622
 20
91.2123
 10
1024.7164
 20
91.1976
 10
1024.8588
 20
91.1769
 10
1024.9892
 20
91.1504
 10
1025.1078
 20
91.118
 10
1025.2144
 20
91.0797
 10
1025.3091
 20
91.0355
 10
1025.5484
 20
90.8875
 10
1025.7557
 20
90.7141
 10
1025.9311
 20
90.5152
 10
1026.0746
 20
90.2908
 10
1026.1862
 20
90.0411
 10
1026.2659
 20
89.7659
 10
1026.3138
 20
89.4652
 10
1026.3297
 20
89.1392
 10
1026.3297
 20
83.6797
 10
1027.9905
 20
83.6797
 10
1027.9905
 20
89.1392
 10
1027.9785
 20
89.4736
 10
1028.2514
 20
89.9533
 10
1028.3505
 20
90.0892
 10
1028.4577
 20
90.2189
 10
1028.573
 20
90.3424
 10
1028.6965
 20
90.4596
 10
1028.8281
 20
90.5707
 10
1028.9679
 20
90.6755
 10
1029.1158
 20
90.7742
 10
1029.2719
 20
90.8667
 10
1029.4335
 20
90.9505
 10
1029.5982
 20
91.0231
 10
1029.7657
 20
91.0845
 10
1029.9363
 20
91.1348
 10
1030.1099
 20
91.1739
 10
1030.2864
 20
91.2018
 10
1030.466
 20
91.2185
 10
1030.6485
 20
91.2241
 10
1030.8263
 20
91.2212
 10
1030.9923
 20
91.2123
 10
1031.1464
 20
91.1976
 10
1031.2887
 20
91.1769
 10
1031.4191
 20
91.1504
 10
1031.5377
 20
91.118
 10
1031.6445
 20
91.0797
 10
1031.7394
 20
91.0355
 10
1031.9787
 20
90.8875
 10
1032.186
 20
90.7141
 10
1032.3614
 20
90.5152
 10
1032.5049
 20
90.2908
 10
1032.6165
 20
90.0411
 10
1032.6962
 20
89.7659
 10
1032.744
 20
89.4652
 10
1032.7599
 20
89.1392
 10
1032.7599
 20
83.6797
  0
LWPOLYLINE
  5
80
330
1F
100
AcDbEntity
  8
Layer 1
 62
     7
100
AcDbPolyline
 90
      162
 70
     1
 43
0.0
 10
1050.8639
 20
83.6797
 10
1052.5248
 20
83.6797
 10
1052.5248
 20
89.1392
 10
1052.5113
 20
89.5018
 10
1052.4707
 20
89.8473
 10
1052.4031
 20
90.1757
 10
1052.3084
 20
90.487
 10
1052.1866
 20
90.7812
 10
1052.0377
 20
91.0583
 10
1051.8616
 20
91.3183
 10
1051.6585
 20
91.5612
 10
1051.5453
 20
91.6775
 10
1051.425
 20
91.7879
 10
1051.2977
 20
91.8924
 10
1051.1633
 20
91.9909
 10
1051.0219
 20
92.0835
 10
1050.8734
 20
92.1702
 10
1050.7179
 20
92.251
 10
1050.5555
 20
92.3259
 10
1050.3827
 20
92.3934
 10
1050.1965
 20
92.4518
 10
1049.9971
 20
92.5013
 10
1049.7843
 20
92.5418
 10
1049.5582
 20
92.5732
 10
1049.3187
 20
92.5957
 10
1049.0658
 20
92.6092
 10
1048.7994
 20
92.6137
 10
1048.5309
 20
92.6059
 10
1048.2708
 20
92.5827
 10
1048.0194
 20
92.5439
 10
1047.7764
 20
92.4896
 10
1047.542
 20
92.4198
 10
1047.316
 20
92.3344
 10
1047.0986
 20
92.2336
 10
1046.8897
 20
92.1172
 10
1046.7083
 20
92.0012
 10
1046.535
 20
91.8766
 10
1046.37
 20
91.7435
 10
1046.2132
 20
91.602
 10
1046.0645
 20
91.452
 10
1045.924
 20
91.2938
 10
1045.7916
 20
91.1272
 10
1045.6674
 20
90.9525
 10
1045.571
 20
91.1137
 10
1045.4657
 20
91.2693
 10
1045.3517
 20
91.4187
 10
1045.2289
 20
91.5612
 10
1045.1155
 20
91.6775
 10
1044.9952
 20
91.7879
 10
1044.8678
 20
91.8924
 10
1044.7334
 20
91.9909
 10
1044.5919
 20
92.0835
 10
1044.4434
 20
92.1702
 10
1044.2879
 20
92.251
 10
1044.1252
 20
92.3259
 10
1043.9526
 20
92.3934
 10
1043.7665
 20
92.4518
 10
1043.5671
 20
92.5013
 10
1043.3543
 20
92.5418
 10
1043.1281
 20
92.5732
 10
1042.8885
 20
92.5957
 10
1042.6355
 20
92.6092
 10
1042.3691
 20
92.6137
 10
1042.1006
 20
92.6059
 10
1041.8406
 20
92.5827
 10
1041.5891
 20
92.5439
 10
1041.3462
 20
92.4896
 10
1041.1117
 20
92.4198
 10
1040.8858
 20
92.3344
 10
1040.6684
 20
92.2336
 10
1040.4595
 20
92.1172
 10
1040.2867
 20
92.0068
 10
1040.1213
 20
91.8889
 10
1039.9633
 20
91.7635
 10
1039.8128
 20
91.6305
 10
1039.6696
 20
91.4899
 10
1039.5339
 20
91.3416
 10
1039.4056
 20
91.1857
 10
1039.2847
 20
91.0221
 10
1039.2847
 20
92.4151
 10
1037.6239
 20
92.4151
 10
1037.6239
 20
83.6797
 10
1039.2847
 20
83.6797
 10
1039.2847
 20
88.1501
 10
1039.3233
 20
88.4105
 10
1039.3737
 20
88.6607
 10
1039.436
 20
88.9009
 10
1039.5102
 20
89.131
 10
1039.5962
 20
89.3512
 10
1039.6942
 20
89.5617
 10
1039.804
 20
89.7623
 10
1039.9258
 20
89.9533
 10
1040.0247
 20
90.0892
 10
1040.1317
 20
90.2189
 10
1040.2469
 20
90.3424
 10
1040.3703
 20
90.4596
 10
1040.5019
 20
90.5707
 10
1040.6416
 20
90.6755
 10
1040.7895
 20
90.7742
 10
1040.9456
 20
90.8667
 10
1041.1072
 20
90.9505
 10
1041.2719
 20
91.0231
 10
1041.4394
 20
91.0845
 10
1041.61
 20
91.1348
 10
1041.7836
 20
91.1739
 10
1041.9601
 20
91.2018
 10
1042.1397
 20
91.2185
 10
1042.3222
 20
91.2241
 10
1042.5001
 20
91.2212
 10
1042.6661
 20
91.2123
 10
1042.8203
 20
91.1976
 10
1042.9627
 20
91.1769
 10
1043.0931
 20
91.1504
 10
1043.2117
 20
91.118
 10
1043.3184
 20
91.0797
 10
1043.4131
 20
91.0355
 10
1043.6524
 20
90.8875
 10
1043.8597
 20
90.7141
 10
1044.0351
 20
90.5152
 10
1044.1786
 20
90.2908
 10
1044.2902
 20
90.0411
 10
1044.3699
 20
89.7659
 10
1044.4177
 20
89.4652
 10
1044.4336
 20
89.1392
 10
1044.4336
 20
83.6797
 10
1046.0945
 20
83.6797
 10
1046.0945
 20
89.1392
 10
1046.0824
 20
89.4736
 10
1046.3553
 20
89.9533
 10
1046.4544
 20
90.0892
 10
1046.5616
 20
90.2189
 10
1046.677
 20
90.3424
 10
1046.8005
 20
90.4596
 10
1046.9321
 20
90.5707
 10
1047.0719
 20
90.6755
 10
1047.2198
 20
90.7742
 10
1047.3759
 20
90.8667
 10
1047.5375
 20
90.9505
 10
1047.7021
 20
91.0231
 10
1047.8697
 20
91.0845
 10
1048.0403
 20
91.1348
 10
1048.2138
 20
91.1739
 10
1048.3903
 20
91.2018
 10
1048.5699
 20
91.2185
 10
1048.7524
 20
91.2241
 10
1048.9303
 20
91.2212
 10
1049.0963
 20
91.2123
 10
1049.2504
 20
91.1976
 10
1049.3927
 20
91.1769
 10
1049.5231
 20
91.1504
 10
1049.6417
 20
91.118
 10
1049.7485
 20
91.0797
 10
1049.8434
 20
91.0355
 10
1050.0826
 20
90.8875
 10
1050.2899
 20
90.7141
 10
1050.4653
 20
90.5152
 10
1050.6088
 20
90.2908
 10
1050.7204
 20
90.0411
 10
1050.8001
 20
89.7659
 10
1050.848
 20
89.4652
 10
1050.8639
 20
89.1392
 10
1050.8639
 20
83.6797
  0
ENDSEC
  0
SECTION
  2
OBJECTS
  0
DICTIONARY
  5
C
330
0
100
AcDbDictionary
281
     1
  3
ACAD_DETAILVIEWSTYLE
350
88
  3
ACAD_GROUP
350
D
  3
ACAD_LAYOUT
350
1A
  3
ACAD_MATERIAL
350
43
  3
ACAD_MLEADERSTYLE
350
5B
  3
ACAD_MLINESTYLE
350
17
  3
ACAD_PLOTSETTINGS
350
19
  3
ACAD_PLOTSTYLENAME
350
E
  3
ACAD_SCALELIST
350
47
  3
ACAD_SECTIONVIEWSTYLE
350
89
  3
ACAD_TABLESTYLE
350
59
  3
ACAD_VISUALSTYLE
350
2A
  3
ACDB_RECOMPOSE_DATA
350
85
  3
AcDbVariableDictionary
350
81
  0
SUN
  5
5D
330
29
100
AcDbSun
 90
        1
290
     0
 63
     7
421
 16777215
 40
1.0
291
     1
 91
  2455826
 92
 54000000
292
     0
 70
     2
 71
   256
280
     1
  0
DICTIONARY
  5
88
102
{ACAD_REACTORS
330
C
102
}
330
C
100
AcDbDictionary
281
     1
  0
DICTIONARY
  5
D
102
{ACAD_REACTORS
330
C
102
}
330
C
100
AcDbDictionary
281
     1
  0
DICTIONARY
  5
1A
102
{ACAD_REACTORS
330
C
102
}
330
C
100
AcDbDictionary
281
     1
  3
Layout1
350
1E
  3
Layout2
350
26
  3
Model
350
22
  0
DICTIONARY
  5
43
102
{ACAD_REACTORS
330
C
102
}
330
C
100
AcDbDictionary
281
     1
  3
ByBlock
350
45
  3
ByLayer
350
44
  3
Global
350
46
  0
DICTIONARY
  5
5B
102
{ACAD_REACTORS
330
C
102
}
330
C
100
AcDbDictionary
281
     1
  3
Standard
350
5C
  0
DICTIONARY
  5
17
102
{ACAD_REACTORS
330
C
102
}
330
C
100
AcDbDictionary
281
     1
  3
Standard
350
18
  0
DICTIONARY
  5
19
102
{ACAD_REACTORS
330
C
102
}
330
C
100
AcDbDictionary
281
     1
  0
ACDBDICTIONARYWDFLT
  5
E
102
{ACAD_REACTORS
330
C
102
}
330
C
100
AcDbDictionary
281
     1
  3
Normal
350
F
100
AcDbDictionaryWithDefault
340
F
  0
DICTIONARY
  5
47
102
{ACAD_REACTORS
330
C
102
}
330
C
100
AcDbDictionary
281
     1
  3
A0
350
48
  3
A1
350
49
  3
A2
350
4A
  3
A3
350
4B
  3
A4
350
4C
  3
A5
350
4D
  3
A6
350
4E
  3
A7
350
4F
  3
A8
350
50
  3
A9
350
51
  3
B1
350
52
  3
B2
350
53
  3
B3
350
54
  3
B4
350
55
  3
B5
350
56
  3
B6
350
57
  3
B7
350
58
  0
DICTIONARY
  5
89
102
{ACAD_REACTORS
330
C
102
}
330
C
100
AcDbDictionary
281
     1
  0
DICTIONARY
  5
59
102
{ACAD_REACTORS
330
C
102
}
330
C
100
AcDbDictionary
281
     1
  3
Standard
350
5A
  0
DICTIONARY
  5
2A
102
{ACAD_REACTORS
330
C
102
}
330
C
100
AcDbDictionary
281
     1
  3
2dWireframe
350
2F
  3
Basic
350
32
  3
Brighten
350
36
  3
ColorChange
350
3A
  3
Conceptual
350
34
  3
Dim
350
35
  3
EdgeColorOff
350
3D
  3
Facepattern
350
39
  3
Flat
350
2B
  3
FlatWithEdges
350
2C
  3
Gouraud
350
2D
  3
GouraudWithEdges
350
2E
  3
Hidden
350
31
  3
JitterOff
350
3B
  3
Linepattern
350
38
  3
OverhangOff
350
3C
  3
Realistic
350
33
  3
Shaded
350
42
  3
Shaded with edges
350
41
  3
Shades of Gray
350
3E
  3
Sketchy
350
3F
  3
Thicken
350
37
  3
Wireframe
350
30
  3
X-Ray
350
40
  0
XRECORD
  5
85
102
{ACAD_REACTORS
330
C
102
}
330
C
100
AcDbXrecord
280
     1
 90
        1
330
5A
  0
DICTIONARY
  5
81
102
{ACAD_REACTORS
330
C
102
}
330
C
100
AcDbDictionary
281
     1
  3
CANNOSCALE
350
82
  3
CMLEADERSTYLE
350
87
  3
CTABLESTYLE
350
86
  0
LAYOUT
  5
1E
102
{ACAD_REACTORS
330
1A
102
}
330
1A
100
AcDbPlotSettings
  1

  2
none_device
  4

  6

 40
0.0
 41
0.0
 42
0.0
 43
0.0
 44
0.0
 45
0.0
 46
0.0
 47
0.0
 48
0.0
 49
0.0
140
0.0
141
0.0
142
1.0
143
1.0
 70
   688
 72
     0
 73
     0
 74
     5
  7

 75
    16
 76
     0
 77
     2
 78
   300
147
1.0
148
0.0
149
0.0
100
AcDbLayout
  1
Layout1
 70
     1
 71
     1
 10
0.0
 20
0.0
 11
12.0
 21
9.0
 12
0.0
 22
0.0
 32
0.0
 14
1.000000000000000E+20
 24
1.000000000000000E+20
 34
1.000000000000000E+20
 15
-1.000000000000000E+20
 25
-1.000000000000000E+20
 35
-1.000000000000000E+20
146
0.0
 13
0.0
 23
0.0
 33
0.0
 16
1.0
 26
0.0
 36
0.0
 17
0.0
 27
1.0
 37
0.0
 76
     0
330
1B
  0
LAYOUT
  5
26
102
{ACAD_REACTORS
330
1A
102
}
330
1A
100
AcDbPlotSettings
  1

  2
none_device
  4

  6

 40
0.0
 41
0.0
 42
0.0
 43
0.0
 44
0.0
 45
0.0
 46
0.0
 47
0.0
 48
0.0
 49
0.0
140
0.0
141
0.0
142
1.0
143
1.0
 70
   688
 72
     0
 73
     0
 74
     5
  7

 75
    16
 76
     0
 77
     2
 78
   300
147
1.0
148
0.0
149
0.0
100
AcDbLayout
  1
Layout2
 70
     1
 71
     2
 10
0.0
 20
0.0
 11
0.0
 21
0.0
 12
0.0
 22
0.0
 32
0.0
 14
0.0
 24
0.0
 34
0.0
 15
0.0
 25
0.0
 35
0.0
146
0.0
 13
0.0
 23
0.0
 33
0.0
 16
1.0
 26
0.0
 36
0.0
 17
0.0
 27
1.0
 37
0.0
 76
     0
330
23
  0
LAYOUT
  5
22
102
{ACAD_REACTORS
330
1A
102
}
330
1A
100
AcDbPlotSettings
  1

  2
none_device
  4
Letter_(8.50_x_11.00_Inches)
  6

 40
6.35
 41
6.35
 42
6.35000508
 43
6.35000508
 44
215.9
 45
279.4
 46
0.0
 47
0.0
 48
0.0
 49
0.0
140
0.0
141
0.0
142
1.0
143
1.0
 70
  1712
 72
     0
 73
     0
 74
     0
  7

 75
     0
 76
     0
 77
     2
 78
   300
147
1.0
148
0.0
149
0.0
100
AcDbLayout
  1
Model
 70
     1
 71
     0
 10
0.0
 20
0.0
 11
12.0
 21
9.0
 12
0.0
 22
0.0
 32
0.0
 14
191.1858
 24
-153.0176
 34
0.0
 15
1263.9909
 25
168.2402
 35
0.0
146
0.0
 13
0.0
 23
0.0
 33
0.0
 16
1.0
 26
0.0
 36
0.0
 17
0.0
 27
1.0
 37
0.0
 76
     0
330
1F
331
29
  0
MATERIAL
  5
45
102
{ACAD_REACTORS
330
43
102
}
330
43
100
AcDbMaterial
  1
ByBlock
 72
     1
 94
      127
  0
MATERIAL
  5
44
102
{ACAD_REACTORS
330
43
102
}
330
43
100
AcDbMaterial
  1
ByLayer
 72
     1
 94
      127
  0
MATERIAL
  5
46
102
{ACAD_REACTORS
330
43
102
}
330
43
100
AcDbMaterial
  1
Global
 72
     1
 94
      127
  0
MLEADERSTYLE
  5
5C
102
{ACAD_REACTORS
330
5B
102
}
330
5B
100
AcDbMLeaderStyle
179
     2
170
     2
171
     1
172
     0
 90
        2
 40
0.0
 41
0.0
173
     1
 91
-1056964608
340
14
 92
       -2
290
     1
 42
0.09
291
     1
 43
0.36
  3
Standard
341
0
 44
0.18
300

342
11
174
     1
178
     6
175
     1
176
     0
 93
-1056964608
 45
0.18
292
     0
297
     0
 46
0.18
343
0
 94
-1056964608
 47
1.0
 49
1.0
140
1.0
293
     1
141
0.0
294
     1
177
     0
142
1.0
295
     0
296
     0
143
0.125
271
     0
272
     9
273
     9
298
     0
  0
MLINESTYLE
  5
18
102
{ACAD_REACTORS
330
17
102
}
330
17
100
AcDbMlineStyle
  2
Standard
 70
     0
  3

 62
   256
 51
90.0
 52
90.0
 71
     2
 49
0.5
 62
   256
  6
BYLAYER
 49
-0.5
 62
   256
  6
BYLAYER
  0
ACDBPLACEHOLDER
  5
F
102
{ACAD_REACTORS
330
E
102
}
330
E
  0
SCALE
  5
48
102
{ACAD_REACTORS
330
47
102
}
330
47
100
AcDbScale
 70
     0
300
1:1
140
1.0
141
1.0
290
     1
  0
SCALE
  5
49
102
{ACAD_REACTORS
330
47
102
}
330
47
100
AcDbScale
 70
     0
300
1/128" = 1'-0"
140
0.0078125
141
12.0
290
     0
  0
SCALE
  5
4A
102
{ACAD_REACTORS
330
47
102
}
330
47
100
AcDbScale
 70
     0
300
1/64" = 1'-0"
140
0.015625
141
12.0
290
     0
  0
SCALE
  5
4B
102
{ACAD_REACTORS
330
47
102
}
330
47
100
AcDbScale
 70
     0
300
1/32" = 1'-0"
140
0.03125
141
12.0
290
     0
  0
SCALE
  5
4C
102
{ACAD_REACTORS
330
47
102
}
330
47
100
AcDbScale
 70
     0
300
1/16" = 1'-0"
140
0.0625
141
12.0
290
     0
  0
SCALE
  5
4D
102
{ACAD_REACTORS
330
47
102
}
330
47
100
AcDbScale
 70
     0
300
3/32" = 1'-0"
140
0.09375
141
12.0
290
     0
  0
SCALE
  5
4E
102
{ACAD_REACTORS
330
47
102
}
330
47
100
AcDbScale
 70
     0
300
1/8" = 1'-0"
140
0.125
141
12.0
290
     0
  0
SCALE
  5
4F
102
{ACAD_REACTORS
330
47
102
}
330
47
100
AcDbScale
 70
     0
300
3/16" = 1'-0"
140
0.1875
141
12.0
290
     0
  0
SCALE
  5
50
102
{ACAD_REACTORS
330
47
102
}
330
47
100
AcDbScale
 70
     0
300
1/4" = 1'-0"
140
0.25
141
12.0
290
     0
  0
SCALE
  5
51
102
{ACAD_REACTORS
330
47
102
}
330
47
100
AcDbScale
 70
     0
300
3/8" = 1'-0"
140
0.375
141
12.0
290
     0
  0
SCALE
  5
52
102
{ACAD_REACTORS
330
47
102
}
330
47
100
AcDbScale
 70
     0
300
1/2" = 1'-0"
140
0.5
141
12.0
290
     0
  0
SCALE
  5
53
102
{ACAD_REACTORS
330
47
102
}
330
47
100
AcDbScale
 70
     0
300
3/4" = 1'-0"
140
0.75
141
12.0
290
     0
  0
SCALE
  5
54
102
{ACAD_REACTORS
330
47
102
}
330
47
100
AcDbScale
 70
     0
300
1" = 1'-0"
140
1.0
141
12.0
290
     0
  0
SCALE
  5
55
102
{ACAD_REACTORS
330
47
102
}
330
47
100
AcDbScale
 70
     0
300
1-1/2" = 1'-0"
140
1.5
141
12.0
290
     0
  0
SCALE
  5
56
102
{ACAD_REACTORS
330
47
102
}
330
47
100
AcDbScale
 70
     0
300
3" = 1'-0"
140
3.0
141
12.0
290
     0
  0
SCALE
  5
57
102
{ACAD_REACTORS
330
47
102
}
330
47
100
AcDbScale
 70
     0
300
6" = 1'-0"
140
6.0
141
12.0
290
     0
  0
SCALE
  5
58
102
{ACAD_REACTORS
330
47
102
}
330
47
100
AcDbScale
 70
     0
300
1'-0" = 1'-0"
140
12.0
141
12.0
290
     0
  0
TABLESTYLE
  5
5A
102
{ACAD_REACTORS
330
59
102
}
102
{ACAD_XDICTIONARY
360
83
102
}
330
59
100
AcDbTableStyle
  3
Standard
 70
     0
 71
     0
 40
0.06
 41
0.06
280
     0
281
     0
  7
Standard
140
0.18
170
     2
 62
     0
 63
   257
283
     0
 90
        4
 91
        0
  1

274
    -2
284
     1
 64
     0
275
    -2
285
     1
 65
     0
276
    -2
286
     1
 66
     0
277
    -2
287
     1
 67
     0
278
    -2
288
     1
 68
     0
279
    -2
289
     1
 69
     0
  7
Standard
140
0.25
170
     5
 62
     0
 63
   257
283
     0
 90
        4
 91
        0
  1

274
    -2
284
     1
 64
     0
275
    -2
285
     1
 65
     0
276
    -2
286
     1
 66
     0
277
    -2
287
     1
 67
     0
278
    -2
288
     1
 68
     0
279
    -2
289
     1
 69
     0
  7
Standard
140
0.18
170
     5
 62
     0
 63
   257
283
     0
 90
        4
 91
        0
  1

274
    -2
284
     1
 64
     0
275
    -2
285
     1
 65
     0
276
    -2
286
     1
 66
     0
277
    -2
287
     1
 67
     0
278
    -2
288
     1
 68
     0
279
    -2
289
     1
 69
     0
  0
VISUALSTYLE
  5
2F
102
{ACAD_REACTORS
330
2A
102
}
330
2A
100
AcDbVisualStyle
  2
2dWireframe
 70
     4
177
     3
291
     0
 70
    58
 90
        0
176
     1
 90
        2
176
     1
 90
        0
176
     1
 90
        0
176
     1
 40
0.6
176
     1
 40
30.0
176
     1
 62
     7
420
 16777215
176
     1
 90
        1
176
     1
 90
        4
176
     1
 62
     7
176
     1
 62
   257
176
     1
 90
        1
176
     1
 90
        1
176
     1
 40
1.0
176
     1
 90
        0
176
     1
 62
   257
176
     1
 40
1.0
176
     1
 90
        1
176
     1
 90
        6
176
     1
 90
        2
176
     1
 62
     7
176
     1
 90
        5
176
     1
 90
        0
176
     1
 90
        0
176
     1
290
     0
176
     1
 90
        1
176
     1
 40
0.0
176
     1
 90
        0
176
     1
290
     1
176
     1
290
     1
176
     1
290
     0
176
     1
290
     0
176
     1
290
     0
176
     1
290
     0
176
     1
290
     0
176
     1
290
     0
176
     1
290
     0
176
     1
 90
       50
176
     1
 40
0.0
176
     1
 40
1.0
176
     1
 90
        0
176
     1
 62
    18
420
        0
176
     1
 90
       50
176
     1
 90
        3
176
     1
 62
     5
420
      255
176
     1
290
     0
176
     1
 90
       50
176
     1
 90
       50
176
     1
 90
       50
176
     1
290
     0
176
     1
 90
       50
176
     1
 62
   256
176
     0
 40
1.0
176
     0
 90
        2
176
     1
  1
strokes_ogs.tif
176
     1
290
     0
176
     1
 40
1.0
176
     1
 40
1.0
176
     1
  0
VISUALSTYLE
  5
32
102
{ACAD_REACTORS
330
2A
102
}
330
2A
100
AcDbVisualStyle
  2
Basic
 70
     7
177
     3
291
     1
 70
    58
 90
        1
176
     1
 90
        0
176
     1
 90
        1
176
     1
 90
        0
176
     1
 40
0.6
176
     1
 40
30.0
176
     1
 62
     7
420
 16777215
176
     1
 90
        0
176
     1
 90
        4
176
     1
 62
     7
176
     1
 62
   257
176
     1
 90
        1
176
     1
 90
        1
176
     1
 40
1.0
176
     1
 90
        8
176
     1
 62
     7
176
     1
 40
1.0
176
     1
 90
        1
176
     1
 90
        6
176
     1
 90
        2
176
     1
 62
     7
176
     1
 90
        5
176
     1
 90
        0
176
     1
 90
        0
176
     1
290
     0
176
     1
 90
        1
176
     1
 40
0.0
176
     1
 90
        0
176
     1
290
     0
176
     1
290
     1
176
     1
290
     1
176
     1
290
     0
176
     1
290
     0
176
     1
290
     0
176
     1
290
     0
176
     1
290
     0
176
     1
290
     0
176
     1
 90
       50
176
     1
 40
0.0
176
     1
 40
1.0
176
     1
 90
        0
176
     1
 62
    18
420
        0
176
     1
 90
       50
176
     1
 90
        3
176
     1
 62
     5
420
      255
176
     1
290
     0
176
     1
 90
       50
176
     1
 90
       50
176
     1
 90
       50
176
     1
290
     0
176
     1
 90
       50
176
     1
 62
   256
176
     0
 40
1.0
176
     0
 90
        2
176
     1
  1
strokes_ogs.tif
176
     1
290
     0
176
     1
 40
1.0
176
     1
 40
1.0
176
     1
  0
VISUALSTYLE
  5
36
102
{ACAD_REACTORS
330
2A
102
}
330
2A
100
AcDbVisualStyle
  2
Brighten
 70
    12
177
     3
291
     1
 70
    58
 90
        2
176
     1
 90
        2
176
     1
 90
        0
176
     1
 90
        0
176
     1
 40
0.6
176
     1
 40
30.0
176
     1
 62
     7
420
 16777215
176
     1
 90
        1
176
     1
 90
        4
176
     1
 62
     7
176
     1
 62
   257
176
     1
 90
        1
176
     1
 90
        1
176
     1
 40
1.0
176
     1
 90
        8
176
     1
 62
     7
176
     1
 40
1.0
176
     1
 90
        1
176
     1
 90
        6
176
     1
 90
        2
176
     1
 62
     7
176
     1
 90
        5
176
     1
 90
        0
176
     1
 90
        0
176
     1
290
     0
176
     1
 90
        1
176
     1
 40
50.0
176
     1
 90
        0
176
     1
290
     0
176
     1
290
     1
176
     1
290
     1
176
     1
290
     0
176
     1
290
     0
176
     1
290
     0
176
     1
290
     0
176
     1
290
     0
176
     1
290
     0
176
     1
 90
       50
176
     1
 40
0.0
176
     1
 40
1.0
176
     1
 90
        0
176
     1
 62
    18
420
        0
176
     1
 90
       50
176
     1
 90
        3
176
     1
 62
     5
420
      255
176
     1
290
     0
176
     1
 90
       50
176
     1
 90
       50
176
     1
 90
       50
176
     1
290
     0
176
     1
 90
       50
176
     1
 62
   256
176
     0
 40
1.0
176
     0
 90
        2
176
     1
  1
strokes_ogs.tif
176
     1
290
     0
176
     1
 40
1.0
176
     1
 40
1.0
176
     1
  0
VISUALSTYLE
  5
3A
102
{ACAD_REACTORS
330
2A
102
}
330
2A
100
AcDbVisualStyle
  2
ColorChange
 70
    16
177
     3
291
     1
 70
    58
 90
        2
176
     1
 90
        2
176
     1
 90
        3
176
     1
 90
        0
176
     1
 40
0.6
176
     1
 40
30.0
176
     1
 62
     8
420
  8421504
176
     1
 90
        1
176
     1
 90
        4
176
     1
 62
     7
176
     1
 62
   257
176
     1
 90
        1
176
     1
 90
        1
176
     1
 40
1.0
176
     1
 90
        8
176
     1
 62
     8
420
  8421504
176
     1
 40
1.0
176
     1
 90
        1
176
     1
 90
        6
176
     1
 90
        2
176
     1
 62
     7
176
     1
 90
        5
176
     1
 90
        0
176
     1
 90
        0
176
     1
290
     0
176
     1
 90
        1
176
     1
 40
0.0
176
     1
 90
        0
176
     1
290
     0
176
     1
290
     1
176
     1
290
     1
176
     1
290
     0
176
     1
290
     0
176
     1
290
     0
176
     1
290
     0
176
     1
290
     0
176
     1
290
     0
176
     1
 90
       50
176
     1
 40
0.0
176
     1
 40
1.0
176
     1
 90
        0
176
     1
 62
    18
420
        0
176
     1
 90
       50
176
     1
 90
        3
176
     1
 62
     5
420
      255
176
     1
290
     0
176
     1
 90
       50
176
     1
 90
       50
176
     1
 90
       50
176
     1
290
     0
176
     1
 90
       50
176
     1
 62
   256
176
     0
 40
1.0
176
     0
 90
        2
176
     1
  1
strokes_ogs.tif
176
     1
290
     0
176
     1
 40
1.0
176
     1
 40
1.0
176
     1
  0
VISUALSTYLE
  5
34
102
{ACAD_REACTORS
330
2A
102
}
330
2A
100
AcDbVisualStyle
  2
Conceptual
 70
     9
177
     3
291
     0
 70
    58
 90
        3
176
     1
 90
        2
176
     1
 90
        0
176
     1
 90
        0
176
     1
 40
0.6
176
     1
 40
30.0
176
     1
 62
     7
420
 16777215
176
     1
 90
        2
176
     1
 90
        2
176
     1
 62
     7
176
     1
 62
   257
176
     1
 90
        1
176
     1
 90
        1
176
     1
 40
179.0
176
     1
 90
        8
176
     1
 62
     7
176
     1
 40
1.0
176
     1
 90
        1
176
     1
 90
        6
176
     1
 90
        2
176
     1
 62
     7
176
     1
 90
        3
176
     1
 90
        0
176
     1
 90
        0
176
     1
290
     0
176
     1
 90
        1
176
     1
 40
0.0
176
     1
 90
        0
176
     1
290
     0
176
     1
290
     1
176
     1
290
     1
176
     1
290
     0
176
     1
290
     0
176
     1
290
     0
176
     1
290
     0
176
     1
290
     0
176
     1
290
     0
176
     1
 90
       50
176
     1
 40
0.0
176
     1
 40
1.0
176
     1
 90
        0
176
     1
 62
    18
420
        0
176
     1
 90
       50
176
     1
 90
        3
176
     1
 62
     5
420
      255
176
     1
290
     0
176
     1
 90
       50
176
     1
 90
       50
176
     1
 90
       50
176
     1
290
     0
176
     1
 90
       50
176
     1
 62
   256
176
     0
 40
1.0
176
     0
 90
        2
176
     1
  1
strokes_ogs.tif
176
     1
290
     0
176
     1
 40
1.0
176
     1
 40
1.0
176
     1
  0
VISUALSTYLE
  5
35
102
{ACAD_REACTORS
330
2A
102
}
330
2A
100
AcDbVisualStyle
  2
Dim
 70
    11
177
     3
291
     1
 70
    58
 90
        2
176
     1
 90
        2
176
     1
 90
        0
176
     1
 90
        0
176
     1
 40
0.6
176
     1
 40
30.0
176
     1
 62
     7
420
 16777215
176
     1
 90
        1
176
     1
 90
        4
176
     1
 62
     7
176
     1
 62
   257
176
     1
 90
        1
176
     1
 90
        1
176
     1
 40
1.0
176
     1
 90
        8
176
     1
 62
     7
176
     1
 40
1.0
176
     1
 90
        1
176
     1
 90
        6
176
     1
 90
        2
176
     1
 62
     7
176
     1
 90
        5
176
     1
 90
        0
176
     1
 90
        0
176
     1
290
     0
176
     1
 90
        1
176
     1
 40
-50.0
176
     1
 90
        0
176
     1
290
     0
176
     1
290
     1
176
     1
290
     1
176
     1
290
     0
176
     1
290
     0
176
     1
290
     0
176
     1
290
     0
176
     1
290
     0
176
     1
290
     0
176
     1
 90
       50
176
     1
 40
0.0
176
     1
 40
1.0
176
     1
 90
        0
176
     1
 62
    18
420
        0
176
     1
 90
       50
176
     1
 90
        3
176
     1
 62
     5
420
      255
176
     1
290
     0
176
     1
 90
       50
176
     1
 90
       50
176
     1
 90
       50
176
     1
290
     0
176
     1
 90
       50
176
     1
 62
   256
176
     0
 40
1.0
176
     0
 90
        2
176
     1
  1
strokes_ogs.tif
176
     1
290
     0
176
     1
 40
1.0
176
     1
 40
1.0
176
     1
  0
VISUALSTYLE
  5
3D
102
{ACAD_REACTORS
330
2A
102
}
330
2A
100
AcDbVisualStyle
  2
EdgeColorOff
 70
    22
177
     3
291
     1
 70
    58
 90
        2
176
     0
 90
        2
176
     0
 90
        0
176
     0
 90
        0
176
     0
 40
0.6
176
     0
 40
30.0
176
     0
 62
     7
420
 16777215
176
     0
 90
        1
176
     0
 90
        4
176
     0
 62
     7
176
     0
 62
   257
176
     0
 90
        1
176
     0
 90
        1
176
     0
 40
1.0
176
     0
 90
        8
176
     2
 62
     7
176
     0
 40
1.0
176
     0
 90
        1
176
     0
 90
        6
176
     0
 90
        2
176
     0
 62
     7
176
     0
 90
        5
176
     0
 90
        0
176
     0
 90
        0
176
     0
290
     0
176
     0
 90
        1
176
     0
 40
0.0
176
     0
 90
        0
176
     0
290
     0
176
     0
290
     1
176
     0
290
     1
176
     0
290
     0
176
     0
290
     0
176
     0
290
     0
176
     0
290
     0
176
     0
290
     0
176
     0
290
     0
176
     0
 90
       50
176
     0
 40
0.0
176
     0
 40
1.0
176
     0
 90
        0
176
     0
 62
    18
420
        0
176
     0
 90
       50
176
     0
 90
        3
176
     0
 62
     5
420
      255
176
     0
290
     0
176
     0
 90
       50
176
     0
 90
       50
176
     0
 90
       50
176
     0
290
     0
176
     0
 90
       50
176
     0
 62
   256
176
     0
 40
1.0
176
     0
 90
        2
176
     0
  1
strokes_ogs.tif
176
     0
290
     0
176
     0
 40
1.0
176
     0
 40
1.0
176
     0
  0
VISUALSTYLE
  5
39
102
{ACAD_REACTORS
330
2A
102
}
330
2A
100
AcDbVisualStyle
  2
Facepattern
 70
    15
177
     3
291
     1
 70
    58
 90
        2
176
     1
 90
        2
176
     1
 90
        0
176
     1
 90
        0
176
     1
 40
0.6
176
     1
 40
30.0
176
     1
 62
     7
420
 16777215
176
     1
 90
        1
176
     1
 90
        4
176
     1
 62
     7
176
     1
 62
   257
176
     1
 90
        1
176
     1
 90
        1
176
     1
 40
1.0
176
     1
 90
        8
176
     1
 62
     7
176
     1
 40
1.0
176
     1
 90
        1
176
     1
 90
        6
176
     1
 90
        2
176
     1
 62
     7
176
     1
 90
        5
176
     1
 90
        0
176
     1
 90
        0
176
     1
290
     0
176
     1
 90
        1
176
     1
 40
0.0
176
     1
 90
        0
176
     1
290
     0
176
     1
290
     1
176
     1
290
     1
176
     1
290
     0
176
     1
290
     0
176
     1
290
     0
176
     1
290
     0
176
     1
290
     0
176
     1
290
     0
176
     1
 90
       50
176
     1
 40
0.0
176
     1
 40
1.0
176
     1
 90
        0
176
     1
 62
    18
420
        0
176
     1
 90
       50
176
     1
 90
        3
176
     1
 62
     5
420
      255
176
     1
290
     0
176
     1
 90
       50
176
     1
 90
       50
176
     1
 90
       50
176
     1
290
     0
176
     1
 90
       50
176
     1
 62
   256
176
     0
 40
1.0
176
     0
 90
        2
176
     1
  1
strokes_ogs.tif
176
     1
290
     0
176
     1
 40
1.0
176
     1
 40
1.0
176
     1
  0
VISUALSTYLE
  5
2B
102
{ACAD_REACTORS
330
2A
102
}
330
2A
100
AcDbVisualStyle
  2
Flat
 70
     0
177
     3
291
     1
 70
    58
 90
        2
176
     1
 90
        1
176
     1
 90
        1
176
     1
 90
        2
176
     1
 40
0.6
176
     1
 40
30.0
176
     1
 62
     7
420
 16777215
176
     1
 90
        0
176
     1
 90
        0
176
     1
 62
     7
176
     1
 62
   257
176
     1
 90
        1
176
     1
 90
        1
176
     1
 40
1.0
176
     1
 90
        8
176
     1
 62
     7
176
     1
 40
1.0
176
     1
 90
        1
176
     1
 90
        6
176
     1
 90
        2
176
     1
 62
     7
176
     1
 90
        5
176
     1
 90
        0
176
     1
 90
        0
176
     1
290
     0
176
     1
 90
       13
176
     1
 40
0.0
176
     1
 90
        0
176
     1
290
     0
176
     1
290
     1
176
     1
290
     1
176
     1
290
     0
176
     1
290
     0
176
     1
290
     0
176
     1
290
     0
176
     1
290
     0
176
     1
290
     0
176
     1
 90
       50
176
     1
 40
0.0
176
     1
 40
1.0
176
     1
 90
        0
176
     1
 62
    18
420
        0
176
     1
 90
       50
176
     1
 90
        3
176
     1
 62
     5
420
      255
176
     1
290
     0
176
     1
 90
       50
176
     1
 90
       50
176
     1
 90
       50
176
     1
290
     0
176
     1
 90
       50
176
     1
 62
   256
176
     0
 40
1.0
176
     0
 90
        2
176
     1
  1
strokes_ogs.tif
176
     1
290
     0
176
     1
 40
1.0
176
     1
 40
1.0
176
     1
  0
VISUALSTYLE
  5
2C
102
{ACAD_REACTORS
330
2A
102
}
330
2A
100
AcDbVisualStyle
  2
FlatWithEdges
 70
     1
177
     3
291
     1
 70
    58
 90
        2
176
     1
 90
        1
176
     1
 90
        1
176
     1
 90
        2
176
     1
 40
0.6
176
     1
 40
30.0
176
     1
 62
     7
420
 16777215
176
     1
 90
        1
176
     1
 90
        0
176
     1
 62
     7
176
     1
 62
   257
176
     1
 90
        1
176
     1
 90
        1
176
     1
 40
1.0
176
     1
 90
        0
176
     1
 62
   257
176
     1
 40
1.0
176
     1
 90
        1
176
     1
 90
        6
176
     1
 90
        2
176
     1
 62
     7
176
     1
 90
        5
176
     1
 90
        0
176
     1
 90
        0
176
     1
290
     0
176
     1
 90
       13
176
     1
 40
0.0
176
     1
 90
        0
176
     1
290
     0
176
     1
290
     1
176
     1
290
     1
176
     1
290
     0
176
     1
290
     0
176
     1
290
     0
176
     1
290
     0
176
     1
290
     0
176
     1
290
     0
176
     1
 90
       50
176
     1
 40
0.0
176
     1
 40
1.0
176
     1
 90
        0
176
     1
 62
    18
420
        0
176
     1
 90
       50
176
     1
 90
        3
176
     1
 62
     5
420
      255
176
     1
290
     0
176
     1
 90
       50
176
     1
 90
       50
176
     1
 90
       50
176
     1
290
     0
176
     1
 90
       50
176
     1
 62
   256
176
     0
 40
1.0
176
     0
 90
        2
176
     1
  1
strokes_ogs.tif
176
     1
290
     0
176
     1
 40
1.0
176
     1
 40
1.0
176
     1
  0
VISUALSTYLE
  5
2D
102
{ACAD_REACTORS
330
2A
102
}
330
2A
100
AcDbVisualStyle
  2
Gouraud
 70
     2
177
     3
291
     1
 70
    58
 90
        2
176
     1
 90
        2
176
     1
 90
        1
176
     1
 90
        2
176
     1
 40
0.6
176
     1
 40
30.0
176
     1
 62
     7
420
 16777215
176
     1
 90
        0
176
     1
 90
        0
176
     1
 62
     7
176
     1
 62
   257
176
     1
 90
        1
176
     1
 90
        1
176
     1
 40
1.0
176
     1
 90
        0
176
     1
 62
     7
176
     1
 40
1.0
176
     1
 90
        1
176
     1
 90
        6
176
     1
 90
        2
176
     1
 62
     7
176
     1
 90
        5
176
     1
 90
        0
176
     1
 90
        0
176
     1
290
     0
176
     1
 90
       13
176
     1
 40
0.0
176
     1
 90
        0
176
     1
290
     0
176
     1
290
     1
176
     1
290
     1
176
     1
290
     0
176
     1
290
     0
176
     1
290
     0
176
     1
290
     0
176
     1
290
     0
176
     1
290
     0
176
     1
 90
       50
176
     1
 40
0.0
176
     1
 40
1.0
176
     1
 90
        0
176
     1
 62
    18
420
        0
176
     1
 90
       50
176
     1
 90
        3
176
     1
 62
     5
420
      255
176
     1
290
     0
176
     1
 90
       50
176
     1
 90
       50
176
     1
 90
       50
176
     1
290
     0
176
     1
 90
       50
176
     1
 62
   256
176
     0
 40
1.0
176
     0
 90
        2
176
     1
  1
strokes_ogs.tif
176
     1
290
     0
176
     1
 40
1.0
176
     1
 40
1.0
176
     1
  0
VISUALSTYLE
  5
2E
102
{ACAD_REACTORS
330
2A
102
}
330
2A
100
AcDbVisualStyle
  2
GouraudWithEdges
 70
     3
177
     3
291
     1
 70
    58
 90
        2
176
     1
 90
        2
176
     1
 90
        1
176
     1
 90
        2
176
     1
 40
0.6
176
     1
 40
30.0
176
     1
 62
     7
420
 16777215
176
     1
 90
        1
176
     1
 90
        0
176
     1
 62
     7
176
     1
 62
   257
176
     1
 90
        1
176
     1
 90
        1
176
     1
 40
1.0
176
     1
 90
        0
176
     1
 62
   257
176
     1
 40
1.0
176
     1
 90
        1
176
     1
 90
        6
176
     1
 90
        2
176
     1
 62
     7
176
     1
 90
        5
176
     1
 90
        0
176
     1
 90
        0
176
     1
290
     0
176
     1
 90
       13
176
     1
 40
0.0
176
     1
 90
        0
176
     1
290
     0
176
     1
290
     1
176
     1
290
     1
176
     1
290
     0
176
     1
290
     0
176
     1
290
     0
176
     1
290
     0
176
     1
290
     0
176
     1
290
     0
176
     1
 90
       50
176
     1
 40
0.0
176
     1
 40
1.0
176
     1
 90
        0
176
     1
 62
    18
420
        0
176
     1
 90
       50
176
     1
 90
        3
176
     1
 62
     5
420
      255
176
     1
290
     0
176
     1
 90
       50
176
     1
 90
       50
176
     1
 90
       50
176
     1
290
     0
176
     1
 90
       50
176
     1
 62
   256
176
     0
 40
1.0
176
     0
 90
        2
176
     1
  1
strokes_ogs.tif
176
     1
290
     0
176
     1
 40
1.0
176
     1
 40
1.0
176
     1
  0
VISUALSTYLE
  5
31
102
{ACAD_REACTORS
330
2A
102
}
330
2A
100
AcDbVisualStyle
  2
Hidden
 70
     6
177
     3
291
     0
 70
    58
 90
        1
176
     1
 90
        2
176
     1
 90
        2
176
     1
 90
        0
176
     1
 40
0.6
176
     1
 40
30.0
176
     1
 62
     7
420
 16777215
176
     1
 90
        2
176
     1
 90
        2
176
     1
 62
     7
176
     1
 62
   257
176
     1
 90
        2
176
     1
 90
        1
176
     1
 40
40.0
176
     1
 90
        0
176
     1
 62
   257
176
     1
 40
1.0
176
     1
 90
        1
176
     1
 90
        6
176
     1
 90
        2
176
     1
 62
     7
176
     1
 90
        3
176
     1
 90
        0
176
     1
 90
        0
176
     1
290
     0
176
     1
 90
        1
176
     1
 40
0.0
176
     1
 90
        0
176
     1
290
     0
176
     1
290
     1
176
     1
290
     1
176
     1
290
     0
176
     1
290
     0
176
     1
290
     0
176
     1
290
     0
176
     1
290
     0
176
     1
290
     0
176
     1
 90
       50
176
     1
 40
0.0
176
     1
 40
1.0
176
     1
 90
        0
176
     1
 62
    18
420
        0
176
     1
 90
       50
176
     1
 90
        3
176
     1
 62
     5
420
      255
176
     1
290
     0
176
     1
 90
       50
176
     1
 90
       50
176
     1
 90
       50
176
     1
290
     0
176
     1
 90
       50
176
     1
 62
   256
176
     0
 40
1.0
176
     0
 90
        2
176
     1
  1
strokes_ogs.tif
176
     1
290
     0
176
     1
 40
1.0
176
     1
 40
1.0
176
     1
  0
VISUALSTYLE
  5
3B
102
{ACAD_REACTORS
330
2A
102
}
330
2A
100
AcDbVisualStyle
  2
JitterOff
 70
    20
177
     3
291
     1
 70
    58
 90
        2
176
     0
 90
        2
176
     0
 90
        0
176
     0
 90
        0
176
     0
 40
0.6
176
     0
 40
30.0
176
     0
 62
     7
420
 16777215
176
     0
 90
        1
176
     0
 90
        4
176
     0
 62
     7
176
     0
 62
   257
176
     0
 90
        1
176
     0
 90
        1
176
     0
 40
1.0
176
     0
 90
       10
176
     2
 62
     7
176
     0
 40
1.0
176
     0
 90
        1
176
     0
 90
        6
176
     0
 90
        2
176
     0
 62
     7
176
     0
 90
        5
176
     0
 90
        0
176
     0
 90
        0
176
     0
290
     0
176
     0
 90
        1
176
     0
 40
0.0
176
     0
 90
        0
176
     0
290
     0
176
     0
290
     1
176
     0
290
     1
176
     0
290
     0
176
     0
290
     0
176
     0
290
     0
176
     0
290
     0
176
     0
290
     0
176
     0
290
     0
176
     0
 90
       50
176
     0
 40
0.0
176
     0
 40
1.0
176
     0
 90
        0
176
     0
 62
    18
420
        0
176
     0
 90
       50
176
     0
 90
        3
176
     0
 62
     5
420
      255
176
     0
290
     0
176
     0
 90
       50
176
     0
 90
       50
176
     0
 90
       50
176
     0
290
     0
176
     0
 90
       50
176
     0
 62
   256
176
     0
 40
1.0
176
     0
 90
        2
176
     0
  1
strokes_ogs.tif
176
     0
290
     0
176
     0
 40
1.0
176
     0
 40
1.0
176
     0
  0
VISUALSTYLE
  5
38
102
{ACAD_REACTORS
330
2A
102
}
330
2A
100
AcDbVisualStyle
  2
Linepattern
 70
    14
177
     3
291
     1
 70
    58
 90
        2
176
     1
 90
        2
176
     1
 90
        0
176
     1
 90
        0
176
     1
 40
0.6
176
     1
 40
30.0
176
     1
 62
     7
420
 16777215
176
     1
 90
        1
176
     1
 90
        4
176
     1
 62
     7
176
     1
 62
   257
176
     1
 90
        7
176
     1
 90
        7
176
     1
 40
1.0
176
     1
 90
        8
176
     1
 62
     7
176
     1
 40
1.0
176
     1
 90
        1
176
     1
 90
        6
176
     1
 90
        2
176
     1
 62
     7
176
     1
 90
        5
176
     1
 90
        0
176
     1
 90
        0
176
     1
290
     0
176
     1
 90
        1
176
     1
 40
0.0
176
     1
 90
        0
176
     1
290
     0
176
     1
290
     1
176
     1
290
     1
176
     1
290
     0
176
     1
290
     0
176
     1
290
     0
176
     1
290
     0
176
     1
290
     0
176
     1
290
     0
176
     1
 90
       50
176
     1
 40
0.0
176
     1
 40
1.0
176
     1
 90
        0
176
     1
 62
    18
420
        0
176
     1
 90
       50
176
     1
 90
        3
176
     1
 62
     5
420
      255
176
     1
290
     0
176
     1
 90
       50
176
     1
 90
       50
176
     1
 90
       50
176
     1
290
     0
176
     1
 90
       50
176
     1
 62
   256
176
     0
 40
1.0
176
     0
 90
        2
176
     1
  1
strokes_ogs.tif
176
     1
290
     0
176
     1
 40
1.0
176
     1
 40
1.0
176
     1
  0
VISUALSTYLE
  5
3C
102
{ACAD_REACTORS
330
2A
102
}
330
2A
100
AcDbVisualStyle
  2
OverhangOff
 70
    21
177
     3
291
     1
 70
    58
 90
        2
176
     0
 90
        2
176
     0
 90
        0
176
     0
 90
        0
176
     0
 40
0.6
176
     0
 40
30.0
176
     0
 62
     7
420
 16777215
176
     0
 90
        1
176
     0
 90
        4
176
     0
 62
     7
176
     0
 62
   257
176
     0
 90
        1
176
     0
 90
        1
176
     0
 40
1.0
176
     0
 90
        9
176
     2
 62
     7
176
     0
 40
1.0
176
     0
 90
        1
176
     0
 90
        6
176
     0
 90
        2
176
     0
 62
     7
176
     0
 90
        5
176
     0
 90
        0
176
     0
 90
        0
176
     0
290
     0
176
     0
 90
        1
176
     0
 40
0.0
176
     0
 90
        0
176
     0
290
     0
176
     0
290
     1
176
     0
290
     1
176
     0
290
     0
176
     0
290
     0
176
     0
290
     0
176
     0
290
     0
176
     0
290
     0
176
     0
290
     0
176
     0
 90
       50
176
     0
 40
0.0
176
     0
 40
1.0
176
     0
 90
        0
176
     0
 62
    18
420
        0
176
     0
 90
       50
176
     0
 90
        3
176
     0
 62
     5
420
      255
176
     0
290
     0
176
     0
 90
       50
176
     0
 90
       50
176
     0
 90
       50
176
     0
290
     0
176
     0
 90
       50
176
     0
 62
   256
176
     0
 40
1.0
176
     0
 90
        2
176
     0
  1
strokes_ogs.tif
176
     0
290
     0
176
     0
 40
1.0
176
     0
 40
1.0
176
     0
  0
VISUALSTYLE
  5
33
102
{ACAD_REACTORS
330
2A
102
}
330
2A
100
AcDbVisualStyle
  2
Realistic
 70
     8
177
     3
291
     0
 70
    58
 90
        2
176
     1
 90
        3
176
     1
 90
        0
176
     1
 90
        2
176
     1
 40
0.6
176
     1
 40
30.0
176
     1
 62
     7
420
 16777215
176
     1
 90
        0
176
     1
 90
        0
176
     1
 62
     7
176
     1
 62
   257
176
     1
 90
        1
176
     1
 90
        1
176
     1
 40
1.0
176
     1
 90
        8
176
     1
 62
   257
176
     1
 40
1.0
176
     1
 90
        1
176
     1
 90
        6
176
     1
 90
        2
176
     1
 62
     7
176
     1
 90
        3
176
     1
 90
        0
176
     1
 90
        0
176
     1
290
     0
176
     1
 90
       13
176
     1
 40
0.0
176
     1
 90
        0
176
     1
290
     0
176
     1
290
     1
176
     1
290
     1
176
     1
290
     0
176
     1
290
     0
176
     1
290
     0
176
     1
290
     0
176
     1
290
     0
176
     1
290
     0
176
     1
 90
       50
176
     1
 40
0.0
176
     1
 40
1.0
176
     1
 90
        0
176
     1
 62
    18
420
        0
176
     1
 90
       50
176
     1
 90
        3
176
     1
 62
     5
420
      255
176
     1
290
     0
176
     1
 90
       50
176
     1
 90
       50
176
     1
 90
       50
176
     1
290
     0
176
     1
 90
       50
176
     1
 62
   256
176
     0
 40
1.0
176
     0
 90
        2
176
     1
  1
strokes_ogs.tif
176
     1
290
     0
176
     1
 40
1.0
176
     1
 40
1.0
176
     1
  0
VISUALSTYLE
  5
42
102
{ACAD_REACTORS
330
2A
102
}
330
2A
100
AcDbVisualStyle
  2
Shaded
 70
    27
177
     3
291
     0
 70
    58
 90
        2
176
     1
 90
        2
176
     1
 90
        1
176
     1
 90
        2
176
     1
 40
0.6
176
     1
 40
30.0
176
     1
 62
     7
420
 16777215
176
     1
 90
        0
176
     1
 90
        4
176
     1
 62
     7
176
     1
 62
   257
176
     1
 90
        1
176
     1
 90
        1
176
     1
 40
1.0
176
     1
 90
        8
176
     1
 62
   257
176
     1
 40
1.0
176
     1
 90
        1
176
     1
 90
        6
176
     1
 90
        2
176
     1
 62
     8
420
  7895160
176
     1
 90
        3
176
     1
 90
        0
176
     1
 90
        0
176
     1
290
     0
176
     1
 90
        5
176
     1
 40
0.0
176
     1
 90
        0
176
     1
290
     0
176
     1
290
     1
176
     1
290
     1
176
     1
290
     0
176
     1
290
     0
176
     1
290
     0
176
     1
290
     0
176
     1
290
     0
176
     1
290
     0
176
     1
 90
       50
176
     1
 40
0.0
176
     1
 40
1.0
176
     1
 90
        0
176
     1
 62
    18
420
        0
176
     1
 90
       50
176
     1
 90
        3
176
     1
 62
     5
420
      255
176
     1
290
     0
176
     1
 90
       50
176
     1
 90
       50
176
     1
 90
       50
176
     1
290
     0
176
     1
 90
       50
176
     1
 62
   256
176
     0
 40
1.0
176
     0
 90
        2
176
     1
  1
strokes_ogs.tif
176
     1
290
     0
176
     1
 40
1.0
176
     1
 40
1.0
176
     1
  0
VISUALSTYLE
  5
41
102
{ACAD_REACTORS
330
2A
102
}
330
2A
100
AcDbVisualStyle
  2
Shaded with edges
 70
    26
177
     3
291
     0
 70
    58
 90
        2
176
     1
 90
        2
176
     1
 90
        1
176
     1
 90
        2
176
     1
 40
0.6
176
     1
 40
30.0
176
     1
 62
     7
420
 16777215
176
     1
 90
        1
176
     1
 90
       10
176
     1
 62
     7
176
     1
 62
   257
176
     1
 90
        2
176
     1
 90
        1
176
     1
 40
1.0
176
     1
 90
        8
176
     1
 62
   257
176
     1
 40
1.0
176
     1
 90
        1
176
     1
 90
        6
176
     1
 90
        2
176
     1
 62
     7
176
     1
 90
        3
176
     1
 90
        0
176
     1
 90
        0
176
     1
290
     0
176
     1
 90
        5
176
     1
 40
0.0
176
     1
 90
        0
176
     1
290
     0
176
     1
290
     1
176
     1
290
     1
176
     1
290
     0
176
     1
290
     0
176
     1
290
     0
176
     1
290
     0
176
     1
290
     0
176
     1
290
     0
176
     1
 90
       50
176
     1
 40
0.0
176
     1
 40
1.0
176
     1
 90
        0
176
     1
 62
    18
420
        0
176
     1
 90
       50
176
     1
 90
        3
176
     1
 62
     5
420
      255
176
     1
290
     0
176
     1
 90
       50
176
     1
 90
       50
176
     1
 90
       50
176
     1
290
     0
176
     1
 90
       50
176
     1
 62
   256
176
     0
 40
1.0
176
     0
 90
        2
176
     1
  1
strokes_ogs.tif
176
     1
290
     0
176
     1
 40
1.0
176
     1
 40
1.0
176
     1
  0
VISUALSTYLE
  5
3E
102
{ACAD_REACTORS
330
2A
102
}
330
2A
100
AcDbVisualStyle
  2
Shades of Gray
 70
    23
177
     3
291
     0
 70
    58
 90
        2
176
     1
 90
        2
176
     1
 90
        3
176
     1
 90
        0
176
     1
 40
0.6
176
     1
 40
30.0
176
     1
 62
     7
420
 16777215
176
     1
 90
        2
176
     1
 90
        2
176
     1
 62
     7
176
     1
 62
     7
176
     1
 90
        1
176
     1
 90
        1
176
     1
 40
40.0
176
     1
 90
        8
176
     1
 62
     7
176
     1
 40
1.0
176
     1
 90
        1
176
     1
 90
        6
176
     1
 90
        2
176
     1
 62
     7
176
     1
 90
        3
176
     1
 90
        0
176
     1
 90
        0
176
     1
290
     0
176
     1
 90
        1
176
     1
 40
0.0
176
     1
 90
        0
176
     1
290
     0
176
     1
290
     1
176
     1
290
     1
176
     1
290
     0
176
     1
290
     0
176
     1
290
     0
176
     1
290
     0
176
     1
290
     0
176
     1
290
     0
176
     1
 90
       50
176
     1
 40
0.0
176
     1
 40
1.0
176
     1
 90
        0
176
     1
 62
    18
420
        0
176
     1
 90
       50
176
     1
 90
        3
176
     1
 62
     5
420
      255
176
     1
290
     0
176
     1
 90
       50
176
     1
 90
       50
176
     1
 90
       50
176
     1
290
     0
176
     1
 90
       50
176
     1
 62
   256
176
     0
 40
1.0
176
     0
 90
        2
176
     1
  1
strokes_ogs.tif
176
     1
290
     0
176
     1
 40
1.0
176
     1
 40
1.0
176
     1
  0
VISUALSTYLE
  5
3F
102
{ACAD_REACTORS
330
2A
102
}
330
2A
100
AcDbVisualStyle
  2
Sketchy
 70
    24
177
     3
291
     0
 70
    58
 90
        1
176
     1
 90
        2
176
     1
 90
        2
176
     1
 90
        0
176
     1
 40
0.6
176
     1
 40
30.0
176
     1
 62
     7
420
 16777215
176
     1
 90
        2
176
     1
 90
        2
176
     1
 62
     7
176
     1
 62
     7
176
     1
 90
        1
176
     1
 90
        1
176
     1
 40
40.0
176
     1
 90
       11
176
     1
 62
     7
176
     1
 40
1.0
176
     1
 90
        1
176
     1
 90
        6
176
     1
 90
        2
176
     1
 62
     7
176
     1
 90
        6
176
     1
 90
        0
176
     1
 90
        0
176
     1
290
     0
176
     1
 90
        1
176
     1
 40
0.0
176
     1
 90
        0
176
     1
290
     0
176
     1
290
     1
176
     1
290
     1
176
     1
290
     0
176
     1
290
     0
176
     1
290
     0
176
     1
290
     0
176
     1
290
     0
176
     1
290
     0
176
     1
 90
       50
176
     1
 40
0.0
176
     1
 40
1.0
176
     1
 90
        0
176
     1
 62
    18
420
        0
176
     1
 90
       50
176
     1
 90
        3
176
     1
 62
     5
420
      255
176
     1
290
     0
176
     1
 90
       50
176
     1
 90
       50
176
     1
 90
       50
176
     1
290
     0
176
     1
 90
       50
176
     1
 62
   256
176
     0
 40
1.0
176
     0
 90
        2
176
     1
  1
strokes_ogs.tif
176
     1
290
     0
176
     1
 40
1.0
176
     1
 40
1.0
176
     1
  0
VISUALSTYLE
  5
37
102
{ACAD_REACTORS
330
2A
102
}
330
2A
100
AcDbVisualStyle
  2
Thicken
 70
    13
177
     3
291
     1
 70
    58
 90
        2
176
     1
 90
        2
176
     1
 90
        0
176
     1
 90
        0
176
     1
 40
0.6
176
     1
 40
30.0
176
     1
 62
     7
420
 16777215
176
     1
 90
        1
176
     1
 90
        4
176
     1
 62
     7
176
     1
 62
   257
176
     1
 90
        1
176
     1
 90
        1
176
     1
 40
1.0
176
     1
 90
       12
176
     1
 62
     7
176
     1
 40
1.0
176
     1
 90
        1
176
     1
 90
        6
176
     1
 90
        2
176
     1
 62
     7
176
     1
 90
        5
176
     1
 90
        0
176
     1
 90
        0
176
     1
290
     0
176
     1
 90
        1
176
     1
 40
0.0
176
     1
 90
        0
176
     1
290
     0
176
     1
290
     1
176
     1
290
     1
176
     1
290
     0
176
     1
290
     0
176
     1
290
     0
176
     1
290
     0
176
     1
290
     0
176
     1
290
     0
176
     1
 90
       50
176
     1
 40
0.0
176
     1
 40
1.0
176
     1
 90
        0
176
     1
 62
    18
420
        0
176
     1
 90
       50
176
     1
 90
        3
176
     1
 62
     5
420
      255
176
     1
290
     0
176
     1
 90
       50
176
     1
 90
       50
176
     1
 90
       50
176
     1
290
     0
176
     1
 90
       50
176
     1
 62
   256
176
     0
 40
1.0
176
     0
 90
        2
176
     1
  1
strokes_ogs.tif
176
     1
290
     0
176
     1
 40
1.0
176
     1
 40
1.0
176
     1
  0
VISUALSTYLE
  5
30
102
{ACAD_REACTORS
330
2A
102
}
330
2A
100
AcDbVisualStyle
  2
Wireframe
 70
     5
177
     3
291
     0
 70
    58
 90
        0
176
     1
 90
        2
176
     1
 90
        0
176
     1
 90
        0
176
     1
 40
0.6
176
     1
 40
30.0
176
     1
 62
     7
420
 16777215
176
     1
 90
        1
176
     1
 90
        4
176
     1
 62
     7
176
     1
 62
   257
176
     1
 90
        1
176
     1
 90
        1
176
     1
 40
1.0
176
     1
 90
        0
176
     1
 62
   257
176
     1
 40
1.0
176
     1
 90
        1
176
     1
 90
        6
176
     1
 90
        2
176
     1
 62
     7
176
     1
 90
        3
176
     1
 90
        0
176
     1
 90
        0
176
     1
290
     0
176
     1
 90
        1
176
     1
 40
0.0
176
     1
 90
        0
176
     1
290
     0
176
     1
290
     1
176
     1
290
     1
176
     1
290
     0
176
     1
290
     0
176
     1
290
     0
176
     1
290
     0
176
     1
290
     0
176
     1
290
     0
176
     1
 90
       50
176
     1
 40
0.0
176
     1
 40
1.0
176
     1
 90
        0
176
     1
 62
    18
420
        0
176
     1
 90
       50
176
     1
 90
        3
176
     1
 62
     5
420
      255
176
     1
290
     0
176
     1
 90
       50
176
     1
 90
       50
176
     1
 90
       50
176
     1
290
     0
176
     1
 90
       50
176
     1
 62
   256
176
     0
 40
1.0
176
     0
 90
        2
176
     1
  1
strokes_ogs.tif
176
     1
290
     0
176
     1
 40
1.0
176
     1
 40
1.0
176
     1
  0
VISUALSTYLE
  5
40
102
{ACAD_REACTORS
330
2A
102
}
330
2A
100
AcDbVisualStyle
  2
X-Ray
 70
    25
177
     3
291
     0
 70
    58
 90
        2
176
     1
 90
        2
176
     1
 90
        1
176
     1
 90
        1
176
     1
 40
0.5
176
     1
 40
30.0
176
     1
 62
     7
420
 16777215
176
     1
 90
        1
176
     1
 90
        0
176
     1
 62
     7
176
     1
 62
   257
176
     1
 90
        1
176
     1
 90
        1
176
     1
 40
1.0
176
     1
 90
        8
176
     1
 62
     7
176
     1
 40
1.0
176
     1
 90
        1
176
     1
 90
        6
176
     1
 90
        2
176
     1
 62
     7
176
     1
 90
        3
176
     1
 90
        0
176
     1
 90
        0
176
     1
290
     0
176
     1
 90
       13
176
     1
 40
0.0
176
     1
 90
        0
176
     1
290
     0
176
     1
290
     1
176
     1
290
     1
176
     1
290
     0
176
     1
290
     0
176
     1
290
     0
176
     1
290
     0
176
     1
290
     0
176
     1
290
     0
176
     1
 90
       50
176
     1
 40
0.0
176
     1
 40
1.0
176
     1
 90
        0
176
     1
 62
    18
420
        0
176
     1
 90
       50
176
     1
 90
        3
176
     1
 62
     5
420
      255
176
     1
290
     0
176
     1
 90
       50
176
     1
 90
       50
176
     1
 90
       50
176
     1
290
     0
176
     1
 90
       50
176
     1
 62
   256
176
     0
 40
1.0
176
     0
 90
        2
176
     1
  1
strokes_ogs.tif
176
     1
290
     0
176
     1
 40
1.0
176
     1
 40
1.0
176
     1
  0
DICTIONARYVAR
  5
82
102
{ACAD_REACTORS
330
81
102
}
330
81
100
DictionaryVariables
280
     0
  1
1:1
  0
DICTIONARYVAR
  5
87
102
{ACAD_REACTORS
330
81
102
}
330
81
100
DictionaryVariables
280
     0
  1
Standard
  0
DICTIONARYVAR
  5
86
102
{ACAD_REACTORS
330
81
102
}
330
81
100
DictionaryVariables
280
     0
  1
Standard
  0
DICTIONARY
  5
83
330
5A
100
AcDbDictionary
280
     1
281
     1
  3
ACAD_ROUNDTRIP_2008_TABLESTYLE_CELLSTYLEMAP
360
84
  0
CELLSTYLEMAP
  5
84
102
{ACAD_REACTORS
330
83
102
}
330
83
100
AcDbCellStyleMap
 90
        3
300
CELLSTYLE
  1
TABLEFORMAT_BEGIN
 90
        5
170
     1
 91
        0
 92
    32768
 62
   257
 93
        1
300
CONTENTFORMAT
  1
CONTENTFORMAT_BEGIN
 90
        0
 91
        0
 92
        4
 93
        0
300

 40
0.0
140
1.0
 94
        5
 62
     0
340
11
144
0.25
309
CONTENTFORMAT_END
171
     1
301
MARGIN
  1
CELLMARGIN_BEGIN
 40
0.06
 40
0.06
 40
0.06
 40
0.06
 40
0.06
 40
0.06
309
CELLMARGIN_END
 94
        6
 95
        1
302
GRIDFORMAT
  1
GRIDFORMAT_BEGIN
 90
        0
 91
        1
 62
     0
 92
       -2
340
14
 93
        0
 40
0.045
309
GRIDFORMAT_END
 95
        2
302
GRIDFORMAT
  1
GRIDFORMAT_BEGIN
 90
        0
 91
        1
 62
     0
 92
       -2
340
14
 93
        0
 40
0.045
309
GRIDFORMAT_END
 95
        4
302
GRIDFORMAT
  1
GRIDFORMAT_BEGIN
 90
        0
 91
        1
 62
     0
 92
       -2
340
14
 93
        0
 40
0.045
309
GRIDFORMAT_END
 95
        8
302
GRIDFORMAT
  1
GRIDFORMAT_BEGIN
 90
        0
 91
        1
 62
     0
 92
       -2
340
14
 93
        0
 40
0.045
309
GRIDFORMAT_END
 95
       16
302
GRIDFORMAT
  1
GRIDFORMAT_BEGIN
 90
        0
 91
        1
 62
     0
 92
       -2
340
14
 93
        0
 40
0.045
309
GRIDFORMAT_END
 95
       32
302
GRIDFORMAT
  1
GRIDFORMAT_BEGIN
 90
        0
 91
        1
 62
     0
 92
       -2
340
14
 93
        0
 40
0.045
309
GRIDFORMAT_END
309
TABLEFORMAT_END
  1
CELLSTYLE_BEGIN
 90
        1
 91
        1
300
_TITLE
309
CELLSTYLE_END
300
CELLSTYLE
  1
TABLEFORMAT_BEGIN
 90
        5
170
     1
 91
        0
 92
        0
 62
   257
 93
        1
300
CONTENTFORMAT
  1
CONTENTFORMAT_BEGIN
 90
        0
 91
        0
 92
        4
 93
        0
300

 40
0.0
140
1.0
 94
        5
 62
     0
340
11
144
0.18
309
CONTENTFORMAT_END
171
     1
301
MARGIN
  1
CELLMARGIN_BEGIN
 40
0.06
 40
0.06
 40
0.06
 40
0.06
 40
0.06
 40
0.06
309
CELLMARGIN_END
 94
        6
 95
        1
302
GRIDFORMAT
  1
GRIDFORMAT_BEGIN
 90
        0
 91
        1
 62
     0
 92
       -2
340
14
 93
        0
 40
0.045
309
GRIDFORMAT_END
 95
        2
302
GRIDFORMAT
  1
GRIDFORMAT_BEGIN
 90
        0
 91
        1
 62
     0
 92
       -2
340
14
 93
        0
 40
0.045
309
GRIDFORMAT_END
 95
        4
302
GRIDFORMAT
  1
GRIDFORMAT_BEGIN
 90
        0
 91
        1
 62
     0
 92
       -2
340
14
 93
        0
 40
0.045
309
GRIDFORMAT_END
 95
        8
302
GRIDFORMAT
  1
GRIDFORMAT_BEGIN
 90
        0
 91
        1
 62
     0
 92
       -2
340
14
 93
        0
 40
0.045
309
GRIDFORMAT_END
 95
       16
302
GRIDFORMAT
  1
GRIDFORMAT_BEGIN
 90
        0
 91
        1
 62
     0
 92
       -2
340
14
 93
        0
 40
0.045
309
GRIDFORMAT_END
 95
       32
302
GRIDFORMAT
  1
GRIDFORMAT_BEGIN
 90
        0
 91
        1
 62
     0
 92
       -2
340
14
 93
        0
 40
0.045
309
GRIDFORMAT_END
309
TABLEFORMAT_END
  1
CELLSTYLE_BEGIN
 90
        2
 91
        1
300
_HEADER
309
CELLSTYLE_END
300
CELLSTYLE
  1
TABLEFORMAT_BEGIN
 90
        5
170
     1
 91
        0
 92
        0
 62
   257
 93
        1
300
CONTENTFORMAT
  1
CONTENTFORMAT_BEGIN
 90
        0
 91
        0
 92
        4
 93
        0
300

 40
0.0
140
1.0
 94
        2
 62
     0
340
11
144
0.18
309
CONTENTFORMAT_END
171
     1
301
MARGIN
  1
CELLMARGIN_BEGIN
 40
0.06
 40
0.06
 40
0.06
 40
0.06
 40
0.06
 40
0.06
309
CELLMARGIN_END
 94
        6
 95
        1
302
GRIDFORMAT
  1
GRIDFORMAT_BEGIN
 90
        0
 91
        1
 62
     0
 92
       -2
340
14
 93
        0
 40
0.045
309
GRIDFORMAT_END
 95
        2
302
GRIDFORMAT
  1
GRIDFORMAT_BEGIN
 90
        0
 91
        1
 62
     0
 92
       -2
340
14
 93
        0
 40
0.045
309
GRIDFORMAT_END
 95
        4
302
GRIDFORMAT
  1
GRIDFORMAT_BEGIN
 90
        0
 91
        1
 62
     0
 92
       -2
340
14
 93
        0
 40
0.045
309
GRIDFORMAT_END
 95
        8
302
GRIDFORMAT
  1
GRIDFORMAT_BEGIN
 90
        0
 91
        1
 62
     0
 92
       -2
340
14
 93
        0
 40
0.045
309
GRIDFORMAT_END
 95
       16
302
GRIDFORMAT
  1
GRIDFORMAT_BEGIN
 90
        0
 91
        1
 62
     0
 92
       -2
340
14
 93
        0
 40
0.045
309
GRIDFORMAT_END
 95
       32
302
GRIDFORMAT
  1
GRIDFORMAT_BEGIN
 90
        0
 91
        1
 62
     0
 92
       -2
340
14
 93
        0
 40
0.045
309
GRIDFORMAT_END
309
TABLEFORMAT_END
  1
CELLSTYLE_BEGIN
 90
        3
 91
        2
300
_DATA
309
CELLSTYLE_END
  0
ENDSEC
  0
EOF
