  0
SECTION
  2
HEADER
  9
$ACADVER
  1
AC1027
  9
$ACADMAINTVER
 70
   105
  9
$DWGCODEPAGE
  3
ANSI_1252
  9
$LASTSAVEDBY
  1
Office Desk
  9
$REQUIREDVERSIONS
160
                 0
  9
$INSBASE
 10
0.0
 20
0.0
 30
0.0
  9
$EXTMIN
 10
177.7021
 20
-153.7606
 30
0.0
  9
$EXTMAX
 10
966.882
 20
167.4972
 30
0.0
  9
$LIMMIN
 10
0.0
 20
0.0
  9
$LIMMAX
 10
12.0
 20
9.0
  9
$ORTHOMODE
 70
     0
  9
$REGENMODE
 70
     1
  9
$FILLMODE
 70
     1
  9
$QTEXTMODE
 70
     0
  9
$MIRRTEXT
 70
     1
  9
$LTSCALE
 40
1.0
  9
$ATTMODE
 70
     1
  9
$TEXTSIZE
 40
0.2
  9
$TRACEWID
 40
0.05
  9
$TEXTSTYLE
  7
Standard
  9
$CLAYER
  8
0
  9
$CELTYPE
  6
ByLayer
  9
$CECOLOR
 62
   256
  9
$CELTSCALE
 40
1.0
  9
$DISPSILH
 70
     0
  9
$DIMSCALE
 40
1.0
  9
$DIMASZ
 40
0.18
  9
$DIMEXO
 40
0.0625
  9
$DIMDLI
 40
0.38
  9
$DIMRND
 40
0.0
  9
$DIMDLE
 40
0.0
  9
$DIMEXE
 40
0.18
  9
$DIMTP
 40
0.0
  9
$DIMTM
 40
0.0
  9
$DIMTXT
 40
0.18
  9
$DIMCEN
 40
0.09
  9
$DIMTSZ
 40
0.0
  9
$DIMTOL
 70
     0
  9
$DIMLIM
 70
     0
  9
$DIMTIH
 70
     1
  9
$DIMTOH
 70
     1
  9
$DIMSE1
 70
     0
  9
$DIMSE2
 70
     0
  9
$DIMTAD
 70
     0
  9
$DIMZIN
 70
     0
  9
$DIMBLK
  1

  9
$DIMASO
 70
     1
  9
$DIMSHO
 70
     1
  9
$DIMPOST
  1

  9
$DIMAPOST
  1

  9
$DIMALT
 70
     0
  9
$DIMALTD
 70
     2
  9
$DIMALTF
 40
25.4
  9
$DIMLFAC
 40
1.0
  9
$DIMTOFL
 70
     0
  9
$DIMTVP
 40
0.0
  9
$DIMTIX
 70
     0
  9
$DIMSOXD
 70
     0
  9
$DIMSAH
 70
     0
  9
$DIMBLK1
  1

  9
$DIMBLK2
  1

  9
$DIMSTYLE
  2
Standard
  9
$DIMCLRD
 70
     0
  9
$DIMCLRE
 70
     0
  9
$DIMCLRT
 70
     0
  9
$DIMTFAC
 40
1.0
  9
$DIMGAP
 40
0.09
  9
$DIMJUST
 70
     0
  9
$DIMSD1
 70
     0
  9
$DIMSD2
 70
     0
  9
$DIMTOLJ
 70
     1
  9
$DIMTZIN
 70
     0
  9
$DIMALTZ
 70
     0
  9
$DIMALTTZ
 70
     0
  9
$DIMUPT
 70
     0
  9
$DIMDEC
 70
     4
  9
$DIMTDEC
 70
     4
  9
$DIMALTU
 70
     2
  9
$DIMALTTD
 70
     2
  9
$DIMTXSTY
  7
Standard
  9
$DIMAUNIT
 70
     0
  9
$DIMADEC
 70
     0
  9
$DIMALTRND
 40
0.0
  9
$DIMAZIN
 70
     0
  9
$DIMDSEP
 70
    46
  9
$DIMATFIT
 70
     3
  9
$DIMFRAC
 70
     0
  9
$DIMLDRBLK
  1

  9
$DIMLUNIT
 70
     2
  9
$DIMLWD
 70
    -2
  9
$DIMLWE
 70
    -2
  9
$DIMTMOVE
 70
     0
  9
$DIMFXL
 40
1.0
  9
$DIMFXLON
 70
     0
  9
$DIMJOGANG
 40
0.7853981633974483
  9
$DIMTFILL
 70
     0
  9
$DIMTFILLCLR
 70
     0
  9
$DIMARCSYM
 70
     0
  9
$DIMLTYPE
  6

  9
$DIMLTEX1
  6

  9
$DIMLTEX2
  6

  9
$DIMTXTDIRECTION
 70
     0
  9
$LUNITS
 70
     2
  9
$LUPREC
 70
     4
  9
$SKETCHINC
 40
0.1
  9
$FILLETRAD
 40
0.0
  9
$AUNITS
 70
     0
  9
$AUPREC
 70
     0
  9
$MENU
  1
.
  9
$ELEVATION
 40
0.0
  9
$PELEVATION
 40
0.0
  9
$THICKNESS
 40
0.0
  9
$LIMCHECK
 70
     0
  9
$CHAMFERA
 40
0.0
  9
$CHAMFERB
 40
0.0
  9
$CHAMFERC
 40
0.0
  9
$CHAMFERD
 40
0.0
  9
$SKPOLY
 70
     0
  9
$TDCREATE
 40
2461012.666877269
  9
$TDUCREATE
 40
2461012.437710602
  9
$TDUPDATE
 40
2461012.666877269
  9
$TDUUPDATE
 40
2461012.437710602
  9
$TDINDWG
 40
0.0000000116
  9
$TDUSRTIMER
 40
0.0000000116
  9
$USRTIMER
 70
     1
  9
$ANGBASE
 50
0.0
  9
$ANGDIR
 70
     0
  9
$PDMODE
 70
     0
  9
$PDSIZE
 40
0.0
  9
$PLINEWID
 40
0.0
  9
$SPLFRAME
 70
     0
  9
$SPLINETYPE
 70
     6
  9
$SPLINESEGS
 70
     8
  9
$HANDSEED
  5
85
  9
$SURFTAB1
 70
     6
  9
$SURFTAB2
 70
     6
  9
$SURFTYPE
 70
     6
  9
$SURFU
 70
     6
  9
$SURFV
 70
     6
  9
$UCSBASE
  2

  9
$UCSNAME
  2

  9
$UCSORG
 10
0.0
 20
0.0
 30
0.0
  9
$UCSXDIR
 10
1.0
 20
0.0
 30
0.0
  9
$UCSYDIR
 10
0.0
 20
1.0
 30
0.0
  9
$UCSORTHOREF
  2

  9
$UCSORTHOVIEW
 70
     0
  9
$UCSORGTOP
 10
0.0
 20
0.0
 30
0.0
  9
$UCSORGBOTTOM
 10
0.0
 20
0.0
 30
0.0
  9
$UCSORGLEFT
 10
0.0
 20
0.0
 30
0.0
  9
$UCSORGRIGHT
 10
0.0
 20
0.0
 30
0.0
  9
$UCSORGFRONT
 10
0.0
 20
0.0
 30
0.0
  9
$UCSORGBACK
 10
0.0
 20
0.0
 30
0.0
  9
$PUCSBASE
  2

  9
$PUCSNAME
  2

  9
$PUCSORG
 10
0.0
 20
0.0
 30
0.0
  9
$PUCSXDIR
 10
1.0
 20
0.0
 30
0.0
  9
$PUCSYDIR
 10
0.0
 20
1.0
 30
0.0
  9
$PUCSORTHOREF
  2

  9
$PUCSORTHOVIEW
 70
     0
  9
$PUCSORGTOP
 10
0.0
 20
0.0
 30
0.0
  9
$PUCSORGBOTTOM
 10
0.0
 20
0.0
 30
0.0
  9
$PUCSORGLEFT
 10
0.0
 20
0.0
 30
0.0
  9
$PUCSORGRIGHT
 10
0.0
 20
0.0
 30
0.0
  9
$PUCSORGFRONT
 10
0.0
 20
0.0
 30
0.0
  9
$PUCSORGBACK
 10
0.0
 20
0.0
 30
0.0
  9
$USERI1
 70
     0
  9
$USERI2
 70
     0
  9
$USERI3
 70
     0
  9
$USERI4
 70
     0
  9
$USERI5
 70
     0
  9
$USERR1
 40
0.0
  9
$USERR2
 40
0.0
  9
$USERR3
 40
0.0
  9
$USERR4
 40
0.0
  9
$USERR5
 40
0.0
  9
$WORLDVIEW
 70
     1
  9
$SHADEDGE
 70
     3
  9
$SHADEDIF
 70
    70
  9
$TILEMODE
 70
     1
  9
$MAXACTVP
 70
    64
  9
$PINSBASE
 10
0.0
 20
0.0
 30
0.0
  9
$PLIMCHECK
 70
     0
  9
$PEXTMIN
 10
1.000000000000000E+20
 20
1.000000000000000E+20
 30
1.000000000000000E+20
  9
$PEXTMAX
 10
-1.000000000000000E+20
 20
-1.000000000000000E+20
 30
-1.000000000000000E+20
  9
$PLIMMIN
 10
0.0
 20
0.0
  9
$PLIMMAX
 10
12.0
 20
9.0
  9
$UNITMODE
 70
     0
  9
$VISRETAIN
 70
     1
  9
$PLINEGEN
 70
     0
  9
$PSLTSCALE
 70
     1
  9
$TREEDEPTH
 70
  3020
  9
$CMLSTYLE
  2
Standard
  9
$CMLJUST
 70
     0
  9
$CMLSCALE
 40
1.0
  9
$PROXYGRAPHICS
 70
     1
  9
$MEASUREMENT
 70
     0
  9
$CELWEIGHT
370
    -1
  9
$ENDCAPS
280
     0
  9
$JOINSTYLE
280
     0
  9
$LWDISPLAY
290
     0
  9
$INSUNITS
 70
     4
  9
$HYPERLINKBASE
  1

  9
$STYLESHEET
  1

  9
$XEDIT
290
     1
  9
$CEPSNTYPE
380
     0
  9
$PSTYLEMODE
290
     1
  9
$FINGERPRINTGUID
  2
{70d4c2bd-ae1b-405c-9ba9-45bc77620fac}
  9
$VERSIONGUID
  2
{FAEB1C32-E019-11D5-929B-00C0DF256EC4}
  9
$EXTNAMES
290
     1
  9
$PSVPSCALE
 40
0.0
  9
$OLESTARTUP
290
     0
  9
$SORTENTS
280
   127
  9
$INDEXCTL
280
     0
  9
$HIDETEXT
280
     1
  9
$XCLIPFRAME
280
     2
  9
$HALOGAP
280
     0
  9
$OBSCOLOR
 70
   257
  9
$OBSLTYPE
280
     0
  9
$INTERSECTIONDISPLAY
280
     0
  9
$INTERSECTIONCOLOR
 70
   257
  9
$DIMASSOC
280
     2
  9
$PROJECTNAME
  1

  9
$CAMERADISPLAY
290
     0
  9
$LENSLENGTH
 40
50.0
  9
$CAMERAHEIGHT
 40
0.0
  9
$STEPSPERSEC
 40
2.0
  9
$STEPSIZE
 40
6.0
  9
$3DDWFPREC
 40
2.0
  9
$PSOLWIDTH
 40
0.25
  9
$PSOLHEIGHT
 40
4.0
  9
$LOFTANG1
 40
1.570796326794897
  9
$LOFTANG2
 40
1.570796326794897
  9
$LOFTMAG1
 40
0.0
  9
$LOFTMAG2
 40
0.0
  9
$LOFTPARAM
 70
     7
  9
$LOFTNORMALS
280
     1
  9
$LATITUDE
 40
37.795
  9
$LONGITUDE
 40
-122.394
  9
$NORTHDIRECTION
 40
0.0
  9
$TIMEZONE
 70
 -8000
  9
$LIGHTGLYPHDISPLAY
280
     1
  9
$TILEMODELIGHTSYNCH
280
     1
  9
$CMATERIAL
347
44
  9
$SOLIDHIST
280
     0
  9
$SHOWHIST
280
     1
  9
$DWFFRAME
280
     2
  9
$DGNFRAME
280
     2
  9
$REALWORLDSCALE
290
     1
  9
$INTERFERECOLOR
 62
   256
  9
$CSHADOW
280
     0
  9
$SHADOWPLANELOCATION
 40
0.0
  0
ENDSEC
  0
SECTION
  2
CLASSES
  0
CLASS
  1
ACDBDICTIONARYWDFLT
  2
AcDbDictionaryWithDefault
  3
ObjectDBX Classes
 90
        0
 91
        3
280
     0
281
     0
  0
CLASS
  1
VISUALSTYLE
  2
AcDbVisualStyle
  3
ObjectDBX Classes
 90
     4095
 91
        3
280
     0
281
     0
  0
CLASS
  1
MATERIAL
  2
AcDbMaterial
  3
ObjectDBX Classes
 90
     1153
 91
        3
280
     0
281
     0
  0
CLASS
  1
SCALE
  2
AcDbScale
  3
ObjectDBX Classes
 90
     1153
 91
        3
280
     0
281
     0
  0
CLASS
  1
TABLESTYLE
  2
AcDbTableStyle
  3
ObjectDBX Classes
 90
     4095
 91
        3
280
     0
281
     0
  0
CLASS
  1
MLEADERSTYLE
  2
AcDbMLeaderStyle
  3
ACDB_MLEADERSTYLE_CLASS
 90
     4095
 91
        3
280
     0
281
     0
  0
CLASS
  1
SUN
  2
AcDbSun
  3
SCENEOE
 90
     1153
 91
        3
280
     0
281
     0
  0
CLASS
  1
DICTIONARYVAR
  2
AcDbDictionaryVar
  3
ObjectDBX Classes
 90
        0
 91
        3
280
     0
281
     0
  0
CLASS
  1
CELLSTYLEMAP
  2
AcDbCellStyleMap
  3
ObjectDBX Classes
 90
     1152
 91
        3
280
     0
281
     0
  0
ENDSEC
  0
SECTION
  2
TABLES
  0
TABLE
  2
VPORT
  5
8
330
0
100
AcDbSymbolTable
 70
     1
  0
VPORT
  5
29
330
8
100
AcDbSymbolTableRecord
100
AcDbViewportTableRecord
  2
*Active
 70
     0
 10
0.0
 20
0.0
 11
1.0
 21
1.0
 12
10.42990654205607
 22
4.5
 13
0.0
 23
0.0
 14
0.5
 24
0.5
 15
0.5
 25
0.5
 16
0.0
 26
0.0
 36
1.0
 17
0.0
 27
0.0
 37
0.0
 40
9.0
 41
1.972972972850329
 42
50.0
 43
0.0
 44
0.0
 50
0.0
 51
0.0
 71
     0
 72
   100
 73
     1
 74
     3
 75
     0
 76
     0
 77
     0
 78
     0
281
     0
 65
     1
110
0.0
120
0.0
130
0.0
111
1.0
121
0.0
131
0.0
112
0.0
122
1.0
132
0.0
 79
     0
146
0.0
348
2F
 60
     3
 61
     5
292
     1
282
     1
141
0.0
142
0.0
 63
   250
361
5D
  0
ENDTAB
  0
TABLE
  2
LTYPE
  5
5
330
0
100
AcDbSymbolTable
 70
     1
  0
LTYPE
  5
14
330
5
100
AcDbSymbolTableRecord
100
AcDbLinetypeTableRecord
  2
ByBlock
 70
     0
  3

 72
    65
 73
     0
 40
0.0
  0
LTYPE
  5
15
330
5
100
AcDbSymbolTableRecord
100
AcDbLinetypeTableRecord
  2
ByLayer
 70
     0
  3

 72
    65
 73
     0
 40
0.0
  0
LTYPE
  5
16
330
5
100
AcDbSymbolTableRecord
100
AcDbLinetypeTableRecord
  2
Continuous
 70
     0
  3
Solid line
 72
    65
 73
     0
 40
0.0
  0
ENDTAB
  0
TABLE
  2
LAYER
  5
2
330
0
100
AcDbSymbolTable
 70
     2
  0
LAYER
  5
10
330
2
100
AcDbSymbolTableRecord
100
AcDbLayerTableRecord
  2
0
 70
     0
 62
     7
  6
Continuous
370
    -3
390
F
347
46
348
0
  0
LAYER
  5
5F
330
2
100
AcDbSymbolTableRecord
100
AcDbLayerTableRecord
  2
Layer 1
 70
     0
 62
     7
  6
Continuous
370
    -3
390
F
347
46
348
0
  0
ENDTAB
  0
TABLE
  2
STYLE
  5
3
330
0
100
AcDbSymbolTable
 70
     1
  0
STYLE
  5
11
330
3
100
AcDbSymbolTableRecord
100
AcDbTextStyleTableRecord
  2
Standard
 70
     0
 40
0.0
 41
1.0
 50
0.0
 71
     0
 42
0.2
  3
txt
  4

  0
ENDTAB
  0
TABLE
  2
VIEW
  5
6
330
0
100
AcDbSymbolTable
 70
     0
  0
ENDTAB
  0
TABLE
  2
UCS
  5
7
330
0
100
AcDbSymbolTable
 70
     0
  0
ENDTAB
  0
TABLE
  2
APPID
  5
9
330
0
100
AcDbSymbolTable
 70
     2
  0
APPID
  5
12
330
9
100
AcDbSymbolTableRecord
100
AcDbRegAppTableRecord
  2
ACAD
 70
     0
  0
APPID
  5
5E
330
9
100
AcDbSymbolTableRecord
100
AcDbRegAppTableRecord
  2
ODA
 70
     0
  0
ENDTAB
  0
TABLE
  2
DIMSTYLE
  5
A
330
0
100
AcDbSymbolTable
 70
     1
100
AcDbDimStyleTable
  0
DIMSTYLE
105
27
330
A
100
AcDbSymbolTableRecord
100
AcDbDimStyleTableRecord
  2
Standard
 70
     0
178
     0
340
11
  0
ENDTAB
  0
TABLE
  2
BLOCK_RECORD
  5
1
330
0
100
AcDbSymbolTable
 70
     1
  0
BLOCK_RECORD
  5
1F
330
1
100
AcDbSymbolTableRecord
100
AcDbBlockTableRecord
  2
*Model_Space
340
22
 70
     0
280
     1
281
     0
  0
BLOCK_RECORD
  5
1B
330
1
100
AcDbSymbolTableRecord
100
AcDbBlockTableRecord
  2
*Paper_Space
340
1E
 70
     0
280
     1
281
     0
  0
BLOCK_RECORD
  5
23
330
1
100
AcDbSymbolTableRecord
100
AcDbBlockTableRecord
  2
*Paper_Space0
340
26
 70
     0
280
     1
281
     0
  0
ENDTAB
  0
ENDSEC
  0
SECTION
  2
BLOCKS
  0
BLOCK
  5
20
330
1F
100
AcDbEntity
  8
0
100
AcDbBlockBegin
  2
*Model_Space
 70
     0
 10
0.0
 20
0.0
 30
0.0
  3
*Model_Space
  1

  0
ENDBLK
  5
21
330
1F
100
AcDbEntity
  8
0
100
AcDbBlockEnd
  0
BLOCK
  5
1C
330
1B
100
AcDbEntity
 67
     1
  8
0
100
AcDbBlockBegin
  2
*Paper_Space
 70
     0
 10
0.0
 20
0.0
 30
0.0
  3
*Paper_Space
  1

  0
ENDBLK
  5
1D
330
1B
100
AcDbEntity
 67
     1
  8
0
100
AcDbBlockEnd
  0
BLOCK
  5
24
330
23
100
AcDbEntity
  8
0
100
AcDbBlockBegin
  2
*Paper_Space0
 70
     0
 10
0.0
 20
0.0
 30
0.0
  3
*Paper_Space0
  1

  0
ENDBLK
  5
25
330
23
100
AcDbEntity
  8
0
100
AcDbBlockEnd
  0
ENDSEC
  0
SECTION
  2
ENTITIES
  0
LWPOLYLINE
  5
60
330
1F
100
AcDbEntity
  8
Layer 1
 62
   250
370
    18
100
AcDbPolyline
 90
        5
 70
     1
 43
0.0
 10
177.7903
 20
-153.6724
 10
966.7937
 20
-153.6724
 10
966.7937
 20
167.409
 10
177.7903
 20
167.409
 10
177.7903
 20
-153.6724
  0
LWPOLYLINE
  5
61
330
1F
100
AcDbEntity
  8
Layer 1
 62
     7
370
    35
100
AcDbPolyline
 90
       33
 70
     1
 43
0.0
 10
461.3599
 20
136.873
 10
488.7163
 20
134.2931
 10
514.1962
 20
126.8939
 10
537.2537
 20
115.186
 10
557.343
 20
99.6801
 10
573.9181
 20
80.8867
 10
586.4334
 20
59.3165
 10
594.3428
 20
35.4802
 10
597.1006
 20
9.8883
 10
594.3428
 20
-15.7036
 10
586.4334
 20
-39.5399
 10
573.9181
 20
-61.1101
 10
557.343
 20
-79.9034
 10
537.2537
 20
-95.4094
 10
514.1962
 20
-107.1172
 10
488.7163
 20
-114.5164
 10
461.3599
 20
-117.0963
 10
434.0032
 20
-114.5164
 10
408.5231
 20
-107.1172
 10
385.4654
 20
-95.4094
 10
365.3759
 20
-79.9034
 10
348.8006
 20
-61.1101
 10
336.2852
 20
-39.5399
 10
328.3757
 20
-15.7036
 10
325.6179
 20
9.8883
 10
328.3757
 20
35.4802
 10
336.2852
 20
59.3165
 10
348.8006
 20
80.8867
 10
365.3759
 20
99.6801
 10
385.4654
 20
115.186
 10
408.5231
 20
126.8939
 10
434.0032
 20
134.2931
 10
461.3599
 20
136.873
  0
LWPOLYLINE
  5
62
330
1F
100
AcDbEntity
  8
Layer 1
 62
     7
370
    35
100
AcDbPolyline
 90
       33
 70
     1
 43
0.0
 10
461.3599
 20
129.9496
 10
487.2251
 20
127.5104
 10
511.3159
 20
120.5146
 10
533.1164
 20
109.4451
 10
552.1104
 20
94.7846
 10
567.7819
 20
77.0159
 10
579.6147
 20
56.6217
 10
587.0929
 20
34.0849
 10
589.7003
 20
9.8883
 10
587.0929
 20
-14.3084
 10
579.6147
 20
-36.8452
 10
567.7819
 20
-57.2395
 10
552.1104
 20
-75.0083
 10
533.1164
 20
-89.6689
 10
511.3159
 20
-100.7385
 10
487.2251
 20
-107.7344
 10
461.3599
 20
-110.1736
 10
435.4949
 20
-107.7344
 10
411.404
 20
-100.7385
 10
389.6034
 20
-89.6689
 10
370.6093
 20
-75.0083
 10
354.9376
 20
-57.2395
 10
343.1046
 20
-36.8452
 10
335.6263
 20
-14.3084
 10
333.0188
 20
9.8883
 10
335.6263
 20
34.0849
 10
343.1046
 20
56.6217
 10
354.9376
 20
77.0159
 10
370.6093
 20
94.7846
 10
389.6034
 20
109.4451
 10
411.404
 20
120.5146
 10
435.4949
 20
127.5104
 10
461.3599
 20
129.9496
  0
LWPOLYLINE
  5
63
330
1F
100
AcDbEntity
  8
Layer 1
 62
     7
370
    35
100
AcDbPolyline
 90
       33
 70
     1
 43
0.0
 10
461.3599
 20
27.404
 10
465.1331
 20
27.0481
 10
468.6475
 20
26.0276
 10
471.8277
 20
24.4126
 10
474.5985
 20
22.2738
 10
476.8846
 20
19.6816
 10
478.6108
 20
16.7063
 10
479.7016
 20
13.4184
 10
480.082
 20
9.8883
 10
479.7016
 20
6.3582
 10
478.6108
 20
3.0704
 10
476.8846
 20
0.0951
 10
474.5985
 20
-2.4972
 10
471.8277
 20
-4.636
 10
468.6475
 20
-6.2509
 10
465.1331
 20
-7.2715
 10
461.3599
 20
-7.6273
 10
457.5864
 20
-7.2715
 10
454.0718
 20
-6.2509
 10
450.8913
 20
-4.636
 10
448.1203
 20
-2.4972
 10
445.834
 20
0.0951
 10
444.1078
 20
3.0704
 10
443.0168
 20
6.3582
 10
442.6364
 20
9.8883
 10
443.0168
 20
13.4184
 10
444.1078
 20
16.7063
 10
445.834
 20
19.6816
 10
448.1203
 20
22.2738
 10
450.8913
 20
24.4126
 10
454.0718
 20
26.0276
 10
457.5864
 20
27.0481
 10
461.3599
 20
27.404
  0
LWPOLYLINE
  5
64
330
1F
100
AcDbEntity
  8
Layer 1
 62
     7
370
    35
100
AcDbPolyline
 90
       33
 70
     1
 43
0.0
 10
461.3599
 20
19.9337
 10
463.5239
 20
19.7296
 10
465.5394
 20
19.1442
 10
467.3635
 20
18.218
 10
468.9527
 20
16.9913
 10
470.264
 20
15.5046
 10
471.2541
 20
13.7982
 10
471.8798
 20
11.9127
 10
472.098
 20
9.8883
 10
471.8798
 20
7.8638
 10
471.2541
 20
5.9781
 10
470.264
 20
4.2718
 10
468.9527
 20
2.7851
 10
467.3635
 20
1.5585
 10
465.5394
 20
0.6324
 10
463.5239
 20
0.0471
 10
461.3599
 20
-0.157
 10
459.1955
 20
0.0471
 10
457.1797
 20
0.6324
 10
455.3557
 20
1.5585
 10
453.7665
 20
2.7851
 10
452.4554
 20
4.2718
 10
451.4654
 20
5.9781
 10
450.8398
 20
7.8638
 10
450.6217
 20
9.8883
 10
450.8398
 20
11.9127
 10
451.4654
 20
13.7982
 10
452.4554
 20
15.5046
 10
453.7665
 20
16.9913
 10
455.3557
 20
18.218
 10
457.1797
 20
19.1442
 10
459.1955
 20
19.7296
 10
461.3599
 20
19.9337
  0
LWPOLYLINE
  5
65
330
1F
100
AcDbEntity
  8
Layer 1
 62
     7
370
    35
100
AcDbPolyline
 90
        4
 70
     0
 43
0.0
 10
340.7306
 20
-115.6555
 10
283.5187
 20
-115.6555
 10
283.5187
 20
136.873
 10
338.4431
 20
136.873
  0
LWPOLYLINE
  5
66
330
1F
100
AcDbEntity
  8
Layer 1
 62
     7
370
    35
100
AcDbPolyline
 90
        2
 70
     0
 43
0.0
 10
287.1195
 20
-112.7579
 10
280.7958
 20
-117.8701
  0
LWPOLYLINE
  5
67
330
1F
100
AcDbEntity
  8
Layer 1
 62
     7
370
    35
100
AcDbPolyline
 90
        2
 70
     0
 43
0.0
 10
287.1906
 20
139.4285
 10
280.8663
 20
134.3163
  0
LWPOLYLINE
  5
68
330
1F
100
AcDbEntity
  8
Layer 1
 62
     7
100
AcDbPolyline
 90
        4
 70
     1
 43
0.0
 10
205.6152
 20
16.1636
 10
205.6152
 20
7.4487
 10
199.8495
 20
7.4487
 10
205.6152
 20
16.1636
  0
LWPOLYLINE
  5
69
330
1F
100
AcDbEntity
  8
Layer 1
 62
     7
100
AcDbPolyline
 90
       11
 70
     1
 43
0.0
 10
207.2339
 20
5.8522
 10
209.1406
 20
5.8522
 10
209.1406
 20
7.4487
 10
207.2339
 20
7.4487
 10
207.2118
 20
17.8491
 10
205.0383
 20
17.8491
 10
197.1002
 20
5.8522
 10
205.6152
 20
5.8522
 10
205.6152
 20
2.77
 10
207.2339
 20
2.77
 10
207.2339
 20
5.8522
  0
LWPOLYLINE
  5
6A
330
1F
100
AcDbEntity
  8
Layer 1
 62
     7
100
AcDbPolyline
 90
      109
 70
     1
 43
0.0
 10
217.6005
 20
16.0968
 10
217.8565
 20
15.9229
 10
218.0952
 20
15.7255
 10
218.3165
 20
15.5044
 10
218.5206
 20
15.2599
 10
218.7074
 20
14.9917
 10
218.8769
 20
14.7
 10
219.029
 20
14.3847
 10
219.1639
 20
14.0459
 10
219.3146
 20
13.5963
 10
219.4451
 20
13.1401
 10
219.5556
 20
12.6774
 10
219.6459
 20
12.208
 10
219.7162
 20
11.7321
 10
219.7664
 20
11.2495
 10
219.7965
 20
10.7605
 10
219.8065
 20
10.2648
 10
219.8024
 20
10.0216
 10
219.7899
 20
9.7576
 10
219.7692
 20
9.4728
 10
219.7402
 20
9.1673
 10
219.6633
 20
8.5712
 10
219.5628
 20
8.008
 10
219.4388
 20
7.4777
 10
219.2911
 20
6.9804
 10
219.1199
 20
6.5159
 10
218.9251
 20
6.0843
 10
218.7068
 20
5.6857
 10
218.465
 20
5.32
 10
218.2443
 20
5.0445
 10
218.0119
 20
4.8058
 10
217.7677
 20
4.6037
 10
217.5117
 20
4.4385
 10
217.244
 20
4.3099
 10
216.9644
 20
4.2181
 10
216.673
 20
4.163
 10
216.3699
 20
4.1446
 10
216.0316
 20
4.1628
 10
215.7095
 20
4.2174
 10
215.4037
 20
4.3083
 10
215.1142
 20
4.4357
 10
214.841
 20
4.5994
 10
214.5841
 20
4.7995
 10
214.3435
 20
5.036
 10
214.1192
 20
5.3089
 10
214.0242
 20
5.4414
 10
213.9334
 20
5.5779
 10
213.8467
 20
5.7187
 10
213.7642
 20
5.8635
 10
213.6859
 20
6.0125
 10
213.6117
 20
6.1656
 10
213.5418
 20
6.3229
 10
213.476
 20
6.4843
 10
213.3562
 20
6.8134
 10
213.2516
 20
7.1468
 10
213.1622
 20
7.4843
 10
213.0879
 20
7.8258
 10
213.0262
 20
8.1669
 10
212.9742
 20
8.5023
 10
212.9319
 20
8.8321
 10
212.8991
 20
9.1563
 10
212.875
 20
9.4902
 10
212.8577
 20
9.8487
 10
212.8474
 20
10.2315
 10
212.8439
 20
10.6382
 10
212.8477
 20
10.8537
 10
212.8592
 20
11.0817
 10
212.8783
 20
11.3224
 10
212.905
 20
11.5756
 10
212.9393
 20
11.8415
 10
212.9812
 20
12.1201
 10
213.0308
 20
12.4114
 10
213.0879
 20
12.7154
 10
213.1614
 20
13.0528
 10
213.2486
 20
13.389
 10
213.3498
 20
13.7237
 10
213.465
 20
14.0569
 10
213.5282
 20
14.2211
 10
213.5959
 20
14.3811
 10
213.6682
 20
14.537
 10
213.7449
 20
14.6888
 10
213.8261
 20
14.8364
 10
213.9118
 20
14.9799
 10
214.0019
 20
15.1192
 10
214.0965
 20
15.2544
 10
214.196
 20
15.3842
 10
214.3003
 20
15.5074
 10
214.4095
 20
15.624
 10
214.5235
 20
15.734
 10
214.6424
 20
15.8373
 10
214.7661
 20
15.9341
 10
214.8945
 20
16.0242
 10
215.0278
 20
16.1078
 10
215.1668
 20
16.1832
 10
215.312
 20
16.2486
 10
215.4634
 20
16.304
 10
215.6211
 20
16.3492
 10
215.785
 20
16.3844
 10
215.9551
 20
16.4096
 10
216.1315
 20
16.4247
 10
216.3141
 20
16.4297
 10
216.4967
 20
16.4245
 10
216.6731
 20
16.4089
 10
216.8433
 20
16.3829
 10
217.0072
 20
16.3465
 10
217.1648
 20
16.2996
 10
217.3163
 20
16.2424
 10
217.4615
 20
16.1748
 10
217.6005
 20
16.0968
  0
LWPOLYLINE
  5
6B
330
1F
100
AcDbEntity
  8
Layer 1
 62
     7
100
AcDbPolyline
 90
       65
 70
     1
 43
0.0
 10
216.392
 20
2.5701
 10
217.0393
 20
2.6112
 10
217.6454
 20
2.7344
 10
218.2103
 20
2.9397
 10
218.734
 20
3.2272
 10
219.2164
 20
3.5967
 10
219.6577
 20
4.0484
 10
220.0577
 20
4.5822
 10
220.4165
 20
5.198
 10
220.6685
 20
5.7355
 10
220.8869
 20
6.3028
 10
221.0717
 20
6.8998
 10
221.223
 20
7.5266
 10
221.3406
 20
8.1832
 10
221.4247
 20
8.8696
 10
221.4751
 20
9.5857
 10
221.4919
 20
10.3316
 10
221.4751
 20
11.0775
 10
221.4247
 20
11.7937
 10
221.3406
 20
12.48
 10
221.223
 20
13.1367
 10
221.0717
 20
13.7635
 10
220.8869
 20
14.3605
 10
220.6685
 20
14.9278
 10
220.4165
 20
15.4653
 10
220.0577
 20
16.0811
 10
219.6577
 20
16.6148
 10
219.2164
 20
17.0664
 10
218.734
 20
17.4358
 10
218.2103
 20
17.7231
 10
217.6454
 20
17.9283
 10
217.0393
 20
18.0515
 10
216.392
 20
18.0925
 10
215.7445
 20
18.0515
 10
215.1383
 20
17.9283
 10
214.5733
 20
17.7231
 10
214.0495
 20
17.4358
 10
213.567
 20
17.0664
 10
213.1258
 20
16.6148
 10
212.7257
 20
16.0811
 10
212.3669
 20
15.4653
 10
212.1149
 20
14.9278
 10
211.8965
 20
14.3605
 10
211.7116
 20
13.7635
 10
211.5604
 20
13.1367
 10
211.4428
 20
12.48
 10
211.3587
 20
11.7937
 10
211.3083
 20
11.0775
 10
211.2915
 20
10.3316
 10
211.3083
 20
9.5857
 10
211.3587
 20
8.8696
 10
211.4428
 20
8.1832
 10
211.5604
 20
7.5266
 10
211.7116
 20
6.8998
 10
211.8965
 20
6.3028
 10
212.1149
 20
5.7355
 10
212.3669
 20
5.198
 10
212.7257
 20
4.5822
 10
213.1258
 20
4.0484
 10
213.567
 20
3.5967
 10
214.0495
 20
3.2272
 10
214.5733
 20
2.9397
 10
215.1383
 20
2.7344
 10
215.7445
 20
2.6112
 10
216.392
 20
2.5701
  0
LWPOLYLINE
  5
6C
330
1F
100
AcDbEntity
  8
Layer 1
 62
     7
100
AcDbPolyline
 90
      109
 70
     1
 43
0.0
 10
230.0186
 20
16.0968
 10
230.2746
 20
15.9229
 10
230.5133
 20
15.7255
 10
230.7346
 20
15.5044
 10
230.9387
 20
15.2599
 10
231.1255
 20
14.9917
 10
231.295
 20
14.7
 10
231.4471
 20
14.3847
 10
231.582
 20
14.0459
 10
231.7327
 20
13.5963
 10
231.8632
 20
13.1401
 10
231.9737
 20
12.6774
 10
232.064
 20
12.208
 10
232.1343
 20
11.7321
 10
232.1845
 20
11.2495
 10
232.2146
 20
10.7605
 10
232.2246
 20
10.2648
 10
232.2205
 20
10.0216
 10
232.208
 20
9.7576
 10
232.1873
 20
9.4728
 10
232.1583
 20
9.1673
 10
232.0814
 20
8.5712
 10
231.9809
 20
8.008
 10
231.8569
 20
7.4777
 10
231.7092
 20
6.9804
 10
231.538
 20
6.5159
 10
231.3432
 20
6.0843
 10
231.1249
 20
5.6857
 10
230.8831
 20
5.32
 10
230.6624
 20
5.0445
 10
230.43
 20
4.8058
 10
230.1858
 20
4.6037
 10
229.9298
 20
4.4385
 10
229.6621
 20
4.3099
 10
229.3825
 20
4.2181
 10
229.0911
 20
4.163
 10
228.788
 20
4.1446
 10
228.4497
 20
4.1628
 10
228.1276
 20
4.2174
 10
227.8218
 20
4.3083
 10
227.5323
 20
4.4357
 10
227.2591
 20
4.5994
 10
227.0022
 20
4.7995
 10
226.7616
 20
5.036
 10
226.5373
 20
5.3089
 10
226.4423
 20
5.4414
 10
226.3515
 20
5.5779
 10
226.2648
 20
5.7187
 10
226.1823
 20
5.8635
 10
226.104
 20
6.0125
 10
226.0298
 20
6.1656
 10
225.9599
 20
6.3229
 10
225.8941
 20
6.4843
 10
225.7743
 20
6.8134
 10
225.6697
 20
7.1468
 10
225.5803
 20
7.4843
 10
225.506
 20
7.8258
 10
225.4443
 20
8.1669
 10
225.3923
 20
8.5023
 10
225.35
 20
8.8321
 10
225.3172
 20
9.1563
 10
225.2931
 20
9.4902
 10
225.2758
 20
9.8487
 10
225.2655
 20
10.2315
 10
225.262
 20
10.6382
 10
225.2658
 20
10.8537
 10
225.2773
 20
11.0817
 10
225.2964
 20
11.3224
 10
225.3231
 20
11.5756
 10
225.3574
 20
11.8415
 10
225.3993
 20
12.1201
 10
225.4489
 20
12.4114
 10
225.506
 20
12.7154
 10
225.5795
 20
13.0528
 10
225.6667
 20
13.389
 10
225.7679
 20
13.7237
 10
225.8831
 20
14.0569
 10
225.9463
 20
14.2211
 10
226.014
 20
14.3811
 10
226.0863
 20
14.537
 10
226.163
 20
14.6888
 10
226.2442
 20
14.8364
 10
226.3299
 20
14.9799
 10
226.42
 20
15.1192
 10
226.5146
 20
15.2544
 10
226.6141
 20
15.3842
 10
226.7184
 20
15.5074
 10
226.8276
 20
15.624
 10
226.9416
 20
15.734
 10
227.0605
 20
15.8373
 10
227.1842
 20
15.9341
 10
227.3126
 20
16.0242
 10
227.4459
 20
16.1078
 10
227.5849
 20
16.1832
 10
227.7301
 20
16.2486
 10
227.8815
 20
16.304
 10
228.0392
 20
16.3492
 10
228.2031
 20
16.3844
 10
228.3732
 20
16.4096
 10
228.5496
 20
16.4247
 10
228.7322
 20
16.4297
 10
228.9148
 20
16.4245
 10
229.0912
 20
16.4089
 10
229.2614
 20
16.3829
 10
229.4253
 20
16.3465
 10
229.5829
 20
16.2996
 10
229.7344
 20
16.2424
 10
229.8796
 20
16.1748
 10
230.0186
 20
16.0968
  0
LWPOLYLINE
  5
6D
330
1F
100
AcDbEntity
  8
Layer 1
 62
     7
100
AcDbPolyline
 90
       65
 70
     1
 43
0.0
 10
228.8101
 20
2.5701
 10
229.4574
 20
2.6112
 10
230.0635
 20
2.7344
 10
230.6284
 20
2.9397
 10
231.1521
 20
3.2272
 10
231.6345
 20
3.5967
 10
232.0758
 20
4.0484
 10
232.4758
 20
4.5822
 10
232.8346
 20
5.198
 10
233.0866
 20
5.7355
 10
233.305
 20
6.3028
 10
233.4899
 20
6.8998
 10
233.6411
 20
7.5266
 10
233.7587
 20
8.1832
 10
233.8428
 20
8.8696
 10
233.8932
 20
9.5857
 10
233.91
 20
10.3316
 10
233.8932
 20
11.0775
 10
233.8428
 20
11.7937
 10
233.7587
 20
12.48
 10
233.6411
 20
13.1367
 10
233.4899
 20
13.7635
 10
233.305
 20
14.3605
 10
233.0866
 20
14.9278
 10
232.8346
 20
15.4653
 10
232.4758
 20
16.0811
 10
232.0758
 20
16.6148
 10
231.6345
 20
17.0664
 10
231.1521
 20
17.4358
 10
230.6284
 20
17.7231
 10
230.0635
 20
17.9283
 10
229.4574
 20
18.0515
 10
228.8101
 20
18.0925
 10
228.1626
 20
18.0515
 10
227.5564
 20
17.9283
 10
226.9914
 20
17.7231
 10
226.4676
 20
17.4358
 10
225.9851
 20
17.0664
 10
225.5439
 20
16.6148
 10
225.1438
 20
16.0811
 10
224.785
 20
15.4653
 10
224.533
 20
14.9278
 10
224.3146
 20
14.3605
 10
224.1297
 20
13.7635
 10
223.9785
 20
13.1367
 10
223.8609
 20
12.48
 10
223.7768
 20
11.7937
 10
223.7264
 20
11.0775
 10
223.7096
 20
10.3316
 10
223.7264
 20
9.5857
 10
223.7768
 20
8.8696
 10
223.8609
 20
8.1832
 10
223.9785
 20
7.5266
 10
224.1297
 20
6.8998
 10
224.3146
 20
6.3028
 10
224.533
 20
5.7355
 10
224.785
 20
5.198
 10
225.1438
 20
4.5822
 10
225.5439
 20
4.0484
 10
225.9851
 20
3.5967
 10
226.4676
 20
3.2272
 10
226.9914
 20
2.9397
 10
227.5564
 20
2.7344
 10
228.1626
 20
2.6112
 10
228.8101
 20
2.5701
  0
LWPOLYLINE
  5
6E
330
1F
100
AcDbEntity
  8
Layer 1
 62
     7
100
AcDbPolyline
 90
      162
 70
     1
 43
0.0
 10
249.0559
 20
2.8141
 10
250.6077
 20
2.8141
 10
250.6077
 20
8.9122
 10
250.5951
 20
9.3172
 10
250.5571
 20
9.7031
 10
250.4939
 20
10.0698
 10
250.4054
 20
10.4175
 10
250.2916
 20
10.7462
 10
250.1525
 20
11.0557
 10
249.9881
 20
11.3463
 10
249.7984
 20
11.6179
 10
249.6926
 20
11.7475
 10
249.5802
 20
11.8706
 10
249.4612
 20
11.9871
 10
249.3357
 20
12.0971
 10
249.2036
 20
12.2005
 10
249.0649
 20
12.2973
 10
248.9196
 20
12.3876
 10
248.7677
 20
12.4714
 10
248.6061
 20
12.5468
 10
248.432
 20
12.6121
 10
248.2456
 20
12.6674
 10
248.0467
 20
12.7125
 10
247.8353
 20
12.7476
 10
247.6115
 20
12.7727
 10
247.3752
 20
12.7877
 10
247.1264
 20
12.7927
 10
246.8754
 20
12.784
 10
246.6324
 20
12.7581
 10
246.3974
 20
12.7148
 10
246.1703
 20
12.6542
 10
245.9512
 20
12.5762
 10
245.7401
 20
12.481
 10
245.5369
 20
12.3684
 10
245.3416
 20
12.2384
 10
245.1721
 20
12.1089
 10
245.0102
 20
11.9699
 10
244.8559
 20
11.8212
 10
244.7093
 20
11.6632
 10
244.5704
 20
11.4957
 10
244.4391
 20
11.319
 10
244.3154
 20
11.133
 10
244.1994
 20
10.938
 10
244.1092
 20
11.1178
 10
244.0108
 20
11.2915
 10
243.9042
 20
11.4585
 10
243.7892
 20
11.6179
 10
243.6834
 20
11.7475
 10
243.5709
 20
11.8706
 10
243.4519
 20
11.9871
 10
243.3262
 20
12.0971
 10
243.194
 20
12.2005
 10
243.0552
 20
12.2973
 10
242.9098
 20
12.3876
 10
242.7579
 20
12.4714
 10
242.5965
 20
12.5468
 10
242.4226
 20
12.6121
 10
242.2362
 20
12.6674
 10
242.0374
 20
12.7125
 10
241.826
 20
12.7476
 10
241.6022
 20
12.7727
 10
241.366
 20
12.7877
 10
241.1172
 20
12.7927
 10
240.8662
 20
12.784
 10
240.6231
 20
12.7581
 10
240.388
 20
12.7148
 10
240.1608
 20
12.6542
 10
239.9416
 20
12.5762
 10
239.7304
 20
12.481
 10
239.5271
 20
12.3684
 10
239.3318
 20
12.2384
 10
239.1704
 20
12.1151
 10
239.0159
 20
11.9835
 10
238.8683
 20
11.8434
 10
238.7277
 20
11.6949
 10
238.5939
 20
11.5378
 10
238.4672
 20
11.3722
 10
238.3473
 20
11.198
 10
238.2344
 20
11.0152
 10
238.2344
 20
12.5713
 10
236.6825
 20
12.5713
 10
236.6825
 20
2.8141
 10
238.2344
 20
2.8141
 10
238.2344
 20
7.8074
 10
238.2705
 20
8.0983
 10
238.3176
 20
8.3778
 10
238.3758
 20
8.6461
 10
238.4451
 20
8.9032
 10
238.5255
 20
9.1492
 10
238.617
 20
9.3842
 10
238.7196
 20
9.6083
 10
238.8334
 20
9.8215
 10
238.9259
 20
9.9733
 10
239.026
 20
10.1181
 10
239.1338
 20
10.256
 10
239.2491
 20
10.387
 10
239.3721
 20
10.5111
 10
239.5027
 20
10.6282
 10
239.6409
 20
10.7384
 10
239.7868
 20
10.8417
 10
239.9378
 20
10.9353
 10
240.0917
 20
11.0163
 10
240.2483
 20
11.0849
 10
240.4076
 20
11.1411
 10
240.5698
 20
11.1848
 10
240.7348
 20
11.2159
 10
240.9025
 20
11.2347
 10
241.0731
 20
11.2409
 10
241.2393
 20
11.2376
 10
241.3945
 20
11.2277
 10
241.5386
 20
11.2112
 10
241.6717
 20
11.1881
 10
241.7936
 20
11.1584
 10
241.9044
 20
11.1222
 10
242.0041
 20
11.0794
 10
242.0927
 20
11.03
 10
242.3162
 20
10.8647
 10
242.5099
 20
10.671
 10
242.6738
 20
10.449
 10
242.8078
 20
10.1985
 10
242.9121
 20
9.9195
 10
242.9865
 20
9.6122
 10
243.0312
 20
9.2764
 10
243.0461
 20
8.9122
 10
243.0461
 20
2.8141
 10
244.5985
 20
2.8141
 10
244.5985
 20
8.9122
 10
244.5875
 20
9.2856
 10
244.8425
 20
9.8215
 10
244.9351
 20
9.9733
 10
245.0352
 20
10.1181
 10
245.1429
 20
10.256
 10
245.2583
 20
10.387
 10
245.3813
 20
10.5111
 10
245.5118
 20
10.6282
 10
245.6501
 20
10.7384
 10
245.7959
 20
10.8417
 10
245.947
 20
10.9353
 10
246.1008
 20
11.0163
 10
246.2574
 20
11.0849
 10
246.4168
 20
11.1411
 10
246.579
 20
11.1848
 10
246.744
 20
11.2159
 10
246.9117
 20
11.2347
 10
247.0823
 20
11.2409
 10
247.2485
 20
11.2376
 10
247.4037
 20
11.2277
 10
247.5478
 20
11.2112
 10
247.6809
 20
11.1881
 10
247.8029
 20
11.1584
 10
247.9138
 20
11.1222
 10
248.0137
 20
11.0794
 10
248.1025
 20
11.03
 10
248.3258
 20
10.8647
 10
248.5194
 20
10.671
 10
248.6833
 20
10.449
 10
248.8174
 20
10.1985
 10
248.9217
 20
9.9195
 10
248.9963
 20
9.6122
 10
249.041
 20
9.2764
 10
249.0559
 20
8.9122
 10
249.0559
 20
2.8141
  0
LWPOLYLINE
  5
6F
330
1F
100
AcDbEntity
  8
Layer 1
 62
     7
100
AcDbPolyline
 90
      162
 70
     1
 43
0.0
 10
265.9749
 20
2.8141
 10
267.5267
 20
2.8141
 10
267.5267
 20
8.9122
 10
267.5141
 20
9.3172
 10
267.4761
 20
9.7031
 10
267.4129
 20
10.0698
 10
267.3244
 20
10.4175
 10
267.2106
 20
10.7462
 10
267.0715
 20
11.0557
 10
266.9071
 20
11.3463
 10
266.7174
 20
11.6179
 10
266.6116
 20
11.7475
 10
266.4992
 20
11.8706
 10
266.3802
 20
11.9871
 10
266.2547
 20
12.0971
 10
266.1226
 20
12.2005
 10
265.9839
 20
12.2973
 10
265.8386
 20
12.3876
 10
265.6867
 20
12.4714
 10
265.5251
 20
12.5468
 10
265.351
 20
12.6121
 10
265.1646
 20
12.6674
 10
264.9657
 20
12.7125
 10
264.7543
 20
12.7476
 10
264.5305
 20
12.7727
 10
264.2942
 20
12.7877
 10
264.0454
 20
12.7927
 10
263.7944
 20
12.784
 10
263.5514
 20
12.7581
 10
263.3164
 20
12.7148
 10
263.0893
 20
12.6542
 10
262.8702
 20
12.5762
 10
262.6591
 20
12.481
 10
262.4559
 20
12.3684
 10
262.2606
 20
12.2384
 10
262.0911
 20
12.1089
 10
261.9292
 20
11.9699
 10
261.7749
 20
11.8212
 10
261.6283
 20
11.6632
 10
261.4894
 20
11.4957
 10
261.3581
 20
11.319
 10
261.2344
 20
11.133
 10
261.1184
 20
10.938
 10
261.0282
 20
11.1178
 10
260.9298
 20
11.2915
 10
260.8232
 20
11.4585
 10
260.7082
 20
11.6179
 10
260.6024
 20
11.7475
 10
260.4899
 20
11.8706
 10
260.3709
 20
11.9871
 10
260.2452
 20
12.0971
 10
260.113
 20
12.2005
 10
259.9742
 20
12.2973
 10
259.8288
 20
12.3876
 10
259.6769
 20
12.4714
 10
259.5155
 20
12.5468
 10
259.3416
 20
12.6121
 10
259.1552
 20
12.6674
 10
258.9564
 20
12.7125
 10
258.745
 20
12.7476
 10
258.5212
 20
12.7727
 10
258.285
 20
12.7877
 10
258.0362
 20
12.7927
 10
257.7852
 20
12.784
 10
257.5421
 20
12.7581
 10
257.307
 20
12.7148
 10
257.0799
 20
12.6542
 10
256.8607
 20
12.5762
 10
256.6494
 20
12.481
 10
256.4461
 20
12.3684
 10
256.2508
 20
12.2384
 10
256.0894
 20
12.1151
 10
255.9349
 20
11.9835
 10
255.7873
 20
11.8434
 10
255.6467
 20
11.6949
 10
255.5129
 20
11.5378
 10
255.3862
 20
11.3722
 10
255.2663
 20
11.198
 10
255.1534
 20
11.0152
 10
255.1534
 20
12.5713
 10
253.6016
 20
12.5713
 10
253.6016
 20
2.8141
 10
255.1534
 20
2.8141
 10
255.1534
 20
7.8074
 10
255.1895
 20
8.0983
 10
255.2366
 20
8.3778
 10
255.2948
 20
8.6461
 10
255.3641
 20
8.9032
 10
255.4445
 20
9.1492
 10
255.536
 20
9.3842
 10
255.6386
 20
9.6083
 10
255.7524
 20
9.8215
 10
255.8449
 20
9.9733
 10
255.945
 20
10.1181
 10
256.0528
 20
10.256
 10
256.1681
 20
10.387
 10
256.2911
 20
10.5111
 10
256.4217
 20
10.6282
 10
256.5599
 20
10.7384
 10
256.7058
 20
10.8417
 10
256.8568
 20
10.9353
 10
257.0107
 20
11.0163
 10
257.1673
 20
11.0849
 10
257.3266
 20
11.1411
 10
257.4888
 20
11.1848
 10
257.6538
 20
11.2159
 10
257.8215
 20
11.2347
 10
257.9921
 20
11.2409
 10
258.1583
 20
11.2376
 10
258.3135
 20
11.2277
 10
258.4576
 20
11.2112
 10
258.5907
 20
11.1881
 10
258.7126
 20
11.1584
 10
258.8234
 20
11.1222
 10
258.9231
 20
11.0794
 10
259.0117
 20
11.03
 10
259.2352
 20
10.8647
 10
259.4289
 20
10.671
 10
259.5928
 20
10.449
 10
259.7268
 20
10.1985
 10
259.8311
 20
9.9195
 10
259.9055
 20
9.6122
 10
259.9502
 20
9.2764
 10
259.9651
 20
8.9122
 10
259.9651
 20
2.8141
 10
261.5175
 20
2.8141
 10
261.5175
 20
8.9122
 10
261.5065
 20
9.2856
 10
261.7616
 20
9.8215
 10
261.8541
 20
9.9733
 10
261.9542
 20
10.1181
 10
262.062
 20
10.256
 10
262.1773
 20
10.387
 10
262.3003
 20
10.5111
 10
262.4309
 20
10.6282
 10
262.5691
 20
10.7384
 10
262.715
 20
10.8417
 10
262.866
 20
10.9353
 10
263.0199
 20
11.0163
 10
263.1765
 20
11.0849
 10
263.3358
 20
11.1411
 10
263.498
 20
11.1848
 10
263.663
 20
11.2159
 10
263.8307
 20
11.2347
 10
264.0013
 20
11.2409
 10
264.1675
 20
11.2376
 10
264.3227
 20
11.2277
 10
264.4669
 20
11.2112
 10
264.5999
 20
11.1881
 10
264.7219
 20
11.1584
 10
264.8329
 20
11.1222
 10
264.9327
 20
11.0794
 10
265.0215
 20
11.03
 10
265.2448
 20
10.8647
 10
265.4384
 20
10.671
 10
265.6023
 20
10.449
 10
265.7364
 20
10.1985
 10
265.8407
 20
9.9195
 10
265.9153
 20
9.6122
 10
265.96
 20
9.2764
 10
265.9749
 20
8.9122
 10
265.9749
 20
2.8141
  0
LWPOLYLINE
  5
70
330
1F
100
AcDbEntity
  8
Layer 1
 62
     7
370
    35
100
AcDbPolyline
 90
        4
 70
     0
 43
0.0
 10
721.7498
 20
-57.0237
 10
698.5871
 20
-57.0237
 10
698.5871
 20
86.0999
 10
720.8238
 20
86.0999
  0
LWPOLYLINE
  5
71
330
1F
100
AcDbEntity
  8
Layer 1
 62
     7
370
    35
100
AcDbPolyline
 90
        2
 70
     0
 43
0.0
 10
700.0445
 20
-55.3811
 10
697.4845
 20
-58.2783
  0
LWPOLYLINE
  5
72
330
1F
100
AcDbEntity
  8
Layer 1
 62
     7
370
    35
100
AcDbPolyline
 90
        2
 70
     0
 43
0.0
 10
700.073
 20
87.5483
 10
697.5134
 20
84.6515
  0
LWPOLYLINE
  5
73
330
1F
100
AcDbEntity
  8
Layer 1
 62
     7
100
AcDbPolyline
 90
      137
 70
     1
 43
0.0
 10
642.3079
 20
8.6926
 10
642.4833
 20
8.7712
 10
642.6534
 20
8.8569
 10
642.8181
 20
8.9495
 10
642.9775
 20
9.0491
 10
643.1315
 20
9.1556
 10
643.2802
 20
9.2691
 10
643.4236
 20
9.3896
 10
643.5616
 20
9.517
 10
643.8332
 20
9.8053
 10
644.0687
 20
10.1097
 10
644.2679
 20
10.4301
 10
644.4309
 20
10.7666
 10
644.5577
 20
11.1192
 10
644.6483
 20
11.4879
 10
644.7027
 20
11.8727
 10
644.7208
 20
12.2737
 10
644.7024
 20
12.675
 10
644.6473
 20
13.0606
 10
644.5553
 20
13.4307
 10
644.4267
 20
13.7852
 10
644.2612
 20
14.1242
 10
644.059
 20
14.4475
 10
643.8201
 20
14.7552
 10
643.5445
 20
15.0474
 10
643.2594
 20
15.2997
 10
642.956
 20
15.5219
 10
642.6344
 20
15.7141
 10
642.2947
 20
15.8762
 10
641.9366
 20
16.0082
 10
641.5604
 20
16.1101
 10
641.1659
 20
16.1819
 10
640.7532
 20
16.2237
 10
640.2379
 20
15.9146
 10
643.8964
 20
20.2431
 10
637.6104
 20
20.2431
 10
637.6104
 20
19.0407
 10
641.4574
 20
19.0407
 10
637.9196
 20
14.9188
 10
638.8299
 20
14.1803
 10
639.0408
 20
14.3735
 10
639.2613
 20
14.5409
 10
639.4915
 20
14.6826
 10
639.7314
 20
14.7985
 10
639.9809
 20
14.8887
 10
640.2402
 20
14.9531
 10
640.5092
 20
14.9918
 10
640.7878
 20
15.0047
 10
641.0659
 20
14.9922
 10
641.3336
 20
14.9548
 10
641.5908
 20
14.8923
 10
641.8375
 20
14.805
 10
642.0738
 20
14.6926
 10
642.2997
 20
14.5554
 10
642.5151
 20
14.3931
 10
642.7201
 20
14.206
 10
642.9072
 20
14.0014
 10
643.0694
 20
13.7868
 10
643.2066
 20
13.5623
 10
643.3189
 20
13.3278
 10
643.4062
 20
13.0834
 10
643.4685
 20
12.8291
 10
643.5059
 20
12.5649
 10
643.5184
 20
12.2908
 10
643.5057
 20
12.0227
 10
643.4674
 20
11.7637
 10
643.4037
 20
11.5139
 10
643.3145
 20
11.2732
 10
643.1998
 20
11.0416
 10
643.0596
 20
10.8192
 10
642.8938
 20
10.6059
 10
642.7025
 20
10.4017
 10
642.6082
 20
10.3139
 10
642.5099
 20
10.2306
 10
642.4076
 20
10.1518
 10
642.3012
 20
10.0776
 10
642.1907
 20
10.0079
 10
642.0763
 20
9.9428
 10
641.9579
 20
9.8822
 10
641.8354
 20
9.8261
 10
641.7077
 20
9.7759
 10
641.5736
 20
9.7323
 10
641.4329
 20
9.6954
 10
641.2859
 20
9.6652
 10
641.1323
 20
9.6417
 10
640.9724
 20
9.6249
 10
640.8059
 20
9.6149
 10
640.633
 20
9.6115
 10
640.457
 20
9.6189
 10
640.281
 20
9.6411
 10
640.105
 20
9.678
 10
639.929
 20
9.7297
 10
639.753
 20
9.7962
 10
639.577
 20
9.8774
 10
639.401
 20
9.9733
 10
639.225
 20
10.084
 10
639.0553
 20
10.2073
 10
638.8986
 20
10.341
 10
638.7547
 20
10.4853
 10
638.6237
 20
10.64
 10
638.5057
 20
10.8051
 10
638.4005
 20
10.9807
 10
638.3081
 20
11.1668
 10
638.2287
 20
11.3633
 10
637.061
 20
10.9682
 10
637.1719
 20
10.6884
 10
637.3029
 20
10.4219
 10
637.4541
 20
10.1689
 10
637.6255
 20
9.9293
 10
637.8169
 20
9.7031
 10
638.0286
 20
9.4902
 10
638.2603
 20
9.2908
 10
638.5122
 20
9.1048
 10
638.636
 20
9.0234
 10
638.7627
 20
8.9465
 10
638.8924
 20
8.8742
 10
639.0251
 20
8.8064
 10
639.1607
 20
8.7432
 10
639.2993
 20
8.6845
 10
639.4409
 20
8.6305
 10
639.5854
 20
8.581
 10
639.7334
 20
8.5368
 10
639.8855
 20
8.4984
 10
640.0415
 20
8.4659
 10
640.2016
 20
8.4393
 10
640.3658
 20
8.4186
 10
640.5339
 20
8.4038
 10
640.7061
 20
8.395
 10
640.8823
 20
8.392
 10
641.0604
 20
8.3967
 10
641.2386
 20
8.4108
 10
641.4167
 20
8.4343
 10
641.595
 20
8.4672
 10
641.7732
 20
8.5094
 10
641.9514
 20
8.5611
 10
642.1297
 20
8.6221
 10
642.3079
 20
8.6926
  0
LWPOLYLINE
  5
74
330
1F
100
AcDbEntity
  8
Layer 1
 62
     7
100
AcDbPolyline
 90
       92
 70
     1
 43
0.0
 10
650.8609
 20
18.8859
 10
651.0592
 20
18.7512
 10
651.2441
 20
18.5983
 10
651.4155
 20
18.4271
 10
651.5736
 20
18.2377
 10
651.7183
 20
18.03
 10
651.8496
 20
17.804
 10
651.9674
 20
17.5598
 10
652.0719
 20
17.2974
 10
652.1886
 20
16.9492
 10
652.2897
 20
16.5959
 10
652.3752
 20
16.2374
 10
652.4452
 20
15.8739
 10
652.4996
 20
15.5053
 10
652.5384
 20
15.1315
 10
652.5617
 20
14.7527
 10
652.5695
 20
14.3688
 10
652.5183
 20
13.5188
 10
652.4588
 20
13.0571
 10
652.3809
 20
12.6209
 10
652.2848
 20
12.2102
 10
652.1704
 20
11.825
 10
652.0378
 20
11.4652
 10
651.8869
 20
11.1309
 10
651.7178
 20
10.8222
 10
651.5305
 20
10.5389
 10
651.3596
 20
10.3255
 10
651.1796
 20
10.1406
 10
650.9905
 20
9.9842
 10
650.7922
 20
9.8562
 10
650.5848
 20
9.7566
 10
650.3683
 20
9.6855
 10
650.1427
 20
9.6428
 10
649.9079
 20
9.6286
 10
649.6458
 20
9.6427
 10
649.3963
 20
9.685
 10
649.1595
 20
9.7554
 10
648.9353
 20
9.8541
 10
648.7237
 20
9.9809
 10
648.5247
 20
10.1359
 10
648.3383
 20
10.319
 10
648.1646
 20
10.5304
 10
648.0207
 20
10.7387
 10
647.8897
 20
10.9599
 10
647.7716
 20
11.1939
 10
647.6664
 20
11.4407
 10
647.5736
 20
11.6956
 10
647.4926
 20
11.9538
 10
647.4233
 20
12.2152
 10
647.3658
 20
12.4798
 10
647.2196
 20
13.5103
 10
647.1768
 20
14.658
 10
647.1798
 20
14.8249
 10
647.1886
 20
15.0016
 10
647.2034
 20
15.188
 10
647.2241
 20
15.3841
 10
647.2507
 20
15.5901
 10
647.2832
 20
15.8058
 10
647.3216
 20
16.0314
 10
647.3658
 20
16.2669
 10
647.4227
 20
16.5282
 10
647.4903
 20
16.7886
 10
647.5687
 20
17.0479
 10
647.6579
 20
17.306
 10
647.7593
 20
17.5571
 10
647.8747
 20
17.7954
 10
648.0039
 20
18.0208
 10
648.147
 20
18.2334
 10
648.224
 20
18.334
 10
648.3049
 20
18.4294
 10
648.3894
 20
18.5197
 10
648.4778
 20
18.6049
 10
648.5698
 20
18.6849
 10
648.6656
 20
18.7599
 10
648.7651
 20
18.8297
 10
648.8683
 20
18.8944
 10
648.976
 20
18.9529
 10
649.0884
 20
19.0035
 10
649.2057
 20
19.0464
 10
649.3278
 20
19.0815
 10
649.4548
 20
19.1087
 10
649.5865
 20
19.1282
 10
649.7231
 20
19.1399
 10
649.8646
 20
19.1438
 10
650.0061
 20
19.1398
 10
650.1427
 20
19.1277
 10
650.2745
 20
19.1075
 10
650.4014
 20
19.0793
 10
650.5235
 20
19.043
 10
650.6408
 20
18.9987
 10
650.7533
 20
18.9463
 10
650.8609
 20
18.8859
  0
LWPOLYLINE
  5
75
330
1F
100
AcDbEntity
  8
Layer 1
 62
     7
100
AcDbPolyline
 90
       65
 70
     1
 43
0.0
 10
649.925
 20
8.4091
 10
650.4264
 20
8.4409
 10
650.8958
 20
8.5363
 10
651.3333
 20
8.6954
 10
651.7389
 20
8.918
 10
652.1126
 20
9.2042
 10
652.4543
 20
9.554
 10
652.7642
 20
9.9674
 10
653.0421
 20
10.4444
 10
653.2373
 20
10.8607
 10
653.4064
 20
11.3001
 10
653.5496
 20
11.7625
 10
653.6667
 20
12.248
 10
653.7578
 20
12.7566
 10
653.8229
 20
13.2882
 10
653.862
 20
13.8429
 10
653.875
 20
14.4206
 10
653.862
 20
14.9983
 10
653.8229
 20
15.553
 10
653.7578
 20
16.0846
 10
653.6667
 20
16.5932
 10
653.5496
 20
17.0787
 10
653.4064
 20
17.5411
 10
653.2373
 20
17.9805
 10
653.0421
 20
18.3968
 10
652.7642
 20
18.8738
 10
652.4543
 20
19.2871
 10
652.1126
 20
19.6368
 10
651.7389
 20
19.923
 10
651.3333
 20
20.1455
 10
650.8958
 20
20.3044
 10
650.4264
 20
20.3998
 10
649.925
 20
20.4316
 10
649.4235
 20
20.3998
 10
648.9539
 20
20.3044
 10
648.5163
 20
20.1455
 10
648.1106
 20
19.923
 10
647.7369
 20
19.6368
 10
647.3951
 20
19.2871
 10
647.0853
 20
18.8738
 10
646.8074
 20
18.3968
 10
646.6122
 20
17.9805
 10
646.443
 20
17.5411
 10
646.2998
 20
17.0787
 10
646.1827
 20
16.5932
 10
646.0916
 20
16.0846
 10
646.0265
 20
15.553
 10
645.9874
 20
14.9983
 10
645.9744
 20
14.4206
 10
645.9874
 20
13.8429
 10
646.0265
 20
13.2882
 10
646.0916
 20
12.7566
 10
646.1827
 20
12.248
 10
646.2998
 20
11.7625
 10
646.443
 20
11.3001
 10
646.6122
 20
10.8607
 10
646.8074
 20
10.4444
 10
647.0853
 20
9.9674
 10
647.3951
 20
9.554
 10
647.7369
 20
9.2042
 10
648.1106
 20
8.918
 10
648.5163
 20
8.6954
 10
648.9539
 20
8.5363
 10
649.4235
 20
8.4409
 10
649.925
 20
8.4091
  0
LWPOLYLINE
  5
76
330
1F
100
AcDbEntity
  8
Layer 1
 62
     7
100
AcDbPolyline
 90
       92
 70
     1
 43
0.0
 10
660.4791
 20
18.8859
 10
660.6774
 20
18.7512
 10
660.8623
 20
18.5983
 10
661.0337
 20
18.4271
 10
661.1918
 20
18.2377
 10
661.3365
 20
18.03
 10
661.4678
 20
17.804
 10
661.5856
 20
17.5598
 10
661.6901
 20
17.2974
 10
661.8068
 20
16.9492
 10
661.9079
 20
16.5959
 10
661.9934
 20
16.2374
 10
662.0634
 20
15.8739
 10
662.1178
 20
15.5053
 10
662.1566
 20
15.1315
 10
662.1799
 20
14.7527
 10
662.1877
 20
14.3688
 10
662.1364
 20
13.5188
 10
662.0769
 20
13.0571
 10
661.9991
 20
12.6209
 10
661.903
 20
12.2102
 10
661.7886
 20
11.825
 10
661.656
 20
11.4652
 10
661.5051
 20
11.1309
 10
661.336
 20
10.8222
 10
661.1487
 20
10.5389
 10
660.9778
 20
10.3255
 10
660.7978
 20
10.1406
 10
660.6087
 20
9.9842
 10
660.4104
 20
9.8562
 10
660.203
 20
9.7566
 10
659.9865
 20
9.6855
 10
659.7608
 20
9.6428
 10
659.526
 20
9.6286
 10
659.2639
 20
9.6427
 10
659.0145
 20
9.685
 10
658.7776
 20
9.7554
 10
658.5534
 20
9.8541
 10
658.3418
 20
9.9809
 10
658.1428
 20
10.1359
 10
657.9565
 20
10.319
 10
657.7828
 20
10.5304
 10
657.6389
 20
10.7387
 10
657.5079
 20
10.9599
 10
657.3898
 20
11.1939
 10
657.2846
 20
11.4407
 10
657.1918
 20
11.6956
 10
657.1108
 20
11.9538
 10
657.0415
 20
12.2152
 10
656.984
 20
12.4798
 10
656.8378
 20
13.5103
 10
656.795
 20
14.658
 10
656.798
 20
14.8249
 10
656.8068
 20
15.0016
 10
656.8216
 20
15.188
 10
656.8423
 20
15.3841
 10
656.8689
 20
15.5901
 10
656.9014
 20
15.8058
 10
656.9398
 20
16.0314
 10
656.984
 20
16.2669
 10
657.0409
 20
16.5282
 10
657.1085
 20
16.7886
 10
657.1868
 20
17.0479
 10
657.2761
 20
17.306
 10
657.3775
 20
17.5571
 10
657.4929
 20
17.7954
 10
657.6221
 20
18.0208
 10
657.7652
 20
18.2334
 10
657.8422
 20
18.334
 10
657.9231
 20
18.4294
 10
658.0076
 20
18.5197
 10
658.096
 20
18.6049
 10
658.188
 20
18.6849
 10
658.2838
 20
18.7599
 10
658.3833
 20
18.8297
 10
658.4865
 20
18.8944
 10
658.5942
 20
18.9529
 10
658.7066
 20
19.0035
 10
658.8239
 20
19.0464
 10
658.946
 20
19.0815
 10
659.073
 20
19.1087
 10
659.2047
 20
19.1282
 10
659.3413
 20
19.1399
 10
659.4828
 20
19.1438
 10
659.6243
 20
19.1398
 10
659.7609
 20
19.1277
 10
659.8927
 20
19.1075
 10
660.0196
 20
19.0793
 10
660.1417
 20
19.043
 10
660.259
 20
18.9987
 10
660.3715
 20
18.9463
 10
660.4791
 20
18.8859
  0
LWPOLYLINE
  5
77
330
1F
100
AcDbEntity
  8
Layer 1
 62
     7
100
AcDbPolyline
 90
       65
 70
     1
 43
0.0
 10
659.5431
 20
8.4091
 10
660.0445
 20
8.4409
 10
660.5139
 20
8.5363
 10
660.9515
 20
8.6954
 10
661.3571
 20
8.918
 10
661.7307
 20
9.2042
 10
662.0725
 20
9.554
 10
662.3823
 20
9.9674
 10
662.6602
 20
10.4444
 10
662.8554
 20
10.8607
 10
663.0246
 20
11.3001
 10
663.1678
 20
11.7625
 10
663.2849
 20
12.248
 10
663.376
 20
12.7566
 10
663.4411
 20
13.2882
 10
663.4802
 20
13.8429
 10
663.4932
 20
14.4206
 10
663.4802
 20
14.9983
 10
663.4411
 20
15.553
 10
663.376
 20
16.0846
 10
663.2849
 20
16.5932
 10
663.1678
 20
17.0787
 10
663.0246
 20
17.5411
 10
662.8554
 20
17.9805
 10
662.6602
 20
18.3968
 10
662.3823
 20
18.8738
 10
662.0725
 20
19.2871
 10
661.7307
 20
19.6368
 10
661.3571
 20
19.923
 10
660.9515
 20
20.1455
 10
660.5139
 20
20.3044
 10
660.0445
 20
20.3998
 10
659.5431
 20
20.4316
 10
659.0416
 20
20.3998
 10
658.572
 20
20.3044
 10
658.1344
 20
20.1455
 10
657.7288
 20
19.923
 10
657.3551
 20
19.6368
 10
657.0133
 20
19.2871
 10
656.7035
 20
18.8738
 10
656.4256
 20
18.3968
 10
656.2304
 20
17.9805
 10
656.0612
 20
17.5411
 10
655.918
 20
17.0787
 10
655.8009
 20
16.5932
 10
655.7098
 20
16.0846
 10
655.6447
 20
15.553
 10
655.6056
 20
14.9983
 10
655.5926
 20
14.4206
 10
655.6056
 20
13.8429
 10
655.6447
 20
13.2882
 10
655.7098
 20
12.7566
 10
655.8009
 20
12.248
 10
655.918
 20
11.7625
 10
656.0612
 20
11.3001
 10
656.2304
 20
10.8607
 10
656.4256
 20
10.4444
 10
656.7035
 20
9.9674
 10
657.0133
 20
9.554
 10
657.3551
 20
9.2042
 10
657.7288
 20
8.918
 10
658.1344
 20
8.6954
 10
658.572
 20
8.5363
 10
659.0416
 20
8.4409
 10
659.5431
 20
8.4091
  0
LWPOLYLINE
  5
78
330
1F
100
AcDbEntity
  8
Layer 1
 62
     7
100
AcDbPolyline
 90
      162
 70
     1
 43
0.0
 10
675.2241
 20
8.5981
 10
676.426
 20
8.5981
 10
676.426
 20
13.3213
 10
676.4162
 20
13.635
 10
676.3868
 20
13.9338
 10
676.3379
 20
14.2179
 10
676.2693
 20
14.4872
 10
676.1812
 20
14.7417
 10
676.0734
 20
14.9815
 10
675.9461
 20
15.2065
 10
675.7992
 20
15.4169
 10
675.7172
 20
15.5173
 10
675.6302
 20
15.6126
 10
675.538
 20
15.7029
 10
675.4408
 20
15.788
 10
675.3385
 20
15.8681
 10
675.2311
 20
15.9431
 10
675.1185
 20
16.013
 10
675.0009
 20
16.0779
 10
674.8757
 20
16.1363
 10
674.7409
 20
16.1869
 10
674.5965
 20
16.2297
 10
674.4424
 20
16.2647
 10
674.2787
 20
16.2919
 10
674.1053
 20
16.3113
 10
673.9223
 20
16.3229
 10
673.7296
 20
16.3268
 10
673.5352
 20
16.3201
 10
673.347
 20
16.3
 10
673.165
 20
16.2665
 10
672.9891
 20
16.2195
 10
672.8194
 20
16.1591
 10
672.6559
 20
16.0854
 10
672.4985
 20
15.9981
 10
672.3473
 20
15.8975
 10
672.216
 20
15.7972
 10
672.0906
 20
15.6895
 10
671.9711
 20
15.5744
 10
671.8576
 20
15.452
 10
671.7499
 20
15.3223
 10
671.6482
 20
15.1854
 10
671.5525
 20
15.0414
 10
671.4626
 20
14.8903
 10
671.3928
 20
15.0295
 10
671.3166
 20
15.1641
 10
671.2339
 20
15.2934
 10
671.1449
 20
15.4169
 10
671.0629
 20
15.5173
 10
670.9758
 20
15.6126
 10
670.8836
 20
15.7029
 10
670.7863
 20
15.788
 10
670.6839
 20
15.8681
 10
670.5764
 20
15.9431
 10
670.4638
 20
16.013
 10
670.3461
 20
16.0779
 10
670.2211
 20
16.1363
 10
670.0864
 20
16.1869
 10
669.942
 20
16.2297
 10
669.788
 20
16.2647
 10
669.6244
 20
16.2919
 10
669.451
 20
16.3113
 10
669.268
 20
16.3229
 10
669.0754
 20
16.3268
 10
668.881
 20
16.3201
 10
668.6927
 20
16.3
 10
668.5106
 20
16.2665
 10
668.3346
 20
16.2195
 10
668.1648
 20
16.1591
 10
668.0012
 20
16.0854
 10
667.8438
 20
15.9981
 10
667.6925
 20
15.8975
 10
667.5675
 20
15.802
 10
667.4478
 20
15.7
 10
667.3335
 20
15.5915
 10
667.2246
 20
15.4765
 10
667.121
 20
15.3548
 10
667.0228
 20
15.2266
 10
666.9299
 20
15.0917
 10
666.8425
 20
14.9501
 10
666.8425
 20
16.1553
 10
665.6406
 20
16.1553
 10
665.6406
 20
8.5981
 10
666.8425
 20
8.5981
 10
666.8425
 20
12.4655
 10
666.8704
 20
12.6908
 10
666.907
 20
12.9073
 10
666.952
 20
13.1151
 10
667.0057
 20
13.3142
 10
667.068
 20
13.5048
 10
667.1388
 20
13.6868
 10
667.2183
 20
13.8603
 10
667.3064
 20
14.0255
 10
667.3781
 20
14.143
 10
667.4556
 20
14.2552
 10
667.5391
 20
14.362
 10
667.6284
 20
14.4635
 10
667.7237
 20
14.5596
 10
667.8248
 20
14.6504
 10
667.9319
 20
14.7357
 10
668.0449
 20
14.8157
 10
668.1619
 20
14.8882
 10
668.281
 20
14.9509
 10
668.4023
 20
15.0041
 10
668.5258
 20
15.0475
 10
668.6514
 20
15.0813
 10
668.7791
 20
15.1055
 10
668.9091
 20
15.12
 10
669.0412
 20
15.1248
 10
669.1699
 20
15.1222
 10
669.2901
 20
15.1146
 10
669.4017
 20
15.1018
 10
669.5048
 20
15.0839
 10
669.5992
 20
15.0609
 10
669.6851
 20
15.0329
 10
669.7623
 20
14.9997
 10
669.8309
 20
14.9615
 10
670.004
 20
14.8335
 10
670.154
 20
14.6835
 10
670.2809
 20
14.5115
 10
670.3848
 20
14.3175
 10
670.4655
 20
14.1015
 10
670.5232
 20
13.8634
 10
670.5578
 20
13.6034
 10
670.5693
 20
13.3213
 10
670.5693
 20
8.5981
 10
671.7717
 20
8.5981
 10
671.7717
 20
13.3213
 10
671.7632
 20
13.6105
 10
671.9607
 20
14.0255
 10
672.0324
 20
14.143
 10
672.1099
 20
14.2552
 10
672.1934
 20
14.362
 10
672.2827
 20
14.4635
 10
672.378
 20
14.5596
 10
672.4791
 20
14.6504
 10
672.5862
 20
14.7357
 10
672.6992
 20
14.8157
 10
672.8162
 20
14.8882
 10
672.9353
 20
14.9509
 10
673.0566
 20
15.0041
 10
673.18
 20
15.0475
 10
673.3056
 20
15.0813
 10
673.4334
 20
15.1055
 10
673.5634
 20
15.12
 10
673.6955
 20
15.1248
 10
673.8242
 20
15.1222
 10
673.9444
 20
15.1146
 10
674.056
 20
15.1018
 10
674.1591
 20
15.0839
 10
674.2536
 20
15.0609
 10
674.3395
 20
15.0329
 10
674.4169
 20
14.9997
 10
674.4857
 20
14.9615
 10
674.6587
 20
14.8335
 10
674.8086
 20
14.6835
 10
674.9355
 20
14.5115
 10
675.0394
 20
14.3175
 10
675.1202
 20
14.1015
 10
675.1779
 20
13.8634
 10
675.2125
 20
13.6034
 10
675.2241
 20
13.3213
 10
675.2241
 20
8.5981
  0
LWPOLYLINE
  5
79
330
1F
100
AcDbEntity
  8
Layer 1
 62
     7
100
AcDbPolyline
 90
      162
 70
     1
 43
0.0
 10
688.3283
 20
8.5981
 10
689.5303
 20
8.5981
 10
689.5303
 20
13.3213
 10
689.5205
 20
13.635
 10
689.4911
 20
13.9338
 10
689.4421
 20
14.2179
 10
689.3736
 20
14.4872
 10
689.2854
 20
14.7417
 10
689.1777
 20
14.9815
 10
689.0503
 20
15.2065
 10
688.9034
 20
15.4169
 10
688.8214
 20
15.5173
 10
688.7344
 20
15.6126
 10
688.6423
 20
15.7029
 10
688.5451
 20
15.788
 10
688.4428
 20
15.8681
 10
688.3353
 20
15.9431
 10
688.2228
 20
16.013
 10
688.1052
 20
16.0779
 10
687.98
 20
16.1363
 10
687.8451
 20
16.1869
 10
687.7007
 20
16.2297
 10
687.5466
 20
16.2647
 10
687.3829
 20
16.2919
 10
687.2095
 20
16.3113
 10
687.0265
 20
16.3229
 10
686.8339
 20
16.3268
 10
686.6395
 20
16.3201
 10
686.4513
 20
16.3
 10
686.2693
 20
16.2665
 10
686.0934
 20
16.2195
 10
685.9237
 20
16.1591
 10
685.7601
 20
16.0854
 10
685.6027
 20
15.9981
 10
685.4515
 20
15.8975
 10
685.3202
 20
15.7972
 10
685.1948
 20
15.6895
 10
685.0754
 20
15.5744
 10
684.9618
 20
15.452
 10
684.8542
 20
15.3223
 10
684.7525
 20
15.1854
 10
684.6567
 20
15.0414
 10
684.5668
 20
14.8903
 10
684.497
 20
15.0295
 10
684.4208
 20
15.1641
 10
684.3381
 20
15.2934
 10
684.2491
 20
15.4169
 10
684.1671
 20
15.5173
 10
684.0801
 20
15.6126
 10
683.9879
 20
15.7029
 10
683.8906
 20
15.788
 10
683.7881
 20
15.8681
 10
683.6806
 20
15.9431
 10
683.5681
 20
16.013
 10
683.4504
 20
16.0779
 10
683.3254
 20
16.1363
 10
683.1907
 20
16.1869
 10
683.0463
 20
16.2297
 10
682.8923
 20
16.2647
 10
682.7286
 20
16.2919
 10
682.5553
 20
16.3113
 10
682.3723
 20
16.3229
 10
682.1796
 20
16.3268
 10
681.9852
 20
16.3201
 10
681.7969
 20
16.3
 10
681.6148
 20
16.2665
 10
681.4389
 20
16.2195
 10
681.2691
 20
16.1591
 10
681.1055
 20
16.0854
 10
680.9481
 20
15.9981
 10
680.7968
 20
15.8975
 10
680.6718
 20
15.802
 10
680.5521
 20
15.7
 10
680.4378
 20
15.5915
 10
680.3289
 20
15.4765
 10
680.2253
 20
15.3548
 10
680.1271
 20
15.2266
 10
680.0342
 20
15.0917
 10
679.9468
 20
14.9501
 10
679.9468
 20
16.1553
 10
678.7448
 20
16.1553
 10
678.7448
 20
8.5981
 10
679.9468
 20
8.5981
 10
679.9468
 20
12.4655
 10
679.9747
 20
12.6908
 10
680.0112
 20
12.9073
 10
680.0563
 20
13.1151
 10
680.11
 20
13.3142
 10
680.1722
 20
13.5048
 10
680.2431
 20
13.6868
 10
680.3226
 20
13.8603
 10
680.4107
 20
14.0255
 10
680.4824
 20
14.143
 10
680.5599
 20
14.2552
 10
680.6434
 20
14.362
 10
680.7327
 20
14.4635
 10
680.828
 20
14.5596
 10
680.9291
 20
14.6504
 10
681.0361
 20
14.7357
 10
681.1491
 20
14.8157
 10
681.2661
 20
14.8882
 10
681.3853
 20
14.9509
 10
681.5066
 20
15.0041
 10
681.63
 20
15.0475
 10
681.7556
 20
15.0813
 10
681.8834
 20
15.1055
 10
682.0133
 20
15.12
 10
682.1454
 20
15.1248
 10
682.2742
 20
15.1222
 10
682.3944
 20
15.1146
 10
682.506
 20
15.1018
 10
682.609
 20
15.0839
 10
682.7035
 20
15.0609
 10
682.7893
 20
15.0329
 10
682.8666
 20
14.9997
 10
682.9352
 20
14.9615
 10
683.1083
 20
14.8335
 10
683.2583
 20
14.6835
 10
683.3852
 20
14.5115
 10
683.4891
 20
14.3175
 10
683.5698
 20
14.1015
 10
683.6275
 20
13.8634
 10
683.6621
 20
13.6034
 10
683.6736
 20
13.3213
 10
683.6736
 20
8.5981
 10
684.876
 20
8.5981
 10
684.876
 20
13.3213
 10
684.8674
 20
13.6105
 10
685.065
 20
14.0255
 10
685.1367
 20
14.143
 10
685.2142
 20
14.2552
 10
685.2977
 20
14.362
 10
685.387
 20
14.4635
 10
685.4823
 20
14.5596
 10
685.5834
 20
14.6504
 10
685.6904
 20
14.7357
 10
685.8034
 20
14.8157
 10
685.9204
 20
14.8882
 10
686.0396
 20
14.9509
 10
686.1609
 20
15.0041
 10
686.2843
 20
15.0475
 10
686.4099
 20
15.0813
 10
686.5377
 20
15.1055
 10
686.6676
 20
15.12
 10
686.7997
 20
15.1248
 10
686.9285
 20
15.1222
 10
687.0487
 20
15.1146
 10
687.1603
 20
15.1018
 10
687.2634
 20
15.0839
 10
687.3579
 20
15.0609
 10
687.4438
 20
15.0329
 10
687.5211
 20
14.9997
 10
687.5899
 20
14.9615
 10
687.7629
 20
14.8335
 10
687.9128
 20
14.6835
 10
688.0397
 20
14.5115
 10
688.1436
 20
14.3175
 10
688.2244
 20
14.1015
 10
688.2821
 20
13.8634
 10
688.3168
 20
13.6034
 10
688.3283
 20
13.3213
 10
688.3283
 20
8.5981
  0
LWPOLYLINE
  5
7A
330
1F
100
AcDbEntity
  8
Layer 1
 62
     7
370
    35
100
AcDbPolyline
 90
       12
 70
     0
 43
0.0
 10
837.8528
 20
87.5483
 10
764.296
 20
87.5483
 10
738.3249
 20
87.5483
 10
737.7183
 20
56.5182
 10
739.8368
 20
29.4247
 10
744.6498
 20
6.0613
 10
752.1266
 20
-13.7788
 10
762.2366
 20
-30.3021
 10
774.9493
 20
-43.7154
 10
790.2341
 20
-54.2253
 10
808.0603
 20
-62.0384
 10
837.3332
 20
-62.0384
  0
LWPOLYLINE
  5
7B
330
1F
100
AcDbEntity
  8
Layer 1
 62
     7
370
    35
100
AcDbPolyline
 90
       12
 70
     0
 43
0.0
 10
836.8199
 20
87.5483
 10
910.3771
 20
87.5483
 10
936.3477
 20
87.5483
 10
936.9543
 20
56.5182
 10
934.8359
 20
29.4247
 10
930.0231
 20
6.0613
 10
922.5463
 20
-13.7788
 10
912.4363
 20
-30.3021
 10
899.7237
 20
-43.7154
 10
884.439
 20
-54.2253
 10
866.6128
 20
-62.0384
 10
837.3394
 20
-62.0384
  0
ENDSEC
  0
SECTION
  2
OBJECTS
  0
DICTIONARY
  5
C
330
0
100
AcDbDictionary
281
     1
  3
ACAD_DETAILVIEWSTYLE
350
83
  3
ACAD_GROUP
350
D
  3
ACAD_LAYOUT
350
1A
  3
ACAD_MATERIAL
350
43
  3
ACAD_MLEADERSTYLE
350
5B
  3
ACAD_MLINESTYLE
350
17
  3
ACAD_PLOTSETTINGS
350
19
  3
ACAD_PLOTSTYLENAME
350
E
  3
ACAD_SCALELIST
350
47
  3
ACAD_SECTIONVIEWSTYLE
350
84
  3
ACAD_TABLESTYLE
350
59
  3
ACAD_VISUALSTYLE
350
2A
  3
ACDB_RECOMPOSE_DATA
350
80
  3
AcDbVariableDictionary
350
7C
  0
SUN
  5
5D
330
29
100
AcDbSun
 90
        1
290
     0
 63
     7
421
 16777215
 40
1.0
291
     1
 91
  2455826
 92
 54000000
292
     0
 70
     2
 71
   256
280
     1
  0
DICTIONARY
  5
83
102
{ACAD_REACTORS
330
C
102
}
330
C
100
AcDbDictionary
281
     1
  0
DICTIONARY
  5
D
102
{ACAD_REACTORS
330
C
102
}
330
C
100
AcDbDictionary
281
     1
  0
DICTIONARY
  5
1A
102
{ACAD_REACTORS
330
C
102
}
330
C
100
AcDbDictionary
281
     1
  3
Layout1
350
1E
  3
Layout2
350
26
  3
Model
350
22
  0
DICTIONARY
  5
43
102
{ACAD_REACTORS
330
C
102
}
330
C
100
AcDbDictionary
281
     1
  3
ByBlock
350
45
  3
ByLayer
350
44
  3
Global
350
46
  0
DICTIONARY
  5
5B
102
{ACAD_REACTORS
330
C
102
}
330
C
100
AcDbDictionary
281
     1
  3
Standard
350
5C
  0
DICTIONARY
  5
17
102
{ACAD_REACTORS
330
C
102
}
330
C
100
AcDbDictionary
281
     1
  3
Standard
350
18
  0
DICTIONARY
  5
19
102
{ACAD_REACTORS
330
C
102
}
330
C
100
AcDbDictionary
281
     1
  0
ACDBDICTIONARYWDFLT
  5
E
102
{ACAD_REACTORS
330
C
102
}
330
C
100
AcDbDictionary
281
     1
  3
Normal
350
F
100
AcDbDictionaryWithDefault
340
F
  0
DICTIONARY
  5
47
102
{ACAD_REACTORS
330
C
102
}
330
C
100
AcDbDictionary
281
     1
  3
A0
350
48
  3
A1
350
49
  3
A2
350
4A
  3
A3
350
4B
  3
A4
350
4C
  3
A5
350
4D
  3
A6
350
4E
  3
A7
350
4F
  3
A8
350
50
  3
A9
350
51
  3
B1
350
52
  3
B2
350
53
  3
B3
350
54
  3
B4
350
55
  3
B5
350
56
  3
B6
350
57
  3
B7
350
58
  0
DICTIONARY
  5
84
102
{ACAD_REACTORS
330
C
102
}
330
C
100
AcDbDictionary
281
     1
  0
DICTIONARY
  5
59
102
{ACAD_REACTORS
330
C
102
}
330
C
100
AcDbDictionary
281
     1
  3
Standard
350
5A
  0
DICTIONARY
  5
2A
102
{ACAD_REACTORS
330
C
102
}
330
C
100
AcDbDictionary
281
     1
  3
2dWireframe
350
2F
  3
Basic
350
32
  3
Brighten
350
36
  3
ColorChange
350
3A
  3
Conceptual
350
34
  3
Dim
350
35
  3
EdgeColorOff
350
3D
  3
Facepattern
350
39
  3
Flat
350
2B
  3
FlatWithEdges
350
2C
  3
Gouraud
350
2D
  3
GouraudWithEdges
350
2E
  3
Hidden
350
31
  3
JitterOff
350
3B
  3
Linepattern
350
38
  3
OverhangOff
350
3C
  3
Realistic
350
33
  3
Shaded
350
42
  3
Shaded with edges
350
41
  3
Shades of Gray
350
3E
  3
Sketchy
350
3F
  3
Thicken
350
37
  3
Wireframe
350
30
  3
X-Ray
350
40
  0
XRECORD
  5
80
102
{ACAD_REACTORS
330
C
102
}
330
C
100
AcDbXrecord
280
     1
 90
        1
330
5A
  0
DICTIONARY
  5
7C
102
{ACAD_REACTORS
330
C
102
}
330
C
100
AcDbDictionary
281
     1
  3
CANNOSCALE
350
7D
  3
CMLEADERSTYLE
350
82
  3
CTABLESTYLE
350
81
  0
LAYOUT
  5
1E
102
{ACAD_REACTORS
330
1A
102
}
330
1A
100
AcDbPlotSettings
  1

  2
none_device
  4

  6

 40
0.0
 41
0.0
 42
0.0
 43
0.0
 44
0.0
 45
0.0
 46
0.0
 47
0.0
 48
0.0
 49
0.0
140
0.0
141
0.0
142
1.0
143
1.0
 70
   688
 72
     0
 73
     0
 74
     5
  7

 75
    16
 76
     0
 77
     2
 78
   300
147
1.0
148
0.0
149
0.0
100
AcDbLayout
  1
Layout1
 70
     1
 71
     1
 10
0.0
 20
0.0
 11
12.0
 21
9.0
 12
0.0
 22
0.0
 32
0.0
 14
1.000000000000000E+20
 24
1.000000000000000E+20
 34
1.000000000000000E+20
 15
-1.000000000000000E+20
 25
-1.000000000000000E+20
 35
-1.000000000000000E+20
146
0.0
 13
0.0
 23
0.0
 33
0.0
 16
1.0
 26
0.0
 36
0.0
 17
0.0
 27
1.0
 37
0.0
 76
     0
330
1B
  0
LAYOUT
  5
26
102
{ACAD_REACTORS
330
1A
102
}
330
1A
100
AcDbPlotSettings
  1

  2
none_device
  4

  6

 40
0.0
 41
0.0
 42
0.0
 43
0.0
 44
0.0
 45
0.0
 46
0.0
 47
0.0
 48
0.0
 49
0.0
140
0.0
141
0.0
142
1.0
143
1.0
 70
   688
 72
     0
 73
     0
 74
     5
  7

 75
    16
 76
     0
 77
     2
 78
   300
147
1.0
148
0.0
149
0.0
100
AcDbLayout
  1
Layout2
 70
     1
 71
     2
 10
0.0
 20
0.0
 11
0.0
 21
0.0
 12
0.0
 22
0.0
 32
0.0
 14
0.0
 24
0.0
 34
0.0
 15
0.0
 25
0.0
 35
0.0
146
0.0
 13
0.0
 23
0.0
 33
0.0
 16
1.0
 26
0.0
 36
0.0
 17
0.0
 27
1.0
 37
0.0
 76
     0
330
23
  0
LAYOUT
  5
22
102
{ACAD_REACTORS
330
1A
102
}
330
1A
100
AcDbPlotSettings
  1

  2
none_device
  4
Letter_(8.50_x_11.00_Inches)
  6

 40
6.35
 41
6.35
 42
6.35000508
 43
6.35000508
 44
215.9
 45
279.4
 46
0.0
 47
0.0
 48
0.0
 49
0.0
140
0.0
141
0.0
142
1.0
143
1.0
 70
  1712
 72
     0
 73
     0
 74
     0
  7

 75
     0
 76
     0
 77
     2
 78
   300
147
1.0
148
0.0
149
0.0
100
AcDbLayout
  1
Model
 70
     1
 71
     0
 10
0.0
 20
0.0
 11
12.0
 21
9.0
 12
0.0
 22
0.0
 32
0.0
 14
177.7021
 24
-153.7606
 34
0.0
 15
966.882
 25
167.4972
 35
0.0
146
0.0
 13
0.0
 23
0.0
 33
0.0
 16
1.0
 26
0.0
 36
0.0
 17
0.0
 27
1.0
 37
0.0
 76
     0
330
1F
331
29
  0
MATERIAL
  5
45
102
{ACAD_REACTORS
330
43
102
}
330
43
100
AcDbMaterial
  1
ByBlock
 72
     1
 94
      127
  0
MATERIAL
  5
44
102
{ACAD_REACTORS
330
43
102
}
330
43
100
AcDbMaterial
  1
ByLayer
 72
     1
 94
      127
  0
MATERIAL
  5
46
102
{ACAD_REACTORS
330
43
102
}
330
43
100
AcDbMaterial
  1
Global
 72
     1
 94
      127
  0
MLEADERSTYLE
  5
5C
102
{ACAD_REACTORS
330
5B
102
}
330
5B
100
AcDbMLeaderStyle
179
     2
170
     2
171
     1
172
     0
 90
        2
 40
0.0
 41
0.0
173
     1
 91
-1056964608
340
14
 92
       -2
290
     1
 42
0.09
291
     1
 43
0.36
  3
Standard
341
0
 44
0.18
300

342
11
174
     1
178
     6
175
     1
176
     0
 93
-1056964608
 45
0.18
292
     0
297
     0
 46
0.18
343
0
 94
-1056964608
 47
1.0
 49
1.0
140
1.0
293
     1
141
0.0
294
     1
177
     0
142
1.0
295
     0
296
     0
143
0.125
271
     0
272
     9
273
     9
298
     0
  0
MLINESTYLE
  5
18
102
{ACAD_REACTORS
330
17
102
}
330
17
100
AcDbMlineStyle
  2
Standard
 70
     0
  3

 62
   256
 51
90.0
 52
90.0
 71
     2
 49
0.5
 62
   256
  6
BYLAYER
 49
-0.5
 62
   256
  6
BYLAYER
  0
ACDBPLACEHOLDER
  5
F
102
{ACAD_REACTORS
330
E
102
}
330
E
  0
SCALE
  5
48
102
{ACAD_REACTORS
330
47
102
}
330
47
100
AcDbScale
 70
     0
300
1:1
140
1.0
141
1.0
290
     1
  0
SCALE
  5
49
102
{ACAD_REACTORS
330
47
102
}
330
47
100
AcDbScale
 70
     0
300
1/128" = 1'-0"
140
0.0078125
141
12.0
290
     0
  0
SCALE
  5
4A
102
{ACAD_REACTORS
330
47
102
}
330
47
100
AcDbScale
 70
     0
300
1/64" = 1'-0"
140
0.015625
141
12.0
290
     0
  0
SCALE
  5
4B
102
{ACAD_REACTORS
330
47
102
}
330
47
100
AcDbScale
 70
     0
300
1/32" = 1'-0"
140
0.03125
141
12.0
290
     0
  0
SCALE
  5
4C
102
{ACAD_REACTORS
330
47
102
}
330
47
100
AcDbScale
 70
     0
300
1/16" = 1'-0"
140
0.0625
141
12.0
290
     0
  0
SCALE
  5
4D
102
{ACAD_REACTORS
330
47
102
}
330
47
100
AcDbScale
 70
     0
300
3/32" = 1'-0"
140
0.09375
141
12.0
290
     0
  0
SCALE
  5
4E
102
{ACAD_REACTORS
330
47
102
}
330
47
100
AcDbScale
 70
     0
300
1/8" = 1'-0"
140
0.125
141
12.0
290
     0
  0
SCALE
  5
4F
102
{ACAD_REACTORS
330
47
102
}
330
47
100
AcDbScale
 70
     0
300
3/16" = 1'-0"
140
0.1875
141
12.0
290
     0
  0
SCALE
  5
50
102
{ACAD_REACTORS
330
47
102
}
330
47
100
AcDbScale
 70
     0
300
1/4" = 1'-0"
140
0.25
141
12.0
290
     0
  0
SCALE
  5
51
102
{ACAD_REACTORS
330
47
102
}
330
47
100
AcDbScale
 70
     0
300
3/8" = 1'-0"
140
0.375
141
12.0
290
     0
  0
SCALE
  5
52
102
{ACAD_REACTORS
330
47
102
}
330
47
100
AcDbScale
 70
     0
300
1/2" = 1'-0"
140
0.5
141
12.0
290
     0
  0
SCALE
  5
53
102
{ACAD_REACTORS
330
47
102
}
330
47
100
AcDbScale
 70
     0
300
3/4" = 1'-0"
140
0.75
141
12.0
290
     0
  0
SCALE
  5
54
102
{ACAD_REACTORS
330
47
102
}
330
47
100
AcDbScale
 70
     0
300
1" = 1'-0"
140
1.0
141
12.0
290
     0
  0
SCALE
  5
55
102
{ACAD_REACTORS
330
47
102
}
330
47
100
AcDbScale
 70
     0
300
1-1/2" = 1'-0"
140
1.5
141
12.0
290
     0
  0
SCALE
  5
56
102
{ACAD_REACTORS
330
47
102
}
330
47
100
AcDbScale
 70
     0
300
3" = 1'-0"
140
3.0
141
12.0
290
     0
  0
SCALE
  5
57
102
{ACAD_REACTORS
330
47
102
}
330
47
100
AcDbScale
 70
     0
300
6" = 1'-0"
140
6.0
141
12.0
290
     0
  0
SCALE
  5
58
102
{ACAD_REACTORS
330
47
102
}
330
47
100
AcDbScale
 70
     0
300
1'-0" = 1'-0"
140
12.0
141
12.0
290
     0
  0
TABLESTYLE
  5
5A
102
{ACAD_REACTORS
330
59
102
}
102
{ACAD_XDICTIONARY
360
7E
102
}
330
59
100
AcDbTableStyle
  3
Standard
 70
     0
 71
     0
 40
0.06
 41
0.06
280
     0
281
     0
  7
Standard
140
0.18
170
     2
 62
     0
 63
   257
283
     0
 90
        4
 91
        0
  1

274
    -2
284
     1
 64
     0
275
    -2
285
     1
 65
     0
276
    -2
286
     1
 66
     0
277
    -2
287
     1
 67
     0
278
    -2
288
     1
 68
     0
279
    -2
289
     1
 69
     0
  7
Standard
140
0.25
170
     5
 62
     0
 63
   257
283
     0
 90
        4
 91
        0
  1

274
    -2
284
     1
 64
     0
275
    -2
285
     1
 65
     0
276
    -2
286
     1
 66
     0
277
    -2
287
     1
 67
     0
278
    -2
288
     1
 68
     0
279
    -2
289
     1
 69
     0
  7
Standard
140
0.18
170
     5
 62
     0
 63
   257
283
     0
 90
        4
 91
        0
  1

274
    -2
284
     1
 64
     0
275
    -2
285
     1
 65
     0
276
    -2
286
     1
 66
     0
277
    -2
287
     1
 67
     0
278
    -2
288
     1
 68
     0
279
    -2
289
     1
 69
     0
  0
VISUALSTYLE
  5
2F
102
{ACAD_REACTORS
330
2A
102
}
330
2A
100
AcDbVisualStyle
  2
2dWireframe
 70
     4
177
     3
291
     0
 70
    58
 90
        0
176
     1
 90
        2
176
     1
 90
        0
176
     1
 90
        0
176
     1
 40
0.6
176
     1
 40
30.0
176
     1
 62
     7
420
 16777215
176
     1
 90
        1
176
     1
 90
        4
176
     1
 62
     7
176
     1
 62
   257
176
     1
 90
        1
176
     1
 90
        1
176
     1
 40
1.0
176
     1
 90
        0
176
     1
 62
   257
176
     1
 40
1.0
176
     1
 90
        1
176
     1
 90
        6
176
     1
 90
        2
176
     1
 62
     7
176
     1
 90
        5
176
     1
 90
        0
176
     1
 90
        0
176
     1
290
     0
176
     1
 90
        1
176
     1
 40
0.0
176
     1
 90
        0
176
     1
290
     1
176
     1
290
     1
176
     1
290
     0
176
     1
290
     0
176
     1
290
     0
176
     1
290
     0
176
     1
290
     0
176
     1
290
     0
176
     1
290
     0
176
     1
 90
       50
176
     1
 40
0.0
176
     1
 40
1.0
176
     1
 90
        0
176
     1
 62
    18
420
        0
176
     1
 90
       50
176
     1
 90
        3
176
     1
 62
     5
420
      255
176
     1
290
     0
176
     1
 90
       50
176
     1
 90
       50
176
     1
 90
       50
176
     1
290
     0
176
     1
 90
       50
176
     1
 62
   256
176
     0
 40
1.0
176
     0
 90
        2
176
     1
  1
strokes_ogs.tif
176
     1
290
     0
176
     1
 40
1.0
176
     1
 40
1.0
176
     1
  0
VISUALSTYLE
  5
32
102
{ACAD_REACTORS
330
2A
102
}
330
2A
100
AcDbVisualStyle
  2
Basic
 70
     7
177
     3
291
     1
 70
    58
 90
        1
176
     1
 90
        0
176
     1
 90
        1
176
     1
 90
        0
176
     1
 40
0.6
176
     1
 40
30.0
176
     1
 62
     7
420
 16777215
176
     1
 90
        0
176
     1
 90
        4
176
     1
 62
     7
176
     1
 62
   257
176
     1
 90
        1
176
     1
 90
        1
176
     1
 40
1.0
176
     1
 90
        8
176
     1
 62
     7
176
     1
 40
1.0
176
     1
 90
        1
176
     1
 90
        6
176
     1
 90
        2
176
     1
 62
     7
176
     1
 90
        5
176
     1
 90
        0
176
     1
 90
        0
176
     1
290
     0
176
     1
 90
        1
176
     1
 40
0.0
176
     1
 90
        0
176
     1
290
     0
176
     1
290
     1
176
     1
290
     1
176
     1
290
     0
176
     1
290
     0
176
     1
290
     0
176
     1
290
     0
176
     1
290
     0
176
     1
290
     0
176
     1
 90
       50
176
     1
 40
0.0
176
     1
 40
1.0
176
     1
 90
        0
176
     1
 62
    18
420
        0
176
     1
 90
       50
176
     1
 90
        3
176
     1
 62
     5
420
      255
176
     1
290
     0
176
     1
 90
       50
176
     1
 90
       50
176
     1
 90
       50
176
     1
290
     0
176
     1
 90
       50
176
     1
 62
   256
176
     0
 40
1.0
176
     0
 90
        2
176
     1
  1
strokes_ogs.tif
176
     1
290
     0
176
     1
 40
1.0
176
     1
 40
1.0
176
     1
  0
VISUALSTYLE
  5
36
102
{ACAD_REACTORS
330
2A
102
}
330
2A
100
AcDbVisualStyle
  2
Brighten
 70
    12
177
     3
291
     1
 70
    58
 90
        2
176
     1
 90
        2
176
     1
 90
        0
176
     1
 90
        0
176
     1
 40
0.6
176
     1
 40
30.0
176
     1
 62
     7
420
 16777215
176
     1
 90
        1
176
     1
 90
        4
176
     1
 62
     7
176
     1
 62
   257
176
     1
 90
        1
176
     1
 90
        1
176
     1
 40
1.0
176
     1
 90
        8
176
     1
 62
     7
176
     1
 40
1.0
176
     1
 90
        1
176
     1
 90
        6
176
     1
 90
        2
176
     1
 62
     7
176
     1
 90
        5
176
     1
 90
        0
176
     1
 90
        0
176
     1
290
     0
176
     1
 90
        1
176
     1
 40
50.0
176
     1
 90
        0
176
     1
290
     0
176
     1
290
     1
176
     1
290
     1
176
     1
290
     0
176
     1
290
     0
176
     1
290
     0
176
     1
290
     0
176
     1
290
     0
176
     1
290
     0
176
     1
 90
       50
176
     1
 40
0.0
176
     1
 40
1.0
176
     1
 90
        0
176
     1
 62
    18
420
        0
176
     1
 90
       50
176
     1
 90
        3
176
     1
 62
     5
420
      255
176
     1
290
     0
176
     1
 90
       50
176
     1
 90
       50
176
     1
 90
       50
176
     1
290
     0
176
     1
 90
       50
176
     1
 62
   256
176
     0
 40
1.0
176
     0
 90
        2
176
     1
  1
strokes_ogs.tif
176
     1
290
     0
176
     1
 40
1.0
176
     1
 40
1.0
176
     1
  0
VISUALSTYLE
  5
3A
102
{ACAD_REACTORS
330
2A
102
}
330
2A
100
AcDbVisualStyle
  2
ColorChange
 70
    16
177
     3
291
     1
 70
    58
 90
        2
176
     1
 90
        2
176
     1
 90
        3
176
     1
 90
        0
176
     1
 40
0.6
176
     1
 40
30.0
176
     1
 62
     8
420
  8421504
176
     1
 90
        1
176
     1
 90
        4
176
     1
 62
     7
176
     1
 62
   257
176
     1
 90
        1
176
     1
 90
        1
176
     1
 40
1.0
176
     1
 90
        8
176
     1
 62
     8
420
  8421504
176
     1
 40
1.0
176
     1
 90
        1
176
     1
 90
        6
176
     1
 90
        2
176
     1
 62
     7
176
     1
 90
        5
176
     1
 90
        0
176
     1
 90
        0
176
     1
290
     0
176
     1
 90
        1
176
     1
 40
0.0
176
     1
 90
        0
176
     1
290
     0
176
     1
290
     1
176
     1
290
     1
176
     1
290
     0
176
     1
290
     0
176
     1
290
     0
176
     1
290
     0
176
     1
290
     0
176
     1
290
     0
176
     1
 90
       50
176
     1
 40
0.0
176
     1
 40
1.0
176
     1
 90
        0
176
     1
 62
    18
420
        0
176
     1
 90
       50
176
     1
 90
        3
176
     1
 62
     5
420
      255
176
     1
290
     0
176
     1
 90
       50
176
     1
 90
       50
176
     1
 90
       50
176
     1
290
     0
176
     1
 90
       50
176
     1
 62
   256
176
     0
 40
1.0
176
     0
 90
        2
176
     1
  1
strokes_ogs.tif
176
     1
290
     0
176
     1
 40
1.0
176
     1
 40
1.0
176
     1
  0
VISUALSTYLE
  5
34
102
{ACAD_REACTORS
330
2A
102
}
330
2A
100
AcDbVisualStyle
  2
Conceptual
 70
     9
177
     3
291
     0
 70
    58
 90
        3
176
     1
 90
        2
176
     1
 90
        0
176
     1
 90
        0
176
     1
 40
0.6
176
     1
 40
30.0
176
     1
 62
     7
420
 16777215
176
     1
 90
        2
176
     1
 90
        2
176
     1
 62
     7
176
     1
 62
   257
176
     1
 90
        1
176
     1
 90
        1
176
     1
 40
179.0
176
     1
 90
        8
176
     1
 62
     7
176
     1
 40
1.0
176
     1
 90
        1
176
     1
 90
        6
176
     1
 90
        2
176
     1
 62
     7
176
     1
 90
        3
176
     1
 90
        0
176
     1
 90
        0
176
     1
290
     0
176
     1
 90
        1
176
     1
 40
0.0
176
     1
 90
        0
176
     1
290
     0
176
     1
290
     1
176
     1
290
     1
176
     1
290
     0
176
     1
290
     0
176
     1
290
     0
176
     1
290
     0
176
     1
290
     0
176
     1
290
     0
176
     1
 90
       50
176
     1
 40
0.0
176
     1
 40
1.0
176
     1
 90
        0
176
     1
 62
    18
420
        0
176
     1
 90
       50
176
     1
 90
        3
176
     1
 62
     5
420
      255
176
     1
290
     0
176
     1
 90
       50
176
     1
 90
       50
176
     1
 90
       50
176
     1
290
     0
176
     1
 90
       50
176
     1
 62
   256
176
     0
 40
1.0
176
     0
 90
        2
176
     1
  1
strokes_ogs.tif
176
     1
290
     0
176
     1
 40
1.0
176
     1
 40
1.0
176
     1
  0
VISUALSTYLE
  5
35
102
{ACAD_REACTORS
330
2A
102
}
330
2A
100
AcDbVisualStyle
  2
Dim
 70
    11
177
     3
291
     1
 70
    58
 90
        2
176
     1
 90
        2
176
     1
 90
        0
176
     1
 90
        0
176
     1
 40
0.6
176
     1
 40
30.0
176
     1
 62
     7
420
 16777215
176
     1
 90
        1
176
     1
 90
        4
176
     1
 62
     7
176
     1
 62
   257
176
     1
 90
        1
176
     1
 90
        1
176
     1
 40
1.0
176
     1
 90
        8
176
     1
 62
     7
176
     1
 40
1.0
176
     1
 90
        1
176
     1
 90
        6
176
     1
 90
        2
176
     1
 62
     7
176
     1
 90
        5
176
     1
 90
        0
176
     1
 90
        0
176
     1
290
     0
176
     1
 90
        1
176
     1
 40
-50.0
176
     1
 90
        0
176
     1
290
     0
176
     1
290
     1
176
     1
290
     1
176
     1
290
     0
176
     1
290
     0
176
     1
290
     0
176
     1
290
     0
176
     1
290
     0
176
     1
290
     0
176
     1
 90
       50
176
     1
 40
0.0
176
     1
 40
1.0
176
     1
 90
        0
176
     1
 62
    18
420
        0
176
     1
 90
       50
176
     1
 90
        3
176
     1
 62
     5
420
      255
176
     1
290
     0
176
     1
 90
       50
176
     1
 90
       50
176
     1
 90
       50
176
     1
290
     0
176
     1
 90
       50
176
     1
 62
   256
176
     0
 40
1.0
176
     0
 90
        2
176
     1
  1
strokes_ogs.tif
176
     1
290
     0
176
     1
 40
1.0
176
     1
 40
1.0
176
     1
  0
VISUALSTYLE
  5
3D
102
{ACAD_REACTORS
330
2A
102
}
330
2A
100
AcDbVisualStyle
  2
EdgeColorOff
 70
    22
177
     3
291
     1
 70
    58
 90
        2
176
     0
 90
        2
176
     0
 90
        0
176
     0
 90
        0
176
     0
 40
0.6
176
     0
 40
30.0
176
     0
 62
     7
420
 16777215
176
     0
 90
        1
176
     0
 90
        4
176
     0
 62
     7
176
     0
 62
   257
176
     0
 90
        1
176
     0
 90
        1
176
     0
 40
1.0
176
     0
 90
        8
176
     2
 62
     7
176
     0
 40
1.0
176
     0
 90
        1
176
     0
 90
        6
176
     0
 90
        2
176
     0
 62
     7
176
     0
 90
        5
176
     0
 90
        0
176
     0
 90
        0
176
     0
290
     0
176
     0
 90
        1
176
     0
 40
0.0
176
     0
 90
        0
176
     0
290
     0
176
     0
290
     1
176
     0
290
     1
176
     0
290
     0
176
     0
290
     0
176
     0
290
     0
176
     0
290
     0
176
     0
290
     0
176
     0
290
     0
176
     0
 90
       50
176
     0
 40
0.0
176
     0
 40
1.0
176
     0
 90
        0
176
     0
 62
    18
420
        0
176
     0
 90
       50
176
     0
 90
        3
176
     0
 62
     5
420
      255
176
     0
290
     0
176
     0
 90
       50
176
     0
 90
       50
176
     0
 90
       50
176
     0
290
     0
176
     0
 90
       50
176
     0
 62
   256
176
     0
 40
1.0
176
     0
 90
        2
176
     0
  1
strokes_ogs.tif
176
     0
290
     0
176
     0
 40
1.0
176
     0
 40
1.0
176
     0
  0
VISUALSTYLE
  5
39
102
{ACAD_REACTORS
330
2A
102
}
330
2A
100
AcDbVisualStyle
  2
Facepattern
 70
    15
177
     3
291
     1
 70
    58
 90
        2
176
     1
 90
        2
176
     1
 90
        0
176
     1
 90
        0
176
     1
 40
0.6
176
     1
 40
30.0
176
     1
 62
     7
420
 16777215
176
     1
 90
        1
176
     1
 90
        4
176
     1
 62
     7
176
     1
 62
   257
176
     1
 90
        1
176
     1
 90
        1
176
     1
 40
1.0
176
     1
 90
        8
176
     1
 62
     7
176
     1
 40
1.0
176
     1
 90
        1
176
     1
 90
        6
176
     1
 90
        2
176
     1
 62
     7
176
     1
 90
        5
176
     1
 90
        0
176
     1
 90
        0
176
     1
290
     0
176
     1
 90
        1
176
     1
 40
0.0
176
     1
 90
        0
176
     1
290
     0
176
     1
290
     1
176
     1
290
     1
176
     1
290
     0
176
     1
290
     0
176
     1
290
     0
176
     1
290
     0
176
     1
290
     0
176
     1
290
     0
176
     1
 90
       50
176
     1
 40
0.0
176
     1
 40
1.0
176
     1
 90
        0
176
     1
 62
    18
420
        0
176
     1
 90
       50
176
     1
 90
        3
176
     1
 62
     5
420
      255
176
     1
290
     0
176
     1
 90
       50
176
     1
 90
       50
176
     1
 90
       50
176
     1
290
     0
176
     1
 90
       50
176
     1
 62
   256
176
     0
 40
1.0
176
     0
 90
        2
176
     1
  1
strokes_ogs.tif
176
     1
290
     0
176
     1
 40
1.0
176
     1
 40
1.0
176
     1
  0
VISUALSTYLE
  5
2B
102
{ACAD_REACTORS
330
2A
102
}
330
2A
100
AcDbVisualStyle
  2
Flat
 70
     0
177
     3
291
     1
 70
    58
 90
        2
176
     1
 90
        1
176
     1
 90
        1
176
     1
 90
        2
176
     1
 40
0.6
176
     1
 40
30.0
176
     1
 62
     7
420
 16777215
176
     1
 90
        0
176
     1
 90
        0
176
     1
 62
     7
176
     1
 62
   257
176
     1
 90
        1
176
     1
 90
        1
176
     1
 40
1.0
176
     1
 90
        8
176
     1
 62
     7
176
     1
 40
1.0
176
     1
 90
        1
176
     1
 90
        6
176
     1
 90
        2
176
     1
 62
     7
176
     1
 90
        5
176
     1
 90
        0
176
     1
 90
        0
176
     1
290
     0
176
     1
 90
       13
176
     1
 40
0.0
176
     1
 90
        0
176
     1
290
     0
176
     1
290
     1
176
     1
290
     1
176
     1
290
     0
176
     1
290
     0
176
     1
290
     0
176
     1
290
     0
176
     1
290
     0
176
     1
290
     0
176
     1
 90
       50
176
     1
 40
0.0
176
     1
 40
1.0
176
     1
 90
        0
176
     1
 62
    18
420
        0
176
     1
 90
       50
176
     1
 90
        3
176
     1
 62
     5
420
      255
176
     1
290
     0
176
     1
 90
       50
176
     1
 90
       50
176
     1
 90
       50
176
     1
290
     0
176
     1
 90
       50
176
     1
 62
   256
176
     0
 40
1.0
176
     0
 90
        2
176
     1
  1
strokes_ogs.tif
176
     1
290
     0
176
     1
 40
1.0
176
     1
 40
1.0
176
     1
  0
VISUALSTYLE
  5
2C
102
{ACAD_REACTORS
330
2A
102
}
330
2A
100
AcDbVisualStyle
  2
FlatWithEdges
 70
     1
177
     3
291
     1
 70
    58
 90
        2
176
     1
 90
        1
176
     1
 90
        1
176
     1
 90
        2
176
     1
 40
0.6
176
     1
 40
30.0
176
     1
 62
     7
420
 16777215
176
     1
 90
        1
176
     1
 90
        0
176
     1
 62
     7
176
     1
 62
   257
176
     1
 90
        1
176
     1
 90
        1
176
     1
 40
1.0
176
     1
 90
        0
176
     1
 62
   257
176
     1
 40
1.0
176
     1
 90
        1
176
     1
 90
        6
176
     1
 90
        2
176
     1
 62
     7
176
     1
 90
        5
176
     1
 90
        0
176
     1
 90
        0
176
     1
290
     0
176
     1
 90
       13
176
     1
 40
0.0
176
     1
 90
        0
176
     1
290
     0
176
     1
290
     1
176
     1
290
     1
176
     1
290
     0
176
     1
290
     0
176
     1
290
     0
176
     1
290
     0
176
     1
290
     0
176
     1
290
     0
176
     1
 90
       50
176
     1
 40
0.0
176
     1
 40
1.0
176
     1
 90
        0
176
     1
 62
    18
420
        0
176
     1
 90
       50
176
     1
 90
        3
176
     1
 62
     5
420
      255
176
     1
290
     0
176
     1
 90
       50
176
     1
 90
       50
176
     1
 90
       50
176
     1
290
     0
176
     1
 90
       50
176
     1
 62
   256
176
     0
 40
1.0
176
     0
 90
        2
176
     1
  1
strokes_ogs.tif
176
     1
290
     0
176
     1
 40
1.0
176
     1
 40
1.0
176
     1
  0
VISUALSTYLE
  5
2D
102
{ACAD_REACTORS
330
2A
102
}
330
2A
100
AcDbVisualStyle
  2
Gouraud
 70
     2
177
     3
291
     1
 70
    58
 90
        2
176
     1
 90
        2
176
     1
 90
        1
176
     1
 90
        2
176
     1
 40
0.6
176
     1
 40
30.0
176
     1
 62
     7
420
 16777215
176
     1
 90
        0
176
     1
 90
        0
176
     1
 62
     7
176
     1
 62
   257
176
     1
 90
        1
176
     1
 90
        1
176
     1
 40
1.0
176
     1
 90
        0
176
     1
 62
     7
176
     1
 40
1.0
176
     1
 90
        1
176
     1
 90
        6
176
     1
 90
        2
176
     1
 62
     7
176
     1
 90
        5
176
     1
 90
        0
176
     1
 90
        0
176
     1
290
     0
176
     1
 90
       13
176
     1
 40
0.0
176
     1
 90
        0
176
     1
290
     0
176
     1
290
     1
176
     1
290
     1
176
     1
290
     0
176
     1
290
     0
176
     1
290
     0
176
     1
290
     0
176
     1
290
     0
176
     1
290
     0
176
     1
 90
       50
176
     1
 40
0.0
176
     1
 40
1.0
176
     1
 90
        0
176
     1
 62
    18
420
        0
176
     1
 90
       50
176
     1
 90
        3
176
     1
 62
     5
420
      255
176
     1
290
     0
176
     1
 90
       50
176
     1
 90
       50
176
     1
 90
       50
176
     1
290
     0
176
     1
 90
       50
176
     1
 62
   256
176
     0
 40
1.0
176
     0
 90
        2
176
     1
  1
strokes_ogs.tif
176
     1
290
     0
176
     1
 40
1.0
176
     1
 40
1.0
176
     1
  0
VISUALSTYLE
  5
2E
102
{ACAD_REACTORS
330
2A
102
}
330
2A
100
AcDbVisualStyle
  2
GouraudWithEdges
 70
     3
177
     3
291
     1
 70
    58
 90
        2
176
     1
 90
        2
176
     1
 90
        1
176
     1
 90
        2
176
     1
 40
0.6
176
     1
 40
30.0
176
     1
 62
     7
420
 16777215
176
     1
 90
        1
176
     1
 90
        0
176
     1
 62
     7
176
     1
 62
   257
176
     1
 90
        1
176
     1
 90
        1
176
     1
 40
1.0
176
     1
 90
        0
176
     1
 62
   257
176
     1
 40
1.0
176
     1
 90
        1
176
     1
 90
        6
176
     1
 90
        2
176
     1
 62
     7
176
     1
 90
        5
176
     1
 90
        0
176
     1
 90
        0
176
     1
290
     0
176
     1
 90
       13
176
     1
 40
0.0
176
     1
 90
        0
176
     1
290
     0
176
     1
290
     1
176
     1
290
     1
176
     1
290
     0
176
     1
290
     0
176
     1
290
     0
176
     1
290
     0
176
     1
290
     0
176
     1
290
     0
176
     1
 90
       50
176
     1
 40
0.0
176
     1
 40
1.0
176
     1
 90
        0
176
     1
 62
    18
420
        0
176
     1
 90
       50
176
     1
 90
        3
176
     1
 62
     5
420
      255
176
     1
290
     0
176
     1
 90
       50
176
     1
 90
       50
176
     1
 90
       50
176
     1
290
     0
176
     1
 90
       50
176
     1
 62
   256
176
     0
 40
1.0
176
     0
 90
        2
176
     1
  1
strokes_ogs.tif
176
     1
290
     0
176
     1
 40
1.0
176
     1
 40
1.0
176
     1
  0
VISUALSTYLE
  5
31
102
{ACAD_REACTORS
330
2A
102
}
330
2A
100
AcDbVisualStyle
  2
Hidden
 70
     6
177
     3
291
     0
 70
    58
 90
        1
176
     1
 90
        2
176
     1
 90
        2
176
     1
 90
        0
176
     1
 40
0.6
176
     1
 40
30.0
176
     1
 62
     7
420
 16777215
176
     1
 90
        2
176
     1
 90
        2
176
     1
 62
     7
176
     1
 62
   257
176
     1
 90
        2
176
     1
 90
        1
176
     1
 40
40.0
176
     1
 90
        0
176
     1
 62
   257
176
     1
 40
1.0
176
     1
 90
        1
176
     1
 90
        6
176
     1
 90
        2
176
     1
 62
     7
176
     1
 90
        3
176
     1
 90
        0
176
     1
 90
        0
176
     1
290
     0
176
     1
 90
        1
176
     1
 40
0.0
176
     1
 90
        0
176
     1
290
     0
176
     1
290
     1
176
     1
290
     1
176
     1
290
     0
176
     1
290
     0
176
     1
290
     0
176
     1
290
     0
176
     1
290
     0
176
     1
290
     0
176
     1
 90
       50
176
     1
 40
0.0
176
     1
 40
1.0
176
     1
 90
        0
176
     1
 62
    18
420
        0
176
     1
 90
       50
176
     1
 90
        3
176
     1
 62
     5
420
      255
176
     1
290
     0
176
     1
 90
       50
176
     1
 90
       50
176
     1
 90
       50
176
     1
290
     0
176
     1
 90
       50
176
     1
 62
   256
176
     0
 40
1.0
176
     0
 90
        2
176
     1
  1
strokes_ogs.tif
176
     1
290
     0
176
     1
 40
1.0
176
     1
 40
1.0
176
     1
  0
VISUALSTYLE
  5
3B
102
{ACAD_REACTORS
330
2A
102
}
330
2A
100
AcDbVisualStyle
  2
JitterOff
 70
    20
177
     3
291
     1
 70
    58
 90
        2
176
     0
 90
        2
176
     0
 90
        0
176
     0
 90
        0
176
     0
 40
0.6
176
     0
 40
30.0
176
     0
 62
     7
420
 16777215
176
     0
 90
        1
176
     0
 90
        4
176
     0
 62
     7
176
     0
 62
   257
176
     0
 90
        1
176
     0
 90
        1
176
     0
 40
1.0
176
     0
 90
       10
176
     2
 62
     7
176
     0
 40
1.0
176
     0
 90
        1
176
     0
 90
        6
176
     0
 90
        2
176
     0
 62
     7
176
     0
 90
        5
176
     0
 90
        0
176
     0
 90
        0
176
     0
290
     0
176
     0
 90
        1
176
     0
 40
0.0
176
     0
 90
        0
176
     0
290
     0
176
     0
290
     1
176
     0
290
     1
176
     0
290
     0
176
     0
290
     0
176
     0
290
     0
176
     0
290
     0
176
     0
290
     0
176
     0
290
     0
176
     0
 90
       50
176
     0
 40
0.0
176
     0
 40
1.0
176
     0
 90
        0
176
     0
 62
    18
420
        0
176
     0
 90
       50
176
     0
 90
        3
176
     0
 62
     5
420
      255
176
     0
290
     0
176
     0
 90
       50
176
     0
 90
       50
176
     0
 90
       50
176
     0
290
     0
176
     0
 90
       50
176
     0
 62
   256
176
     0
 40
1.0
176
     0
 90
        2
176
     0
  1
strokes_ogs.tif
176
     0
290
     0
176
     0
 40
1.0
176
     0
 40
1.0
176
     0
  0
VISUALSTYLE
  5
38
102
{ACAD_REACTORS
330
2A
102
}
330
2A
100
AcDbVisualStyle
  2
Linepattern
 70
    14
177
     3
291
     1
 70
    58
 90
        2
176
     1
 90
        2
176
     1
 90
        0
176
     1
 90
        0
176
     1
 40
0.6
176
     1
 40
30.0
176
     1
 62
     7
420
 16777215
176
     1
 90
        1
176
     1
 90
        4
176
     1
 62
     7
176
     1
 62
   257
176
     1
 90
        7
176
     1
 90
        7
176
     1
 40
1.0
176
     1
 90
        8
176
     1
 62
     7
176
     1
 40
1.0
176
     1
 90
        1
176
     1
 90
        6
176
     1
 90
        2
176
     1
 62
     7
176
     1
 90
        5
176
     1
 90
        0
176
     1
 90
        0
176
     1
290
     0
176
     1
 90
        1
176
     1
 40
0.0
176
     1
 90
        0
176
     1
290
     0
176
     1
290
     1
176
     1
290
     1
176
     1
290
     0
176
     1
290
     0
176
     1
290
     0
176
     1
290
     0
176
     1
290
     0
176
     1
290
     0
176
     1
 90
       50
176
     1
 40
0.0
176
     1
 40
1.0
176
     1
 90
        0
176
     1
 62
    18
420
        0
176
     1
 90
       50
176
     1
 90
        3
176
     1
 62
     5
420
      255
176
     1
290
     0
176
     1
 90
       50
176
     1
 90
       50
176
     1
 90
       50
176
     1
290
     0
176
     1
 90
       50
176
     1
 62
   256
176
     0
 40
1.0
176
     0
 90
        2
176
     1
  1
strokes_ogs.tif
176
     1
290
     0
176
     1
 40
1.0
176
     1
 40
1.0
176
     1
  0
VISUALSTYLE
  5
3C
102
{ACAD_REACTORS
330
2A
102
}
330
2A
100
AcDbVisualStyle
  2
OverhangOff
 70
    21
177
     3
291
     1
 70
    58
 90
        2
176
     0
 90
        2
176
     0
 90
        0
176
     0
 90
        0
176
     0
 40
0.6
176
     0
 40
30.0
176
     0
 62
     7
420
 16777215
176
     0
 90
        1
176
     0
 90
        4
176
     0
 62
     7
176
     0
 62
   257
176
     0
 90
        1
176
     0
 90
        1
176
     0
 40
1.0
176
     0
 90
        9
176
     2
 62
     7
176
     0
 40
1.0
176
     0
 90
        1
176
     0
 90
        6
176
     0
 90
        2
176
     0
 62
     7
176
     0
 90
        5
176
     0
 90
        0
176
     0
 90
        0
176
     0
290
     0
176
     0
 90
        1
176
     0
 40
0.0
176
     0
 90
        0
176
     0
290
     0
176
     0
290
     1
176
     0
290
     1
176
     0
290
     0
176
     0
290
     0
176
     0
290
     0
176
     0
290
     0
176
     0
290
     0
176
     0
290
     0
176
     0
 90
       50
176
     0
 40
0.0
176
     0
 40
1.0
176
     0
 90
        0
176
     0
 62
    18
420
        0
176
     0
 90
       50
176
     0
 90
        3
176
     0
 62
     5
420
      255
176
     0
290
     0
176
     0
 90
       50
176
     0
 90
       50
176
     0
 90
       50
176
     0
290
     0
176
     0
 90
       50
176
     0
 62
   256
176
     0
 40
1.0
176
     0
 90
        2
176
     0
  1
strokes_ogs.tif
176
     0
290
     0
176
     0
 40
1.0
176
     0
 40
1.0
176
     0
  0
VISUALSTYLE
  5
33
102
{ACAD_REACTORS
330
2A
102
}
330
2A
100
AcDbVisualStyle
  2
Realistic
 70
     8
177
     3
291
     0
 70
    58
 90
        2
176
     1
 90
        3
176
     1
 90
        0
176
     1
 90
        2
176
     1
 40
0.6
176
     1
 40
30.0
176
     1
 62
     7
420
 16777215
176
     1
 90
        0
176
     1
 90
        0
176
     1
 62
     7
176
     1
 62
   257
176
     1
 90
        1
176
     1
 90
        1
176
     1
 40
1.0
176
     1
 90
        8
176
     1
 62
   257
176
     1
 40
1.0
176
     1
 90
        1
176
     1
 90
        6
176
     1
 90
        2
176
     1
 62
     7
176
     1
 90
        3
176
     1
 90
        0
176
     1
 90
        0
176
     1
290
     0
176
     1
 90
       13
176
     1
 40
0.0
176
     1
 90
        0
176
     1
290
     0
176
     1
290
     1
176
     1
290
     1
176
     1
290
     0
176
     1
290
     0
176
     1
290
     0
176
     1
290
     0
176
     1
290
     0
176
     1
290
     0
176
     1
 90
       50
176
     1
 40
0.0
176
     1
 40
1.0
176
     1
 90
        0
176
     1
 62
    18
420
        0
176
     1
 90
       50
176
     1
 90
        3
176
     1
 62
     5
420
      255
176
     1
290
     0
176
     1
 90
       50
176
     1
 90
       50
176
     1
 90
       50
176
     1
290
     0
176
     1
 90
       50
176
     1
 62
   256
176
     0
 40
1.0
176
     0
 90
        2
176
     1
  1
strokes_ogs.tif
176
     1
290
     0
176
     1
 40
1.0
176
     1
 40
1.0
176
     1
  0
VISUALSTYLE
  5
42
102
{ACAD_REACTORS
330
2A
102
}
330
2A
100
AcDbVisualStyle
  2
Shaded
 70
    27
177
     3
291
     0
 70
    58
 90
        2
176
     1
 90
        2
176
     1
 90
        1
176
     1
 90
        2
176
     1
 40
0.6
176
     1
 40
30.0
176
     1
 62
     7
420
 16777215
176
     1
 90
        0
176
     1
 90
        4
176
     1
 62
     7
176
     1
 62
   257
176
     1
 90
        1
176
     1
 90
        1
176
     1
 40
1.0
176
     1
 90
        8
176
     1
 62
   257
176
     1
 40
1.0
176
     1
 90
        1
176
     1
 90
        6
176
     1
 90
        2
176
     1
 62
     8
420
  7895160
176
     1
 90
        3
176
     1
 90
        0
176
     1
 90
        0
176
     1
290
     0
176
     1
 90
        5
176
     1
 40
0.0
176
     1
 90
        0
176
     1
290
     0
176
     1
290
     1
176
     1
290
     1
176
     1
290
     0
176
     1
290
     0
176
     1
290
     0
176
     1
290
     0
176
     1
290
     0
176
     1
290
     0
176
     1
 90
       50
176
     1
 40
0.0
176
     1
 40
1.0
176
     1
 90
        0
176
     1
 62
    18
420
        0
176
     1
 90
       50
176
     1
 90
        3
176
     1
 62
     5
420
      255
176
     1
290
     0
176
     1
 90
       50
176
     1
 90
       50
176
     1
 90
       50
176
     1
290
     0
176
     1
 90
       50
176
     1
 62
   256
176
     0
 40
1.0
176
     0
 90
        2
176
     1
  1
strokes_ogs.tif
176
     1
290
     0
176
     1
 40
1.0
176
     1
 40
1.0
176
     1
  0
VISUALSTYLE
  5
41
102
{ACAD_REACTORS
330
2A
102
}
330
2A
100
AcDbVisualStyle
  2
Shaded with edges
 70
    26
177
     3
291
     0
 70
    58
 90
        2
176
     1
 90
        2
176
     1
 90
        1
176
     1
 90
        2
176
     1
 40
0.6
176
     1
 40
30.0
176
     1
 62
     7
420
 16777215
176
     1
 90
        1
176
     1
 90
       10
176
     1
 62
     7
176
     1
 62
   257
176
     1
 90
        2
176
     1
 90
        1
176
     1
 40
1.0
176
     1
 90
        8
176
     1
 62
   257
176
     1
 40
1.0
176
     1
 90
        1
176
     1
 90
        6
176
     1
 90
        2
176
     1
 62
     7
176
     1
 90
        3
176
     1
 90
        0
176
     1
 90
        0
176
     1
290
     0
176
     1
 90
        5
176
     1
 40
0.0
176
     1
 90
        0
176
     1
290
     0
176
     1
290
     1
176
     1
290
     1
176
     1
290
     0
176
     1
290
     0
176
     1
290
     0
176
     1
290
     0
176
     1
290
     0
176
     1
290
     0
176
     1
 90
       50
176
     1
 40
0.0
176
     1
 40
1.0
176
     1
 90
        0
176
     1
 62
    18
420
        0
176
     1
 90
       50
176
     1
 90
        3
176
     1
 62
     5
420
      255
176
     1
290
     0
176
     1
 90
       50
176
     1
 90
       50
176
     1
 90
       50
176
     1
290
     0
176
     1
 90
       50
176
     1
 62
   256
176
     0
 40
1.0
176
     0
 90
        2
176
     1
  1
strokes_ogs.tif
176
     1
290
     0
176
     1
 40
1.0
176
     1
 40
1.0
176
     1
  0
VISUALSTYLE
  5
3E
102
{ACAD_REACTORS
330
2A
102
}
330
2A
100
AcDbVisualStyle
  2
Shades of Gray
 70
    23
177
     3
291
     0
 70
    58
 90
        2
176
     1
 90
        2
176
     1
 90
        3
176
     1
 90
        0
176
     1
 40
0.6
176
     1
 40
30.0
176
     1
 62
     7
420
 16777215
176
     1
 90
        2
176
     1
 90
        2
176
     1
 62
     7
176
     1
 62
     7
176
     1
 90
        1
176
     1
 90
        1
176
     1
 40
40.0
176
     1
 90
        8
176
     1
 62
     7
176
     1
 40
1.0
176
     1
 90
        1
176
     1
 90
        6
176
     1
 90
        2
176
     1
 62
     7
176
     1
 90
        3
176
     1
 90
        0
176
     1
 90
        0
176
     1
290
     0
176
     1
 90
        1
176
     1
 40
0.0
176
     1
 90
        0
176
     1
290
     0
176
     1
290
     1
176
     1
290
     1
176
     1
290
     0
176
     1
290
     0
176
     1
290
     0
176
     1
290
     0
176
     1
290
     0
176
     1
290
     0
176
     1
 90
       50
176
     1
 40
0.0
176
     1
 40
1.0
176
     1
 90
        0
176
     1
 62
    18
420
        0
176
     1
 90
       50
176
     1
 90
        3
176
     1
 62
     5
420
      255
176
     1
290
     0
176
     1
 90
       50
176
     1
 90
       50
176
     1
 90
       50
176
     1
290
     0
176
     1
 90
       50
176
     1
 62
   256
176
     0
 40
1.0
176
     0
 90
        2
176
     1
  1
strokes_ogs.tif
176
     1
290
     0
176
     1
 40
1.0
176
     1
 40
1.0
176
     1
  0
VISUALSTYLE
  5
3F
102
{ACAD_REACTORS
330
2A
102
}
330
2A
100
AcDbVisualStyle
  2
Sketchy
 70
    24
177
     3
291
     0
 70
    58
 90
        1
176
     1
 90
        2
176
     1
 90
        2
176
     1
 90
        0
176
     1
 40
0.6
176
     1
 40
30.0
176
     1
 62
     7
420
 16777215
176
     1
 90
        2
176
     1
 90
        2
176
     1
 62
     7
176
     1
 62
     7
176
     1
 90
        1
176
     1
 90
        1
176
     1
 40
40.0
176
     1
 90
       11
176
     1
 62
     7
176
     1
 40
1.0
176
     1
 90
        1
176
     1
 90
        6
176
     1
 90
        2
176
     1
 62
     7
176
     1
 90
        6
176
     1
 90
        0
176
     1
 90
        0
176
     1
290
     0
176
     1
 90
        1
176
     1
 40
0.0
176
     1
 90
        0
176
     1
290
     0
176
     1
290
     1
176
     1
290
     1
176
     1
290
     0
176
     1
290
     0
176
     1
290
     0
176
     1
290
     0
176
     1
290
     0
176
     1
290
     0
176
     1
 90
       50
176
     1
 40
0.0
176
     1
 40
1.0
176
     1
 90
        0
176
     1
 62
    18
420
        0
176
     1
 90
       50
176
     1
 90
        3
176
     1
 62
     5
420
      255
176
     1
290
     0
176
     1
 90
       50
176
     1
 90
       50
176
     1
 90
       50
176
     1
290
     0
176
     1
 90
       50
176
     1
 62
   256
176
     0
 40
1.0
176
     0
 90
        2
176
     1
  1
strokes_ogs.tif
176
     1
290
     0
176
     1
 40
1.0
176
     1
 40
1.0
176
     1
  0
VISUALSTYLE
  5
37
102
{ACAD_REACTORS
330
2A
102
}
330
2A
100
AcDbVisualStyle
  2
Thicken
 70
    13
177
     3
291
     1
 70
    58
 90
        2
176
     1
 90
        2
176
     1
 90
        0
176
     1
 90
        0
176
     1
 40
0.6
176
     1
 40
30.0
176
     1
 62
     7
420
 16777215
176
     1
 90
        1
176
     1
 90
        4
176
     1
 62
     7
176
     1
 62
   257
176
     1
 90
        1
176
     1
 90
        1
176
     1
 40
1.0
176
     1
 90
       12
176
     1
 62
     7
176
     1
 40
1.0
176
     1
 90
        1
176
     1
 90
        6
176
     1
 90
        2
176
     1
 62
     7
176
     1
 90
        5
176
     1
 90
        0
176
     1
 90
        0
176
     1
290
     0
176
     1
 90
        1
176
     1
 40
0.0
176
     1
 90
        0
176
     1
290
     0
176
     1
290
     1
176
     1
290
     1
176
     1
290
     0
176
     1
290
     0
176
     1
290
     0
176
     1
290
     0
176
     1
290
     0
176
     1
290
     0
176
     1
 90
       50
176
     1
 40
0.0
176
     1
 40
1.0
176
     1
 90
        0
176
     1
 62
    18
420
        0
176
     1
 90
       50
176
     1
 90
        3
176
     1
 62
     5
420
      255
176
     1
290
     0
176
     1
 90
       50
176
     1
 90
       50
176
     1
 90
       50
176
     1
290
     0
176
     1
 90
       50
176
     1
 62
   256
176
     0
 40
1.0
176
     0
 90
        2
176
     1
  1
strokes_ogs.tif
176
     1
290
     0
176
     1
 40
1.0
176
     1
 40
1.0
176
     1
  0
VISUALSTYLE
  5
30
102
{ACAD_REACTORS
330
2A
102
}
330
2A
100
AcDbVisualStyle
  2
Wireframe
 70
     5
177
     3
291
     0
 70
    58
 90
        0
176
     1
 90
        2
176
     1
 90
        0
176
     1
 90
        0
176
     1
 40
0.6
176
     1
 40
30.0
176
     1
 62
     7
420
 16777215
176
     1
 90
        1
176
     1
 90
        4
176
     1
 62
     7
176
     1
 62
   257
176
     1
 90
        1
176
     1
 90
        1
176
     1
 40
1.0
176
     1
 90
        0
176
     1
 62
   257
176
     1
 40
1.0
176
     1
 90
        1
176
     1
 90
        6
176
     1
 90
        2
176
     1
 62
     7
176
     1
 90
        3
176
     1
 90
        0
176
     1
 90
        0
176
     1
290
     0
176
     1
 90
        1
176
     1
 40
0.0
176
     1
 90
        0
176
     1
290
     0
176
     1
290
     1
176
     1
290
     1
176
     1
290
     0
176
     1
290
     0
176
     1
290
     0
176
     1
290
     0
176
     1
290
     0
176
     1
290
     0
176
     1
 90
       50
176
     1
 40
0.0
176
     1
 40
1.0
176
     1
 90
        0
176
     1
 62
    18
420
        0
176
     1
 90
       50
176
     1
 90
        3
176
     1
 62
     5
420
      255
176
     1
290
     0
176
     1
 90
       50
176
     1
 90
       50
176
     1
 90
       50
176
     1
290
     0
176
     1
 90
       50
176
     1
 62
   256
176
     0
 40
1.0
176
     0
 90
        2
176
     1
  1
strokes_ogs.tif
176
     1
290
     0
176
     1
 40
1.0
176
     1
 40
1.0
176
     1
  0
VISUALSTYLE
  5
40
102
{ACAD_REACTORS
330
2A
102
}
330
2A
100
AcDbVisualStyle
  2
X-Ray
 70
    25
177
     3
291
     0
 70
    58
 90
        2
176
     1
 90
        2
176
     1
 90
        1
176
     1
 90
        1
176
     1
 40
0.5
176
     1
 40
30.0
176
     1
 62
     7
420
 16777215
176
     1
 90
        1
176
     1
 90
        0
176
     1
 62
     7
176
     1
 62
   257
176
     1
 90
        1
176
     1
 90
        1
176
     1
 40
1.0
176
     1
 90
        8
176
     1
 62
     7
176
     1
 40
1.0
176
     1
 90
        1
176
     1
 90
        6
176
     1
 90
        2
176
     1
 62
     7
176
     1
 90
        3
176
     1
 90
        0
176
     1
 90
        0
176
     1
290
     0
176
     1
 90
       13
176
     1
 40
0.0
176
     1
 90
        0
176
     1
290
     0
176
     1
290
     1
176
     1
290
     1
176
     1
290
     0
176
     1
290
     0
176
     1
290
     0
176
     1
290
     0
176
     1
290
     0
176
     1
290
     0
176
     1
 90
       50
176
     1
 40
0.0
176
     1
 40
1.0
176
     1
 90
        0
176
     1
 62
    18
420
        0
176
     1
 90
       50
176
     1
 90
        3
176
     1
 62
     5
420
      255
176
     1
290
     0
176
     1
 90
       50
176
     1
 90
       50
176
     1
 90
       50
176
     1
290
     0
176
     1
 90
       50
176
     1
 62
   256
176
     0
 40
1.0
176
     0
 90
        2
176
     1
  1
strokes_ogs.tif
176
     1
290
     0
176
     1
 40
1.0
176
     1
 40
1.0
176
     1
  0
DICTIONARYVAR
  5
7D
102
{ACAD_REACTORS
330
7C
102
}
330
7C
100
DictionaryVariables
280
     0
  1
1:1
  0
DICTIONARYVAR
  5
82
102
{ACAD_REACTORS
330
7C
102
}
330
7C
100
DictionaryVariables
280
     0
  1
Standard
  0
DICTIONARYVAR
  5
81
102
{ACAD_REACTORS
330
7C
102
}
330
7C
100
DictionaryVariables
280
     0
  1
Standard
  0
DICTIONARY
  5
7E
330
5A
100
AcDbDictionary
280
     1
281
     1
  3
ACAD_ROUNDTRIP_2008_TABLESTYLE_CELLSTYLEMAP
360
7F
  0
CELLSTYLEMAP
  5
7F
102
{ACAD_REACTORS
330
7E
102
}
330
7E
100
AcDbCellStyleMap
 90
        3
300
CELLSTYLE
  1
TABLEFORMAT_BEGIN
 90
        5
170
     1
 91
        0
 92
    32768
 62
   257
 93
        1
300
CONTENTFORMAT
  1
CONTENTFORMAT_BEGIN
 90
        0
 91
        0
 92
        4
 93
        0
300

 40
0.0
140
1.0
 94
        5
 62
     0
340
11
144
0.25
309
CONTENTFORMAT_END
171
     1
301
MARGIN
  1
CELLMARGIN_BEGIN
 40
0.06
 40
0.06
 40
0.06
 40
0.06
 40
0.06
 40
0.06
309
CELLMARGIN_END
 94
        6
 95
        1
302
GRIDFORMAT
  1
GRIDFORMAT_BEGIN
 90
        0
 91
        1
 62
     0
 92
       -2
340
14
 93
        0
 40
0.045
309
GRIDFORMAT_END
 95
        2
302
GRIDFORMAT
  1
GRIDFORMAT_BEGIN
 90
        0
 91
        1
 62
     0
 92
       -2
340
14
 93
        0
 40
0.045
309
GRIDFORMAT_END
 95
        4
302
GRIDFORMAT
  1
GRIDFORMAT_BEGIN
 90
        0
 91
        1
 62
     0
 92
       -2
340
14
 93
        0
 40
0.045
309
GRIDFORMAT_END
 95
        8
302
GRIDFORMAT
  1
GRIDFORMAT_BEGIN
 90
        0
 91
        1
 62
     0
 92
       -2
340
14
 93
        0
 40
0.045
309
GRIDFORMAT_END
 95
       16
302
GRIDFORMAT
  1
GRIDFORMAT_BEGIN
 90
        0
 91
        1
 62
     0
 92
       -2
340
14
 93
        0
 40
0.045
309
GRIDFORMAT_END
 95
       32
302
GRIDFORMAT
  1
GRIDFORMAT_BEGIN
 90
        0
 91
        1
 62
     0
 92
       -2
340
14
 93
        0
 40
0.045
309
GRIDFORMAT_END
309
TABLEFORMAT_END
  1
CELLSTYLE_BEGIN
 90
        1
 91
        1
300
_TITLE
309
CELLSTYLE_END
300
CELLSTYLE
  1
TABLEFORMAT_BEGIN
 90
        5
170
     1
 91
        0
 92
        0
 62
   257
 93
        1
300
CONTENTFORMAT
  1
CONTENTFORMAT_BEGIN
 90
        0
 91
        0
 92
        4
 93
        0
300

 40
0.0
140
1.0
 94
        5
 62
     0
340
11
144
0.18
309
CONTENTFORMAT_END
171
     1
301
MARGIN
  1
CELLMARGIN_BEGIN
 40
0.06
 40
0.06
 40
0.06
 40
0.06
 40
0.06
 40
0.06
309
CELLMARGIN_END
 94
        6
 95
        1
302
GRIDFORMAT
  1
GRIDFORMAT_BEGIN
 90
        0
 91
        1
 62
     0
 92
       -2
340
14
 93
        0
 40
0.045
309
GRIDFORMAT_END
 95
        2
302
GRIDFORMAT
  1
GRIDFORMAT_BEGIN
 90
        0
 91
        1
 62
     0
 92
       -2
340
14
 93
        0
 40
0.045
309
GRIDFORMAT_END
 95
        4
302
GRIDFORMAT
  1
GRIDFORMAT_BEGIN
 90
        0
 91
        1
 62
     0
 92
       -2
340
14
 93
        0
 40
0.045
309
GRIDFORMAT_END
 95
        8
302
GRIDFORMAT
  1
GRIDFORMAT_BEGIN
 90
        0
 91
        1
 62
     0
 92
       -2
340
14
 93
        0
 40
0.045
309
GRIDFORMAT_END
 95
       16
302
GRIDFORMAT
  1
GRIDFORMAT_BEGIN
 90
        0
 91
        1
 62
     0
 92
       -2
340
14
 93
        0
 40
0.045
309
GRIDFORMAT_END
 95
       32
302
GRIDFORMAT
  1
GRIDFORMAT_BEGIN
 90
        0
 91
        1
 62
     0
 92
       -2
340
14
 93
        0
 40
0.045
309
GRIDFORMAT_END
309
TABLEFORMAT_END
  1
CELLSTYLE_BEGIN
 90
        2
 91
        1
300
_HEADER
309
CELLSTYLE_END
300
CELLSTYLE
  1
TABLEFORMAT_BEGIN
 90
        5
170
     1
 91
        0
 92
        0
 62
   257
 93
        1
300
CONTENTFORMAT
  1
CONTENTFORMAT_BEGIN
 90
        0
 91
        0
 92
        4
 93
        0
300

 40
0.0
140
1.0
 94
        2
 62
     0
340
11
144
0.18
309
CONTENTFORMAT_END
171
     1
301
MARGIN
  1
CELLMARGIN_BEGIN
 40
0.06
 40
0.06
 40
0.06
 40
0.06
 40
0.06
 40
0.06
309
CELLMARGIN_END
 94
        6
 95
        1
302
GRIDFORMAT
  1
GRIDFORMAT_BEGIN
 90
        0
 91
        1
 62
     0
 92
       -2
340
14
 93
        0
 40
0.045
309
GRIDFORMAT_END
 95
        2
302
GRIDFORMAT
  1
GRIDFORMAT_BEGIN
 90
        0
 91
        1
 62
     0
 92
       -2
340
14
 93
        0
 40
0.045
309
GRIDFORMAT_END
 95
        4
302
GRIDFORMAT
  1
GRIDFORMAT_BEGIN
 90
        0
 91
        1
 62
     0
 92
       -2
340
14
 93
        0
 40
0.045
309
GRIDFORMAT_END
 95
        8
302
GRIDFORMAT
  1
GRIDFORMAT_BEGIN
 90
        0
 91
        1
 62
     0
 92
       -2
340
14
 93
        0
 40
0.045
309
GRIDFORMAT_END
 95
       16
302
GRIDFORMAT
  1
GRIDFORMAT_BEGIN
 90
        0
 91
        1
 62
     0
 92
       -2
340
14
 93
        0
 40
0.045
309
GRIDFORMAT_END
 95
       32
302
GRIDFORMAT
  1
GRIDFORMAT_BEGIN
 90
        0
 91
        1
 62
     0
 92
       -2
340
14
 93
        0
 40
0.045
309
GRIDFORMAT_END
309
TABLEFORMAT_END
  1
CELLSTYLE_BEGIN
 90
        3
 91
        2
300
_DATA
309
CELLSTYLE_END
  0
ENDSEC
  0
EOF
