  0
SECTION
  2
HEADER
  9
$ACADVER
  1
AC1027
  9
$ACADMAINTVER
 70
   105
  9
$DWGCODEPAGE
  3
ANSI_1252
  9
$LASTSAVEDBY
  1
Office Desk
  9
$REQUIREDVERSIONS
160
                 0
  9
$INSBASE
 10
0.0
 20
0.0
 30
0.0
  9
$EXTMIN
 10
191.1858
 20
-153.0176
 30
0.0
  9
$EXTMAX
 10
1263.9909
 20
168.2402
 30
0.0
  9
$LIMMIN
 10
0.0
 20
0.0
  9
$LIMMAX
 10
12.0
 20
9.0
  9
$ORTHOMODE
 70
     0
  9
$REGENMODE
 70
     1
  9
$FILLMODE
 70
     1
  9
$QTEXTMODE
 70
     0
  9
$MIRRTEXT
 70
     1
  9
$LTSCALE
 40
1.0
  9
$ATTMODE
 70
     1
  9
$TEXTSIZE
 40
0.2
  9
$TRACEWID
 40
0.05
  9
$TEXTSTYLE
  7
Standard
  9
$CLAYER
  8
0
  9
$CELTYPE
  6
ByLayer
  9
$CECOLOR
 62
   256
  9
$CELTSCALE
 40
1.0
  9
$DISPSILH
 70
     0
  9
$DIMSCALE
 40
1.0
  9
$DIMASZ
 40
0.18
  9
$DIMEXO
 40
0.0625
  9
$DIMDLI
 40
0.38
  9
$DIMRND
 40
0.0
  9
$DIMDLE
 40
0.0
  9
$DIMEXE
 40
0.18
  9
$DIMTP
 40
0.0
  9
$DIMTM
 40
0.0
  9
$DIMTXT
 40
0.18
  9
$DIMCEN
 40
0.09
  9
$DIMTSZ
 40
0.0
  9
$DIMTOL
 70
     0
  9
$DIMLIM
 70
     0
  9
$DIMTIH
 70
     1
  9
$DIMTOH
 70
     1
  9
$DIMSE1
 70
     0
  9
$DIMSE2
 70
     0
  9
$DIMTAD
 70
     0
  9
$DIMZIN
 70
     0
  9
$DIMBLK
  1

  9
$DIMASO
 70
     1
  9
$DIMSHO
 70
     1
  9
$DIMPOST
  1

  9
$DIMAPOST
  1

  9
$DIMALT
 70
     0
  9
$DIMALTD
 70
     2
  9
$DIMALTF
 40
25.4
  9
$DIMLFAC
 40
1.0
  9
$DIMTOFL
 70
     0
  9
$DIMTVP
 40
0.0
  9
$DIMTIX
 70
     0
  9
$DIMSOXD
 70
     0
  9
$DIMSAH
 70
     0
  9
$DIMBLK1
  1

  9
$DIMBLK2
  1

  9
$DIMSTYLE
  2
Standard
  9
$DIMCLRD
 70
     0
  9
$DIMCLRE
 70
     0
  9
$DIMCLRT
 70
     0
  9
$DIMTFAC
 40
1.0
  9
$DIMGAP
 40
0.09
  9
$DIMJUST
 70
     0
  9
$DIMSD1
 70
     0
  9
$DIMSD2
 70
     0
  9
$DIMTOLJ
 70
     1
  9
$DIMTZIN
 70
     0
  9
$DIMALTZ
 70
     0
  9
$DIMALTTZ
 70
     0
  9
$DIMUPT
 70
     0
  9
$DIMDEC
 70
     4
  9
$DIMTDEC
 70
     4
  9
$DIMALTU
 70
     2
  9
$DIMALTTD
 70
     2
  9
$DIMTXSTY
  7
Standard
  9
$DIMAUNIT
 70
     0
  9
$DIMADEC
 70
     0
  9
$DIMALTRND
 40
0.0
  9
$DIMAZIN
 70
     0
  9
$DIMDSEP
 70
    46
  9
$DIMATFIT
 70
     3
  9
$DIMFRAC
 70
     0
  9
$DIMLDRBLK
  1

  9
$DIMLUNIT
 70
     2
  9
$DIMLWD
 70
    -2
  9
$DIMLWE
 70
    -2
  9
$DIMTMOVE
 70
     0
  9
$DIMFXL
 40
1.0
  9
$DIMFXLON
 70
     0
  9
$DIMJOGANG
 40
0.7853981633974483
  9
$DIMTFILL
 70
     0
  9
$DIMTFILLCLR
 70
     0
  9
$DIMARCSYM
 70
     0
  9
$DIMLTYPE
  6

  9
$DIMLTEX1
  6

  9
$DIMLTEX2
  6

  9
$DIMTXTDIRECTION
 70
     0
  9
$LUNITS
 70
     2
  9
$LUPREC
 70
     4
  9
$SKETCHINC
 40
0.1
  9
$FILLETRAD
 40
0.0
  9
$AUNITS
 70
     0
  9
$AUPREC
 70
     0
  9
$MENU
  1
.
  9
$ELEVATION
 40
0.0
  9
$PELEVATION
 40
0.0
  9
$THICKNESS
 40
0.0
  9
$LIMCHECK
 70
     0
  9
$CHAMFERA
 40
0.0
  9
$CHAMFERB
 40
0.0
  9
$CHAMFERC
 40
0.0
  9
$CHAMFERD
 40
0.0
  9
$SKPOLY
 70
     0
  9
$TDCREATE
 40
2461012.670584225
  9
$TDUCREATE
 40
2461012.441417558
  9
$TDUPDATE
 40
2461012.670584225
  9
$TDUUPDATE
 40
2461012.441417558
  9
$TDINDWG
 40
0.0000000116
  9
$TDUSRTIMER
 40
0.0000000116
  9
$USRTIMER
 70
     1
  9
$ANGBASE
 50
0.0
  9
$ANGDIR
 70
     0
  9
$PDMODE
 70
     0
  9
$PDSIZE
 40
0.0
  9
$PLINEWID
 40
0.0
  9
$SPLFRAME
 70
     0
  9
$SPLINETYPE
 70
     6
  9
$SPLINESEGS
 70
     8
  9
$HANDSEED
  5
89
  9
$SURFTAB1
 70
     6
  9
$SURFTAB2
 70
     6
  9
$SURFTYPE
 70
     6
  9
$SURFU
 70
     6
  9
$SURFV
 70
     6
  9
$UCSBASE
  2

  9
$UCSNAME
  2

  9
$UCSORG
 10
0.0
 20
0.0
 30
0.0
  9
$UCSXDIR
 10
1.0
 20
0.0
 30
0.0
  9
$UCSYDIR
 10
0.0
 20
1.0
 30
0.0
  9
$UCSORTHOREF
  2

  9
$UCSORTHOVIEW
 70
     0
  9
$UCSORGTOP
 10
0.0
 20
0.0
 30
0.0
  9
$UCSORGBOTTOM
 10
0.0
 20
0.0
 30
0.0
  9
$UCSORGLEFT
 10
0.0
 20
0.0
 30
0.0
  9
$UCSORGRIGHT
 10
0.0
 20
0.0
 30
0.0
  9
$UCSORGFRONT
 10
0.0
 20
0.0
 30
0.0
  9
$UCSORGBACK
 10
0.0
 20
0.0
 30
0.0
  9
$PUCSBASE
  2

  9
$PUCSNAME
  2

  9
$PUCSORG
 10
0.0
 20
0.0
 30
0.0
  9
$PUCSXDIR
 10
1.0
 20
0.0
 30
0.0
  9
$PUCSYDIR
 10
0.0
 20
1.0
 30
0.0
  9
$PUCSORTHOREF
  2

  9
$PUCSORTHOVIEW
 70
     0
  9
$PUCSORGTOP
 10
0.0
 20
0.0
 30
0.0
  9
$PUCSORGBOTTOM
 10
0.0
 20
0.0
 30
0.0
  9
$PUCSORGLEFT
 10
0.0
 20
0.0
 30
0.0
  9
$PUCSORGRIGHT
 10
0.0
 20
0.0
 30
0.0
  9
$PUCSORGFRONT
 10
0.0
 20
0.0
 30
0.0
  9
$PUCSORGBACK
 10
0.0
 20
0.0
 30
0.0
  9
$USERI1
 70
     0
  9
$USERI2
 70
     0
  9
$USERI3
 70
     0
  9
$USERI4
 70
     0
  9
$USERI5
 70
     0
  9
$USERR1
 40
0.0
  9
$USERR2
 40
0.0
  9
$USERR3
 40
0.0
  9
$USERR4
 40
0.0
  9
$USERR5
 40
0.0
  9
$WORLDVIEW
 70
     1
  9
$SHADEDGE
 70
     3
  9
$SHADEDIF
 70
    70
  9
$TILEMODE
 70
     1
  9
$MAXACTVP
 70
    64
  9
$PINSBASE
 10
0.0
 20
0.0
 30
0.0
  9
$PLIMCHECK
 70
     0
  9
$PEXTMIN
 10
1.000000000000000E+20
 20
1.000000000000000E+20
 30
1.000000000000000E+20
  9
$PEXTMAX
 10
-1.000000000000000E+20
 20
-1.000000000000000E+20
 30
-1.000000000000000E+20
  9
$PLIMMIN
 10
0.0
 20
0.0
  9
$PLIMMAX
 10
12.0
 20
9.0
  9
$UNITMODE
 70
     0
  9
$VISRETAIN
 70
     1
  9
$PLINEGEN
 70
     0
  9
$PSLTSCALE
 70
     1
  9
$TREEDEPTH
 70
  3020
  9
$CMLSTYLE
  2
Standard
  9
$CMLJUST
 70
     0
  9
$CMLSCALE
 40
1.0
  9
$PROXYGRAPHICS
 70
     1
  9
$MEASUREMENT
 70
     0
  9
$CELWEIGHT
370
    -1
  9
$ENDCAPS
280
     0
  9
$JOINSTYLE
280
     0
  9
$LWDISPLAY
290
     0
  9
$INSUNITS
 70
     4
  9
$HYPERLINKBASE
  1

  9
$STYLESHEET
  1

  9
$XEDIT
290
     1
  9
$CEPSNTYPE
380
     0
  9
$PSTYLEMODE
290
     1
  9
$FINGERPRINTGUID
  2
{e8b3571f-d845-483f-a742-b59cbc264dec}
  9
$VERSIONGUID
  2
{FAEB1C32-E019-11D5-929B-00C0DF256EC4}
  9
$EXTNAMES
290
     1
  9
$PSVPSCALE
 40
0.0
  9
$OLESTARTUP
290
     0
  9
$SORTENTS
280
   127
  9
$INDEXCTL
280
     0
  9
$HIDETEXT
280
     1
  9
$XCLIPFRAME
280
     2
  9
$HALOGAP
280
     0
  9
$OBSCOLOR
 70
   257
  9
$OBSLTYPE
280
     0
  9
$INTERSECTIONDISPLAY
280
     0
  9
$INTERSECTIONCOLOR
 70
   257
  9
$DIMASSOC
280
     2
  9
$PROJECTNAME
  1

  9
$CAMERADISPLAY
290
     0
  9
$LENSLENGTH
 40
50.0
  9
$CAMERAHEIGHT
 40
0.0
  9
$STEPSPERSEC
 40
2.0
  9
$STEPSIZE
 40
6.0
  9
$3DDWFPREC
 40
2.0
  9
$PSOLWIDTH
 40
0.25
  9
$PSOLHEIGHT
 40
4.0
  9
$LOFTANG1
 40
1.570796326794897
  9
$LOFTANG2
 40
1.570796326794897
  9
$LOFTMAG1
 40
0.0
  9
$LOFTMAG2
 40
0.0
  9
$LOFTPARAM
 70
     7
  9
$LOFTNORMALS
280
     1
  9
$LATITUDE
 40
37.795
  9
$LONGITUDE
 40
-122.394
  9
$NORTHDIRECTION
 40
0.0
  9
$TIMEZONE
 70
 -8000
  9
$LIGHTGLYPHDISPLAY
280
     1
  9
$TILEMODELIGHTSYNCH
280
     1
  9
$CMATERIAL
347
44
  9
$SOLIDHIST
280
     0
  9
$SHOWHIST
280
     1
  9
$DWFFRAME
280
     2
  9
$DGNFRAME
280
     2
  9
$REALWORLDSCALE
290
     1
  9
$INTERFERECOLOR
 62
   256
  9
$CSHADOW
280
     0
  9
$SHADOWPLANELOCATION
 40
0.0
  0
ENDSEC
  0
SECTION
  2
CLASSES
  0
CLASS
  1
ACDBDICTIONARYWDFLT
  2
AcDbDictionaryWithDefault
  3
ObjectDBX Classes
 90
        0
 91
        3
280
     0
281
     0
  0
CLASS
  1
VISUALSTYLE
  2
AcDbVisualStyle
  3
ObjectDBX Classes
 90
     4095
 91
        3
280
     0
281
     0
  0
CLASS
  1
MATERIAL
  2
AcDbMaterial
  3
ObjectDBX Classes
 90
     1153
 91
        3
280
     0
281
     0
  0
CLASS
  1
SCALE
  2
AcDbScale
  3
ObjectDBX Classes
 90
     1153
 91
        3
280
     0
281
     0
  0
CLASS
  1
TABLESTYLE
  2
AcDbTableStyle
  3
ObjectDBX Classes
 90
     4095
 91
        3
280
     0
281
     0
  0
CLASS
  1
MLEADERSTYLE
  2
AcDbMLeaderStyle
  3
ACDB_MLEADERSTYLE_CLASS
 90
     4095
 91
        3
280
     0
281
     0
  0
CLASS
  1
SUN
  2
AcDbSun
  3
SCENEOE
 90
     1153
 91
        3
280
     0
281
     0
  0
CLASS
  1
DICTIONARYVAR
  2
AcDbDictionaryVar
  3
ObjectDBX Classes
 90
        0
 91
        3
280
     0
281
     0
  0
CLASS
  1
CELLSTYLEMAP
  2
AcDbCellStyleMap
  3
ObjectDBX Classes
 90
     1152
 91
        3
280
     0
281
     0
  0
ENDSEC
  0
SECTION
  2
TABLES
  0
TABLE
  2
VPORT
  5
8
330
0
100
AcDbSymbolTable
 70
     1
  0
VPORT
  5
29
330
8
100
AcDbSymbolTableRecord
100
AcDbViewportTableRecord
  2
*Active
 70
     0
 10
0.0
 20
0.0
 11
1.0
 21
1.0
 12
10.42990654205607
 22
4.5
 13
0.0
 23
0.0
 14
0.5
 24
0.5
 15
0.5
 25
0.5
 16
0.0
 26
0.0
 36
1.0
 17
0.0
 27
0.0
 37
0.0
 40
9.0
 41
1.972972972850329
 42
50.0
 43
0.0
 44
0.0
 50
0.0
 51
0.0
 71
     0
 72
   100
 73
     1
 74
     3
 75
     0
 76
     0
 77
     0
 78
     0
281
     0
 65
     1
110
0.0
120
0.0
130
0.0
111
1.0
121
0.0
131
0.0
112
0.0
122
1.0
132
0.0
 79
     0
146
0.0
348
2F
 60
     3
 61
     5
292
     1
282
     1
141
0.0
142
0.0
 63
   250
361
5D
  0
ENDTAB
  0
TABLE
  2
LTYPE
  5
5
330
0
100
AcDbSymbolTable
 70
     1
  0
LTYPE
  5
14
330
5
100
AcDbSymbolTableRecord
100
AcDbLinetypeTableRecord
  2
ByBlock
 70
     0
  3

 72
    65
 73
     0
 40
0.0
  0
LTYPE
  5
15
330
5
100
AcDbSymbolTableRecord
100
AcDbLinetypeTableRecord
  2
ByLayer
 70
     0
  3

 72
    65
 73
     0
 40
0.0
  0
LTYPE
  5
16
330
5
100
AcDbSymbolTableRecord
100
AcDbLinetypeTableRecord
  2
Continuous
 70
     0
  3
Solid line
 72
    65
 73
     0
 40
0.0
  0
ENDTAB
  0
TABLE
  2
LAYER
  5
2
330
0
100
AcDbSymbolTable
 70
     2
  0
LAYER
  5
10
330
2
100
AcDbSymbolTableRecord
100
AcDbLayerTableRecord
  2
0
 70
     0
 62
     7
  6
Continuous
370
    -3
390
F
347
46
348
0
  0
LAYER
  5
5F
330
2
100
AcDbSymbolTableRecord
100
AcDbLayerTableRecord
  2
Layer 1
 70
     0
 62
     7
  6
Continuous
370
    -3
390
F
347
46
348
0
  0
ENDTAB
  0
TABLE
  2
STYLE
  5
3
330
0
100
AcDbSymbolTable
 70
     1
  0
STYLE
  5
11
330
3
100
AcDbSymbolTableRecord
100
AcDbTextStyleTableRecord
  2
Standard
 70
     0
 40
0.0
 41
1.0
 50
0.0
 71
     0
 42
0.2
  3
txt
  4

  0
ENDTAB
  0
TABLE
  2
VIEW
  5
6
330
0
100
AcDbSymbolTable
 70
     0
  0
ENDTAB
  0
TABLE
  2
UCS
  5
7
330
0
100
AcDbSymbolTable
 70
     0
  0
ENDTAB
  0
TABLE
  2
APPID
  5
9
330
0
100
AcDbSymbolTable
 70
     2
  0
APPID
  5
12
330
9
100
AcDbSymbolTableRecord
100
AcDbRegAppTableRecord
  2
ACAD
 70
     0
  0
APPID
  5
5E
330
9
100
AcDbSymbolTableRecord
100
AcDbRegAppTableRecord
  2
ODA
 70
     0
  0
ENDTAB
  0
TABLE
  2
DIMSTYLE
  5
A
330
0
100
AcDbSymbolTable
 70
     1
100
AcDbDimStyleTable
  0
DIMSTYLE
105
27
330
A
100
AcDbSymbolTableRecord
100
AcDbDimStyleTableRecord
  2
Standard
 70
     0
178
     0
340
11
  0
ENDTAB
  0
TABLE
  2
BLOCK_RECORD
  5
1
330
0
100
AcDbSymbolTable
 70
     1
  0
BLOCK_RECORD
  5
1F
330
1
100
AcDbSymbolTableRecord
100
AcDbBlockTableRecord
  2
*Model_Space
340
22
 70
     0
280
     1
281
     0
  0
BLOCK_RECORD
  5
1B
330
1
100
AcDbSymbolTableRecord
100
AcDbBlockTableRecord
  2
*Paper_Space
340
1E
 70
     0
280
     1
281
     0
  0
BLOCK_RECORD
  5
23
330
1
100
AcDbSymbolTableRecord
100
AcDbBlockTableRecord
  2
*Paper_Space0
340
26
 70
     0
280
     1
281
     0
  0
ENDTAB
  0
ENDSEC
  0
SECTION
  2
BLOCKS
  0
BLOCK
  5
20
330
1F
100
AcDbEntity
  8
0
100
AcDbBlockBegin
  2
*Model_Space
 70
     0
 10
0.0
 20
0.0
 30
0.0
  3
*Model_Space
  1

  0
ENDBLK
  5
21
330
1F
100
AcDbEntity
  8
0
100
AcDbBlockEnd
  0
BLOCK
  5
1C
330
1B
100
AcDbEntity
 67
     1
  8
0
100
AcDbBlockBegin
  2
*Paper_Space
 70
     0
 10
0.0
 20
0.0
 30
0.0
  3
*Paper_Space
  1

  0
ENDBLK
  5
1D
330
1B
100
AcDbEntity
 67
     1
  8
0
100
AcDbBlockEnd
  0
BLOCK
  5
24
330
23
100
AcDbEntity
  8
0
100
AcDbBlockBegin
  2
*Paper_Space0
 70
     0
 10
0.0
 20
0.0
 30
0.0
  3
*Paper_Space0
  1

  0
ENDBLK
  5
25
330
23
100
AcDbEntity
  8
0
100
AcDbBlockEnd
  0
ENDSEC
  0
SECTION
  2
ENTITIES
  0
LWPOLYLINE
  5
60
330
1F
100
AcDbEntity
  8
Layer 1
 62
   250
370
    18
100
AcDbPolyline
 90
        5
 70
     1
 43
0.0
 10
191.274
 20
-152.9294
 10
1263.9026
 20
-152.9294
 10
1263.9026
 20
168.152
 10
191.274
 20
168.152
 10
191.274
 20
-152.9294
  0
LWPOLYLINE
  5
61
330
1F
100
AcDbEntity
  8
Layer 1
 62
     7
370
    35
100
AcDbPolyline
 90
       33
 70
     1
 43
0.0
 10
495.1281
 20
15.9486
 10
497.9891
 20
15.6789
 10
500.6538
 20
14.9053
 10
503.0651
 20
13.6812
 10
505.166
 20
12.0601
 10
506.8993
 20
10.0952
 10
508.208
 20
7.84
 10
509.0351
 20
5.3479
 10
509.3235
 20
2.6722
 10
509.0351
 20
-0.0031
 10
508.208
 20
-2.495
 10
506.8993
 20
-4.75
 10
505.166
 20
-6.7147
 10
503.0651
 20
-8.3358
 10
500.6538
 20
-9.5598
 10
497.9891
 20
-10.3334
 10
495.1281
 20
-10.6031
 10
492.2671
 20
-10.3334
 10
489.6024
 20
-9.5598
 10
487.191
 20
-8.3358
 10
485.0901
 20
-6.7147
 10
483.3567
 20
-4.75
 10
482.0479
 20
-2.495
 10
481.2207
 20
-0.0031
 10
480.9323
 20
2.6722
 10
481.2207
 20
5.3479
 10
482.0479
 20
7.84
 10
483.3567
 20
10.0952
 10
485.0901
 20
12.0601
 10
487.191
 20
13.6812
 10
489.6024
 20
14.9053
 10
492.2671
 20
15.6789
 10
495.1281
 20
15.9486
  0
LWPOLYLINE
  5
62
330
1F
100
AcDbEntity
  8
Layer 1
 62
     7
370
    35
100
AcDbPolyline
 90
       33
 70
     1
 43
0.0
 10
495.1281
 20
10.2871
 10
496.769
 20
10.1324
 10
498.2973
 20
9.6887
 10
499.6804
 20
8.9866
 10
500.8854
 20
8.0567
 10
501.8797
 20
6.9297
 10
502.6304
 20
5.6362
 10
503.1049
 20
4.2068
 10
503.2703
 20
2.6722
 10
503.1049
 20
1.1377
 10
502.6304
 20
-0.2914
 10
501.8797
 20
-1.5848
 10
500.8854
 20
-2.7116
 10
499.6804
 20
-3.6413
 10
498.2973
 20
-4.3433
 10
496.769
 20
-4.7869
 10
495.1281
 20
-4.9416
 10
493.4871
 20
-4.7869
 10
491.9588
 20
-4.3433
 10
490.5758
 20
-3.6413
 10
489.3709
 20
-2.7116
 10
488.3768
 20
-1.5848
 10
487.6262
 20
-0.2914
 10
487.1519
 20
1.1377
 10
486.9865
 20
2.6722
 10
487.1519
 20
4.2068
 10
487.6262
 20
5.6362
 10
488.3768
 20
6.9297
 10
489.3709
 20
8.0567
 10
490.5758
 20
8.9866
 10
491.9588
 20
9.6887
 10
493.4871
 20
10.1324
 10
495.1281
 20
10.2871
  0
LWPOLYLINE
  5
63
330
1F
100
AcDbEntity
  8
Layer 1
 62
     7
370
    35
100
AcDbPolyline
 90
        4
 70
     0
 43
0.0
 10
357.7998
 20
-80.717
 10
314.4215
 20
-80.717
 10
314.4215
 20
87.1858
 10
356.0647
 20
87.1858
  0
LWPOLYLINE
  5
64
330
1F
100
AcDbEntity
  8
Layer 1
 62
     7
370
    35
100
AcDbPolyline
 90
        2
 70
     0
 43
0.0
 10
317.1516
 20
-78.7901
 10
312.3567
 20
-82.1889
  0
LWPOLYLINE
  5
65
330
1F
100
AcDbEntity
  8
Layer 1
 62
     7
370
    35
100
AcDbPolyline
 90
        2
 70
     0
 43
0.0
 10
317.2052
 20
88.8852
 10
312.4097
 20
85.486
  0
LWPOLYLINE
  5
66
330
1F
100
AcDbEntity
  8
Layer 1
 62
     7
100
AcDbPolyline
 90
      137
 70
     1
 43
0.0
 10
254.6393
 20
-2.5965
 10
254.8111
 20
-2.5197
 10
254.9777
 20
-2.436
 10
255.139
 20
-2.3455
 10
255.2951
 20
-2.248
 10
255.4459
 20
-2.1438
 10
255.5915
 20
-2.0326
 10
255.7317
 20
-1.9146
 10
255.8667
 20
-1.7897
 10
256.1328
 20
-1.5076
 10
256.3633
 20
-1.2098
 10
256.5584
 20
-0.8962
 10
256.718
 20
-0.5669
 10
256.8421
 20
-0.2218
 10
256.9307
 20
0.139
 10
256.9839
 20
0.5155
 10
257.0016
 20
0.9078
 10
256.9836
 20
1.3005
 10
256.9296
 20
1.6779
 10
256.8397
 20
2.0401
 10
256.7137
 20
2.387
 10
256.5518
 20
2.7188
 10
256.3538
 20
3.0352
 10
256.1199
 20
3.3365
 10
255.8499
 20
3.6226
 10
255.571
 20
3.8694
 10
255.2742
 20
4.0868
 10
254.9595
 20
4.2748
 10
254.6268
 20
4.4335
 10
254.2763
 20
4.5627
 10
253.908
 20
4.6625
 10
253.5218
 20
4.7329
 10
253.1178
 20
4.774
 10
252.6135
 20
4.4714
 10
256.1946
 20
8.7072
 10
250.041
 20
8.7072
 10
250.041
 20
7.5303
 10
253.8072
 20
7.5303
 10
250.3433
 20
3.4964
 10
251.2347
 20
2.7734
 10
251.4412
 20
2.9625
 10
251.6571
 20
3.1264
 10
251.8825
 20
3.2651
 10
252.1174
 20
3.3785
 10
252.3617
 20
3.4668
 10
252.6155
 20
3.5298
 10
252.8788
 20
3.5676
 10
253.1516
 20
3.5802
 10
253.4238
 20
3.568
 10
253.6858
 20
3.5314
 10
253.9376
 20
3.4704
 10
254.1791
 20
3.385
 10
254.4104
 20
3.2751
 10
254.6315
 20
3.1409
 10
254.8423
 20
2.9822
 10
255.0428
 20
2.799
 10
255.226
 20
2.5987
 10
255.3849
 20
2.3887
 10
255.5193
 20
2.169
 10
255.6293
 20
1.9396
 10
255.7148
 20
1.7004
 10
255.7759
 20
1.4515
 10
255.8126
 20
1.1929
 10
255.8248
 20
0.9247
 10
255.8123
 20
0.6624
 10
255.7749
 20
0.409
 10
255.7125
 20
0.1645
 10
255.6252
 20
-0.0711
 10
255.5128
 20
-0.2977
 10
255.3755
 20
-0.5155
 10
255.2133
 20
-0.7243
 10
255.026
 20
-0.9241
 10
254.9338
 20
-1.0102
 10
254.8375
 20
-1.0918
 10
254.7373
 20
-1.1689
 10
254.6331
 20
-1.2416
 10
254.525
 20
-1.3097
 10
254.4129
 20
-1.3734
 10
254.2969
 20
-1.4327
 10
254.177
 20
-1.4875
 10
254.052
 20
-1.5367
 10
253.9206
 20
-1.5793
 10
253.783
 20
-1.6154
 10
253.639
 20
-1.645
 10
253.4887
 20
-1.668
 10
253.3322
 20
-1.6844
 10
253.1693
 20
-1.6943
 10
253.0002
 20
-1.6976
 10
252.8279
 20
-1.6904
 10
252.6555
 20
-1.6687
 10
252.4831
 20
-1.6325
 10
252.3108
 20
-1.5819
 10
252.1384
 20
-1.5169
 10
251.966
 20
-1.4373
 10
251.7937
 20
-1.3434
 10
251.6214
 20
-1.2349
 10
251.4554
 20
-1.1143
 10
251.302
 20
-0.9834
 10
251.1612
 20
-0.8423
 10
251.033
 20
-0.6909
 10
250.9174
 20
-0.5293
 10
250.8144
 20
-0.3574
 10
250.724
 20
-0.1752
 10
250.6461
 20
0.0172
 10
249.503
 20
-0.3694
 10
249.6116
 20
-0.6433
 10
249.7399
 20
-0.9041
 10
249.8879
 20
-1.1518
 10
250.0556
 20
-1.3864
 10
250.243
 20
-1.6078
 10
250.4502
 20
-1.8161
 10
250.6771
 20
-2.0112
 10
250.9238
 20
-2.1931
 10
251.0449
 20
-2.2729
 10
251.169
 20
-2.3482
 10
251.296
 20
-2.419
 10
251.4259
 20
-2.4853
 10
251.5587
 20
-2.5471
 10
251.6943
 20
-2.6045
 10
251.8329
 20
-2.6574
 10
251.9743
 20
-2.7059
 10
252.1193
 20
-2.7492
 10
252.2681
 20
-2.7868
 10
252.421
 20
-2.8186
 10
252.5777
 20
-2.8446
 10
252.7384
 20
-2.8649
 10
252.9031
 20
-2.8793
 10
253.0716
 20
-2.888
 10
253.2441
 20
-2.8909
 10
253.4184
 20
-2.8863
 10
253.5928
 20
-2.8725
 10
253.7671
 20
-2.8495
 10
253.9416
 20
-2.8172
 10
254.116
 20
-2.7758
 10
254.2904
 20
-2.7252
 10
254.4649
 20
-2.6655
 10
254.6393
 20
-2.5965
  0
LWPOLYLINE
  5
67
330
1F
100
AcDbEntity
  8
Layer 1
 62
     7
100
AcDbPolyline
 90
        7
 70
     1
 43
0.0
 10
260.0451
 20
-2.7227
 10
265.0724
 20
8.6566
 10
257.893
 20
8.6566
 10
257.893
 20
7.4802
 10
263.24
 20
7.4802
 10
258.7338
 20
-2.7227
 10
260.0451
 20
-2.7227
  0
LWPOLYLINE
  5
68
330
1F
100
AcDbEntity
  8
Layer 1
 62
     7
100
AcDbPolyline
 90
       92
 70
     1
 43
0.0
 10
271.3021
 20
7.379
 10
271.4962
 20
7.2472
 10
271.6772
 20
7.0975
 10
271.8451
 20
6.9299
 10
271.9999
 20
6.7446
 10
272.1415
 20
6.5413
 10
272.27
 20
6.3202
 10
272.3854
 20
6.0811
 10
272.4876
 20
5.8242
 10
272.6018
 20
5.4836
 10
272.7008
 20
5.1379
 10
272.7846
 20
4.7872
 10
272.8531
 20
4.4315
 10
272.9065
 20
4.0707
 10
272.9445
 20
3.705
 10
272.9674
 20
3.3343
 10
272.975
 20
2.9585
 10
272.9248
 20
2.1267
 10
272.8664
 20
1.6748
 10
272.7901
 20
1.2479
 10
272.696
 20
0.846
 10
272.5841
 20
0.469
 10
272.4543
 20
0.1169
 10
272.3067
 20
-0.2102
 10
272.1412
 20
-0.5124
 10
271.9578
 20
-0.7896
 10
271.7904
 20
-0.9985
 10
271.6142
 20
-1.1796
 10
271.429
 20
-1.3327
 10
271.2349
 20
-1.4581
 10
271.0318
 20
-1.5555
 10
270.8198
 20
-1.6251
 10
270.5988
 20
-1.6669
 10
270.3688
 20
-1.6808
 10
270.1123
 20
-1.667
 10
269.8681
 20
-1.6256
 10
269.6363
 20
-1.5566
 10
269.4168
 20
-1.4601
 10
269.2096
 20
-1.3359
 10
269.0148
 20
-1.1843
 10
268.8323
 20
-1.005
 10
268.6621
 20
-0.7983
 10
268.5215
 20
-0.5944
 10
268.3933
 20
-0.3779
 10
268.2776
 20
-0.1488
 10
268.1747
 20
0.0928
 10
268.0839
 20
0.3423
 10
268.0046
 20
0.595
 10
267.9368
 20
0.8507
 10
267.8806
 20
1.1097
 10
267.7375
 20
2.118
 10
267.6955
 20
3.2414
 10
267.6984
 20
3.4048
 10
267.7071
 20
3.5777
 10
267.7215
 20
3.7601
 10
267.7418
 20
3.9521
 10
267.7678
 20
4.1536
 10
267.7996
 20
4.3648
 10
267.8372
 20
4.5855
 10
267.8806
 20
4.816
 10
267.9362
 20
5.0717
 10
268.0024
 20
5.3264
 10
268.0792
 20
5.5801
 10
268.1665
 20
5.8329
 10
268.2657
 20
6.0786
 10
268.3787
 20
6.3118
 10
268.5054
 20
6.5324
 10
268.6457
 20
6.7404
 10
268.7211
 20
6.8388
 10
268.8002
 20
6.9321
 10
268.8829
 20
7.0205
 10
268.9693
 20
7.104
 10
269.0594
 20
7.1824
 10
269.1531
 20
7.2558
 10
269.2505
 20
7.3243
 10
269.3515
 20
7.3877
 10
269.4569
 20
7.4448
 10
269.567
 20
7.4943
 10
269.6818
 20
7.5362
 10
269.8014
 20
7.5705
 10
269.9257
 20
7.5972
 10
270.0546
 20
7.6162
 10
270.1884
 20
7.6277
 10
270.3268
 20
7.6315
 10
270.4653
 20
7.6275
 10
270.599
 20
7.6157
 10
270.728
 20
7.596
 10
270.8523
 20
7.5683
 10
270.9718
 20
7.5328
 10
271.0866
 20
7.4894
 10
271.1967
 20
7.4381
 10
271.3021
 20
7.379
  0
LWPOLYLINE
  5
69
330
1F
100
AcDbEntity
  8
Layer 1
 62
     7
100
AcDbPolyline
 90
       65
 70
     1
 43
0.0
 10
270.3856
 20
-2.8741
 10
270.8765
 20
-2.843
 10
271.3362
 20
-2.7496
 10
271.7646
 20
-2.5939
 10
272.1617
 20
-2.376
 10
272.5275
 20
-2.0959
 10
272.862
 20
-1.7536
 10
273.1653
 20
-1.349
 10
273.4373
 20
-0.8822
 10
273.6285
 20
-0.4749
 10
273.7942
 20
-0.045
 10
273.9344
 20
0.4076
 10
274.0491
 20
0.8827
 10
274.1383
 20
1.3805
 10
274.202
 20
1.9008
 10
274.2403
 20
2.4437
 10
274.253
 20
3.0091
 10
274.2403
 20
3.5745
 10
274.202
 20
4.1174
 10
274.1383
 20
4.6376
 10
274.0491
 20
5.1353
 10
273.9344
 20
5.6104
 10
273.7942
 20
6.063
 10
273.6285
 20
6.493
 10
273.4373
 20
6.9004
 10
273.1653
 20
7.3672
 10
272.862
 20
7.7717
 10
272.5275
 20
8.114
 10
272.1617
 20
8.394
 10
271.7646
 20
8.6118
 10
271.3362
 20
8.7674
 10
270.8765
 20
8.8607
 10
270.3856
 20
8.8918
 10
269.8948
 20
8.8607
 10
269.4353
 20
8.7674
 10
269.007
 20
8.6118
 10
268.6099
 20
8.394
 10
268.2441
 20
8.114
 10
267.9094
 20
7.7717
 10
267.6061
 20
7.3672
 10
267.3339
 20
6.9004
 10
267.1429
 20
6.493
 10
266.9773
 20
6.063
 10
266.8372
 20
5.6104
 10
266.7226
 20
5.1353
 10
266.6334
 20
4.6376
 10
266.5697
 20
4.1174
 10
266.5314
 20
3.5745
 10
266.5187
 20
3.0091
 10
266.5314
 20
2.4437
 10
266.5697
 20
1.9008
 10
266.6334
 20
1.3805
 10
266.7226
 20
0.8827
 10
266.8372
 20
0.4076
 10
266.9773
 20
-0.045
 10
267.1429
 20
-0.4749
 10
267.3339
 20
-0.8822
 10
267.6061
 20
-1.349
 10
267.9094
 20
-1.7536
 10
268.2441
 20
-2.0959
 10
268.6099
 20
-2.376
 10
269.007
 20
-2.5939
 10
269.4353
 20
-2.7496
 10
269.8948
 20
-2.843
 10
270.3856
 20
-2.8741
  0
LWPOLYLINE
  5
6A
330
1F
100
AcDbEntity
  8
Layer 1
 62
     7
100
AcDbPolyline
 90
      162
 70
     1
 43
0.0
 10
285.7371
 20
-2.689
 10
286.9139
 20
-2.689
 10
286.9139
 20
1.9334
 10
286.9043
 20
2.2403
 10
286.8756
 20
2.5327
 10
286.8276
 20
2.8107
 10
286.7605
 20
3.0742
 10
286.6742
 20
3.3233
 10
286.5688
 20
3.558
 10
286.4441
 20
3.7783
 10
286.3002
 20
3.9841
 10
286.22
 20
4.0824
 10
286.1347
 20
4.1758
 10
286.0444
 20
4.2641
 10
285.9492
 20
4.3474
 10
285.8489
 20
4.4258
 10
285.7437
 20
4.4991
 10
285.6334
 20
4.5675
 10
285.5182
 20
4.6309
 10
285.3958
 20
4.688
 10
285.2639
 20
4.7375
 10
285.1226
 20
4.7794
 10
284.9718
 20
4.8138
 10
284.8116
 20
4.8404
 10
284.6418
 20
4.8595
 10
284.4626
 20
4.871
 10
284.2739
 20
4.8748
 10
284.0837
 20
4.8682
 10
283.8994
 20
4.8485
 10
283.7212
 20
4.8156
 10
283.549
 20
4.7697
 10
283.3829
 20
4.7105
 10
283.2228
 20
4.6383
 10
283.0687
 20
4.553
 10
282.9207
 20
4.4545
 10
282.7922
 20
4.3563
 10
282.6694
 20
4.2508
 10
282.5524
 20
4.1381
 10
282.4413
 20
4.0182
 10
282.3359
 20
3.8912
 10
282.2364
 20
3.7572
 10
282.1427
 20
3.6163
 10
282.0548
 20
3.4684
 10
281.9863
 20
3.605
 10
281.9116
 20
3.7368
 10
281.8306
 20
3.8633
 10
281.7434
 20
3.9841
 10
281.6632
 20
4.0824
 10
281.578
 20
4.1758
 10
281.4878
 20
4.2641
 10
281.3926
 20
4.3474
 10
281.2925
 20
4.4258
 10
281.1873
 20
4.4991
 10
281.0771
 20
4.5675
 10
280.9619
 20
4.6309
 10
280.8395
 20
4.688
 10
280.7076
 20
4.7375
 10
280.5662
 20
4.7794
 10
280.4154
 20
4.8138
 10
280.2551
 20
4.8404
 10
280.0853
 20
4.8595
 10
279.9062
 20
4.871
 10
279.7176
 20
4.8748
 10
279.5272
 20
4.8682
 10
279.3429
 20
4.8485
 10
279.1647
 20
4.8156
 10
278.9925
 20
4.7697
 10
278.8263
 20
4.7105
 10
278.6662
 20
4.6383
 10
278.5121
 20
4.553
 10
278.3639
 20
4.4545
 10
278.2416
 20
4.361
 10
278.1245
 20
4.2612
 10
278.0126
 20
4.155
 10
277.9059
 20
4.0424
 10
277.8045
 20
3.9233
 10
277.7083
 20
3.7978
 10
277.6174
 20
3.6658
 10
277.5318
 20
3.5272
 10
277.5318
 20
4.7066
 10
276.355
 20
4.7066
 10
276.355
 20
-2.689
 10
277.5318
 20
-2.689
 10
277.5318
 20
1.0958
 10
277.5591
 20
1.3163
 10
277.5949
 20
1.5282
 10
277.639
 20
1.7315
 10
277.6916
 20
1.9264
 10
277.7526
 20
2.1129
 10
277.822
 20
2.291
 10
277.8997
 20
2.4609
 10
277.9859
 20
2.6226
 10
278.0561
 20
2.7376
 10
278.132
 20
2.8473
 10
278.2137
 20
2.9518
 10
278.3012
 20
3.051
 10
278.3944
 20
3.145
 10
278.4934
 20
3.2338
 10
278.5981
 20
3.3173
 10
278.7086
 20
3.3956
 10
278.8232
 20
3.4665
 10
278.9398
 20
3.5279
 10
279.0586
 20
3.5799
 10
279.1794
 20
3.6225
 10
279.3024
 20
3.6557
 10
279.4274
 20
3.6793
 10
279.5546
 20
3.6936
 10
279.6839
 20
3.6983
 10
279.81
 20
3.6958
 10
279.9278
 20
3.6883
 10
280.0371
 20
3.6758
 10
280.138
 20
3.6582
 10
280.2304
 20
3.6357
 10
280.3145
 20
3.6082
 10
280.3901
 20
3.5758
 10
280.4572
 20
3.5383
 10
280.6267
 20
3.4131
 10
280.7736
 20
3.2664
 10
280.8979
 20
3.0981
 10
280.9995
 20
2.9083
 10
281.0786
 20
2.6969
 10
281.1351
 20
2.464
 10
281.169
 20
2.2095
 10
281.1803
 20
1.9334
 10
281.1803
 20
-2.689
 10
282.3571
 20
-2.689
 10
282.3571
 20
1.9334
 10
282.3489
 20
2.2163
 10
282.5422
 20
2.6226
 10
282.6124
 20
2.7376
 10
282.6883
 20
2.8473
 10
282.77
 20
2.9518
 10
282.8575
 20
3.051
 10
282.9508
 20
3.145
 10
283.0499
 20
3.2338
 10
283.1547
 20
3.3173
 10
283.2654
 20
3.3956
 10
283.38
 20
3.4665
 10
283.4966
 20
3.5279
 10
283.6154
 20
3.5799
 10
283.7362
 20
3.6225
 10
283.8592
 20
3.6557
 10
283.9842
 20
3.6793
 10
284.1114
 20
3.6936
 10
284.2407
 20
3.6983
 10
284.3667
 20
3.6958
 10
284.4843
 20
3.6883
 10
284.5935
 20
3.6758
 10
284.6944
 20
3.6582
 10
284.7869
 20
3.6357
 10
284.871
 20
3.6082
 10
284.9467
 20
3.5758
 10
285.014
 20
3.5383
 10
285.1835
 20
3.4131
 10
285.3304
 20
3.2664
 10
285.4547
 20
3.0981
 10
285.5563
 20
2.9083
 10
285.6354
 20
2.6969
 10
285.6919
 20
2.464
 10
285.7258
 20
2.2095
 10
285.7371
 20
1.9334
 10
285.7371
 20
-2.689
  0
LWPOLYLINE
  5
6B
330
1F
100
AcDbEntity
  8
Layer 1
 62
     7
100
AcDbPolyline
 90
      162
 70
     1
 43
0.0
 10
298.5658
 20
-2.689
 10
299.7426
 20
-2.689
 10
299.7426
 20
1.9334
 10
299.733
 20
2.2403
 10
299.7043
 20
2.5327
 10
299.6563
 20
2.8107
 10
299.5892
 20
3.0742
 10
299.5029
 20
3.3233
 10
299.3975
 20
3.558
 10
299.2728
 20
3.7783
 10
299.1289
 20
3.9841
 10
299.0487
 20
4.0824
 10
298.9634
 20
4.1758
 10
298.8731
 20
4.2641
 10
298.7778
 20
4.3474
 10
298.6776
 20
4.4258
 10
298.5723
 20
4.4991
 10
298.4621
 20
4.5675
 10
298.3469
 20
4.6309
 10
298.2245
 20
4.688
 10
298.0926
 20
4.7375
 10
297.9513
 20
4.7794
 10
297.8005
 20
4.8138
 10
297.6402
 20
4.8404
 10
297.4705
 20
4.8595
 10
297.2913
 20
4.871
 10
297.1026
 20
4.8748
 10
296.9123
 20
4.8682
 10
296.7281
 20
4.8485
 10
296.5499
 20
4.8156
 10
296.3777
 20
4.7697
 10
296.2115
 20
4.7105
 10
296.0514
 20
4.6383
 10
295.8973
 20
4.553
 10
295.7493
 20
4.4545
 10
295.6208
 20
4.3563
 10
295.4981
 20
4.2508
 10
295.3811
 20
4.1381
 10
295.27
 20
4.0182
 10
295.1646
 20
3.8912
 10
295.0651
 20
3.7572
 10
294.9714
 20
3.6163
 10
294.8835
 20
3.4684
 10
294.815
 20
3.605
 10
294.7403
 20
3.7368
 10
294.6593
 20
3.8633
 10
294.5721
 20
3.9841
 10
294.4919
 20
4.0824
 10
294.4067
 20
4.1758
 10
294.3165
 20
4.2641
 10
294.2213
 20
4.3474
 10
294.1211
 20
4.4258
 10
294.0159
 20
4.4991
 10
293.9058
 20
4.5675
 10
293.7906
 20
4.6309
 10
293.6681
 20
4.688
 10
293.5362
 20
4.7375
 10
293.3948
 20
4.7794
 10
293.244
 20
4.8138
 10
293.0837
 20
4.8404
 10
292.914
 20
4.8595
 10
292.7348
 20
4.871
 10
292.5463
 20
4.8748
 10
292.3559
 20
4.8682
 10
292.1716
 20
4.8485
 10
291.9933
 20
4.8156
 10
291.8211
 20
4.7697
 10
291.655
 20
4.7105
 10
291.4948
 20
4.6383
 10
291.3407
 20
4.553
 10
291.1925
 20
4.4545
 10
291.0702
 20
4.361
 10
290.9531
 20
4.2612
 10
290.8412
 20
4.155
 10
290.7345
 20
4.0424
 10
290.6331
 20
3.9233
 10
290.5369
 20
3.7978
 10
290.446
 20
3.6658
 10
290.3604
 20
3.5272
 10
290.3604
 20
4.7066
 10
289.1836
 20
4.7066
 10
289.1836
 20
-2.689
 10
290.3604
 20
-2.689
 10
290.3604
 20
1.0958
 10
290.3877
 20
1.3163
 10
290.4235
 20
1.5282
 10
290.4677
 20
1.7315
 10
290.5202
 20
1.9264
 10
290.5812
 20
2.1129
 10
290.6506
 20
2.291
 10
290.7284
 20
2.4609
 10
290.8146
 20
2.6226
 10
290.8847
 20
2.7376
 10
290.9607
 20
2.8473
 10
291.0423
 20
2.9518
 10
291.1298
 20
3.051
 10
291.223
 20
3.145
 10
291.322
 20
3.2338
 10
291.4267
 20
3.3173
 10
291.5372
 20
3.3956
 10
291.6518
 20
3.4665
 10
291.7685
 20
3.5279
 10
291.8872
 20
3.5799
 10
292.0081
 20
3.6225
 10
292.131
 20
3.6557
 10
292.256
 20
3.6793
 10
292.3832
 20
3.6936
 10
292.5125
 20
3.6983
 10
292.6386
 20
3.6958
 10
292.7564
 20
3.6883
 10
292.8657
 20
3.6758
 10
292.9666
 20
3.6582
 10
293.059
 20
3.6357
 10
293.1431
 20
3.6082
 10
293.2187
 20
3.5758
 10
293.2858
 20
3.5383
 10
293.4553
 20
3.4131
 10
293.6022
 20
3.2664
 10
293.7265
 20
3.0981
 10
293.8282
 20
2.9083
 10
293.9073
 20
2.6969
 10
293.9638
 20
2.464
 10
293.9977
 20
2.2095
 10
294.009
 20
1.9334
 10
294.009
 20
-2.689
 10
295.1858
 20
-2.689
 10
295.1858
 20
1.9334
 10
295.1776
 20
2.2163
 10
295.3709
 20
2.6226
 10
295.441
 20
2.7376
 10
295.517
 20
2.8473
 10
295.5987
 20
2.9518
 10
295.6862
 20
3.051
 10
295.7795
 20
3.145
 10
295.8785
 20
3.2338
 10
295.9834
 20
3.3173
 10
296.094
 20
3.3956
 10
296.2086
 20
3.4665
 10
296.3253
 20
3.5279
 10
296.444
 20
3.5799
 10
296.5649
 20
3.6225
 10
296.6878
 20
3.6557
 10
296.8128
 20
3.6793
 10
296.94
 20
3.6936
 10
297.0693
 20
3.6983
 10
297.1953
 20
3.6958
 10
297.3129
 20
3.6883
 10
297.4222
 20
3.6758
 10
297.523
 20
3.6582
 10
297.6155
 20
3.6357
 10
297.6996
 20
3.6082
 10
297.7753
 20
3.5758
 10
297.8426
 20
3.5383
 10
298.0121
 20
3.4131
 10
298.159
 20
3.2664
 10
298.2833
 20
3.0981
 10
298.385
 20
2.9083
 10
298.4641
 20
2.6969
 10
298.5206
 20
2.464
 10
298.5545
 20
2.2095
 10
298.5658
 20
1.9334
 10
298.5658
 20
-2.689
  0
LWPOLYLINE
  5
6C
330
1F
100
AcDbEntity
  8
Layer 1
 62
     7
370
    35
100
AcDbPolyline
 90
       37
 70
     1
 43
0.0
 10
386.7325
 20
89.5363
 10
601.3635
 20
89.5363
 10
605.0072
 20
89.1662
 10
608.4064
 20
88.1054
 10
611.4869
 20
86.4283
 10
614.1742
 20
84.2094
 10
616.3939
 20
81.5228
 10
618.0715
 20
78.4432
 10
619.1326
 20
75.0447
 10
619.5029
 20
71.4019
 10
619.5029
 20
-66.0575
 10
619.1326
 20
-69.7
 10
618.0715
 20
-73.0983
 10
616.3939
 20
-76.1778
 10
614.1742
 20
-78.8643
 10
611.4869
 20
-81.0833
 10
608.4064
 20
-82.7604
 10
605.0072
 20
-83.8213
 10
601.3635
 20
-84.1914
 10
386.7325
 20
-84.1914
 10
383.0884
 20
-83.8213
 10
379.6889
 20
-82.7604
 10
376.6083
 20
-81.0833
 10
373.921
 20
-78.8643
 10
371.7014
 20
-76.1778
 10
370.0239
 20
-73.0983
 10
368.9628
 20
-69.7
 10
368.5926
 20
-66.0575
 10
368.5926
 20
71.4019
 10
368.9628
 20
75.0447
 10
370.0239
 20
78.4432
 10
371.7014
 20
81.5228
 10
373.921
 20
84.2094
 10
376.6083
 20
86.4283
 10
379.6889
 20
88.1054
 10
383.0884
 20
89.1662
 10
386.7325
 20
89.5363
  0
LWPOLYLINE
  5
6D
330
1F
100
AcDbEntity
  8
Layer 1
 62
     7
370
    35
100
AcDbPolyline
 90
       37
 70
     1
 43
0.0
 10
389.5465
 20
87.2581
 10
598.5504
 20
87.2581
 10
602.0984
 20
86.8977
 10
605.4085
 20
85.8648
 10
608.4081
 20
84.2318
 10
611.0249
 20
82.0711
 10
613.1862
 20
79.4552
 10
614.8198
 20
76.4564
 10
615.8531
 20
73.1471
 10
616.2136
 20
69.5999
 10
616.2136
 20
-64.2554
 10
615.8531
 20
-67.8024
 10
614.8198
 20
-71.1114
 10
613.1862
 20
-74.1101
 10
611.0249
 20
-76.7261
 10
608.4081
 20
-78.8868
 10
605.4085
 20
-80.5198
 10
602.0984
 20
-81.5528
 10
598.5504
 20
-81.9132
 10
389.5465
 20
-81.9132
 10
385.998
 20
-81.5528
 10
382.6876
 20
-80.5198
 10
379.6877
 20
-78.8868
 10
377.0708
 20
-76.7261
 10
374.9093
 20
-74.1101
 10
373.2757
 20
-71.1114
 10
372.2424
 20
-67.8024
 10
371.8819
 20
-64.2554
 10
371.8819
 20
69.5999
 10
372.2424
 20
73.1471
 10
373.2757
 20
76.4564
 10
374.9093
 20
79.4552
 10
377.0708
 20
82.0711
 10
379.6877
 20
84.2318
 10
382.6876
 20
85.8648
 10
385.998
 20
86.8977
 10
389.5465
 20
87.2581
  0
LWPOLYLINE
  5
6E
330
1F
100
AcDbEntity
  8
Layer 1
 62
     7
370
    35
100
AcDbPolyline
 90
        4
 70
     0
 43
0.0
 10
792.1372
 20
-56.0719
 10
759.8307
 20
-56.0719
 10
759.8307
 20
34.996
 10
790.8439
 20
34.996
  0
LWPOLYLINE
  5
6F
330
1F
100
AcDbEntity
  8
Layer 1
 62
     7
370
    35
100
AcDbPolyline
 90
        2
 70
     0
 43
0.0
 10
761.8646
 20
-55.0273
 10
758.2936
 20
-56.8713
  0
LWPOLYLINE
  5
70
330
1F
100
AcDbEntity
  8
Layer 1
 62
     7
370
    35
100
AcDbPolyline
 90
        2
 70
     0
 43
0.0
 10
761.9047
 20
35.918
 10
758.3337
 20
34.074
  0
LWPOLYLINE
  5
71
330
1F
100
AcDbEntity
  8
Layer 1
 62
     7
100
AcDbPolyline
 90
        7
 70
     1
 43
0.0
 10
671.0693
 20
-17.4922
 10
672.7455
 20
-17.4922
 10
672.7455
 20
-3.652
 10
668.7217
 20
-4.0141
 10
668.7217
 20
-5.2411
 10
671.0693
 20
-5.2411
 10
671.0693
 20
-17.4922
  0
LWPOLYLINE
  5
72
330
1F
100
AcDbEntity
  8
Layer 1
 62
     7
100
AcDbPolyline
 90
      136
 70
     1
 43
0.0
 10
678.6858
 20
-8.8824
 10
679.7877
 20
-5.2212
 10
685.6798
 20
-5.2212
 10
685.6798
 20
-3.8128
 10
678.5181
 20
-3.8128
 10
676.6498
 20
-9.9486
 10
678.4706
 20
-10.6323
 10
678.7346
 20
-10.4815
 10
679.0116
 20
-10.3508
 10
679.3018
 20
-10.2402
 10
679.6051
 20
-10.1496
 10
679.9214
 20
-10.0791
 10
680.2509
 20
-10.0288
 10
680.5935
 20
-9.9986
 10
680.9492
 20
-9.9885
 10
681.307
 20
-10.0033
 10
681.6529
 20
-10.0476
 10
681.9868
 20
-10.1215
 10
682.3087
 20
-10.225
 10
682.6185
 20
-10.3579
 10
682.9164
 20
-10.5204
 10
683.2023
 20
-10.7124
 10
683.4761
 20
-10.9339
 10
683.7344
 20
-11.1812
 10
683.9582
 20
-11.4376
 10
684.1475
 20
-11.7031
 10
684.3025
 20
-11.9777
 10
684.423
 20
-12.2614
 10
684.509
 20
-12.5543
 10
684.5607
 20
-12.8562
 10
684.5779
 20
-13.1673
 10
684.5603
 20
-13.4889
 10
684.5076
 20
-13.7976
 10
684.4197
 20
-14.0935
 10
684.2967
 20
-14.3766
 10
684.1384
 20
-14.6467
 10
683.945
 20
-14.9039
 10
683.7163
 20
-15.1483
 10
683.4523
 20
-15.3797
 10
683.3182
 20
-15.4827
 10
683.1793
 20
-15.5803
 10
683.0354
 20
-15.6725
 10
682.8867
 20
-15.7594
 10
682.7331
 20
-15.841
 10
682.5747
 20
-15.9172
 10
682.4114
 20
-15.9881
 10
682.2432
 20
-16.0536
 10
682.0675
 20
-16.1126
 10
681.8822
 20
-16.1636
 10
681.6872
 20
-16.2069
 10
681.4824
 20
-16.2422
 10
681.268
 20
-16.2697
 10
681.0438
 20
-16.2894
 10
680.8099
 20
-16.3012
 10
680.5663
 20
-16.3051
 10
680.318
 20
-16.2963
 10
680.0701
 20
-16.2699
 10
679.8226
 20
-16.226
 10
679.5754
 20
-16.1644
 10
679.3286
 20
-16.0853
 10
679.0821
 20
-15.9885
 10
678.8359
 20
-15.8742
 10
678.5901
 20
-15.7423
 10
678.3536
 20
-15.5961
 10
678.1351
 20
-15.4391
 10
677.9346
 20
-15.2715
 10
677.752
 20
-15.0933
 10
677.5873
 20
-14.9043
 10
677.4406
 20
-14.7047
 10
677.3119
 20
-14.4944
 10
677.2011
 20
-14.2735
 10
675.5724
 20
-14.716
 10
675.7323
 20
-15.0472
 10
675.9189
 20
-15.3617
 10
676.132
 20
-15.6596
 10
676.3717
 20
-15.9407
 10
676.638
 20
-16.2052
 10
676.9309
 20
-16.4531
 10
677.2503
 20
-16.6842
 10
677.5962
 20
-16.8987
 10
677.9641
 20
-17.0943
 10
678.3402
 20
-17.2639
 10
678.7246
 20
-17.4074
 10
679.1171
 20
-17.5247
 10
679.518
 20
-17.616
 10
679.927
 20
-17.6812
 10
680.3444
 20
-17.7204
 10
680.77
 20
-17.7334
 10
681.3368
 20
-17.7119
 10
681.882
 20
-17.6473
 10
682.4055
 20
-17.5397
 10
682.9074
 20
-17.3891
 10
683.3876
 20
-17.1954
 10
683.8461
 20
-16.9586
 10
684.283
 20
-16.6787
 10
684.6981
 20
-16.3558
 10
685.0742
 20
-16.0051
 10
685.4002
 20
-15.6371
 10
685.6761
 20
-15.2518
 10
685.9018
 20
-14.8493
 10
686.0773
 20
-14.4294
 10
686.2027
 20
-13.9924
 10
686.2779
 20
-13.538
 10
686.303
 20
-13.0664
 10
686.2783
 20
-12.5973
 10
686.2041
 20
-12.1481
 10
686.0805
 20
-11.7186
 10
685.9076
 20
-11.3089
 10
685.6852
 20
-10.919
 10
685.4134
 20
-10.5489
 10
685.0923
 20
-10.1986
 10
684.7219
 20
-9.8682
 10
684.5325
 20
-9.7212
 10
684.3357
 20
-9.582
 10
684.1313
 20
-9.4507
 10
683.9195
 20
-9.3273
 10
683.7002
 20
-9.2118
 10
683.4734
 20
-9.1042
 10
683.2392
 20
-9.0044
 10
682.9975
 20
-8.9126
 10
682.7509
 20
-8.83
 10
682.5021
 20
-8.7584
 10
682.2511
 20
-8.6979
 10
681.998
 20
-8.6483
 10
681.7429
 20
-8.6098
 10
681.4857
 20
-8.5822
 10
681.2265
 20
-8.5657
 10
680.9655
 20
-8.5602
 10
680.6994
 20
-8.5652
 10
680.428
 20
-8.5803
 10
680.1513
 20
-8.6055
 10
679.8692
 20
-8.6407
 10
679.5817
 20
-8.686
 10
679.2886
 20
-8.7414
 10
678.99
 20
-8.8068
 10
678.6858
 20
-8.8824
  0
LWPOLYLINE
  5
73
330
1F
100
AcDbEntity
  8
Layer 1
 62
     7
100
AcDbPolyline
 90
       87
 70
     1
 43
0.0
 10
689.0817
 20
-17.4922
 10
700.5544
 20
-17.4922
 10
700.5544
 20
-16.0839
 10
693.1293
 20
-16.0839
 10
698.8062
 20
-11.3564
 10
699.1766
 20
-11.0161
 10
699.4976
 20
-10.6587
 10
699.7693
 20
-10.2844
 10
699.9916
 20
-9.8931
 10
700.1644
 20
-9.4848
 10
700.2879
 20
-9.0596
 10
700.362
 20
-8.6174
 10
700.3867
 20
-8.1582
 10
700.3615
 20
-7.6885
 10
700.2857
 20
-7.2377
 10
700.1595
 20
-6.8058
 10
699.9827
 20
-6.3928
 10
699.7554
 20
-5.9986
 10
699.4776
 20
-5.6233
 10
699.1492
 20
-5.2668
 10
698.7702
 20
-4.9292
 10
698.3492
 20
-4.6157
 10
697.9094
 20
-4.344
 10
697.451
 20
-4.1141
 10
696.9739
 20
-3.926
 10
696.478
 20
-3.7797
 10
695.9634
 20
-3.6752
 10
695.4301
 20
-3.6125
 10
694.8781
 20
-3.5916
 10
694.3048
 20
-3.6136
 10
693.7528
 20
-3.6796
 10
693.2222
 20
-3.7896
 10
692.713
 20
-3.9435
 10
692.2252
 20
-4.1415
 10
691.7587
 20
-4.3835
 10
691.3135
 20
-4.6694
 10
690.8896
 20
-4.9994
 10
690.5123
 20
-5.3546
 10
690.1885
 20
-5.7283
 10
689.9182
 20
-6.1205
 10
689.7013
 20
-6.5312
 10
689.5379
 20
-6.9604
 10
689.4281
 20
-7.4081
 10
689.3717
 20
-7.8742
 10
689.3689
 20
-8.3589
 10
691.0695
 20
-8.3589
 10
691.0554
 20
-8.0446
 10
691.0816
 20
-7.7374
 10
691.1483
 20
-7.4374
 10
691.2553
 20
-7.1446
 10
691.4027
 20
-6.859
 10
691.5905
 20
-6.5807
 10
691.8187
 20
-6.3095
 10
692.0872
 20
-6.0457
 10
692.3747
 20
-5.8099
 10
692.6772
 20
-5.6056
 10
692.9946
 20
-5.4328
 10
693.327
 20
-5.2913
 10
693.6744
 20
-5.1813
 10
694.0367
 20
-5.1028
 10
694.414
 20
-5.0556
 10
694.8062
 20
-5.0399
 10
695.191
 20
-5.054
 10
695.5613
 20
-5.0965
 10
695.917
 20
-5.1672
 10
696.2582
 20
-5.2662
 10
696.5848
 20
-5.3935
 10
696.8968
 20
-5.5491
 10
697.1941
 20
-5.733
 10
697.4769
 20
-5.9453
 10
697.7378
 20
-6.1798
 10
697.9639
 20
-6.4255
 10
698.1553
 20
-6.6826
 10
698.3119
 20
-6.9511
 10
698.4337
 20
-7.2308
 10
698.5207
 20
-7.5218
 10
698.5729
 20
-7.8241
 10
698.5903
 20
-8.1377
 10
698.5735
 20
-8.4583
 10
698.523
 20
-8.7664
 10
698.4388
 20
-9.0619
 10
698.321
 20
-9.3448
 10
698.1695
 20
-9.6152
 10
697.9843
 20
-9.8729
 10
697.7654
 20
-10.1181
 10
697.5129
 20
-10.3506
 10
689.0817
 20
-17.4922
  0
LWPOLYLINE
  5
74
330
1F
100
AcDbEntity
  8
Layer 1
 62
     7
100
AcDbPolyline
 90
      162
 70
     1
 43
0.0
 10
717.4649
 20
-17.4518
 10
719.1418
 20
-17.4518
 10
719.1418
 20
-11.9198
 10
719.1281
 20
-11.5525
 10
719.0871
 20
-11.2025
 10
719.0187
 20
-10.8698
 10
718.923
 20
-10.5544
 10
718.8
 20
-10.2563
 10
718.6498
 20
-9.9754
 10
718.4722
 20
-9.7119
 10
718.2674
 20
-9.4657
 10
718.1531
 20
-9.3479
 10
718.0317
 20
-9.2361
 10
717.9031
 20
-9.1304
 10
717.7674
 20
-9.0306
 10
717.6246
 20
-8.9369
 10
717.4746
 20
-8.8491
 10
717.3175
 20
-8.7673
 10
717.1533
 20
-8.6914
 10
716.979
 20
-8.623
 10
716.7912
 20
-8.5637
 10
716.5898
 20
-8.5135
 10
716.375
 20
-8.4725
 10
716.1466
 20
-8.4405
 10
715.9048
 20
-8.4177
 10
715.6495
 20
-8.404
 10
715.3807
 20
-8.3994
 10
715.1096
 20
-8.4073
 10
714.8471
 20
-8.4308
 10
714.5932
 20
-8.4701
 10
714.348
 20
-8.5252
 10
714.1113
 20
-8.5959
 10
713.8832
 20
-8.6823
 10
713.6637
 20
-8.7845
 10
713.4527
 20
-8.9023
 10
713.2697
 20
-9.0198
 10
713.095
 20
-9.1461
 10
712.9285
 20
-9.281
 10
712.7702
 20
-9.4245
 10
712.6202
 20
-9.5765
 10
712.4783
 20
-9.7369
 10
712.3446
 20
-9.9056
 10
712.2191
 20
-10.0826
 10
712.1219
 20
-9.9193
 10
712.0157
 20
-9.7616
 10
711.9005
 20
-9.6101
 10
711.7765
 20
-9.4657
 10
711.6622
 20
-9.3479
 10
711.5408
 20
-9.2361
 10
711.4122
 20
-9.1304
 10
711.2765
 20
-9.0306
 10
711.1337
 20
-8.9369
 10
710.9837
 20
-8.8491
 10
710.8266
 20
-8.7673
 10
710.6624
 20
-8.6914
 10
710.4879
 20
-8.623
 10
710.3
 20
-8.5637
 10
710.0986
 20
-8.5135
 10
709.8838
 20
-8.4725
 10
709.6555
 20
-8.4405
 10
709.4138
 20
-8.4177
 10
709.1585
 20
-8.404
 10
708.8898
 20
-8.3994
 10
708.6187
 20
-8.4073
 10
708.3562
 20
-8.4308
 10
708.1023
 20
-8.4701
 10
707.8571
 20
-8.5252
 10
707.6204
 20
-8.5959
 10
707.3923
 20
-8.6823
 10
707.1728
 20
-8.7845
 10
706.9618
 20
-8.9023
 10
706.7873
 20
-9.0143
 10
706.6204
 20
-9.1338
 10
706.4609
 20
-9.261
 10
706.309
 20
-9.3958
 10
706.1646
 20
-9.5382
 10
706.0277
 20
-9.6884
 10
705.8983
 20
-9.8463
 10
705.7764
 20
-10.0119
 10
705.7764
 20
-8.6007
 10
704.0995
 20
-8.6007
 10
704.0995
 20
-17.4518
 10
705.7764
 20
-17.4518
 10
705.7764
 20
-12.9222
 10
705.8153
 20
-12.6584
 10
705.8661
 20
-12.4049
 10
705.929
 20
-12.1615
 10
706.0039
 20
-11.9284
 10
706.0907
 20
-11.7052
 10
706.1894
 20
-11.492
 10
706.3001
 20
-11.2888
 10
706.4227
 20
-11.0953
 10
706.5228
 20
-10.9575
 10
706.631
 20
-10.8261
 10
706.7474
 20
-10.7009
 10
706.872
 20
-10.5821
 10
707.0048
 20
-10.4696
 10
707.1458
 20
-10.3634
 10
707.2951
 20
-10.2635
 10
707.4526
 20
-10.1699
 10
707.6158
 20
-10.0849
 10
707.782
 20
-10.0113
 10
707.9513
 20
-9.9491
 10
708.1235
 20
-9.8982
 10
708.2988
 20
-9.8586
 10
708.477
 20
-9.8304
 10
708.6582
 20
-9.8134
 10
708.8423
 20
-9.8078
 10
709.0219
 20
-9.8108
 10
709.1895
 20
-9.8197
 10
709.3452
 20
-9.8346
 10
709.4889
 20
-9.8554
 10
709.6207
 20
-9.8822
 10
709.7405
 20
-9.9151
 10
709.8483
 20
-9.9539
 10
709.9441
 20
-9.9988
 10
710.1854
 20
-10.1487
 10
710.3946
 20
-10.3245
 10
710.5716
 20
-10.5259
 10
710.7165
 20
-10.7532
 10
710.8291
 20
-11.0062
 10
710.9096
 20
-11.2849
 10
710.9579
 20
-11.5895
 10
710.974
 20
-11.9198
 10
710.974
 20
-17.4518
 10
712.6502
 20
-17.4518
 10
712.6502
 20
-11.9198
 10
712.6387
 20
-11.5811
 10
712.9136
 20
-11.0953
 10
713.0137
 20
-10.9575
 10
713.122
 20
-10.8261
 10
713.2385
 20
-10.7009
 10
713.3632
 20
-10.5821
 10
713.4962
 20
-10.4696
 10
713.6373
 20
-10.3634
 10
713.7866
 20
-10.2635
 10
713.9442
 20
-10.1699
 10
714.1074
 20
-10.0849
 10
714.2735
 20
-10.0113
 10
714.4426
 20
-9.9491
 10
714.6148
 20
-9.8982
 10
714.7899
 20
-9.8586
 10
714.968
 20
-9.8304
 10
715.1491
 20
-9.8134
 10
715.3332
 20
-9.8078
 10
715.5128
 20
-9.8108
 10
715.6805
 20
-9.8197
 10
715.8361
 20
-9.8346
 10
715.9799
 20
-9.8554
 10
716.1116
 20
-9.8822
 10
716.2314
 20
-9.9151
 10
716.3392
 20
-9.9539
 10
716.4351
 20
-9.9988
 10
716.6764
 20
-10.1487
 10
716.8855
 20
-10.3245
 10
717.0625
 20
-10.5259
 10
717.2074
 20
-10.7532
 10
717.32
 20
-11.0062
 10
717.4005
 20
-11.2849
 10
717.4488
 20
-11.5895
 10
717.4649
 20
-11.9198
 10
717.4649
 20
-17.4518
  0
LWPOLYLINE
  5
75
330
1F
100
AcDbEntity
  8
Layer 1
 62
     7
100
AcDbPolyline
 90
      162
 70
     1
 43
0.0
 10
735.7401
 20
-17.4518
 10
737.417
 20
-17.4518
 10
737.417
 20
-11.9198
 10
737.4033
 20
-11.5525
 10
737.3623
 20
-11.2025
 10
737.2939
 20
-10.8698
 10
737.1982
 20
-10.5544
 10
737.0752
 20
-10.2563
 10
736.9249
 20
-9.9754
 10
736.7474
 20
-9.7119
 10
736.5426
 20
-9.4657
 10
736.4283
 20
-9.3479
 10
736.3068
 20
-9.2361
 10
736.1782
 20
-9.1304
 10
736.0426
 20
-9.0306
 10
735.8997
 20
-8.9369
 10
735.7498
 20
-8.8491
 10
735.5927
 20
-8.7673
 10
735.4285
 20
-8.6914
 10
735.2542
 20
-8.623
 10
735.0664
 20
-8.5637
 10
734.865
 20
-8.5135
 10
734.6502
 20
-8.4725
 10
734.4218
 20
-8.4405
 10
734.18
 20
-8.4177
 10
733.9247
 20
-8.404
 10
733.6559
 20
-8.3994
 10
733.3848
 20
-8.4073
 10
733.1223
 20
-8.4308
 10
732.8684
 20
-8.4701
 10
732.6231
 20
-8.5252
 10
732.3864
 20
-8.5959
 10
732.1583
 20
-8.6823
 10
731.9388
 20
-8.7845
 10
731.7278
 20
-8.9023
 10
731.5448
 20
-9.0198
 10
731.3701
 20
-9.1461
 10
731.2036
 20
-9.281
 10
731.0454
 20
-9.4245
 10
730.8953
 20
-9.5765
 10
730.7535
 20
-9.7369
 10
730.6198
 20
-9.9056
 10
730.4943
 20
-10.0826
 10
730.397
 20
-9.9193
 10
730.2908
 20
-9.7616
 10
730.1756
 20
-9.6101
 10
730.0516
 20
-9.4657
 10
729.9373
 20
-9.3479
 10
729.8159
 20
-9.2361
 10
729.6873
 20
-9.1304
 10
729.5516
 20
-9.0306
 10
729.4088
 20
-8.9369
 10
729.2589
 20
-8.8491
 10
729.1018
 20
-8.7673
 10
728.9376
 20
-8.6914
 10
728.7631
 20
-8.623
 10
728.5752
 20
-8.5637
 10
728.3738
 20
-8.5135
 10
728.159
 20
-8.4725
 10
727.9307
 20
-8.4405
 10
727.6889
 20
-8.4177
 10
727.4337
 20
-8.404
 10
727.165
 20
-8.3994
 10
726.8939
 20
-8.4073
 10
726.6314
 20
-8.4308
 10
726.3775
 20
-8.4701
 10
726.1322
 20
-8.5252
 10
725.8955
 20
-8.5959
 10
725.6674
 20
-8.6823
 10
725.4479
 20
-8.7845
 10
725.2369
 20
-8.9023
 10
725.0625
 20
-9.0143
 10
724.8955
 20
-9.1338
 10
724.7361
 20
-9.261
 10
724.5842
 20
-9.3958
 10
724.4398
 20
-9.5382
 10
724.3029
 20
-9.6884
 10
724.1735
 20
-9.8463
 10
724.0516
 20
-10.0119
 10
724.0516
 20
-8.6007
 10
722.3747
 20
-8.6007
 10
722.3747
 20
-17.4518
 10
724.0516
 20
-17.4518
 10
724.0516
 20
-12.9222
 10
724.0904
 20
-12.6584
 10
724.1413
 20
-12.4049
 10
724.2041
 20
-12.1615
 10
724.279
 20
-11.9284
 10
724.3658
 20
-11.7052
 10
724.4646
 20
-11.492
 10
724.5753
 20
-11.2888
 10
724.6979
 20
-11.0953
 10
724.7979
 20
-10.9575
 10
724.9062
 20
-10.8261
 10
725.0226
 20
-10.7009
 10
725.1472
 20
-10.5821
 10
725.28
 20
-10.4696
 10
725.421
 20
-10.3634
 10
725.5703
 20
-10.2635
 10
725.7278
 20
-10.1699
 10
725.891
 20
-10.0849
 10
726.0572
 20
-10.0113
 10
726.2264
 20
-9.9491
 10
726.3987
 20
-9.8982
 10
726.5739
 20
-9.8586
 10
726.7522
 20
-9.8304
 10
726.9333
 20
-9.8134
 10
727.1175
 20
-9.8078
 10
727.2971
 20
-9.8108
 10
727.4647
 20
-9.8197
 10
727.6204
 20
-9.8346
 10
727.7641
 20
-9.8554
 10
727.8959
 20
-9.8822
 10
728.0157
 20
-9.9151
 10
728.1235
 20
-9.9539
 10
728.2193
 20
-9.9988
 10
728.4606
 20
-10.1487
 10
728.6698
 20
-10.3245
 10
728.8468
 20
-10.5259
 10
728.9917
 20
-10.7532
 10
729.1043
 20
-11.0062
 10
729.1848
 20
-11.2849
 10
729.2331
 20
-11.5895
 10
729.2492
 20
-11.9198
 10
729.2492
 20
-17.4518
 10
730.9254
 20
-17.4518
 10
730.9254
 20
-11.9198
 10
730.9138
 20
-11.5811
 10
731.1888
 20
-11.0953
 10
731.2889
 20
-10.9575
 10
731.3972
 20
-10.8261
 10
731.5137
 20
-10.7009
 10
731.6384
 20
-10.5821
 10
731.7713
 20
-10.4696
 10
731.9125
 20
-10.3634
 10
732.0618
 20
-10.2635
 10
732.2194
 20
-10.1699
 10
732.3825
 20
-10.0849
 10
732.5487
 20
-10.0113
 10
732.7178
 20
-9.9491
 10
732.8899
 20
-9.8982
 10
733.0651
 20
-9.8586
 10
733.2432
 20
-9.8304
 10
733.4243
 20
-9.8134
 10
733.6084
 20
-9.8078
 10
733.788
 20
-9.8108
 10
733.9556
 20
-9.8197
 10
734.1113
 20
-9.8346
 10
734.255
 20
-9.8554
 10
734.3868
 20
-9.8822
 10
734.5066
 20
-9.9151
 10
734.6144
 20
-9.9539
 10
734.7102
 20
-9.9988
 10
734.9515
 20
-10.1487
 10
735.1607
 20
-10.3245
 10
735.3377
 20
-10.5259
 10
735.4826
 20
-10.7532
 10
735.5952
 20
-11.0062
 10
735.6757
 20
-11.2849
 10
735.724
 20
-11.5895
 10
735.7401
 20
-11.9198
 10
735.7401
 20
-17.4518
  0
LWPOLYLINE
  5
76
330
1F
100
AcDbEntity
  8
Layer 1
 62
     7
370
    35
100
AcDbPolyline
 90
        5
 70
     1
 43
0.0
 10
838.8119
 20
32.2032
 10
1195.8873
 20
32.2032
 10
1195.8873
 20
-53.1571
 10
838.8119
 20
-53.1571
 10
838.8119
 20
32.2032
  0
LWPOLYLINE
  5
77
330
1F
100
AcDbEntity
  8
Layer 1
 62
     7
370
    35
100
AcDbPolyline
 90
        4
 70
     0
 43
0.0
 10
840.3978
 20
47.7164
 10
840.3978
 20
74.8478
 10
1195.131
 20
74.8478
 10
1195.131
 20
48.8021
  0
LWPOLYLINE
  5
78
330
1F
100
AcDbEntity
  8
Layer 1
 62
     7
370
    35
100
AcDbPolyline
 90
        2
 70
     0
 43
0.0
 10
844.4684
 20
73.1406
 10
837.2871
 20
76.1398
  0
LWPOLYLINE
  5
79
330
1F
100
AcDbEntity
  8
Layer 1
 62
     7
370
    35
100
AcDbPolyline
 90
        2
 70
     0
 43
0.0
 10
1198.7223
 20
73.1075
 10
1191.5417
 20
76.1062
  0
LWPOLYLINE
  5
7A
330
1F
100
AcDbEntity
  8
Layer 1
 62
     7
100
AcDbPolyline
 90
      136
 70
     1
 43
0.0
 10
982.6078
 20
89.8381
 10
983.7097
 20
93.4993
 10
989.6018
 20
93.4993
 10
989.6018
 20
94.9076
 10
982.4402
 20
94.9076
 10
980.5718
 20
88.7718
 10
982.3926
 20
88.0882
 10
982.6566
 20
88.2389
 10
982.9336
 20
88.3696
 10
983.2238
 20
88.4803
 10
983.5271
 20
88.5708
 10
983.8435
 20
88.6413
 10
984.173
 20
88.6916
 10
984.5156
 20
88.7218
 10
984.8713
 20
88.7319
 10
985.2291
 20
88.7171
 10
985.5749
 20
88.6728
 10
985.9088
 20
88.5989
 10
986.2307
 20
88.4955
 10
986.5405
 20
88.3625
 10
986.8384
 20
88.2
 10
987.1243
 20
88.008
 10
987.3981
 20
87.7865
 10
987.6564
 20
87.5393
 10
987.8802
 20
87.2829
 10
988.0696
 20
87.0173
 10
988.2245
 20
86.7427
 10
988.345
 20
86.4588
 10
988.4311
 20
86.1659
 10
988.4828
 20
85.8638
 10
988.5
 20
85.5525
 10
988.4824
 20
85.2309
 10
988.4297
 20
84.9222
 10
988.3418
 20
84.6263
 10
988.2188
 20
84.3433
 10
988.0605
 20
84.0731
 10
987.867
 20
83.8159
 10
987.6383
 20
83.5716
 10
987.3744
 20
83.3402
 10
987.2403
 20
83.2372
 10
987.1014
 20
83.1396
 10
986.9575
 20
83.0474
 10
986.8088
 20
82.9605
 10
986.6552
 20
82.8789
 10
986.4967
 20
82.8026
 10
986.3334
 20
82.7318
 10
986.1652
 20
82.6662
 10
985.9895
 20
82.6073
 10
985.8042
 20
82.5562
 10
985.6092
 20
82.513
 10
985.4045
 20
82.4777
 10
985.19
 20
82.4502
 10
984.9659
 20
82.4305
 10
984.732
 20
82.4187
 10
984.4884
 20
82.4148
 10
984.2401
 20
82.4236
 10
983.9922
 20
82.45
 10
983.7447
 20
82.4939
 10
983.4975
 20
82.5555
 10
983.2506
 20
82.6346
 10
983.0041
 20
82.7313
 10
982.758
 20
82.8456
 10
982.5121
 20
82.9775
 10
982.2757
 20
83.1238
 10
982.0572
 20
83.2807
 10
981.8566
 20
83.4483
 10
981.6741
 20
83.6266
 10
981.5094
 20
83.8156
 10
981.3627
 20
84.0152
 10
981.2339
 20
84.2254
 10
981.1231
 20
84.4463
 10
979.4944
 20
84.0039
 10
979.6544
 20
83.6727
 10
979.8409
 20
83.3581
 10
980.054
 20
83.0603
 10
980.2938
 20
82.7791
 10
980.56
 20
82.5146
 10
980.8529
 20
82.2668
 10
981.1723
 20
82.0357
 10
981.5182
 20
81.8212
 10
981.8861
 20
81.6256
 10
982.2623
 20
81.456
 10
982.6466
 20
81.3125
 10
983.0392
 20
81.1951
 10
983.44
 20
81.1038
 10
983.8491
 20
81.0386
 10
984.2664
 20
80.9994
 10
984.692
 20
80.9864
 10
985.2589
 20
81.0079
 10
985.8041
 20
81.0725
 10
986.3276
 20
81.1801
 10
986.8295
 20
81.3307
 10
987.3096
 20
81.5244
 10
987.7681
 20
81.7612
 10
988.205
 20
82.0411
 10
988.6201
 20
82.364
 10
988.9963
 20
82.7147
 10
989.3223
 20
83.0828
 10
989.5981
 20
83.468
 10
989.8238
 20
83.8706
 10
989.9993
 20
84.2904
 10
990.1247
 20
84.7275
 10
990.1999
 20
85.1818
 10
990.225
 20
85.6534
 10
990.2003
 20
86.1227
 10
990.1261
 20
86.5721
 10
990.0025
 20
87.0017
 10
989.8296
 20
87.4115
 10
989.6072
 20
87.8014
 10
989.3354
 20
88.1715
 10
989.0143
 20
88.5218
 10
988.6439
 20
88.8522
 10
988.4546
 20
88.9992
 10
988.2577
 20
89.1384
 10
988.0534
 20
89.2697
 10
987.8416
 20
89.3931
 10
987.6222
 20
89.5086
 10
987.3955
 20
89.6163
 10
987.1612
 20
89.716
 10
986.9195
 20
89.8078
 10
986.6729
 20
89.8904
 10
986.4241
 20
89.962
 10
986.1732
 20
90.0226
 10
985.9201
 20
90.0721
 10
985.6649
 20
90.1107
 10
985.4078
 20
90.1382
 10
985.1486
 20
90.1547
 10
984.8876
 20
90.1602
 10
984.6215
 20
90.1552
 10
984.3501
 20
90.1401
 10
984.0733
 20
90.1149
 10
983.7912
 20
90.0797
 10
983.5037
 20
90.0345
 10
983.2106
 20
89.9791
 10
982.912
 20
89.9136
 10
982.6078
 20
89.8381
  0
LWPOLYLINE
  5
7B
330
1F
100
AcDbEntity
  8
Layer 1
 62
     7
100
AcDbPolyline
 90
      137
 70
     1
 43
0.0
 10
1000.0337
 20
81.3787
 10
1000.2784
 20
81.4707
 10
1000.5156
 20
81.5709
 10
1000.7454
 20
81.6794
 10
1000.9676
 20
81.796
 10
1001.1824
 20
81.9208
 10
1001.3897
 20
82.0537
 10
1001.5895
 20
82.1948
 10
1001.7819
 20
82.3441
 10
1002.1609
 20
82.6817
 10
1002.4894
 20
83.0382
 10
1002.7673
 20
83.4134
 10
1002.9947
 20
83.8076
 10
1003.1716
 20
84.2206
 10
1003.2979
 20
84.6525
 10
1003.3737
 20
85.1033
 10
1003.399
 20
85.573
 10
1003.3734
 20
86.043
 10
1003.2964
 20
86.4948
 10
1003.1682
 20
86.9283
 10
1002.9887
 20
87.3436
 10
1002.7579
 20
87.7407
 10
1002.4759
 20
88.1195
 10
1002.1426
 20
88.4801
 10
1001.7581
 20
88.8226
 10
1001.3607
 20
89.118
 10
1000.9378
 20
89.3782
 10
1000.4895
 20
89.6032
 10
1000.0157
 20
89.7929
 10
999.5165
 20
89.9475
 10
998.9918
 20
90.0669
 10
998.4416
 20
90.1511
 10
997.866
 20
90.2001
 10
997.147
 20
89.8381
 10
1002.2489
 20
94.9076
 10
993.4824
 20
94.9076
 10
993.4824
 20
93.4993
 10
998.8477
 20
93.4993
 10
993.9135
 20
88.6715
 10
995.183
 20
87.8065
 10
995.4772
 20
88.0328
 10
995.7848
 20
88.2289
 10
996.106
 20
88.3948
 10
996.4406
 20
88.5305
 10
996.7886
 20
88.6361
 10
997.1502
 20
88.7115
 10
997.5251
 20
88.7567
 10
997.9135
 20
88.7718
 10
998.3015
 20
88.7572
 10
998.675
 20
88.7134
 10
999.0337
 20
88.6404
 10
999.3779
 20
88.5382
 10
999.7074
 20
88.4067
 10
1000.0222
 20
88.246
 10
1000.3224
 20
88.056
 10
1000.608
 20
87.8367
 10
1000.8691
 20
87.597
 10
1001.0954
 20
87.3456
 10
1001.2869
 20
87.0827
 10
1001.4436
 20
86.8081
 10
1001.5654
 20
86.5218
 10
1001.6525
 20
86.2239
 10
1001.7047
 20
85.9143
 10
1001.7221
 20
85.593
 10
1001.7043
 20
85.2789
 10
1001.651
 20
84.9756
 10
1001.562
 20
84.6829
 10
1001.4376
 20
84.401
 10
1001.2775
 20
84.1298
 10
1001.082
 20
83.8692
 10
1000.8509
 20
83.6193
 10
1000.5843
 20
83.3801
 10
1000.4527
 20
83.2771
 10
1000.3156
 20
83.1795
 10
1000.1728
 20
83.0873
 10
1000.0245
 20
83.0004
 10
999.8705
 20
82.9188
 10
999.7109
 20
82.8425
 10
999.5455
 20
82.7717
 10
999.3745
 20
82.7061
 10
999.1964
 20
82.6472
 10
999.0093
 20
82.5961
 10
998.8132
 20
82.5529
 10
998.6082
 20
82.5176
 10
998.3942
 20
82.4901
 10
998.1712
 20
82.4704
 10
997.9392
 20
82.4586
 10
997.6983
 20
82.4547
 10
997.4527
 20
82.4634
 10
997.2071
 20
82.4893
 10
996.9615
 20
82.5326
 10
996.716
 20
82.5931
 10
996.4706
 20
82.6709
 10
996.2251
 20
82.766
 10
995.9797
 20
82.8783
 10
995.7343
 20
83.0078
 10
995.4976
 20
83.1523
 10
995.2789
 20
83.309
 10
995.0782
 20
83.4779
 10
994.8956
 20
83.6592
 10
994.7309
 20
83.8527
 10
994.5841
 20
84.0584
 10
994.4554
 20
84.2765
 10
994.3446
 20
84.5068
 10
992.7159
 20
84.0438
 10
992.8707
 20
83.716
 10
993.0536
 20
83.4038
 10
993.2646
 20
83.1074
 10
993.5036
 20
82.8267
 10
993.7707
 20
82.5617
 10
994.0659
 20
82.3125
 10
994.3891
 20
82.0789
 10
994.7404
 20
81.8611
 10
994.913
 20
81.7658
 10
995.0898
 20
81.6759
 10
995.2707
 20
81.5912
 10
995.4557
 20
81.5118
 10
995.6449
 20
81.4378
 10
995.8382
 20
81.3691
 10
996.0357
 20
81.3057
 10
996.2373
 20
81.2476
 10
996.4436
 20
81.1959
 10
996.6555
 20
81.151
 10
996.873
 20
81.1129
 10
997.0962
 20
81.0818
 10
997.325
 20
81.0575
 10
997.5595
 20
81.0402
 10
997.7995
 20
81.0298
 10
998.0452
 20
81.0263
 10
998.2937
 20
81.0318
 10
998.5423
 20
81.0483
 10
998.7908
 20
81.0759
 10
999.0395
 20
81.1144
 10
999.2881
 20
81.164
 10
999.5366
 20
81.2245
 10
999.7852
 20
81.2961
 10
1000.0337
 20
81.3787
  0
LWPOLYLINE
  5
7C
330
1F
100
AcDbEntity
  8
Layer 1
 62
     7
100
AcDbPolyline
 90
      109
 70
     1
 43
0.0
 10
1011.9612
 20
93.3185
 10
1012.238
 20
93.1607
 10
1012.496
 20
92.9815
 10
1012.7352
 20
92.7809
 10
1012.9557
 20
92.559
 10
1013.1575
 20
92.3157
 10
1013.3405
 20
92.0509
 10
1013.5047
 20
91.7649
 10
1013.6503
 20
91.4574
 10
1013.8131
 20
91.0496
 10
1013.9541
 20
90.6359
 10
1014.0735
 20
90.2162
 10
1014.1712
 20
89.7904
 10
1014.2471
 20
89.3587
 10
1014.3014
 20
88.921
 10
1014.3339
 20
88.4774
 10
1014.3448
 20
88.0277
 10
1014.3403
 20
87.807
 10
1014.3269
 20
87.5676
 10
1014.3044
 20
87.3093
 10
1014.2728
 20
87.0322
 10
1014.1898
 20
86.4912
 10
1014.0814
 20
85.9801
 10
1013.9474
 20
85.4988
 10
1013.788
 20
85.0475
 10
1013.6031
 20
84.626
 10
1013.3927
 20
84.2344
 10
1013.1568
 20
83.8727
 10
1012.8954
 20
83.5409
 10
1012.6571
 20
83.2911
 10
1012.4061
 20
83.0745
 10
1012.1423
 20
82.8913
 10
1011.8657
 20
82.7413
 10
1011.5764
 20
82.6246
 10
1011.2744
 20
82.5413
 10
1010.9595
 20
82.4913
 10
1010.6319
 20
82.4746
 10
1010.2665
 20
82.4911
 10
1009.9187
 20
82.5407
 10
1009.5885
 20
82.6232
 10
1009.2758
 20
82.7388
 10
1008.9808
 20
82.8874
 10
1008.7032
 20
83.069
 10
1008.4433
 20
83.2836
 10
1008.2008
 20
83.5312
 10
1008.0984
 20
83.6511
 10
1008.0005
 20
83.7749
 10
1007.907
 20
83.9025
 10
1007.8179
 20
84.0339
 10
1007.7333
 20
84.1691
 10
1007.6532
 20
84.3081
 10
1007.5775
 20
84.4509
 10
1007.5063
 20
84.5974
 10
1007.377
 20
84.8958
 10
1007.264
 20
85.1982
 10
1007.1675
 20
85.5046
 10
1007.0874
 20
85.8148
 10
1007.0208
 20
86.1241
 10
1006.9647
 20
86.4284
 10
1006.919
 20
86.7277
 10
1006.8837
 20
87.0219
 10
1006.8575
 20
87.3248
 10
1006.8389
 20
87.6501
 10
1006.8277
 20
87.9974
 10
1006.824
 20
88.3664
 10
1006.8281
 20
88.5619
 10
1006.8404
 20
88.7688
 10
1006.861
 20
88.987
 10
1006.8898
 20
89.2167
 10
1006.9268
 20
89.4579
 10
1006.9721
 20
89.7106
 10
1007.0256
 20
89.9749
 10
1007.0874
 20
90.2509
 10
1007.1667
 20
90.5569
 10
1007.261
 20
90.8616
 10
1007.3704
 20
91.1652
 10
1007.4948
 20
91.4677
 10
1007.5629
 20
91.6167
 10
1007.6359
 20
91.762
 10
1007.7139
 20
91.9035
 10
1007.7967
 20
92.0411
 10
1007.8844
 20
92.175
 10
1007.977
 20
92.3051
 10
1008.0746
 20
92.4314
 10
1008.177
 20
92.5539
 10
1008.2845
 20
92.6717
 10
1008.3972
 20
92.7834
 10
1008.5152
 20
92.8892
 10
1008.6383
 20
92.989
 10
1008.7667
 20
93.0829
 10
1008.9003
 20
93.1708
 10
1009.0391
 20
93.2527
 10
1009.1832
 20
93.3288
 10
1009.3332
 20
93.3971
 10
1009.49
 20
93.4563
 10
1009.6535
 20
93.5064
 10
1009.8237
 20
93.5474
 10
1010.0007
 20
93.5792
 10
1010.1845
 20
93.6019
 10
1010.375
 20
93.6156
 10
1010.5722
 20
93.6201
 10
1010.7695
 20
93.6154
 10
1010.96
 20
93.6013
 10
1011.1437
 20
93.5777
 10
1011.3207
 20
93.5448
 10
1011.491
 20
93.5024
 10
1011.6545
 20
93.4505
 10
1011.8112
 20
93.3893
 10
1011.9612
 20
93.3185
  0
LWPOLYLINE
  5
7D
330
1F
100
AcDbEntity
  8
Layer 1
 62
     7
100
AcDbPolyline
 90
       65
 70
     1
 43
0.0
 10
1010.6564
 20
81.0463
 10
1011.3556
 20
81.0836
 10
1012.0103
 20
81.1953
 10
1012.6204
 20
81.3816
 10
1013.186
 20
81.6424
 10
1013.7071
 20
81.9776
 10
1014.1837
 20
82.3874
 10
1014.6157
 20
82.8716
 10
1015.0033
 20
83.4303
 10
1015.2756
 20
83.9179
 10
1015.5116
 20
84.4326
 10
1015.7112
 20
84.9743
 10
1015.8746
 20
85.5431
 10
1016.0016
 20
86.1389
 10
1016.0923
 20
86.7617
 10
1016.1468
 20
87.4115
 10
1016.1649
 20
88.0882
 10
1016.1468
 20
88.7649
 10
1016.0923
 20
89.4146
 10
1016.0016
 20
90.0373
 10
1015.8746
 20
90.6329
 10
1015.7112
 20
91.2015
 10
1015.5116
 20
91.7431
 10
1015.2756
 20
92.2575
 10
1015.0033
 20
92.7449
 10
1014.6157
 20
93.3038
 10
1014.1837
 20
93.7881
 10
1013.7071
 20
94.1978
 10
1013.186
 20
94.533
 10
1012.6204
 20
94.7937
 10
1012.0103
 20
94.98
 10
1011.3556
 20
95.0917
 10
1010.6564
 20
95.1289
 10
1009.9569
 20
95.0917
 10
1009.3021
 20
94.98
 10
1008.6918
 20
94.7937
 10
1008.1261
 20
94.533
 10
1007.605
 20
94.1978
 10
1007.1284
 20
93.7881
 10
1006.6963
 20
93.3038
 10
1006.3087
 20
92.7449
 10
1006.0364
 20
92.2575
 10
1005.8004
 20
91.7431
 10
1005.6008
 20
91.2015
 10
1005.4374
 20
90.6329
 10
1005.3104
 20
90.0373
 10
1005.2197
 20
89.4146
 10
1005.1652
 20
88.7649
 10
1005.1471
 20
88.0882
 10
1005.1652
 20
87.4115
 10
1005.2197
 20
86.7617
 10
1005.3104
 20
86.1389
 10
1005.4374
 20
85.5431
 10
1005.6008
 20
84.9743
 10
1005.8004
 20
84.4326
 10
1006.0364
 20
83.9179
 10
1006.3087
 20
83.4303
 10
1006.6963
 20
82.8716
 10
1007.1284
 20
82.3874
 10
1007.605
 20
81.9776
 10
1008.1261
 20
81.6424
 10
1008.6918
 20
81.3816
 10
1009.3021
 20
81.1953
 10
1009.9569
 20
81.0836
 10
1010.6564
 20
81.0463
  0
LWPOLYLINE
  5
7E
330
1F
100
AcDbEntity
  8
Layer 1
 62
     7
100
AcDbPolyline
 90
      162
 70
     1
 43
0.0
 10
1032.5242
 20
81.2681
 10
1034.2011
 20
81.2681
 10
1034.2011
 20
86.8007
 10
1034.1874
 20
87.168
 10
1034.1464
 20
87.518
 10
1034.078
 20
87.8507
 10
1033.9823
 20
88.1661
 10
1033.8593
 20
88.4642
 10
1033.7091
 20
88.7451
 10
1033.5315
 20
89.0086
 10
1033.3267
 20
89.2548
 10
1033.2124
 20
89.3726
 10
1033.091
 20
89.4843
 10
1032.9624
 20
89.5901
 10
1032.8267
 20
89.6898
 10
1032.6839
 20
89.7836
 10
1032.5339
 20
89.8714
 10
1032.3768
 20
89.9532
 10
1032.2126
 20
90.0291
 10
1032.0383
 20
90.0975
 10
1031.8505
 20
90.1567
 10
1031.6491
 20
90.2069
 10
1031.4343
 20
90.248
 10
1031.2059
 20
90.2799
 10
1030.9641
 20
90.3027
 10
1030.7088
 20
90.3164
 10
1030.44
 20
90.321
 10
1030.1689
 20
90.3131
 10
1029.9064
 20
90.2896
 10
1029.6525
 20
90.2503
 10
1029.4073
 20
90.1953
 10
1029.1706
 20
90.1246
 10
1028.9425
 20
90.0381
 10
1028.723
 20
89.936
 10
1028.512
 20
89.8181
 10
1028.329
 20
89.7006
 10
1028.1543
 20
89.5744
 10
1027.9878
 20
89.4395
 10
1027.8295
 20
89.296
 10
1027.6794
 20
89.144
 10
1027.5376
 20
88.9836
 10
1027.4039
 20
88.8148
 10
1027.2784
 20
88.6378
 10
1027.1812
 20
88.8011
 10
1027.075
 20
88.9589
 10
1026.9598
 20
89.1104
 10
1026.8358
 20
89.2548
 10
1026.7215
 20
89.3726
 10
1026.6001
 20
89.4843
 10
1026.4715
 20
89.5901
 10
1026.3358
 20
89.6898
 10
1026.193
 20
89.7836
 10
1026.043
 20
89.8714
 10
1025.8859
 20
89.9532
 10
1025.7217
 20
90.0291
 10
1025.5472
 20
90.0975
 10
1025.3593
 20
90.1567
 10
1025.1579
 20
90.2069
 10
1024.9431
 20
90.248
 10
1024.7148
 20
90.2799
 10
1024.4731
 20
90.3027
 10
1024.2178
 20
90.3164
 10
1023.9491
 20
90.321
 10
1023.678
 20
90.3131
 10
1023.4155
 20
90.2896
 10
1023.1616
 20
90.2503
 10
1022.9164
 20
90.1953
 10
1022.6797
 20
90.1246
 10
1022.4516
 20
90.0381
 10
1022.2321
 20
89.936
 10
1022.0211
 20
89.8181
 10
1021.8466
 20
89.7061
 10
1021.6797
 20
89.5866
 10
1021.5202
 20
89.4595
 10
1021.3683
 20
89.3247
 10
1021.2239
 20
89.1822
 10
1021.087
 20
89.0321
 10
1020.9576
 20
88.8742
 10
1020.8357
 20
88.7085
 10
1020.8357
 20
90.1197
 10
1019.1588
 20
90.1197
 10
1019.1588
 20
81.2681
 10
1020.8357
 20
81.2681
 10
1020.8357
 20
85.7983
 10
1020.8746
 20
86.0621
 10
1020.9254
 20
86.3156
 10
1020.9883
 20
86.5589
 10
1021.0632
 20
86.7921
 10
1021.15
 20
87.0152
 10
1021.2487
 20
87.2284
 10
1021.3594
 20
87.4317
 10
1021.482
 20
87.6252
 10
1021.5821
 20
87.7629
 10
1021.6903
 20
87.8944
 10
1021.8067
 20
88.0195
 10
1021.9313
 20
88.1383
 10
1022.0641
 20
88.2509
 10
1022.2051
 20
88.3571
 10
1022.3544
 20
88.457
 10
1022.5119
 20
88.5506
 10
1022.6751
 20
88.6355
 10
1022.8413
 20
88.7091
 10
1023.0106
 20
88.7714
 10
1023.1828
 20
88.8222
 10
1023.3581
 20
88.8618
 10
1023.5363
 20
88.89
 10
1023.7175
 20
88.907
 10
1023.9016
 20
88.9126
 10
1024.0812
 20
88.9096
 10
1024.2488
 20
88.9007
 10
1024.4045
 20
88.8859
 10
1024.5482
 20
88.865
 10
1024.68
 20
88.8382
 10
1024.7998
 20
88.8054
 10
1024.9076
 20
88.7665
 10
1025.0034
 20
88.7216
 10
1025.2447
 20
88.5717
 10
1025.4539
 20
88.396
 10
1025.6309
 20
88.1945
 10
1025.7758
 20
87.9673
 10
1025.8884
 20
87.7143
 10
1025.9689
 20
87.4355
 10
1026.0172
 20
87.131
 10
1026.0333
 20
86.8007
 10
1026.0333
 20
81.2681
 10
1027.7095
 20
81.2681
 10
1027.7095
 20
86.8007
 10
1027.698
 20
87.1394
 10
1027.9729
 20
87.6252
 10
1028.073
 20
87.7629
 10
1028.1813
 20
87.8944
 10
1028.2978
 20
88.0195
 10
1028.4225
 20
88.1383
 10
1028.5555
 20
88.2509
 10
1028.6966
 20
88.3571
 10
1028.8459
 20
88.457
 10
1029.0035
 20
88.5506
 10
1029.1667
 20
88.6355
 10
1029.3328
 20
88.7091
 10
1029.5019
 20
88.7714
 10
1029.6741
 20
88.8222
 10
1029.8492
 20
88.8618
 10
1030.0273
 20
88.89
 10
1030.2084
 20
88.907
 10
1030.3925
 20
88.9126
 10
1030.5721
 20
88.9096
 10
1030.7398
 20
88.9007
 10
1030.8954
 20
88.8859
 10
1031.0392
 20
88.865
 10
1031.1709
 20
88.8382
 10
1031.2907
 20
88.8054
 10
1031.3985
 20
88.7665
 10
1031.4944
 20
88.7216
 10
1031.7357
 20
88.5717
 10
1031.9448
 20
88.396
 10
1032.1218
 20
88.1945
 10
1032.2667
 20
87.9673
 10
1032.3793
 20
87.7143
 10
1032.4598
 20
87.4355
 10
1032.5081
 20
87.131
 10
1032.5242
 20
86.8007
 10
1032.5242
 20
81.2681
  0
LWPOLYLINE
  5
7F
330
1F
100
AcDbEntity
  8
Layer 1
 62
     7
100
AcDbPolyline
 90
      162
 70
     1
 43
0.0
 10
1050.7994
 20
81.2681
 10
1052.4763
 20
81.2681
 10
1052.4763
 20
86.8007
 10
1052.4626
 20
87.168
 10
1052.4216
 20
87.518
 10
1052.3532
 20
87.8507
 10
1052.2575
 20
88.1661
 10
1052.1345
 20
88.4642
 10
1051.9842
 20
88.7451
 10
1051.8066
 20
89.0086
 10
1051.6018
 20
89.2548
 10
1051.4875
 20
89.3726
 10
1051.3661
 20
89.4843
 10
1051.2375
 20
89.5901
 10
1051.1018
 20
89.6898
 10
1050.959
 20
89.7836
 10
1050.8091
 20
89.8714
 10
1050.652
 20
89.9532
 10
1050.4878
 20
90.0291
 10
1050.3135
 20
90.0975
 10
1050.1257
 20
90.1567
 10
1049.9243
 20
90.2069
 10
1049.7095
 20
90.248
 10
1049.4811
 20
90.2799
 10
1049.2393
 20
90.3027
 10
1048.984
 20
90.3164
 10
1048.7152
 20
90.321
 10
1048.4441
 20
90.3131
 10
1048.1816
 20
90.2896
 10
1047.9277
 20
90.2503
 10
1047.6824
 20
90.1953
 10
1047.4457
 20
90.1246
 10
1047.2176
 20
90.0381
 10
1046.9981
 20
89.936
 10
1046.7871
 20
89.8181
 10
1046.6041
 20
89.7006
 10
1046.4294
 20
89.5744
 10
1046.2629
 20
89.4395
 10
1046.1047
 20
89.296
 10
1045.9546
 20
89.144
 10
1045.8128
 20
88.9836
 10
1045.6791
 20
88.8148
 10
1045.5536
 20
88.6378
 10
1045.4563
 20
88.8011
 10
1045.3501
 20
88.9589
 10
1045.2349
 20
89.1104
 10
1045.1109
 20
89.2548
 10
1044.9966
 20
89.3726
 10
1044.8752
 20
89.4843
 10
1044.7466
 20
89.5901
 10
1044.6109
 20
89.6898
 10
1044.4681
 20
89.7836
 10
1044.3182
 20
89.8714
 10
1044.1611
 20
89.9532
 10
1043.9969
 20
90.0291
 10
1043.8224
 20
90.0975
 10
1043.6345
 20
90.1567
 10
1043.4331
 20
90.2069
 10
1043.2183
 20
90.248
 10
1042.99
 20
90.2799
 10
1042.7482
 20
90.3027
 10
1042.493
 20
90.3164
 10
1042.2243
 20
90.321
 10
1041.9532
 20
90.3131
 10
1041.6907
 20
90.2896
 10
1041.4368
 20
90.2503
 10
1041.1915
 20
90.1953
 10
1040.9548
 20
90.1246
 10
1040.7267
 20
90.0381
 10
1040.5072
 20
89.936
 10
1040.2962
 20
89.8181
 10
1040.1218
 20
89.7061
 10
1039.9548
 20
89.5866
 10
1039.7954
 20
89.4595
 10
1039.6435
 20
89.3247
 10
1039.4991
 20
89.1822
 10
1039.3622
 20
89.0321
 10
1039.2328
 20
88.8742
 10
1039.1109
 20
88.7085
 10
1039.1109
 20
90.1197
 10
1037.434
 20
90.1197
 10
1037.434
 20
81.2681
 10
1039.1109
 20
81.2681
 10
1039.1109
 20
85.7983
 10
1039.1497
 20
86.0621
 10
1039.2006
 20
86.3156
 10
1039.2634
 20
86.5589
 10
1039.3383
 20
86.7921
 10
1039.4251
 20
87.0152
 10
1039.5239
 20
87.2284
 10
1039.6346
 20
87.4317
 10
1039.7572
 20
87.6252
 10
1039.8572
 20
87.7629
 10
1039.9655
 20
87.8944
 10
1040.0819
 20
88.0195
 10
1040.2065
 20
88.1383
 10
1040.3393
 20
88.2509
 10
1040.4803
 20
88.3571
 10
1040.6296
 20
88.457
 10
1040.7871
 20
88.5506
 10
1040.9503
 20
88.6355
 10
1041.1165
 20
88.7091
 10
1041.2857
 20
88.7714
 10
1041.458
 20
88.8222
 10
1041.6332
 20
88.8618
 10
1041.8115
 20
88.89
 10
1041.9926
 20
88.907
 10
1042.1768
 20
88.9126
 10
1042.3564
 20
88.9096
 10
1042.524
 20
88.9007
 10
1042.6797
 20
88.8859
 10
1042.8234
 20
88.865
 10
1042.9552
 20
88.8382
 10
1043.075
 20
88.8054
 10
1043.1828
 20
88.7665
 10
1043.2786
 20
88.7216
 10
1043.5199
 20
88.5717
 10
1043.7291
 20
88.396
 10
1043.9061
 20
88.1945
 10
1044.051
 20
87.9673
 10
1044.1636
 20
87.7143
 10
1044.2441
 20
87.4355
 10
1044.2924
 20
87.131
 10
1044.3085
 20
86.8007
 10
1044.3085
 20
81.2681
 10
1045.9847
 20
81.2681
 10
1045.9847
 20
86.8007
 10
1045.9731
 20
87.1394
 10
1046.2481
 20
87.6252
 10
1046.3482
 20
87.7629
 10
1046.4565
 20
87.8944
 10
1046.5729
 20
88.0195
 10
1046.6977
 20
88.1383
 10
1046.8306
 20
88.2509
 10
1046.9717
 20
88.3571
 10
1047.121
 20
88.457
 10
1047.2786
 20
88.5506
 10
1047.4418
 20
88.6355
 10
1047.6079
 20
88.7091
 10
1047.7771
 20
88.7714
 10
1047.9492
 20
88.8222
 10
1048.1244
 20
88.8618
 10
1048.3025
 20
88.89
 10
1048.4836
 20
88.907
 10
1048.6677
 20
88.9126
 10
1048.8473
 20
88.9096
 10
1049.0149
 20
88.9007
 10
1049.1706
 20
88.8859
 10
1049.3143
 20
88.865
 10
1049.4461
 20
88.8382
 10
1049.5659
 20
88.8054
 10
1049.6737
 20
88.7665
 10
1049.7695
 20
88.7216
 10
1050.0108
 20
88.5717
 10
1050.22
 20
88.396
 10
1050.397
 20
88.1945
 10
1050.5419
 20
87.9673
 10
1050.6545
 20
87.7143
 10
1050.735
 20
87.4355
 10
1050.7833
 20
87.131
 10
1050.7994
 20
86.8007
 10
1050.7994
 20
81.2681
  0
ENDSEC
  0
SECTION
  2
OBJECTS
  0
DICTIONARY
  5
C
330
0
100
AcDbDictionary
281
     1
  3
ACAD_DETAILVIEWSTYLE
350
87
  3
ACAD_GROUP
350
D
  3
ACAD_LAYOUT
350
1A
  3
ACAD_MATERIAL
350
43
  3
ACAD_MLEADERSTYLE
350
5B
  3
ACAD_MLINESTYLE
350
17
  3
ACAD_PLOTSETTINGS
350
19
  3
ACAD_PLOTSTYLENAME
350
E
  3
ACAD_SCALELIST
350
47
  3
ACAD_SECTIONVIEWSTYLE
350
88
  3
ACAD_TABLESTYLE
350
59
  3
ACAD_VISUALSTYLE
350
2A
  3
ACDB_RECOMPOSE_DATA
350
84
  3
AcDbVariableDictionary
350
80
  0
SUN
  5
5D
330
29
100
AcDbSun
 90
        1
290
     0
 63
     7
421
 16777215
 40
1.0
291
     1
 91
  2455826
 92
 54000000
292
     0
 70
     2
 71
   256
280
     1
  0
DICTIONARY
  5
87
102
{ACAD_REACTORS
330
C
102
}
330
C
100
AcDbDictionary
281
     1
  0
DICTIONARY
  5
D
102
{ACAD_REACTORS
330
C
102
}
330
C
100
AcDbDictionary
281
     1
  0
DICTIONARY
  5
1A
102
{ACAD_REACTORS
330
C
102
}
330
C
100
AcDbDictionary
281
     1
  3
Layout1
350
1E
  3
Layout2
350
26
  3
Model
350
22
  0
DICTIONARY
  5
43
102
{ACAD_REACTORS
330
C
102
}
330
C
100
AcDbDictionary
281
     1
  3
ByBlock
350
45
  3
ByLayer
350
44
  3
Global
350
46
  0
DICTIONARY
  5
5B
102
{ACAD_REACTORS
330
C
102
}
330
C
100
AcDbDictionary
281
     1
  3
Standard
350
5C
  0
DICTIONARY
  5
17
102
{ACAD_REACTORS
330
C
102
}
330
C
100
AcDbDictionary
281
     1
  3
Standard
350
18
  0
DICTIONARY
  5
19
102
{ACAD_REACTORS
330
C
102
}
330
C
100
AcDbDictionary
281
     1
  0
ACDBDICTIONARYWDFLT
  5
E
102
{ACAD_REACTORS
330
C
102
}
330
C
100
AcDbDictionary
281
     1
  3
Normal
350
F
100
AcDbDictionaryWithDefault
340
F
  0
DICTIONARY
  5
47
102
{ACAD_REACTORS
330
C
102
}
330
C
100
AcDbDictionary
281
     1
  3
A0
350
48
  3
A1
350
49
  3
A2
350
4A
  3
A3
350
4B
  3
A4
350
4C
  3
A5
350
4D
  3
A6
350
4E
  3
A7
350
4F
  3
A8
350
50
  3
A9
350
51
  3
B1
350
52
  3
B2
350
53
  3
B3
350
54
  3
B4
350
55
  3
B5
350
56
  3
B6
350
57
  3
B7
350
58
  0
DICTIONARY
  5
88
102
{ACAD_REACTORS
330
C
102
}
330
C
100
AcDbDictionary
281
     1
  0
DICTIONARY
  5
59
102
{ACAD_REACTORS
330
C
102
}
330
C
100
AcDbDictionary
281
     1
  3
Standard
350
5A
  0
DICTIONARY
  5
2A
102
{ACAD_REACTORS
330
C
102
}
330
C
100
AcDbDictionary
281
     1
  3
2dWireframe
350
2F
  3
Basic
350
32
  3
Brighten
350
36
  3
ColorChange
350
3A
  3
Conceptual
350
34
  3
Dim
350
35
  3
EdgeColorOff
350
3D
  3
Facepattern
350
39
  3
Flat
350
2B
  3
FlatWithEdges
350
2C
  3
Gouraud
350
2D
  3
GouraudWithEdges
350
2E
  3
Hidden
350
31
  3
JitterOff
350
3B
  3
Linepattern
350
38
  3
OverhangOff
350
3C
  3
Realistic
350
33
  3
Shaded
350
42
  3
Shaded with edges
350
41
  3
Shades of Gray
350
3E
  3
Sketchy
350
3F
  3
Thicken
350
37
  3
Wireframe
350
30
  3
X-Ray
350
40
  0
XRECORD
  5
84
102
{ACAD_REACTORS
330
C
102
}
330
C
100
AcDbXrecord
280
     1
 90
        1
330
5A
  0
DICTIONARY
  5
80
102
{ACAD_REACTORS
330
C
102
}
330
C
100
AcDbDictionary
281
     1
  3
CANNOSCALE
350
81
  3
CMLEADERSTYLE
350
86
  3
CTABLESTYLE
350
85
  0
LAYOUT
  5
1E
102
{ACAD_REACTORS
330
1A
102
}
330
1A
100
AcDbPlotSettings
  1

  2
none_device
  4

  6

 40
0.0
 41
0.0
 42
0.0
 43
0.0
 44
0.0
 45
0.0
 46
0.0
 47
0.0
 48
0.0
 49
0.0
140
0.0
141
0.0
142
1.0
143
1.0
 70
   688
 72
     0
 73
     0
 74
     5
  7

 75
    16
 76
     0
 77
     2
 78
   300
147
1.0
148
0.0
149
0.0
100
AcDbLayout
  1
Layout1
 70
     1
 71
     1
 10
0.0
 20
0.0
 11
12.0
 21
9.0
 12
0.0
 22
0.0
 32
0.0
 14
1.000000000000000E+20
 24
1.000000000000000E+20
 34
1.000000000000000E+20
 15
-1.000000000000000E+20
 25
-1.000000000000000E+20
 35
-1.000000000000000E+20
146
0.0
 13
0.0
 23
0.0
 33
0.0
 16
1.0
 26
0.0
 36
0.0
 17
0.0
 27
1.0
 37
0.0
 76
     0
330
1B
  0
LAYOUT
  5
26
102
{ACAD_REACTORS
330
1A
102
}
330
1A
100
AcDbPlotSettings
  1

  2
none_device
  4

  6

 40
0.0
 41
0.0
 42
0.0
 43
0.0
 44
0.0
 45
0.0
 46
0.0
 47
0.0
 48
0.0
 49
0.0
140
0.0
141
0.0
142
1.0
143
1.0
 70
   688
 72
     0
 73
     0
 74
     5
  7

 75
    16
 76
     0
 77
     2
 78
   300
147
1.0
148
0.0
149
0.0
100
AcDbLayout
  1
Layout2
 70
     1
 71
     2
 10
0.0
 20
0.0
 11
0.0
 21
0.0
 12
0.0
 22
0.0
 32
0.0
 14
0.0
 24
0.0
 34
0.0
 15
0.0
 25
0.0
 35
0.0
146
0.0
 13
0.0
 23
0.0
 33
0.0
 16
1.0
 26
0.0
 36
0.0
 17
0.0
 27
1.0
 37
0.0
 76
     0
330
23
  0
LAYOUT
  5
22
102
{ACAD_REACTORS
330
1A
102
}
330
1A
100
AcDbPlotSettings
  1

  2
none_device
  4
Letter_(8.50_x_11.00_Inches)
  6

 40
6.35
 41
6.35
 42
6.35000508
 43
6.35000508
 44
215.9
 45
279.4
 46
0.0
 47
0.0
 48
0.0
 49
0.0
140
0.0
141
0.0
142
1.0
143
1.0
 70
  1712
 72
     0
 73
     0
 74
     0
  7

 75
     0
 76
     0
 77
     2
 78
   300
147
1.0
148
0.0
149
0.0
100
AcDbLayout
  1
Model
 70
     1
 71
     0
 10
0.0
 20
0.0
 11
12.0
 21
9.0
 12
0.0
 22
0.0
 32
0.0
 14
191.1858
 24
-153.0176
 34
0.0
 15
1263.9909
 25
168.2402
 35
0.0
146
0.0
 13
0.0
 23
0.0
 33
0.0
 16
1.0
 26
0.0
 36
0.0
 17
0.0
 27
1.0
 37
0.0
 76
     0
330
1F
331
29
  0
MATERIAL
  5
45
102
{ACAD_REACTORS
330
43
102
}
330
43
100
AcDbMaterial
  1
ByBlock
 72
     1
 94
      127
  0
MATERIAL
  5
44
102
{ACAD_REACTORS
330
43
102
}
330
43
100
AcDbMaterial
  1
ByLayer
 72
     1
 94
      127
  0
MATERIAL
  5
46
102
{ACAD_REACTORS
330
43
102
}
330
43
100
AcDbMaterial
  1
Global
 72
     1
 94
      127
  0
MLEADERSTYLE
  5
5C
102
{ACAD_REACTORS
330
5B
102
}
330
5B
100
AcDbMLeaderStyle
179
     2
170
     2
171
     1
172
     0
 90
        2
 40
0.0
 41
0.0
173
     1
 91
-1056964608
340
14
 92
       -2
290
     1
 42
0.09
291
     1
 43
0.36
  3
Standard
341
0
 44
0.18
300

342
11
174
     1
178
     6
175
     1
176
     0
 93
-1056964608
 45
0.18
292
     0
297
     0
 46
0.18
343
0
 94
-1056964608
 47
1.0
 49
1.0
140
1.0
293
     1
141
0.0
294
     1
177
     0
142
1.0
295
     0
296
     0
143
0.125
271
     0
272
     9
273
     9
298
     0
  0
MLINESTYLE
  5
18
102
{ACAD_REACTORS
330
17
102
}
330
17
100
AcDbMlineStyle
  2
Standard
 70
     0
  3

 62
   256
 51
90.0
 52
90.0
 71
     2
 49
0.5
 62
   256
  6
BYLAYER
 49
-0.5
 62
   256
  6
BYLAYER
  0
ACDBPLACEHOLDER
  5
F
102
{ACAD_REACTORS
330
E
102
}
330
E
  0
SCALE
  5
48
102
{ACAD_REACTORS
330
47
102
}
330
47
100
AcDbScale
 70
     0
300
1:1
140
1.0
141
1.0
290
     1
  0
SCALE
  5
49
102
{ACAD_REACTORS
330
47
102
}
330
47
100
AcDbScale
 70
     0
300
1/128" = 1'-0"
140
0.0078125
141
12.0
290
     0
  0
SCALE
  5
4A
102
{ACAD_REACTORS
330
47
102
}
330
47
100
AcDbScale
 70
     0
300
1/64" = 1'-0"
140
0.015625
141
12.0
290
     0
  0
SCALE
  5
4B
102
{ACAD_REACTORS
330
47
102
}
330
47
100
AcDbScale
 70
     0
300
1/32" = 1'-0"
140
0.03125
141
12.0
290
     0
  0
SCALE
  5
4C
102
{ACAD_REACTORS
330
47
102
}
330
47
100
AcDbScale
 70
     0
300
1/16" = 1'-0"
140
0.0625
141
12.0
290
     0
  0
SCALE
  5
4D
102
{ACAD_REACTORS
330
47
102
}
330
47
100
AcDbScale
 70
     0
300
3/32" = 1'-0"
140
0.09375
141
12.0
290
     0
  0
SCALE
  5
4E
102
{ACAD_REACTORS
330
47
102
}
330
47
100
AcDbScale
 70
     0
300
1/8" = 1'-0"
140
0.125
141
12.0
290
     0
  0
SCALE
  5
4F
102
{ACAD_REACTORS
330
47
102
}
330
47
100
AcDbScale
 70
     0
300
3/16" = 1'-0"
140
0.1875
141
12.0
290
     0
  0
SCALE
  5
50
102
{ACAD_REACTORS
330
47
102
}
330
47
100
AcDbScale
 70
     0
300
1/4" = 1'-0"
140
0.25
141
12.0
290
     0
  0
SCALE
  5
51
102
{ACAD_REACTORS
330
47
102
}
330
47
100
AcDbScale
 70
     0
300
3/8" = 1'-0"
140
0.375
141
12.0
290
     0
  0
SCALE
  5
52
102
{ACAD_REACTORS
330
47
102
}
330
47
100
AcDbScale
 70
     0
300
1/2" = 1'-0"
140
0.5
141
12.0
290
     0
  0
SCALE
  5
53
102
{ACAD_REACTORS
330
47
102
}
330
47
100
AcDbScale
 70
     0
300
3/4" = 1'-0"
140
0.75
141
12.0
290
     0
  0
SCALE
  5
54
102
{ACAD_REACTORS
330
47
102
}
330
47
100
AcDbScale
 70
     0
300
1" = 1'-0"
140
1.0
141
12.0
290
     0
  0
SCALE
  5
55
102
{ACAD_REACTORS
330
47
102
}
330
47
100
AcDbScale
 70
     0
300
1-1/2" = 1'-0"
140
1.5
141
12.0
290
     0
  0
SCALE
  5
56
102
{ACAD_REACTORS
330
47
102
}
330
47
100
AcDbScale
 70
     0
300
3" = 1'-0"
140
3.0
141
12.0
290
     0
  0
SCALE
  5
57
102
{ACAD_REACTORS
330
47
102
}
330
47
100
AcDbScale
 70
     0
300
6" = 1'-0"
140
6.0
141
12.0
290
     0
  0
SCALE
  5
58
102
{ACAD_REACTORS
330
47
102
}
330
47
100
AcDbScale
 70
     0
300
1'-0" = 1'-0"
140
12.0
141
12.0
290
     0
  0
TABLESTYLE
  5
5A
102
{ACAD_REACTORS
330
59
102
}
102
{ACAD_XDICTIONARY
360
82
102
}
330
59
100
AcDbTableStyle
  3
Standard
 70
     0
 71
     0
 40
0.06
 41
0.06
280
     0
281
     0
  7
Standard
140
0.18
170
     2
 62
     0
 63
   257
283
     0
 90
        4
 91
        0
  1

274
    -2
284
     1
 64
     0
275
    -2
285
     1
 65
     0
276
    -2
286
     1
 66
     0
277
    -2
287
     1
 67
     0
278
    -2
288
     1
 68
     0
279
    -2
289
     1
 69
     0
  7
Standard
140
0.25
170
     5
 62
     0
 63
   257
283
     0
 90
        4
 91
        0
  1

274
    -2
284
     1
 64
     0
275
    -2
285
     1
 65
     0
276
    -2
286
     1
 66
     0
277
    -2
287
     1
 67
     0
278
    -2
288
     1
 68
     0
279
    -2
289
     1
 69
     0
  7
Standard
140
0.18
170
     5
 62
     0
 63
   257
283
     0
 90
        4
 91
        0
  1

274
    -2
284
     1
 64
     0
275
    -2
285
     1
 65
     0
276
    -2
286
     1
 66
     0
277
    -2
287
     1
 67
     0
278
    -2
288
     1
 68
     0
279
    -2
289
     1
 69
     0
  0
VISUALSTYLE
  5
2F
102
{ACAD_REACTORS
330
2A
102
}
330
2A
100
AcDbVisualStyle
  2
2dWireframe
 70
     4
177
     3
291
     0
 70
    58
 90
        0
176
     1
 90
        2
176
     1
 90
        0
176
     1
 90
        0
176
     1
 40
0.6
176
     1
 40
30.0
176
     1
 62
     7
420
 16777215
176
     1
 90
        1
176
     1
 90
        4
176
     1
 62
     7
176
     1
 62
   257
176
     1
 90
        1
176
     1
 90
        1
176
     1
 40
1.0
176
     1
 90
        0
176
     1
 62
   257
176
     1
 40
1.0
176
     1
 90
        1
176
     1
 90
        6
176
     1
 90
        2
176
     1
 62
     7
176
     1
 90
        5
176
     1
 90
        0
176
     1
 90
        0
176
     1
290
     0
176
     1
 90
        1
176
     1
 40
0.0
176
     1
 90
        0
176
     1
290
     1
176
     1
290
     1
176
     1
290
     0
176
     1
290
     0
176
     1
290
     0
176
     1
290
     0
176
     1
290
     0
176
     1
290
     0
176
     1
290
     0
176
     1
 90
       50
176
     1
 40
0.0
176
     1
 40
1.0
176
     1
 90
        0
176
     1
 62
    18
420
        0
176
     1
 90
       50
176
     1
 90
        3
176
     1
 62
     5
420
      255
176
     1
290
     0
176
     1
 90
       50
176
     1
 90
       50
176
     1
 90
       50
176
     1
290
     0
176
     1
 90
       50
176
     1
 62
   256
176
     0
 40
1.0
176
     0
 90
        2
176
     1
  1
strokes_ogs.tif
176
     1
290
     0
176
     1
 40
1.0
176
     1
 40
1.0
176
     1
  0
VISUALSTYLE
  5
32
102
{ACAD_REACTORS
330
2A
102
}
330
2A
100
AcDbVisualStyle
  2
Basic
 70
     7
177
     3
291
     1
 70
    58
 90
        1
176
     1
 90
        0
176
     1
 90
        1
176
     1
 90
        0
176
     1
 40
0.6
176
     1
 40
30.0
176
     1
 62
     7
420
 16777215
176
     1
 90
        0
176
     1
 90
        4
176
     1
 62
     7
176
     1
 62
   257
176
     1
 90
        1
176
     1
 90
        1
176
     1
 40
1.0
176
     1
 90
        8
176
     1
 62
     7
176
     1
 40
1.0
176
     1
 90
        1
176
     1
 90
        6
176
     1
 90
        2
176
     1
 62
     7
176
     1
 90
        5
176
     1
 90
        0
176
     1
 90
        0
176
     1
290
     0
176
     1
 90
        1
176
     1
 40
0.0
176
     1
 90
        0
176
     1
290
     0
176
     1
290
     1
176
     1
290
     1
176
     1
290
     0
176
     1
290
     0
176
     1
290
     0
176
     1
290
     0
176
     1
290
     0
176
     1
290
     0
176
     1
 90
       50
176
     1
 40
0.0
176
     1
 40
1.0
176
     1
 90
        0
176
     1
 62
    18
420
        0
176
     1
 90
       50
176
     1
 90
        3
176
     1
 62
     5
420
      255
176
     1
290
     0
176
     1
 90
       50
176
     1
 90
       50
176
     1
 90
       50
176
     1
290
     0
176
     1
 90
       50
176
     1
 62
   256
176
     0
 40
1.0
176
     0
 90
        2
176
     1
  1
strokes_ogs.tif
176
     1
290
     0
176
     1
 40
1.0
176
     1
 40
1.0
176
     1
  0
VISUALSTYLE
  5
36
102
{ACAD_REACTORS
330
2A
102
}
330
2A
100
AcDbVisualStyle
  2
Brighten
 70
    12
177
     3
291
     1
 70
    58
 90
        2
176
     1
 90
        2
176
     1
 90
        0
176
     1
 90
        0
176
     1
 40
0.6
176
     1
 40
30.0
176
     1
 62
     7
420
 16777215
176
     1
 90
        1
176
     1
 90
        4
176
     1
 62
     7
176
     1
 62
   257
176
     1
 90
        1
176
     1
 90
        1
176
     1
 40
1.0
176
     1
 90
        8
176
     1
 62
     7
176
     1
 40
1.0
176
     1
 90
        1
176
     1
 90
        6
176
     1
 90
        2
176
     1
 62
     7
176
     1
 90
        5
176
     1
 90
        0
176
     1
 90
        0
176
     1
290
     0
176
     1
 90
        1
176
     1
 40
50.0
176
     1
 90
        0
176
     1
290
     0
176
     1
290
     1
176
     1
290
     1
176
     1
290
     0
176
     1
290
     0
176
     1
290
     0
176
     1
290
     0
176
     1
290
     0
176
     1
290
     0
176
     1
 90
       50
176
     1
 40
0.0
176
     1
 40
1.0
176
     1
 90
        0
176
     1
 62
    18
420
        0
176
     1
 90
       50
176
     1
 90
        3
176
     1
 62
     5
420
      255
176
     1
290
     0
176
     1
 90
       50
176
     1
 90
       50
176
     1
 90
       50
176
     1
290
     0
176
     1
 90
       50
176
     1
 62
   256
176
     0
 40
1.0
176
     0
 90
        2
176
     1
  1
strokes_ogs.tif
176
     1
290
     0
176
     1
 40
1.0
176
     1
 40
1.0
176
     1
  0
VISUALSTYLE
  5
3A
102
{ACAD_REACTORS
330
2A
102
}
330
2A
100
AcDbVisualStyle
  2
ColorChange
 70
    16
177
     3
291
     1
 70
    58
 90
        2
176
     1
 90
        2
176
     1
 90
        3
176
     1
 90
        0
176
     1
 40
0.6
176
     1
 40
30.0
176
     1
 62
     8
420
  8421504
176
     1
 90
        1
176
     1
 90
        4
176
     1
 62
     7
176
     1
 62
   257
176
     1
 90
        1
176
     1
 90
        1
176
     1
 40
1.0
176
     1
 90
        8
176
     1
 62
     8
420
  8421504
176
     1
 40
1.0
176
     1
 90
        1
176
     1
 90
        6
176
     1
 90
        2
176
     1
 62
     7
176
     1
 90
        5
176
     1
 90
        0
176
     1
 90
        0
176
     1
290
     0
176
     1
 90
        1
176
     1
 40
0.0
176
     1
 90
        0
176
     1
290
     0
176
     1
290
     1
176
     1
290
     1
176
     1
290
     0
176
     1
290
     0
176
     1
290
     0
176
     1
290
     0
176
     1
290
     0
176
     1
290
     0
176
     1
 90
       50
176
     1
 40
0.0
176
     1
 40
1.0
176
     1
 90
        0
176
     1
 62
    18
420
        0
176
     1
 90
       50
176
     1
 90
        3
176
     1
 62
     5
420
      255
176
     1
290
     0
176
     1
 90
       50
176
     1
 90
       50
176
     1
 90
       50
176
     1
290
     0
176
     1
 90
       50
176
     1
 62
   256
176
     0
 40
1.0
176
     0
 90
        2
176
     1
  1
strokes_ogs.tif
176
     1
290
     0
176
     1
 40
1.0
176
     1
 40
1.0
176
     1
  0
VISUALSTYLE
  5
34
102
{ACAD_REACTORS
330
2A
102
}
330
2A
100
AcDbVisualStyle
  2
Conceptual
 70
     9
177
     3
291
     0
 70
    58
 90
        3
176
     1
 90
        2
176
     1
 90
        0
176
     1
 90
        0
176
     1
 40
0.6
176
     1
 40
30.0
176
     1
 62
     7
420
 16777215
176
     1
 90
        2
176
     1
 90
        2
176
     1
 62
     7
176
     1
 62
   257
176
     1
 90
        1
176
     1
 90
        1
176
     1
 40
179.0
176
     1
 90
        8
176
     1
 62
     7
176
     1
 40
1.0
176
     1
 90
        1
176
     1
 90
        6
176
     1
 90
        2
176
     1
 62
     7
176
     1
 90
        3
176
     1
 90
        0
176
     1
 90
        0
176
     1
290
     0
176
     1
 90
        1
176
     1
 40
0.0
176
     1
 90
        0
176
     1
290
     0
176
     1
290
     1
176
     1
290
     1
176
     1
290
     0
176
     1
290
     0
176
     1
290
     0
176
     1
290
     0
176
     1
290
     0
176
     1
290
     0
176
     1
 90
       50
176
     1
 40
0.0
176
     1
 40
1.0
176
     1
 90
        0
176
     1
 62
    18
420
        0
176
     1
 90
       50
176
     1
 90
        3
176
     1
 62
     5
420
      255
176
     1
290
     0
176
     1
 90
       50
176
     1
 90
       50
176
     1
 90
       50
176
     1
290
     0
176
     1
 90
       50
176
     1
 62
   256
176
     0
 40
1.0
176
     0
 90
        2
176
     1
  1
strokes_ogs.tif
176
     1
290
     0
176
     1
 40
1.0
176
     1
 40
1.0
176
     1
  0
VISUALSTYLE
  5
35
102
{ACAD_REACTORS
330
2A
102
}
330
2A
100
AcDbVisualStyle
  2
Dim
 70
    11
177
     3
291
     1
 70
    58
 90
        2
176
     1
 90
        2
176
     1
 90
        0
176
     1
 90
        0
176
     1
 40
0.6
176
     1
 40
30.0
176
     1
 62
     7
420
 16777215
176
     1
 90
        1
176
     1
 90
        4
176
     1
 62
     7
176
     1
 62
   257
176
     1
 90
        1
176
     1
 90
        1
176
     1
 40
1.0
176
     1
 90
        8
176
     1
 62
     7
176
     1
 40
1.0
176
     1
 90
        1
176
     1
 90
        6
176
     1
 90
        2
176
     1
 62
     7
176
     1
 90
        5
176
     1
 90
        0
176
     1
 90
        0
176
     1
290
     0
176
     1
 90
        1
176
     1
 40
-50.0
176
     1
 90
        0
176
     1
290
     0
176
     1
290
     1
176
     1
290
     1
176
     1
290
     0
176
     1
290
     0
176
     1
290
     0
176
     1
290
     0
176
     1
290
     0
176
     1
290
     0
176
     1
 90
       50
176
     1
 40
0.0
176
     1
 40
1.0
176
     1
 90
        0
176
     1
 62
    18
420
        0
176
     1
 90
       50
176
     1
 90
        3
176
     1
 62
     5
420
      255
176
     1
290
     0
176
     1
 90
       50
176
     1
 90
       50
176
     1
 90
       50
176
     1
290
     0
176
     1
 90
       50
176
     1
 62
   256
176
     0
 40
1.0
176
     0
 90
        2
176
     1
  1
strokes_ogs.tif
176
     1
290
     0
176
     1
 40
1.0
176
     1
 40
1.0
176
     1
  0
VISUALSTYLE
  5
3D
102
{ACAD_REACTORS
330
2A
102
}
330
2A
100
AcDbVisualStyle
  2
EdgeColorOff
 70
    22
177
     3
291
     1
 70
    58
 90
        2
176
     0
 90
        2
176
     0
 90
        0
176
     0
 90
        0
176
     0
 40
0.6
176
     0
 40
30.0
176
     0
 62
     7
420
 16777215
176
     0
 90
        1
176
     0
 90
        4
176
     0
 62
     7
176
     0
 62
   257
176
     0
 90
        1
176
     0
 90
        1
176
     0
 40
1.0
176
     0
 90
        8
176
     2
 62
     7
176
     0
 40
1.0
176
     0
 90
        1
176
     0
 90
        6
176
     0
 90
        2
176
     0
 62
     7
176
     0
 90
        5
176
     0
 90
        0
176
     0
 90
        0
176
     0
290
     0
176
     0
 90
        1
176
     0
 40
0.0
176
     0
 90
        0
176
     0
290
     0
176
     0
290
     1
176
     0
290
     1
176
     0
290
     0
176
     0
290
     0
176
     0
290
     0
176
     0
290
     0
176
     0
290
     0
176
     0
290
     0
176
     0
 90
       50
176
     0
 40
0.0
176
     0
 40
1.0
176
     0
 90
        0
176
     0
 62
    18
420
        0
176
     0
 90
       50
176
     0
 90
        3
176
     0
 62
     5
420
      255
176
     0
290
     0
176
     0
 90
       50
176
     0
 90
       50
176
     0
 90
       50
176
     0
290
     0
176
     0
 90
       50
176
     0
 62
   256
176
     0
 40
1.0
176
     0
 90
        2
176
     0
  1
strokes_ogs.tif
176
     0
290
     0
176
     0
 40
1.0
176
     0
 40
1.0
176
     0
  0
VISUALSTYLE
  5
39
102
{ACAD_REACTORS
330
2A
102
}
330
2A
100
AcDbVisualStyle
  2
Facepattern
 70
    15
177
     3
291
     1
 70
    58
 90
        2
176
     1
 90
        2
176
     1
 90
        0
176
     1
 90
        0
176
     1
 40
0.6
176
     1
 40
30.0
176
     1
 62
     7
420
 16777215
176
     1
 90
        1
176
     1
 90
        4
176
     1
 62
     7
176
     1
 62
   257
176
     1
 90
        1
176
     1
 90
        1
176
     1
 40
1.0
176
     1
 90
        8
176
     1
 62
     7
176
     1
 40
1.0
176
     1
 90
        1
176
     1
 90
        6
176
     1
 90
        2
176
     1
 62
     7
176
     1
 90
        5
176
     1
 90
        0
176
     1
 90
        0
176
     1
290
     0
176
     1
 90
        1
176
     1
 40
0.0
176
     1
 90
        0
176
     1
290
     0
176
     1
290
     1
176
     1
290
     1
176
     1
290
     0
176
     1
290
     0
176
     1
290
     0
176
     1
290
     0
176
     1
290
     0
176
     1
290
     0
176
     1
 90
       50
176
     1
 40
0.0
176
     1
 40
1.0
176
     1
 90
        0
176
     1
 62
    18
420
        0
176
     1
 90
       50
176
     1
 90
        3
176
     1
 62
     5
420
      255
176
     1
290
     0
176
     1
 90
       50
176
     1
 90
       50
176
     1
 90
       50
176
     1
290
     0
176
     1
 90
       50
176
     1
 62
   256
176
     0
 40
1.0
176
     0
 90
        2
176
     1
  1
strokes_ogs.tif
176
     1
290
     0
176
     1
 40
1.0
176
     1
 40
1.0
176
     1
  0
VISUALSTYLE
  5
2B
102
{ACAD_REACTORS
330
2A
102
}
330
2A
100
AcDbVisualStyle
  2
Flat
 70
     0
177
     3
291
     1
 70
    58
 90
        2
176
     1
 90
        1
176
     1
 90
        1
176
     1
 90
        2
176
     1
 40
0.6
176
     1
 40
30.0
176
     1
 62
     7
420
 16777215
176
     1
 90
        0
176
     1
 90
        0
176
     1
 62
     7
176
     1
 62
   257
176
     1
 90
        1
176
     1
 90
        1
176
     1
 40
1.0
176
     1
 90
        8
176
     1
 62
     7
176
     1
 40
1.0
176
     1
 90
        1
176
     1
 90
        6
176
     1
 90
        2
176
     1
 62
     7
176
     1
 90
        5
176
     1
 90
        0
176
     1
 90
        0
176
     1
290
     0
176
     1
 90
       13
176
     1
 40
0.0
176
     1
 90
        0
176
     1
290
     0
176
     1
290
     1
176
     1
290
     1
176
     1
290
     0
176
     1
290
     0
176
     1
290
     0
176
     1
290
     0
176
     1
290
     0
176
     1
290
     0
176
     1
 90
       50
176
     1
 40
0.0
176
     1
 40
1.0
176
     1
 90
        0
176
     1
 62
    18
420
        0
176
     1
 90
       50
176
     1
 90
        3
176
     1
 62
     5
420
      255
176
     1
290
     0
176
     1
 90
       50
176
     1
 90
       50
176
     1
 90
       50
176
     1
290
     0
176
     1
 90
       50
176
     1
 62
   256
176
     0
 40
1.0
176
     0
 90
        2
176
     1
  1
strokes_ogs.tif
176
     1
290
     0
176
     1
 40
1.0
176
     1
 40
1.0
176
     1
  0
VISUALSTYLE
  5
2C
102
{ACAD_REACTORS
330
2A
102
}
330
2A
100
AcDbVisualStyle
  2
FlatWithEdges
 70
     1
177
     3
291
     1
 70
    58
 90
        2
176
     1
 90
        1
176
     1
 90
        1
176
     1
 90
        2
176
     1
 40
0.6
176
     1
 40
30.0
176
     1
 62
     7
420
 16777215
176
     1
 90
        1
176
     1
 90
        0
176
     1
 62
     7
176
     1
 62
   257
176
     1
 90
        1
176
     1
 90
        1
176
     1
 40
1.0
176
     1
 90
        0
176
     1
 62
   257
176
     1
 40
1.0
176
     1
 90
        1
176
     1
 90
        6
176
     1
 90
        2
176
     1
 62
     7
176
     1
 90
        5
176
     1
 90
        0
176
     1
 90
        0
176
     1
290
     0
176
     1
 90
       13
176
     1
 40
0.0
176
     1
 90
        0
176
     1
290
     0
176
     1
290
     1
176
     1
290
     1
176
     1
290
     0
176
     1
290
     0
176
     1
290
     0
176
     1
290
     0
176
     1
290
     0
176
     1
290
     0
176
     1
 90
       50
176
     1
 40
0.0
176
     1
 40
1.0
176
     1
 90
        0
176
     1
 62
    18
420
        0
176
     1
 90
       50
176
     1
 90
        3
176
     1
 62
     5
420
      255
176
     1
290
     0
176
     1
 90
       50
176
     1
 90
       50
176
     1
 90
       50
176
     1
290
     0
176
     1
 90
       50
176
     1
 62
   256
176
     0
 40
1.0
176
     0
 90
        2
176
     1
  1
strokes_ogs.tif
176
     1
290
     0
176
     1
 40
1.0
176
     1
 40
1.0
176
     1
  0
VISUALSTYLE
  5
2D
102
{ACAD_REACTORS
330
2A
102
}
330
2A
100
AcDbVisualStyle
  2
Gouraud
 70
     2
177
     3
291
     1
 70
    58
 90
        2
176
     1
 90
        2
176
     1
 90
        1
176
     1
 90
        2
176
     1
 40
0.6
176
     1
 40
30.0
176
     1
 62
     7
420
 16777215
176
     1
 90
        0
176
     1
 90
        0
176
     1
 62
     7
176
     1
 62
   257
176
     1
 90
        1
176
     1
 90
        1
176
     1
 40
1.0
176
     1
 90
        0
176
     1
 62
     7
176
     1
 40
1.0
176
     1
 90
        1
176
     1
 90
        6
176
     1
 90
        2
176
     1
 62
     7
176
     1
 90
        5
176
     1
 90
        0
176
     1
 90
        0
176
     1
290
     0
176
     1
 90
       13
176
     1
 40
0.0
176
     1
 90
        0
176
     1
290
     0
176
     1
290
     1
176
     1
290
     1
176
     1
290
     0
176
     1
290
     0
176
     1
290
     0
176
     1
290
     0
176
     1
290
     0
176
     1
290
     0
176
     1
 90
       50
176
     1
 40
0.0
176
     1
 40
1.0
176
     1
 90
        0
176
     1
 62
    18
420
        0
176
     1
 90
       50
176
     1
 90
        3
176
     1
 62
     5
420
      255
176
     1
290
     0
176
     1
 90
       50
176
     1
 90
       50
176
     1
 90
       50
176
     1
290
     0
176
     1
 90
       50
176
     1
 62
   256
176
     0
 40
1.0
176
     0
 90
        2
176
     1
  1
strokes_ogs.tif
176
     1
290
     0
176
     1
 40
1.0
176
     1
 40
1.0
176
     1
  0
VISUALSTYLE
  5
2E
102
{ACAD_REACTORS
330
2A
102
}
330
2A
100
AcDbVisualStyle
  2
GouraudWithEdges
 70
     3
177
     3
291
     1
 70
    58
 90
        2
176
     1
 90
        2
176
     1
 90
        1
176
     1
 90
        2
176
     1
 40
0.6
176
     1
 40
30.0
176
     1
 62
     7
420
 16777215
176
     1
 90
        1
176
     1
 90
        0
176
     1
 62
     7
176
     1
 62
   257
176
     1
 90
        1
176
     1
 90
        1
176
     1
 40
1.0
176
     1
 90
        0
176
     1
 62
   257
176
     1
 40
1.0
176
     1
 90
        1
176
     1
 90
        6
176
     1
 90
        2
176
     1
 62
     7
176
     1
 90
        5
176
     1
 90
        0
176
     1
 90
        0
176
     1
290
     0
176
     1
 90
       13
176
     1
 40
0.0
176
     1
 90
        0
176
     1
290
     0
176
     1
290
     1
176
     1
290
     1
176
     1
290
     0
176
     1
290
     0
176
     1
290
     0
176
     1
290
     0
176
     1
290
     0
176
     1
290
     0
176
     1
 90
       50
176
     1
 40
0.0
176
     1
 40
1.0
176
     1
 90
        0
176
     1
 62
    18
420
        0
176
     1
 90
       50
176
     1
 90
        3
176
     1
 62
     5
420
      255
176
     1
290
     0
176
     1
 90
       50
176
     1
 90
       50
176
     1
 90
       50
176
     1
290
     0
176
     1
 90
       50
176
     1
 62
   256
176
     0
 40
1.0
176
     0
 90
        2
176
     1
  1
strokes_ogs.tif
176
     1
290
     0
176
     1
 40
1.0
176
     1
 40
1.0
176
     1
  0
VISUALSTYLE
  5
31
102
{ACAD_REACTORS
330
2A
102
}
330
2A
100
AcDbVisualStyle
  2
Hidden
 70
     6
177
     3
291
     0
 70
    58
 90
        1
176
     1
 90
        2
176
     1
 90
        2
176
     1
 90
        0
176
     1
 40
0.6
176
     1
 40
30.0
176
     1
 62
     7
420
 16777215
176
     1
 90
        2
176
     1
 90
        2
176
     1
 62
     7
176
     1
 62
   257
176
     1
 90
        2
176
     1
 90
        1
176
     1
 40
40.0
176
     1
 90
        0
176
     1
 62
   257
176
     1
 40
1.0
176
     1
 90
        1
176
     1
 90
        6
176
     1
 90
        2
176
     1
 62
     7
176
     1
 90
        3
176
     1
 90
        0
176
     1
 90
        0
176
     1
290
     0
176
     1
 90
        1
176
     1
 40
0.0
176
     1
 90
        0
176
     1
290
     0
176
     1
290
     1
176
     1
290
     1
176
     1
290
     0
176
     1
290
     0
176
     1
290
     0
176
     1
290
     0
176
     1
290
     0
176
     1
290
     0
176
     1
 90
       50
176
     1
 40
0.0
176
     1
 40
1.0
176
     1
 90
        0
176
     1
 62
    18
420
        0
176
     1
 90
       50
176
     1
 90
        3
176
     1
 62
     5
420
      255
176
     1
290
     0
176
     1
 90
       50
176
     1
 90
       50
176
     1
 90
       50
176
     1
290
     0
176
     1
 90
       50
176
     1
 62
   256
176
     0
 40
1.0
176
     0
 90
        2
176
     1
  1
strokes_ogs.tif
176
     1
290
     0
176
     1
 40
1.0
176
     1
 40
1.0
176
     1
  0
VISUALSTYLE
  5
3B
102
{ACAD_REACTORS
330
2A
102
}
330
2A
100
AcDbVisualStyle
  2
JitterOff
 70
    20
177
     3
291
     1
 70
    58
 90
        2
176
     0
 90
        2
176
     0
 90
        0
176
     0
 90
        0
176
     0
 40
0.6
176
     0
 40
30.0
176
     0
 62
     7
420
 16777215
176
     0
 90
        1
176
     0
 90
        4
176
     0
 62
     7
176
     0
 62
   257
176
     0
 90
        1
176
     0
 90
        1
176
     0
 40
1.0
176
     0
 90
       10
176
     2
 62
     7
176
     0
 40
1.0
176
     0
 90
        1
176
     0
 90
        6
176
     0
 90
        2
176
     0
 62
     7
176
     0
 90
        5
176
     0
 90
        0
176
     0
 90
        0
176
     0
290
     0
176
     0
 90
        1
176
     0
 40
0.0
176
     0
 90
        0
176
     0
290
     0
176
     0
290
     1
176
     0
290
     1
176
     0
290
     0
176
     0
290
     0
176
     0
290
     0
176
     0
290
     0
176
     0
290
     0
176
     0
290
     0
176
     0
 90
       50
176
     0
 40
0.0
176
     0
 40
1.0
176
     0
 90
        0
176
     0
 62
    18
420
        0
176
     0
 90
       50
176
     0
 90
        3
176
     0
 62
     5
420
      255
176
     0
290
     0
176
     0
 90
       50
176
     0
 90
       50
176
     0
 90
       50
176
     0
290
     0
176
     0
 90
       50
176
     0
 62
   256
176
     0
 40
1.0
176
     0
 90
        2
176
     0
  1
strokes_ogs.tif
176
     0
290
     0
176
     0
 40
1.0
176
     0
 40
1.0
176
     0
  0
VISUALSTYLE
  5
38
102
{ACAD_REACTORS
330
2A
102
}
330
2A
100
AcDbVisualStyle
  2
Linepattern
 70
    14
177
     3
291
     1
 70
    58
 90
        2
176
     1
 90
        2
176
     1
 90
        0
176
     1
 90
        0
176
     1
 40
0.6
176
     1
 40
30.0
176
     1
 62
     7
420
 16777215
176
     1
 90
        1
176
     1
 90
        4
176
     1
 62
     7
176
     1
 62
   257
176
     1
 90
        7
176
     1
 90
        7
176
     1
 40
1.0
176
     1
 90
        8
176
     1
 62
     7
176
     1
 40
1.0
176
     1
 90
        1
176
     1
 90
        6
176
     1
 90
        2
176
     1
 62
     7
176
     1
 90
        5
176
     1
 90
        0
176
     1
 90
        0
176
     1
290
     0
176
     1
 90
        1
176
     1
 40
0.0
176
     1
 90
        0
176
     1
290
     0
176
     1
290
     1
176
     1
290
     1
176
     1
290
     0
176
     1
290
     0
176
     1
290
     0
176
     1
290
     0
176
     1
290
     0
176
     1
290
     0
176
     1
 90
       50
176
     1
 40
0.0
176
     1
 40
1.0
176
     1
 90
        0
176
     1
 62
    18
420
        0
176
     1
 90
       50
176
     1
 90
        3
176
     1
 62
     5
420
      255
176
     1
290
     0
176
     1
 90
       50
176
     1
 90
       50
176
     1
 90
       50
176
     1
290
     0
176
     1
 90
       50
176
     1
 62
   256
176
     0
 40
1.0
176
     0
 90
        2
176
     1
  1
strokes_ogs.tif
176
     1
290
     0
176
     1
 40
1.0
176
     1
 40
1.0
176
     1
  0
VISUALSTYLE
  5
3C
102
{ACAD_REACTORS
330
2A
102
}
330
2A
100
AcDbVisualStyle
  2
OverhangOff
 70
    21
177
     3
291
     1
 70
    58
 90
        2
176
     0
 90
        2
176
     0
 90
        0
176
     0
 90
        0
176
     0
 40
0.6
176
     0
 40
30.0
176
     0
 62
     7
420
 16777215
176
     0
 90
        1
176
     0
 90
        4
176
     0
 62
     7
176
     0
 62
   257
176
     0
 90
        1
176
     0
 90
        1
176
     0
 40
1.0
176
     0
 90
        9
176
     2
 62
     7
176
     0
 40
1.0
176
     0
 90
        1
176
     0
 90
        6
176
     0
 90
        2
176
     0
 62
     7
176
     0
 90
        5
176
     0
 90
        0
176
     0
 90
        0
176
     0
290
     0
176
     0
 90
        1
176
     0
 40
0.0
176
     0
 90
        0
176
     0
290
     0
176
     0
290
     1
176
     0
290
     1
176
     0
290
     0
176
     0
290
     0
176
     0
290
     0
176
     0
290
     0
176
     0
290
     0
176
     0
290
     0
176
     0
 90
       50
176
     0
 40
0.0
176
     0
 40
1.0
176
     0
 90
        0
176
     0
 62
    18
420
        0
176
     0
 90
       50
176
     0
 90
        3
176
     0
 62
     5
420
      255
176
     0
290
     0
176
     0
 90
       50
176
     0
 90
       50
176
     0
 90
       50
176
     0
290
     0
176
     0
 90
       50
176
     0
 62
   256
176
     0
 40
1.0
176
     0
 90
        2
176
     0
  1
strokes_ogs.tif
176
     0
290
     0
176
     0
 40
1.0
176
     0
 40
1.0
176
     0
  0
VISUALSTYLE
  5
33
102
{ACAD_REACTORS
330
2A
102
}
330
2A
100
AcDbVisualStyle
  2
Realistic
 70
     8
177
     3
291
     0
 70
    58
 90
        2
176
     1
 90
        3
176
     1
 90
        0
176
     1
 90
        2
176
     1
 40
0.6
176
     1
 40
30.0
176
     1
 62
     7
420
 16777215
176
     1
 90
        0
176
     1
 90
        0
176
     1
 62
     7
176
     1
 62
   257
176
     1
 90
        1
176
     1
 90
        1
176
     1
 40
1.0
176
     1
 90
        8
176
     1
 62
   257
176
     1
 40
1.0
176
     1
 90
        1
176
     1
 90
        6
176
     1
 90
        2
176
     1
 62
     7
176
     1
 90
        3
176
     1
 90
        0
176
     1
 90
        0
176
     1
290
     0
176
     1
 90
       13
176
     1
 40
0.0
176
     1
 90
        0
176
     1
290
     0
176
     1
290
     1
176
     1
290
     1
176
     1
290
     0
176
     1
290
     0
176
     1
290
     0
176
     1
290
     0
176
     1
290
     0
176
     1
290
     0
176
     1
 90
       50
176
     1
 40
0.0
176
     1
 40
1.0
176
     1
 90
        0
176
     1
 62
    18
420
        0
176
     1
 90
       50
176
     1
 90
        3
176
     1
 62
     5
420
      255
176
     1
290
     0
176
     1
 90
       50
176
     1
 90
       50
176
     1
 90
       50
176
     1
290
     0
176
     1
 90
       50
176
     1
 62
   256
176
     0
 40
1.0
176
     0
 90
        2
176
     1
  1
strokes_ogs.tif
176
     1
290
     0
176
     1
 40
1.0
176
     1
 40
1.0
176
     1
  0
VISUALSTYLE
  5
42
102
{ACAD_REACTORS
330
2A
102
}
330
2A
100
AcDbVisualStyle
  2
Shaded
 70
    27
177
     3
291
     0
 70
    58
 90
        2
176
     1
 90
        2
176
     1
 90
        1
176
     1
 90
        2
176
     1
 40
0.6
176
     1
 40
30.0
176
     1
 62
     7
420
 16777215
176
     1
 90
        0
176
     1
 90
        4
176
     1
 62
     7
176
     1
 62
   257
176
     1
 90
        1
176
     1
 90
        1
176
     1
 40
1.0
176
     1
 90
        8
176
     1
 62
   257
176
     1
 40
1.0
176
     1
 90
        1
176
     1
 90
        6
176
     1
 90
        2
176
     1
 62
     8
420
  7895160
176
     1
 90
        3
176
     1
 90
        0
176
     1
 90
        0
176
     1
290
     0
176
     1
 90
        5
176
     1
 40
0.0
176
     1
 90
        0
176
     1
290
     0
176
     1
290
     1
176
     1
290
     1
176
     1
290
     0
176
     1
290
     0
176
     1
290
     0
176
     1
290
     0
176
     1
290
     0
176
     1
290
     0
176
     1
 90
       50
176
     1
 40
0.0
176
     1
 40
1.0
176
     1
 90
        0
176
     1
 62
    18
420
        0
176
     1
 90
       50
176
     1
 90
        3
176
     1
 62
     5
420
      255
176
     1
290
     0
176
     1
 90
       50
176
     1
 90
       50
176
     1
 90
       50
176
     1
290
     0
176
     1
 90
       50
176
     1
 62
   256
176
     0
 40
1.0
176
     0
 90
        2
176
     1
  1
strokes_ogs.tif
176
     1
290
     0
176
     1
 40
1.0
176
     1
 40
1.0
176
     1
  0
VISUALSTYLE
  5
41
102
{ACAD_REACTORS
330
2A
102
}
330
2A
100
AcDbVisualStyle
  2
Shaded with edges
 70
    26
177
     3
291
     0
 70
    58
 90
        2
176
     1
 90
        2
176
     1
 90
        1
176
     1
 90
        2
176
     1
 40
0.6
176
     1
 40
30.0
176
     1
 62
     7
420
 16777215
176
     1
 90
        1
176
     1
 90
       10
176
     1
 62
     7
176
     1
 62
   257
176
     1
 90
        2
176
     1
 90
        1
176
     1
 40
1.0
176
     1
 90
        8
176
     1
 62
   257
176
     1
 40
1.0
176
     1
 90
        1
176
     1
 90
        6
176
     1
 90
        2
176
     1
 62
     7
176
     1
 90
        3
176
     1
 90
        0
176
     1
 90
        0
176
     1
290
     0
176
     1
 90
        5
176
     1
 40
0.0
176
     1
 90
        0
176
     1
290
     0
176
     1
290
     1
176
     1
290
     1
176
     1
290
     0
176
     1
290
     0
176
     1
290
     0
176
     1
290
     0
176
     1
290
     0
176
     1
290
     0
176
     1
 90
       50
176
     1
 40
0.0
176
     1
 40
1.0
176
     1
 90
        0
176
     1
 62
    18
420
        0
176
     1
 90
       50
176
     1
 90
        3
176
     1
 62
     5
420
      255
176
     1
290
     0
176
     1
 90
       50
176
     1
 90
       50
176
     1
 90
       50
176
     1
290
     0
176
     1
 90
       50
176
     1
 62
   256
176
     0
 40
1.0
176
     0
 90
        2
176
     1
  1
strokes_ogs.tif
176
     1
290
     0
176
     1
 40
1.0
176
     1
 40
1.0
176
     1
  0
VISUALSTYLE
  5
3E
102
{ACAD_REACTORS
330
2A
102
}
330
2A
100
AcDbVisualStyle
  2
Shades of Gray
 70
    23
177
     3
291
     0
 70
    58
 90
        2
176
     1
 90
        2
176
     1
 90
        3
176
     1
 90
        0
176
     1
 40
0.6
176
     1
 40
30.0
176
     1
 62
     7
420
 16777215
176
     1
 90
        2
176
     1
 90
        2
176
     1
 62
     7
176
     1
 62
     7
176
     1
 90
        1
176
     1
 90
        1
176
     1
 40
40.0
176
     1
 90
        8
176
     1
 62
     7
176
     1
 40
1.0
176
     1
 90
        1
176
     1
 90
        6
176
     1
 90
        2
176
     1
 62
     7
176
     1
 90
        3
176
     1
 90
        0
176
     1
 90
        0
176
     1
290
     0
176
     1
 90
        1
176
     1
 40
0.0
176
     1
 90
        0
176
     1
290
     0
176
     1
290
     1
176
     1
290
     1
176
     1
290
     0
176
     1
290
     0
176
     1
290
     0
176
     1
290
     0
176
     1
290
     0
176
     1
290
     0
176
     1
 90
       50
176
     1
 40
0.0
176
     1
 40
1.0
176
     1
 90
        0
176
     1
 62
    18
420
        0
176
     1
 90
       50
176
     1
 90
        3
176
     1
 62
     5
420
      255
176
     1
290
     0
176
     1
 90
       50
176
     1
 90
       50
176
     1
 90
       50
176
     1
290
     0
176
     1
 90
       50
176
     1
 62
   256
176
     0
 40
1.0
176
     0
 90
        2
176
     1
  1
strokes_ogs.tif
176
     1
290
     0
176
     1
 40
1.0
176
     1
 40
1.0
176
     1
  0
VISUALSTYLE
  5
3F
102
{ACAD_REACTORS
330
2A
102
}
330
2A
100
AcDbVisualStyle
  2
Sketchy
 70
    24
177
     3
291
     0
 70
    58
 90
        1
176
     1
 90
        2
176
     1
 90
        2
176
     1
 90
        0
176
     1
 40
0.6
176
     1
 40
30.0
176
     1
 62
     7
420
 16777215
176
     1
 90
        2
176
     1
 90
        2
176
     1
 62
     7
176
     1
 62
     7
176
     1
 90
        1
176
     1
 90
        1
176
     1
 40
40.0
176
     1
 90
       11
176
     1
 62
     7
176
     1
 40
1.0
176
     1
 90
        1
176
     1
 90
        6
176
     1
 90
        2
176
     1
 62
     7
176
     1
 90
        6
176
     1
 90
        0
176
     1
 90
        0
176
     1
290
     0
176
     1
 90
        1
176
     1
 40
0.0
176
     1
 90
        0
176
     1
290
     0
176
     1
290
     1
176
     1
290
     1
176
     1
290
     0
176
     1
290
     0
176
     1
290
     0
176
     1
290
     0
176
     1
290
     0
176
     1
290
     0
176
     1
 90
       50
176
     1
 40
0.0
176
     1
 40
1.0
176
     1
 90
        0
176
     1
 62
    18
420
        0
176
     1
 90
       50
176
     1
 90
        3
176
     1
 62
     5
420
      255
176
     1
290
     0
176
     1
 90
       50
176
     1
 90
       50
176
     1
 90
       50
176
     1
290
     0
176
     1
 90
       50
176
     1
 62
   256
176
     0
 40
1.0
176
     0
 90
        2
176
     1
  1
strokes_ogs.tif
176
     1
290
     0
176
     1
 40
1.0
176
     1
 40
1.0
176
     1
  0
VISUALSTYLE
  5
37
102
{ACAD_REACTORS
330
2A
102
}
330
2A
100
AcDbVisualStyle
  2
Thicken
 70
    13
177
     3
291
     1
 70
    58
 90
        2
176
     1
 90
        2
176
     1
 90
        0
176
     1
 90
        0
176
     1
 40
0.6
176
     1
 40
30.0
176
     1
 62
     7
420
 16777215
176
     1
 90
        1
176
     1
 90
        4
176
     1
 62
     7
176
     1
 62
   257
176
     1
 90
        1
176
     1
 90
        1
176
     1
 40
1.0
176
     1
 90
       12
176
     1
 62
     7
176
     1
 40
1.0
176
     1
 90
        1
176
     1
 90
        6
176
     1
 90
        2
176
     1
 62
     7
176
     1
 90
        5
176
     1
 90
        0
176
     1
 90
        0
176
     1
290
     0
176
     1
 90
        1
176
     1
 40
0.0
176
     1
 90
        0
176
     1
290
     0
176
     1
290
     1
176
     1
290
     1
176
     1
290
     0
176
     1
290
     0
176
     1
290
     0
176
     1
290
     0
176
     1
290
     0
176
     1
290
     0
176
     1
 90
       50
176
     1
 40
0.0
176
     1
 40
1.0
176
     1
 90
        0
176
     1
 62
    18
420
        0
176
     1
 90
       50
176
     1
 90
        3
176
     1
 62
     5
420
      255
176
     1
290
     0
176
     1
 90
       50
176
     1
 90
       50
176
     1
 90
       50
176
     1
290
     0
176
     1
 90
       50
176
     1
 62
   256
176
     0
 40
1.0
176
     0
 90
        2
176
     1
  1
strokes_ogs.tif
176
     1
290
     0
176
     1
 40
1.0
176
     1
 40
1.0
176
     1
  0
VISUALSTYLE
  5
30
102
{ACAD_REACTORS
330
2A
102
}
330
2A
100
AcDbVisualStyle
  2
Wireframe
 70
     5
177
     3
291
     0
 70
    58
 90
        0
176
     1
 90
        2
176
     1
 90
        0
176
     1
 90
        0
176
     1
 40
0.6
176
     1
 40
30.0
176
     1
 62
     7
420
 16777215
176
     1
 90
        1
176
     1
 90
        4
176
     1
 62
     7
176
     1
 62
   257
176
     1
 90
        1
176
     1
 90
        1
176
     1
 40
1.0
176
     1
 90
        0
176
     1
 62
   257
176
     1
 40
1.0
176
     1
 90
        1
176
     1
 90
        6
176
     1
 90
        2
176
     1
 62
     7
176
     1
 90
        3
176
     1
 90
        0
176
     1
 90
        0
176
     1
290
     0
176
     1
 90
        1
176
     1
 40
0.0
176
     1
 90
        0
176
     1
290
     0
176
     1
290
     1
176
     1
290
     1
176
     1
290
     0
176
     1
290
     0
176
     1
290
     0
176
     1
290
     0
176
     1
290
     0
176
     1
290
     0
176
     1
 90
       50
176
     1
 40
0.0
176
     1
 40
1.0
176
     1
 90
        0
176
     1
 62
    18
420
        0
176
     1
 90
       50
176
     1
 90
        3
176
     1
 62
     5
420
      255
176
     1
290
     0
176
     1
 90
       50
176
     1
 90
       50
176
     1
 90
       50
176
     1
290
     0
176
     1
 90
       50
176
     1
 62
   256
176
     0
 40
1.0
176
     0
 90
        2
176
     1
  1
strokes_ogs.tif
176
     1
290
     0
176
     1
 40
1.0
176
     1
 40
1.0
176
     1
  0
VISUALSTYLE
  5
40
102
{ACAD_REACTORS
330
2A
102
}
330
2A
100
AcDbVisualStyle
  2
X-Ray
 70
    25
177
     3
291
     0
 70
    58
 90
        2
176
     1
 90
        2
176
     1
 90
        1
176
     1
 90
        1
176
     1
 40
0.5
176
     1
 40
30.0
176
     1
 62
     7
420
 16777215
176
     1
 90
        1
176
     1
 90
        0
176
     1
 62
     7
176
     1
 62
   257
176
     1
 90
        1
176
     1
 90
        1
176
     1
 40
1.0
176
     1
 90
        8
176
     1
 62
     7
176
     1
 40
1.0
176
     1
 90
        1
176
     1
 90
        6
176
     1
 90
        2
176
     1
 62
     7
176
     1
 90
        3
176
     1
 90
        0
176
     1
 90
        0
176
     1
290
     0
176
     1
 90
       13
176
     1
 40
0.0
176
     1
 90
        0
176
     1
290
     0
176
     1
290
     1
176
     1
290
     1
176
     1
290
     0
176
     1
290
     0
176
     1
290
     0
176
     1
290
     0
176
     1
290
     0
176
     1
290
     0
176
     1
 90
       50
176
     1
 40
0.0
176
     1
 40
1.0
176
     1
 90
        0
176
     1
 62
    18
420
        0
176
     1
 90
       50
176
     1
 90
        3
176
     1
 62
     5
420
      255
176
     1
290
     0
176
     1
 90
       50
176
     1
 90
       50
176
     1
 90
       50
176
     1
290
     0
176
     1
 90
       50
176
     1
 62
   256
176
     0
 40
1.0
176
     0
 90
        2
176
     1
  1
strokes_ogs.tif
176
     1
290
     0
176
     1
 40
1.0
176
     1
 40
1.0
176
     1
  0
DICTIONARYVAR
  5
81
102
{ACAD_REACTORS
330
80
102
}
330
80
100
DictionaryVariables
280
     0
  1
1:1
  0
DICTIONARYVAR
  5
86
102
{ACAD_REACTORS
330
80
102
}
330
80
100
DictionaryVariables
280
     0
  1
Standard
  0
DICTIONARYVAR
  5
85
102
{ACAD_REACTORS
330
80
102
}
330
80
100
DictionaryVariables
280
     0
  1
Standard
  0
DICTIONARY
  5
82
330
5A
100
AcDbDictionary
280
     1
281
     1
  3
ACAD_ROUNDTRIP_2008_TABLESTYLE_CELLSTYLEMAP
360
83
  0
CELLSTYLEMAP
  5
83
102
{ACAD_REACTORS
330
82
102
}
330
82
100
AcDbCellStyleMap
 90
        3
300
CELLSTYLE
  1
TABLEFORMAT_BEGIN
 90
        5
170
     1
 91
        0
 92
    32768
 62
   257
 93
        1
300
CONTENTFORMAT
  1
CONTENTFORMAT_BEGIN
 90
        0
 91
        0
 92
        4
 93
        0
300

 40
0.0
140
1.0
 94
        5
 62
     0
340
11
144
0.25
309
CONTENTFORMAT_END
171
     1
301
MARGIN
  1
CELLMARGIN_BEGIN
 40
0.06
 40
0.06
 40
0.06
 40
0.06
 40
0.06
 40
0.06
309
CELLMARGIN_END
 94
        6
 95
        1
302
GRIDFORMAT
  1
GRIDFORMAT_BEGIN
 90
        0
 91
        1
 62
     0
 92
       -2
340
14
 93
        0
 40
0.045
309
GRIDFORMAT_END
 95
        2
302
GRIDFORMAT
  1
GRIDFORMAT_BEGIN
 90
        0
 91
        1
 62
     0
 92
       -2
340
14
 93
        0
 40
0.045
309
GRIDFORMAT_END
 95
        4
302
GRIDFORMAT
  1
GRIDFORMAT_BEGIN
 90
        0
 91
        1
 62
     0
 92
       -2
340
14
 93
        0
 40
0.045
309
GRIDFORMAT_END
 95
        8
302
GRIDFORMAT
  1
GRIDFORMAT_BEGIN
 90
        0
 91
        1
 62
     0
 92
       -2
340
14
 93
        0
 40
0.045
309
GRIDFORMAT_END
 95
       16
302
GRIDFORMAT
  1
GRIDFORMAT_BEGIN
 90
        0
 91
        1
 62
     0
 92
       -2
340
14
 93
        0
 40
0.045
309
GRIDFORMAT_END
 95
       32
302
GRIDFORMAT
  1
GRIDFORMAT_BEGIN
 90
        0
 91
        1
 62
     0
 92
       -2
340
14
 93
        0
 40
0.045
309
GRIDFORMAT_END
309
TABLEFORMAT_END
  1
CELLSTYLE_BEGIN
 90
        1
 91
        1
300
_TITLE
309
CELLSTYLE_END
300
CELLSTYLE
  1
TABLEFORMAT_BEGIN
 90
        5
170
     1
 91
        0
 92
        0
 62
   257
 93
        1
300
CONTENTFORMAT
  1
CONTENTFORMAT_BEGIN
 90
        0
 91
        0
 92
        4
 93
        0
300

 40
0.0
140
1.0
 94
        5
 62
     0
340
11
144
0.18
309
CONTENTFORMAT_END
171
     1
301
MARGIN
  1
CELLMARGIN_BEGIN
 40
0.06
 40
0.06
 40
0.06
 40
0.06
 40
0.06
 40
0.06
309
CELLMARGIN_END
 94
        6
 95
        1
302
GRIDFORMAT
  1
GRIDFORMAT_BEGIN
 90
        0
 91
        1
 62
     0
 92
       -2
340
14
 93
        0
 40
0.045
309
GRIDFORMAT_END
 95
        2
302
GRIDFORMAT
  1
GRIDFORMAT_BEGIN
 90
        0
 91
        1
 62
     0
 92
       -2
340
14
 93
        0
 40
0.045
309
GRIDFORMAT_END
 95
        4
302
GRIDFORMAT
  1
GRIDFORMAT_BEGIN
 90
        0
 91
        1
 62
     0
 92
       -2
340
14
 93
        0
 40
0.045
309
GRIDFORMAT_END
 95
        8
302
GRIDFORMAT
  1
GRIDFORMAT_BEGIN
 90
        0
 91
        1
 62
     0
 92
       -2
340
14
 93
        0
 40
0.045
309
GRIDFORMAT_END
 95
       16
302
GRIDFORMAT
  1
GRIDFORMAT_BEGIN
 90
        0
 91
        1
 62
     0
 92
       -2
340
14
 93
        0
 40
0.045
309
GRIDFORMAT_END
 95
       32
302
GRIDFORMAT
  1
GRIDFORMAT_BEGIN
 90
        0
 91
        1
 62
     0
 92
       -2
340
14
 93
        0
 40
0.045
309
GRIDFORMAT_END
309
TABLEFORMAT_END
  1
CELLSTYLE_BEGIN
 90
        2
 91
        1
300
_HEADER
309
CELLSTYLE_END
300
CELLSTYLE
  1
TABLEFORMAT_BEGIN
 90
        5
170
     1
 91
        0
 92
        0
 62
   257
 93
        1
300
CONTENTFORMAT
  1
CONTENTFORMAT_BEGIN
 90
        0
 91
        0
 92
        4
 93
        0
300

 40
0.0
140
1.0
 94
        2
 62
     0
340
11
144
0.18
309
CONTENTFORMAT_END
171
     1
301
MARGIN
  1
CELLMARGIN_BEGIN
 40
0.06
 40
0.06
 40
0.06
 40
0.06
 40
0.06
 40
0.06
309
CELLMARGIN_END
 94
        6
 95
        1
302
GRIDFORMAT
  1
GRIDFORMAT_BEGIN
 90
        0
 91
        1
 62
     0
 92
       -2
340
14
 93
        0
 40
0.045
309
GRIDFORMAT_END
 95
        2
302
GRIDFORMAT
  1
GRIDFORMAT_BEGIN
 90
        0
 91
        1
 62
     0
 92
       -2
340
14
 93
        0
 40
0.045
309
GRIDFORMAT_END
 95
        4
302
GRIDFORMAT
  1
GRIDFORMAT_BEGIN
 90
        0
 91
        1
 62
     0
 92
       -2
340
14
 93
        0
 40
0.045
309
GRIDFORMAT_END
 95
        8
302
GRIDFORMAT
  1
GRIDFORMAT_BEGIN
 90
        0
 91
        1
 62
     0
 92
       -2
340
14
 93
        0
 40
0.045
309
GRIDFORMAT_END
 95
       16
302
GRIDFORMAT
  1
GRIDFORMAT_BEGIN
 90
        0
 91
        1
 62
     0
 92
       -2
340
14
 93
        0
 40
0.045
309
GRIDFORMAT_END
 95
       32
302
GRIDFORMAT
  1
GRIDFORMAT_BEGIN
 90
        0
 91
        1
 62
     0
 92
       -2
340
14
 93
        0
 40
0.045
309
GRIDFORMAT_END
309
TABLEFORMAT_END
  1
CELLSTYLE_BEGIN
 90
        3
 91
        2
300
_DATA
309
CELLSTYLE_END
  0
ENDSEC
  0
EOF
