  0
SECTION
  2
HEADER
  9
$ACADVER
  1
AC1027
  9
$ACADMAINTVER
 70
   105
  9
$DWGCODEPAGE
  3
ANSI_1252
  9
$LASTSAVEDBY
  1
Office Desk
  9
$REQUIREDVERSIONS
160
                 0
  9
$INSBASE
 10
0.0
 20
0.0
 30
0.0
  9
$EXTMIN
 10
484.9806
 20
-319.5607
 30
0.0
  9
$EXTMAX
 10
1837.4972
 20
395.7053
 30
0.0
  9
$LIMMIN
 10
0.0
 20
0.0
  9
$LIMMAX
 10
12.0
 20
9.0
  9
$ORTHOMODE
 70
     0
  9
$REGENMODE
 70
     1
  9
$FILLMODE
 70
     1
  9
$QTEXTMODE
 70
     0
  9
$MIRRTEXT
 70
     1
  9
$LTSCALE
 40
1.0
  9
$ATTMODE
 70
     1
  9
$TEXTSIZE
 40
0.2
  9
$TRACEWID
 40
0.05
  9
$TEXTSTYLE
  7
Standard
  9
$CLAYER
  8
0
  9
$CELTYPE
  6
ByLayer
  9
$CECOLOR
 62
   256
  9
$CELTSCALE
 40
1.0
  9
$DISPSILH
 70
     0
  9
$DIMSCALE
 40
1.0
  9
$DIMASZ
 40
0.18
  9
$DIMEXO
 40
0.0625
  9
$DIMDLI
 40
0.38
  9
$DIMRND
 40
0.0
  9
$DIMDLE
 40
0.0
  9
$DIMEXE
 40
0.18
  9
$DIMTP
 40
0.0
  9
$DIMTM
 40
0.0
  9
$DIMTXT
 40
0.18
  9
$DIMCEN
 40
0.09
  9
$DIMTSZ
 40
0.0
  9
$DIMTOL
 70
     0
  9
$DIMLIM
 70
     0
  9
$DIMTIH
 70
     1
  9
$DIMTOH
 70
     1
  9
$DIMSE1
 70
     0
  9
$DIMSE2
 70
     0
  9
$DIMTAD
 70
     0
  9
$DIMZIN
 70
     0
  9
$DIMBLK
  1

  9
$DIMASO
 70
     1
  9
$DIMSHO
 70
     1
  9
$DIMPOST
  1

  9
$DIMAPOST
  1

  9
$DIMALT
 70
     0
  9
$DIMALTD
 70
     2
  9
$DIMALTF
 40
25.4
  9
$DIMLFAC
 40
1.0
  9
$DIMTOFL
 70
     0
  9
$DIMTVP
 40
0.0
  9
$DIMTIX
 70
     0
  9
$DIMSOXD
 70
     0
  9
$DIMSAH
 70
     0
  9
$DIMBLK1
  1

  9
$DIMBLK2
  1

  9
$DIMSTYLE
  2
Standard
  9
$DIMCLRD
 70
     0
  9
$DIMCLRE
 70
     0
  9
$DIMCLRT
 70
     0
  9
$DIMTFAC
 40
1.0
  9
$DIMGAP
 40
0.09
  9
$DIMJUST
 70
     0
  9
$DIMSD1
 70
     0
  9
$DIMSD2
 70
     0
  9
$DIMTOLJ
 70
     1
  9
$DIMTZIN
 70
     0
  9
$DIMALTZ
 70
     0
  9
$DIMALTTZ
 70
     0
  9
$DIMUPT
 70
     0
  9
$DIMDEC
 70
     4
  9
$DIMTDEC
 70
     4
  9
$DIMALTU
 70
     2
  9
$DIMALTTD
 70
     2
  9
$DIMTXSTY
  7
Standard
  9
$DIMAUNIT
 70
     0
  9
$DIMADEC
 70
     0
  9
$DIMALTRND
 40
0.0
  9
$DIMAZIN
 70
     0
  9
$DIMDSEP
 70
    46
  9
$DIMATFIT
 70
     3
  9
$DIMFRAC
 70
     0
  9
$DIMLDRBLK
  1

  9
$DIMLUNIT
 70
     2
  9
$DIMLWD
 70
    -2
  9
$DIMLWE
 70
    -2
  9
$DIMTMOVE
 70
     0
  9
$DIMFXL
 40
1.0
  9
$DIMFXLON
 70
     0
  9
$DIMJOGANG
 40
0.7853981633974483
  9
$DIMTFILL
 70
     0
  9
$DIMTFILLCLR
 70
     0
  9
$DIMARCSYM
 70
     0
  9
$DIMLTYPE
  6

  9
$DIMLTEX1
  6

  9
$DIMLTEX2
  6

  9
$DIMTXTDIRECTION
 70
     0
  9
$LUNITS
 70
     2
  9
$LUPREC
 70
     4
  9
$SKETCHINC
 40
0.1
  9
$FILLETRAD
 40
0.0
  9
$AUNITS
 70
     0
  9
$AUPREC
 70
     0
  9
$MENU
  1
.
  9
$ELEVATION
 40
0.0
  9
$PELEVATION
 40
0.0
  9
$THICKNESS
 40
0.0
  9
$LIMCHECK
 70
     0
  9
$CHAMFERA
 40
0.0
  9
$CHAMFERB
 40
0.0
  9
$CHAMFERC
 40
0.0
  9
$CHAMFERD
 40
0.0
  9
$SKPOLY
 70
     0
  9
$TDCREATE
 40
2461009.601931586
  9
$TDUCREATE
 40
2461009.372764919
  9
$TDUPDATE
 40
2461009.601931586
  9
$TDUUPDATE
 40
2461009.372764919
  9
$TDINDWG
 40
0.0000000116
  9
$TDUSRTIMER
 40
0.0000000116
  9
$USRTIMER
 70
     1
  9
$ANGBASE
 50
0.0
  9
$ANGDIR
 70
     0
  9
$PDMODE
 70
     0
  9
$PDSIZE
 40
0.0
  9
$PLINEWID
 40
0.0
  9
$SPLFRAME
 70
     0
  9
$SPLINETYPE
 70
     6
  9
$SPLINESEGS
 70
     8
  9
$HANDSEED
  5
CE
  9
$SURFTAB1
 70
     6
  9
$SURFTAB2
 70
     6
  9
$SURFTYPE
 70
     6
  9
$SURFU
 70
     6
  9
$SURFV
 70
     6
  9
$UCSBASE
  2

  9
$UCSNAME
  2

  9
$UCSORG
 10
0.0
 20
0.0
 30
0.0
  9
$UCSXDIR
 10
1.0
 20
0.0
 30
0.0
  9
$UCSYDIR
 10
0.0
 20
1.0
 30
0.0
  9
$UCSORTHOREF
  2

  9
$UCSORTHOVIEW
 70
     0
  9
$UCSORGTOP
 10
0.0
 20
0.0
 30
0.0
  9
$UCSORGBOTTOM
 10
0.0
 20
0.0
 30
0.0
  9
$UCSORGLEFT
 10
0.0
 20
0.0
 30
0.0
  9
$UCSORGRIGHT
 10
0.0
 20
0.0
 30
0.0
  9
$UCSORGFRONT
 10
0.0
 20
0.0
 30
0.0
  9
$UCSORGBACK
 10
0.0
 20
0.0
 30
0.0
  9
$PUCSBASE
  2

  9
$PUCSNAME
  2

  9
$PUCSORG
 10
0.0
 20
0.0
 30
0.0
  9
$PUCSXDIR
 10
1.0
 20
0.0
 30
0.0
  9
$PUCSYDIR
 10
0.0
 20
1.0
 30
0.0
  9
$PUCSORTHOREF
  2

  9
$PUCSORTHOVIEW
 70
     0
  9
$PUCSORGTOP
 10
0.0
 20
0.0
 30
0.0
  9
$PUCSORGBOTTOM
 10
0.0
 20
0.0
 30
0.0
  9
$PUCSORGLEFT
 10
0.0
 20
0.0
 30
0.0
  9
$PUCSORGRIGHT
 10
0.0
 20
0.0
 30
0.0
  9
$PUCSORGFRONT
 10
0.0
 20
0.0
 30
0.0
  9
$PUCSORGBACK
 10
0.0
 20
0.0
 30
0.0
  9
$USERI1
 70
     0
  9
$USERI2
 70
     0
  9
$USERI3
 70
     0
  9
$USERI4
 70
     0
  9
$USERI5
 70
     0
  9
$USERR1
 40
0.0
  9
$USERR2
 40
0.0
  9
$USERR3
 40
0.0
  9
$USERR4
 40
0.0
  9
$USERR5
 40
0.0
  9
$WORLDVIEW
 70
     1
  9
$SHADEDGE
 70
     3
  9
$SHADEDIF
 70
    70
  9
$TILEMODE
 70
     1
  9
$MAXACTVP
 70
    64
  9
$PINSBASE
 10
0.0
 20
0.0
 30
0.0
  9
$PLIMCHECK
 70
     0
  9
$PEXTMIN
 10
1.000000000000000E+20
 20
1.000000000000000E+20
 30
1.000000000000000E+20
  9
$PEXTMAX
 10
-1.000000000000000E+20
 20
-1.000000000000000E+20
 30
-1.000000000000000E+20
  9
$PLIMMIN
 10
0.0
 20
0.0
  9
$PLIMMAX
 10
12.0
 20
9.0
  9
$UNITMODE
 70
     0
  9
$VISRETAIN
 70
     1
  9
$PLINEGEN
 70
     0
  9
$PSLTSCALE
 70
     1
  9
$TREEDEPTH
 70
  3020
  9
$CMLSTYLE
  2
Standard
  9
$CMLJUST
 70
     0
  9
$CMLSCALE
 40
1.0
  9
$PROXYGRAPHICS
 70
     1
  9
$MEASUREMENT
 70
     0
  9
$CELWEIGHT
370
    -1
  9
$ENDCAPS
280
     0
  9
$JOINSTYLE
280
     0
  9
$LWDISPLAY
290
     0
  9
$INSUNITS
 70
     4
  9
$HYPERLINKBASE
  1

  9
$STYLESHEET
  1

  9
$XEDIT
290
     1
  9
$CEPSNTYPE
380
     0
  9
$PSTYLEMODE
290
     1
  9
$FINGERPRINTGUID
  2
{7eb2aa9c-e205-42aa-8992-ab41847fbf83}
  9
$VERSIONGUID
  2
{FAEB1C32-E019-11D5-929B-00C0DF256EC4}
  9
$EXTNAMES
290
     1
  9
$PSVPSCALE
 40
0.0
  9
$OLESTARTUP
290
     0
  9
$SORTENTS
280
   127
  9
$INDEXCTL
280
     0
  9
$HIDETEXT
280
     1
  9
$XCLIPFRAME
280
     2
  9
$HALOGAP
280
     0
  9
$OBSCOLOR
 70
   257
  9
$OBSLTYPE
280
     0
  9
$INTERSECTIONDISPLAY
280
     0
  9
$INTERSECTIONCOLOR
 70
   257
  9
$DIMASSOC
280
     2
  9
$PROJECTNAME
  1

  9
$CAMERADISPLAY
290
     0
  9
$LENSLENGTH
 40
50.0
  9
$CAMERAHEIGHT
 40
0.0
  9
$STEPSPERSEC
 40
2.0
  9
$STEPSIZE
 40
6.0
  9
$3DDWFPREC
 40
2.0
  9
$PSOLWIDTH
 40
0.25
  9
$PSOLHEIGHT
 40
4.0
  9
$LOFTANG1
 40
1.570796326794897
  9
$LOFTANG2
 40
1.570796326794897
  9
$LOFTMAG1
 40
0.0
  9
$LOFTMAG2
 40
0.0
  9
$LOFTPARAM
 70
     7
  9
$LOFTNORMALS
280
     1
  9
$LATITUDE
 40
37.795
  9
$LONGITUDE
 40
-122.394
  9
$NORTHDIRECTION
 40
0.0
  9
$TIMEZONE
 70
 -8000
  9
$LIGHTGLYPHDISPLAY
280
     1
  9
$TILEMODELIGHTSYNCH
280
     1
  9
$CMATERIAL
347
44
  9
$SOLIDHIST
280
     0
  9
$SHOWHIST
280
     1
  9
$DWFFRAME
280
     2
  9
$DGNFRAME
280
     2
  9
$REALWORLDSCALE
290
     1
  9
$INTERFERECOLOR
 62
   256
  9
$CSHADOW
280
     0
  9
$SHADOWPLANELOCATION
 40
0.0
  0
ENDSEC
  0
SECTION
  2
CLASSES
  0
CLASS
  1
ACDBDICTIONARYWDFLT
  2
AcDbDictionaryWithDefault
  3
ObjectDBX Classes
 90
        0
 91
        3
280
     0
281
     0
  0
CLASS
  1
VISUALSTYLE
  2
AcDbVisualStyle
  3
ObjectDBX Classes
 90
     4095
 91
        3
280
     0
281
     0
  0
CLASS
  1
MATERIAL
  2
AcDbMaterial
  3
ObjectDBX Classes
 90
     1153
 91
        3
280
     0
281
     0
  0
CLASS
  1
SCALE
  2
AcDbScale
  3
ObjectDBX Classes
 90
     1153
 91
        3
280
     0
281
     0
  0
CLASS
  1
TABLESTYLE
  2
AcDbTableStyle
  3
ObjectDBX Classes
 90
     4095
 91
        3
280
     0
281
     0
  0
CLASS
  1
MLEADERSTYLE
  2
AcDbMLeaderStyle
  3
ACDB_MLEADERSTYLE_CLASS
 90
     4095
 91
        3
280
     0
281
     0
  0
CLASS
  1
SUN
  2
AcDbSun
  3
SCENEOE
 90
     1153
 91
        3
280
     0
281
     0
  0
CLASS
  1
DICTIONARYVAR
  2
AcDbDictionaryVar
  3
ObjectDBX Classes
 90
        0
 91
        3
280
     0
281
     0
  0
CLASS
  1
CELLSTYLEMAP
  2
AcDbCellStyleMap
  3
ObjectDBX Classes
 90
     1152
 91
        3
280
     0
281
     0
  0
ENDSEC
  0
SECTION
  2
TABLES
  0
TABLE
  2
VPORT
  5
8
330
0
100
AcDbSymbolTable
 70
     1
  0
VPORT
  5
29
330
8
100
AcDbSymbolTableRecord
100
AcDbViewportTableRecord
  2
*Active
 70
     0
 10
0.0
 20
0.0
 11
1.0
 21
1.0
 12
10.42990654205607
 22
4.5
 13
0.0
 23
0.0
 14
0.5
 24
0.5
 15
0.5
 25
0.5
 16
0.0
 26
0.0
 36
1.0
 17
0.0
 27
0.0
 37
0.0
 40
9.0
 41
1.972972972850329
 42
50.0
 43
0.0
 44
0.0
 50
0.0
 51
0.0
 71
     0
 72
   100
 73
     1
 74
     3
 75
     0
 76
     0
 77
     0
 78
     0
281
     0
 65
     1
110
0.0
120
0.0
130
0.0
111
1.0
121
0.0
131
0.0
112
0.0
122
1.0
132
0.0
 79
     0
146
0.0
348
2F
 60
     3
 61
     5
292
     1
282
     1
141
0.0
142
0.0
 63
   250
361
5D
  0
ENDTAB
  0
TABLE
  2
LTYPE
  5
5
330
0
100
AcDbSymbolTable
 70
     2
  0
LTYPE
  5
14
330
5
100
AcDbSymbolTableRecord
100
AcDbLinetypeTableRecord
  2
ByBlock
 70
     0
  3

 72
    65
 73
     0
 40
0.0
  0
LTYPE
  5
15
330
5
100
AcDbSymbolTableRecord
100
AcDbLinetypeTableRecord
  2
ByLayer
 70
     0
  3

 72
    65
 73
     0
 40
0.0
  0
LTYPE
  5
16
330
5
100
AcDbSymbolTableRecord
100
AcDbLinetypeTableRecord
  2
Continuous
 70
     0
  3
Solid line
 72
    65
 73
     0
 40
0.0
  0
LTYPE
  5
A3
330
5
100
AcDbSymbolTableRecord
100
AcDbLinetypeTableRecord
  2
New Line1
 70
     0
  3

 72
    65
 73
     2
 40
0.2
 49
0.1
 74
     4
 75
     0
340
0
 46
1.0
 50
0.0
 44
0.0
 45
0.0
 49
-0.1
 74
     4
 75
     0
340
0
 46
1.0
 50
0.0
 44
0.0
 45
0.0
  0
ENDTAB
  0
TABLE
  2
LAYER
  5
2
330
0
100
AcDbSymbolTable
 70
     2
  0
LAYER
  5
10
330
2
100
AcDbSymbolTableRecord
100
AcDbLayerTableRecord
  2
0
 70
     0
 62
     7
  6
Continuous
370
    -3
390
F
347
46
348
0
  0
LAYER
  5
5F
330
2
100
AcDbSymbolTableRecord
100
AcDbLayerTableRecord
  2
Layer 1
 70
     0
 62
     7
  6
Continuous
370
    -3
390
F
347
46
348
0
  0
ENDTAB
  0
TABLE
  2
STYLE
  5
3
330
0
100
AcDbSymbolTable
 70
     1
  0
STYLE
  5
11
330
3
100
AcDbSymbolTableRecord
100
AcDbTextStyleTableRecord
  2
Standard
 70
     0
 40
0.0
 41
1.0
 50
0.0
 71
     0
 42
0.2
  3
txt
  4

  0
ENDTAB
  0
TABLE
  2
VIEW
  5
6
330
0
100
AcDbSymbolTable
 70
     0
  0
ENDTAB
  0
TABLE
  2
UCS
  5
7
330
0
100
AcDbSymbolTable
 70
     0
  0
ENDTAB
  0
TABLE
  2
APPID
  5
9
330
0
100
AcDbSymbolTable
 70
     2
  0
APPID
  5
12
330
9
100
AcDbSymbolTableRecord
100
AcDbRegAppTableRecord
  2
ACAD
 70
     0
  0
APPID
  5
5E
330
9
100
AcDbSymbolTableRecord
100
AcDbRegAppTableRecord
  2
ODA
 70
     0
  0
ENDTAB
  0
TABLE
  2
DIMSTYLE
  5
A
330
0
100
AcDbSymbolTable
 70
     1
100
AcDbDimStyleTable
  0
DIMSTYLE
105
27
330
A
100
AcDbSymbolTableRecord
100
AcDbDimStyleTableRecord
  2
Standard
 70
     0
178
     0
340
11
  0
ENDTAB
  0
TABLE
  2
BLOCK_RECORD
  5
1
330
0
100
AcDbSymbolTable
 70
     1
  0
BLOCK_RECORD
  5
1F
330
1
100
AcDbSymbolTableRecord
100
AcDbBlockTableRecord
  2
*Model_Space
340
22
 70
     0
280
     1
281
     0
  0
BLOCK_RECORD
  5
1B
330
1
100
AcDbSymbolTableRecord
100
AcDbBlockTableRecord
  2
*Paper_Space
340
1E
 70
     0
280
     1
281
     0
  0
BLOCK_RECORD
  5
23
330
1
100
AcDbSymbolTableRecord
100
AcDbBlockTableRecord
  2
*Paper_Space0
340
26
 70
     0
280
     1
281
     0
  0
ENDTAB
  0
ENDSEC
  0
SECTION
  2
BLOCKS
  0
BLOCK
  5
20
330
1F
100
AcDbEntity
  8
0
100
AcDbBlockBegin
  2
*Model_Space
 70
     0
 10
0.0
 20
0.0
 30
0.0
  3
*Model_Space
  1

  0
ENDBLK
  5
21
330
1F
100
AcDbEntity
  8
0
100
AcDbBlockEnd
  0
BLOCK
  5
1C
330
1B
100
AcDbEntity
 67
     1
  8
0
100
AcDbBlockBegin
  2
*Paper_Space
 70
     0
 10
0.0
 20
0.0
 30
0.0
  3
*Paper_Space
  1

  0
ENDBLK
  5
1D
330
1B
100
AcDbEntity
 67
     1
  8
0
100
AcDbBlockEnd
  0
BLOCK
  5
24
330
23
100
AcDbEntity
  8
0
100
AcDbBlockBegin
  2
*Paper_Space0
 70
     0
 10
0.0
 20
0.0
 30
0.0
  3
*Paper_Space0
  1

  0
ENDBLK
  5
25
330
23
100
AcDbEntity
  8
0
100
AcDbBlockEnd
  0
ENDSEC
  0
SECTION
  2
ENTITIES
  0
LWPOLYLINE
  5
60
330
1F
100
AcDbEntity
  8
Layer 1
 62
   250
370
    18
100
AcDbPolyline
 90
        5
 70
     1
 43
0.0
 10
485.0688
 20
-319.4725
 10
1837.409
 20
-319.4725
 10
1837.409
 20
395.6171
 10
485.0688
 20
395.6171
 10
485.0688
 20
-319.4725
  0
LWPOLYLINE
  5
61
330
1F
100
AcDbEntity
  8
Layer 1
 62
     7
100
AcDbPolyline
 90
      290
 70
     1
 43
0.0
 10
551.0218
 20
-12.0585
 10
551.0245
 20
-12.2406
 10
551.0324
 20
-12.4226
 10
551.0457
 20
-12.6046
 10
551.0641
 20
-12.7867
 10
551.0878
 20
-12.9689
 10
551.1167
 20
-13.1513
 10
551.1507
 20
-13.334
 10
551.1898
 20
-13.517
 10
551.2809
 20
-13.8792
 10
551.3842
 20
-14.2389
 10
551.5007
 20
-14.5951
 10
551.6314
 20
-14.9469
 10
551.761
 20
-15.2612
 10
551.8952
 20
-15.5547
 10
552.033
 20
-15.8267
 10
552.1733
 20
-16.0768
 10
552.7016
 20
-16.9339
 10
552.7016
 20
-17.0968
 10
549.9976
 20
-17.0968
 10
549.8867
 20
-16.8672
 10
549.7784
 20
-16.6178
 10
549.6728
 20
-16.3486
 10
549.5699
 20
-16.0599
 10
549.4696
 20
-15.7517
 10
549.372
 20
-15.4241
 10
549.2771
 20
-15.0772
 10
549.1848
 20
-14.7112
 10
549.0982
 20
-14.3362
 10
549.0232
 20
-13.9656
 10
548.9598
 20
-13.5994
 10
548.9081
 20
-13.2377
 10
548.8679
 20
-12.8806
 10
548.8392
 20
-12.528
 10
548.822
 20
-12.1802
 10
548.8163
 20
-11.8371
 10
548.8205
 20
-11.5003
 10
548.833
 20
-11.1746
 10
548.8538
 20
-10.8599
 10
548.8829
 20
-10.556
 10
548.9201
 20
-10.2628
 10
548.9655
 20
-9.9804
 10
549.019
 20
-9.7086
 10
549.0805
 20
-9.4473
 10
549.1509
 20
-9.1962
 10
549.2302
 20
-8.9506
 10
549.3183
 20
-8.7108
 10
549.4155
 20
-8.4768
 10
549.5216
 20
-8.2488
 10
549.6368
 20
-8.0269
 10
549.7611
 20
-7.8111
 10
549.8947
 20
-7.6017
 10
550.0508
 20
-7.3858
 10
550.2154
 20
-7.1835
 10
550.3884
 20
-6.995
 10
550.5698
 20
-6.82
 10
550.7595
 20
-6.6585
 10
550.9575
 20
-6.5105
 10
551.1637
 20
-6.3759
 10
551.3781
 20
-6.2546
 10
551.6005
 20
-6.1491
 10
551.832
 20
-6.0575
 10
552.0725
 20
-5.98
 10
552.3221
 20
-5.9164
 10
552.5808
 20
-5.867
 10
552.8486
 20
-5.8316
 10
553.1255
 20
-5.8103
 10
553.4115
 20
-5.8032
 10
553.7989
 20
-5.8203
 10
554.1746
 20
-5.8716
 10
554.5384
 20
-5.9571
 10
554.8903
 20
-6.077
 10
555.2301
 20
-6.2311
 10
555.5575
 20
-6.4197
 10
555.8726
 20
-6.6428
 10
556.1751
 20
-6.9003
 10
556.4605
 20
-7.1805
 10
556.7183
 20
-7.4746
 10
556.9485
 20
-7.7826
 10
557.1513
 20
-8.1043
 10
557.3268
 20
-8.4396
 10
557.4749
 20
-8.7884
 10
557.5959
 20
-9.1505
 10
557.6897
 20
-9.5259
 10
557.8685
 20
-9.5259
 10
557.9361
 20
-9.2023
 10
558.0263
 20
-8.8677
 10
558.1379
 20
-8.5219
 10
558.2695
 20
-8.1645
 10
558.3437
 20
-7.986
 10
558.4261
 20
-7.8107
 10
558.5168
 20
-7.6384
 10
558.616
 20
-7.4692
 10
558.7236
 20
-7.3031
 10
558.8399
 20
-7.14
 10
558.9648
 20
-6.9801
 10
559.0986
 20
-6.8232
 10
559.2416
 20
-6.671
 10
559.3945
 20
-6.5261
 10
559.557
 20
-6.3885
 10
559.7293
 20
-6.2581
 10
559.9114
 20
-6.1348
 10
560.1031
 20
-6.0187
 10
560.3045
 20
-5.9096
 10
560.5156
 20
-5.8075
 10
560.7382
 20
-5.7152
 10
560.9722
 20
-5.6355
 10
561.2179
 20
-5.5682
 10
561.4754
 20
-5.5133
 10
561.7448
 20
-5.4706
 10
562.0263
 20
-5.4403
 10
562.32
 20
-5.4221
 10
562.6262
 20
-5.4161
 10
562.9464
 20
-5.4234
 10
563.2597
 20
-5.4453
 10
563.5663
 20
-5.4816
 10
563.8665
 20
-5.5325
 10
564.1602
 20
-5.5979
 10
564.4478
 20
-5.6777
 10
564.7294
 20
-5.7718
 10
565.0051
 20
-5.8804
 10
565.2715
 20
-6.0045
 10
565.5304
 20
-6.1401
 10
565.7815
 20
-6.2872
 10
566.025
 20
-6.4461
 10
566.2608
 20
-6.6167
 10
566.4889
 20
-6.7992
 10
566.7093
 20
-6.9937
 10
566.922
 20
-7.2003
 10
567.1324
 20
-7.426
 10
567.3299
 20
-7.6628
 10
567.5143
 20
-7.9108
 10
567.6856
 20
-8.1702
 10
567.8437
 20
-8.4411
 10
567.9886
 20
-8.7237
 10
568.1204
 20
-9.0181
 10
568.2388
 20
-9.3244
 10
568.345
 20
-9.6408
 10
568.437
 20
-9.9676
 10
568.5147
 20
-10.3047
 10
568.5783
 20
-10.6522
 10
568.6278
 20
-11.0102
 10
568.6631
 20
-11.3786
 10
568.6842
 20
-11.7576
 10
568.6913
 20
-12.1471
 10
568.6859
 20
-12.5254
 10
568.6697
 20
-12.9027
 10
568.6427
 20
-13.2792
 10
568.6049
 20
-13.6549
 10
568.5563
 20
-14.0297
 10
568.4969
 20
-14.4038
 10
568.4268
 20
-14.7772
 10
568.3458
 20
-15.1498
 10
568.256
 20
-15.514
 10
568.1624
 20
-15.8632
 10
568.0648
 20
-16.1975
 10
567.9629
 20
-16.517
 10
567.8567
 20
-16.8219
 10
567.7459
 20
-17.1122
 10
567.6304
 20
-17.388
 10
567.51
 20
-17.6496
 10
564.8046
 20
-17.6496
 10
564.8046
 20
-17.461
 10
564.9525
 20
-17.2392
 10
565.0986
 20
-16.9993
 10
565.2429
 20
-16.7411
 10
565.3856
 20
-16.4647
 10
565.5267
 20
-16.1701
 10
565.6662
 20
-15.8572
 10
565.8044
 20
-15.5262
 10
565.9412
 20
-15.1769
 10
566.0692
 20
-14.8176
 10
566.1798
 20
-14.4585
 10
566.2732
 20
-14.0997
 10
566.3495
 20
-13.7411
 10
566.4086
 20
-13.3827
 10
566.4508
 20
-13.0245
 10
566.476
 20
-12.6664
 10
566.4844
 20
-12.3085
 10
566.4805
 20
-12.1021
 10
566.4687
 20
-11.8954
 10
566.449
 20
-11.6884
 10
566.4216
 20
-11.4813
 10
566.3863
 20
-11.2741
 10
566.3432
 20
-11.0669
 10
566.2924
 20
-10.8598
 10
566.2338
 20
-10.6529
 10
566.167
 20
-10.4492
 10
566.0898
 20
-10.254
 10
566.0022
 20
-10.0671
 10
565.9045
 20
-9.8889
 10
565.7968
 20
-9.7192
 10
565.6793
 20
-9.5583
 10
565.5522
 20
-9.4062
 10
565.4156
 20
-9.263
 10
565.273
 20
-9.1321
 10
565.1265
 20
-9.0093
 10
564.9763
 20
-8.8947
 10
564.8224
 20
-8.7882
 10
564.6647
 20
-8.6898
 10
564.5032
 20
-8.5995
 10
564.3381
 20
-8.5173
 10
564.1692
 20
-8.4431
 10
563.9935
 20
-8.3762
 10
563.8066
 20
-8.3181
 10
563.6086
 20
-8.2687
 10
563.3992
 20
-8.2283
 10
563.1785
 20
-8.1967
 10
562.9464
 20
-8.1741
 10
562.7027
 20
-8.1604
 10
562.4474
 20
-8.1559
 10
562.1936
 20
-8.1609
 10
561.9513
 20
-8.1757
 10
561.7205
 20
-8.2005
 10
561.5013
 20
-8.2352
 10
561.2936
 20
-8.2798
 10
561.0973
 20
-8.3344
 10
560.9125
 20
-8.3988
 10
560.7391
 20
-8.4731
 10
560.5763
 20
-8.5572
 10
560.4222
 20
-8.6489
 10
560.277
 20
-8.7483
 10
560.1407
 20
-8.8555
 10
560.0133
 20
-8.9706
 10
559.8952
 20
-9.0938
 10
559.7862
 20
-9.225
 10
559.6865
 20
-9.3644
 10
559.5927
 20
-9.5096
 10
559.5065
 20
-9.6613
 10
559.428
 20
-9.8195
 10
559.3571
 20
-9.9844
 10
559.2941
 20
-10.156
 10
559.239
 20
-10.3343
 10
559.1919
 20
-10.5194
 10
559.1528
 20
-10.7115
 10
559.1168
 20
-10.9094
 10
559.0858
 20
-11.1109
 10
559.0599
 20
-11.3162
 10
559.039
 20
-11.5252
 10
559.0228
 20
-11.738
 10
559.0114
 20
-11.9547
 10
559.0046
 20
-12.1753
 10
559.0024
 20
-12.3999
 10
559.0024
 20
-13.5542
 10
556.8768
 20
-13.5542
 10
556.8768
 20
-12.6585
 10
556.8641
 20
-12.2122
 10
556.8259
 20
-11.7873
 10
556.7622
 20
-11.3837
 10
556.6728
 20
-11.0016
 10
556.5577
 20
-10.641
 10
556.4167
 20
-10.302
 10
556.25
 20
-9.9845
 10
556.0572
 20
-9.6887
 10
555.8407
 20
-9.4205
 10
555.6009
 20
-9.1879
 10
555.3377
 20
-8.991
 10
555.0512
 20
-8.8299
 10
554.7415
 20
-8.7044
 10
554.4088
 20
-8.6148
 10
554.053
 20
-8.561
 10
553.6743
 20
-8.5431
 10
553.499
 20
-8.5476
 10
553.3296
 20
-8.5612
 10
553.1662
 20
-8.5838
 10
553.0088
 20
-8.6158
 10
552.8574
 20
-8.657
 10
552.7119
 20
-8.7076
 10
552.5724
 20
-8.7677
 10
552.4388
 20
-8.8373
 10
552.3119
 20
-8.9148
 10
552.192
 20
-8.9972
 10
552.079
 20
-9.0845
 10
551.9728
 20
-9.1768
 10
551.8732
 20
-9.2739
 10
551.78
 20
-9.3759
 10
551.6931
 20
-9.4827
 10
551.6124
 20
-9.5944
 10
551.532
 20
-9.726
 10
551.4583
 20
-9.8604
 10
551.3912
 20
-9.9978
 10
551.3305
 20
-10.1381
 10
551.276
 20
-10.2815
 10
551.2278
 20
-10.4279
 10
551.1855
 20
-10.5774
 10
551.1491
 20
-10.7301
 10
551.0949
 20
-11.0469
 10
551.055
 20
-11.3739
 10
551.0303
 20
-11.7111
 10
551.0218
 20
-12.0585
  0
LWPOLYLINE
  5
62
330
1F
100
AcDbEntity
  8
Layer 1
 62
     7
100
AcDbPolyline
 90
       74
 70
     1
 43
0.0
 10
553.6391
 20
8.8486
 10
553.3243
 20
8.8345
 10
553.0228
 20
8.7923
 10
552.7347
 20
8.7219
 10
552.4598
 20
8.6233
 10
552.1982
 20
8.4964
 10
551.9497
 20
8.3412
 10
551.7143
 20
8.1577
 10
551.4919
 20
7.9458
 10
551.2902
 20
7.7098
 10
551.1151
 20
7.4517
 10
550.9666
 20
7.1714
 10
550.8448
 20
6.8691
 10
550.75
 20
6.5447
 10
550.6821
 20
6.1982
 10
550.6412
 20
5.8296
 10
550.6276
 20
5.4389
 10
550.6398
 20
5.079
 10
550.6763
 20
4.7361
 10
550.7371
 20
4.4103
 10
550.8222
 20
4.1013
 10
550.9314
 20
3.8089
 10
551.0648
 20
3.5331
 10
551.2223
 20
3.2736
 10
551.4038
 20
3.0304
 10
551.604
 20
2.8119
 10
551.8216
 20
2.6223
 10
552.0566
 20
2.4618
 10
552.3089
 20
2.3303
 10
552.5786
 20
2.228
 10
552.8656
 20
2.1548
 10
553.1698
 20
2.1109
 10
553.4914
 20
2.0962
 10
553.724
 20
2.1037
 10
553.9475
 20
2.1262
 10
554.1618
 20
2.1636
 10
554.3671
 20
2.216
 10
554.5634
 20
2.2834
 10
554.7509
 20
2.3656
 10
554.9295
 20
2.4628
 10
555.0995
 20
2.5748
 10
555.262
 20
2.7014
 10
555.4203
 20
2.8434
 10
555.5743
 20
3.0006
 10
555.7242
 20
3.1731
 10
555.8697
 20
3.3609
 10
556.011
 20
3.5637
 10
556.1481
 20
3.7817
 10
556.2808
 20
4.0147
 10
556.885
 20
5.286
 10
556.9789
 20
5.4984
 10
557.0676
 20
5.7061
 10
557.1511
 20
5.909
 10
557.2293
 20
6.1069
 10
557.3022
 20
6.2997
 10
557.3698
 20
6.4875
 10
557.4322
 20
6.67
 10
557.4892
 20
6.8473
 10
557.2739
 20
7.1281
 10
557.0567
 20
7.3853
 10
556.8379
 20
7.6191
 10
556.6174
 20
7.8292
 10
556.3955
 20
8.0157
 10
556.172
 20
8.1785
 10
555.9473
 20
8.3176
 10
555.7213
 20
8.4329
 10
555.4897
 20
8.5308
 10
555.25
 20
8.6154
 10
555.0022
 20
8.6869
 10
554.7462
 20
8.7452
 10
554.482
 20
8.7905
 10
554.2094
 20
8.8228
 10
553.9285
 20
8.8422
 10
553.6391
 20
8.8486
  0
LWPOLYLINE
  5
63
330
1F
100
AcDbEntity
  8
Layer 1
 62
     7
100
AcDbPolyline
 90
       70
 70
     1
 43
0.0
 10
563.2209
 20
9.2643
 10
562.9346
 20
9.2567
 10
562.6631
 20
9.234
 10
562.4064
 20
9.196
 10
562.1648
 20
9.1427
 10
561.9383
 20
9.0741
 10
561.7272
 20
8.9901
 10
561.5315
 20
8.8907
 10
561.3514
 20
8.7758
 10
561.177
 20
8.64
 10
561.0023
 20
8.4758
 10
560.827
 20
8.2831
 10
560.6512
 20
8.0621
 10
560.4747
 20
7.8125
 10
560.2974
 20
7.5345
 10
560.1191
 20
7.228
 10
559.9398
 20
6.893
 10
559.8156
 20
6.6425
 10
559.6867
 20
6.3551
 10
559.5529
 20
6.0299
 10
559.4142
 20
5.666
 10
558.745
 20
3.9361
 10
558.9276
 20
3.6641
 10
559.1199
 20
3.4085
 10
559.322
 20
3.1692
 10
559.5343
 20
2.9464
 10
559.7567
 20
2.7399
 10
559.9895
 20
2.5498
 10
560.233
 20
2.3762
 10
560.4871
 20
2.2191
 10
560.7484
 20
2.08
 10
561.0191
 20
1.9593
 10
561.2992
 20
1.8572
 10
561.5884
 20
1.7736
 10
561.8866
 20
1.7085
 10
562.1939
 20
1.662
 10
562.51
 20
1.6341
 10
562.8349
 20
1.6248
 10
563.2588
 20
1.6421
 10
563.6639
 20
1.6938
 10
564.0501
 20
1.7801
 10
564.4175
 20
1.9007
 10
564.7659
 20
2.0557
 10
565.0954
 20
2.245
 10
565.4059
 20
2.4685
 10
565.6974
 20
2.7262
 10
565.9617
 20
3.0118
 10
566.1909
 20
3.3149
 10
566.3848
 20
3.6354
 10
566.5435
 20
3.9734
 10
566.667
 20
4.3289
 10
566.7552
 20
4.7018
 10
566.8081
 20
5.0923
 10
566.8258
 20
5.5003
 10
566.8106
 20
5.9152
 10
566.7652
 20
6.3094
 10
566.6894
 20
6.6827
 10
566.5835
 20
7.0352
 10
566.4474
 20
7.3668
 10
566.2812
 20
7.6774
 10
566.0849
 20
7.9671
 10
565.8586
 20
8.2358
 10
565.6046
 20
8.4773
 10
565.3291
 20
8.6864
 10
565.0321
 20
8.8632
 10
564.7135
 20
9.0077
 10
564.3732
 20
9.12
 10
564.011
 20
9.2002
 10
563.627
 20
9.2483
 10
563.2209
 20
9.2643
  0
LWPOLYLINE
  5
64
330
1F
100
AcDbEntity
  8
Layer 1
 62
     7
100
AcDbPolyline
 90
      147
 70
     1
 43
0.0
 10
568.7414
 20
5.4446
 10
568.7348
 20
5.0734
 10
568.7151
 20
4.7109
 10
568.6822
 20
4.3568
 10
568.6361
 20
4.0113
 10
568.5765
 20
3.6741
 10
568.5036
 20
3.3452
 10
568.4173
 20
3.0245
 10
568.3174
 20
2.7119
 10
568.2064
 20
2.41
 10
568.0837
 20
2.1193
 10
567.9493
 20
1.8399
 10
567.8033
 20
1.5718
 10
567.6455
 20
1.3152
 10
567.4761
 20
1.0701
 10
567.295
 20
0.8367
 10
567.1022
 20
0.6149
 10
566.9043
 20
0.4083
 10
566.6977
 20
0.2146
 10
566.4824
 20
0.034
 10
566.2584
 20
-0.1338
 10
566.0255
 20
-0.2888
 10
565.7837
 20
-0.4311
 10
565.533
 20
-0.5608
 10
565.2733
 20
-0.6779
 10
565.0051
 20
-0.7799
 10
564.7336
 20
-0.8685
 10
564.4589
 20
-0.9436
 10
564.1808
 20
-1.0052
 10
563.8991
 20
-1.0532
 10
563.6137
 20
-1.0875
 10
563.3244
 20
-1.1081
 10
563.0313
 20
-1.115
 10
562.6472
 20
-1.1015
 10
562.271
 20
-1.0607
 10
561.9026
 20
-0.9927
 10
561.5421
 20
-0.8973
 10
561.1893
 20
-0.7744
 10
560.8443
 20
-0.6238
 10
560.5068
 20
-0.4455
 10
560.1769
 20
-0.2393
 10
559.8599
 20
-0.0073
 10
559.5593
 20
0.2495
 10
559.2752
 20
0.531
 10
559.0076
 20
0.8374
 10
558.7568
 20
1.1685
 10
558.5228
 20
1.5244
 10
558.3057
 20
1.9051
 10
558.1056
 20
2.3105
 10
558.027
 20
2.3105
 10
557.8198
 20
1.9494
 10
557.6077
 20
1.6128
 10
557.3907
 20
1.3006
 10
557.169
 20
1.0127
 10
556.9424
 20
0.7488
 10
556.7112
 20
0.509
 10
556.4753
 20
0.2929
 10
556.2347
 20
0.1006
 10
555.9823
 20
-0.0677
 10
555.715
 20
-0.2135
 10
555.4327
 20
-0.337
 10
555.1353
 20
-0.4381
 10
554.823
 20
-0.5167
 10
554.4957
 20
-0.5729
 10
554.1535
 20
-0.6067
 10
553.7962
 20
-0.6179
 10
553.2676
 20
-0.5911
 10
552.7616
 20
-0.5107
 10
552.2783
 20
-0.3768
 10
551.8175
 20
-0.1892
 10
551.3793
 20
0.0521
 10
550.9636
 20
0.3469
 10
550.5703
 20
0.6955
 10
550.1995
 20
1.0977
 10
549.8629
 20
1.5417
 10
549.5715
 20
2.0145
 10
549.3251
 20
2.516
 10
549.1237
 20
3.0462
 10
548.9672
 20
3.605
 10
548.8555
 20
4.1924
 10
548.7885
 20
4.8085
 10
548.7662
 20
5.4531
 10
548.7875
 20
6.1218
 10
548.8513
 20
6.7564
 10
548.9577
 20
7.3571
 10
549.1067
 20
7.9237
 10
549.2983
 20
8.4563
 10
549.5326
 20
8.9549
 10
549.8095
 20
9.4194
 10
550.129
 20
9.85
 10
550.4836
 20
10.2373
 10
550.8617
 20
10.5733
 10
551.2632
 20
10.8578
 10
551.6882
 20
11.0908
 10
552.1367
 20
11.2721
 10
552.6089
 20
11.4018
 10
553.1047
 20
11.4796
 10
553.6242
 20
11.5056
 10
553.9461
 20
11.4933
 10
554.2669
 20
11.4563
 10
554.5864
 20
11.3947
 10
554.9047
 20
11.3085
 10
555.2219
 20
11.1976
 10
555.538
 20
11.0621
 10
555.853
 20
10.9019
 10
556.167
 20
10.7171
 10
556.4735
 20
10.5089
 10
556.7623
 20
10.2787
 10
557.0335
 20
10.0266
 10
557.2873
 20
9.7525
 10
557.5238
 20
9.4566
 10
557.7432
 20
9.139
 10
557.9457
 20
8.7996
 10
558.1313
 20
8.4387
 10
558.2045
 20
8.4387
 10
558.4065
 20
8.8646
 10
558.6184
 20
9.2637
 10
558.8404
 20
9.6362
 10
559.0725
 20
9.9821
 10
559.3149
 20
10.3015
 10
559.5677
 20
10.5945
 10
559.8311
 20
10.8611
 10
560.1051
 20
11.1013
 10
560.3953
 20
11.3132
 10
560.705
 20
11.4967
 10
561.0344
 20
11.6519
 10
561.3836
 20
11.7788
 10
561.7528
 20
11.8774
 10
562.142
 20
11.9478
 10
562.5515
 20
11.99
 10
562.9812
 20
12.0041
 10
563.5819
 20
11.9749
 10
564.1577
 20
11.8873
 10
564.7085
 20
11.7411
 10
565.2344
 20
11.5365
 10
565.7352
 20
11.2732
 10
566.211
 20
10.9513
 10
566.6617
 20
10.5707
 10
567.0873
 20
10.1314
 10
567.4754
 20
9.6481
 10
567.8115
 20
9.1357
 10
568.0959
 20
8.5941
 10
568.3284
 20
8.0232
 10
568.5092
 20
7.4228
 10
568.6382
 20
6.793
 10
568.7156
 20
6.1336
 10
568.7414
 20
5.4446
  0
LWPOLYLINE
  5
65
330
1F
100
AcDbEntity
  8
Layer 1
 62
     7
100
AcDbPolyline
 90
       65
 70
     1
 43
0.0
 10
558.7396
 20
28.733
 10
559.9814
 20
28.7083
 10
561.1381
 20
28.6343
 10
562.2097
 20
28.511
 10
563.1961
 20
28.3386
 10
564.0972
 20
28.117
 10
564.9129
 20
27.8465
 10
565.6432
 20
27.5271
 10
566.288
 20
27.1588
 10
566.8506
 20
26.7379
 10
567.3385
 20
26.2637
 10
567.7515
 20
25.7361
 10
568.0896
 20
25.1551
 10
568.3527
 20
24.5206
 10
568.5408
 20
23.8327
 10
568.6537
 20
23.0913
 10
568.6913
 20
22.2963
 10
568.6529
 20
21.4918
 10
568.5378
 20
20.7432
 10
568.346
 20
20.0502
 10
568.0776
 20
19.4129
 10
567.7328
 20
18.831
 10
567.3116
 20
18.3044
 10
566.8142
 20
17.833
 10
566.2406
 20
17.4166
 10
565.5875
 20
17.0516
 10
564.8543
 20
16.7354
 10
564.041
 20
16.468
 10
563.1473
 20
16.2494
 10
562.1732
 20
16.0794
 10
561.1185
 20
15.958
 10
559.983
 20
15.8852
 10
558.7667
 20
15.861
 10
557.5182
 20
15.8857
 10
556.3567
 20
15.9597
 10
555.282
 20
16.083
 10
554.2942
 20
16.2554
 10
553.3934
 20
16.477
 10
552.5796
 20
16.7475
 10
551.8527
 20
17.0669
 10
551.2128
 20
17.4352
 10
550.6505
 20
17.8556
 10
550.1634
 20
18.3295
 10
549.7515
 20
18.8569
 10
549.4146
 20
19.4377
 10
549.1527
 20
20.0721
 10
548.9658
 20
20.7599
 10
548.8537
 20
21.5013
 10
548.8163
 20
22.2963
 10
548.8551
 20
23.1004
 10
548.9714
 20
23.849
 10
549.1651
 20
24.5421
 10
549.4362
 20
25.1798
 10
549.7846
 20
25.7622
 10
550.2102
 20
26.2892
 10
550.7129
 20
26.7609
 10
551.2927
 20
27.1774
 10
551.9505
 20
27.5424
 10
552.6862
 20
27.8586
 10
553.5
 20
28.126
 10
554.3918
 20
28.3446
 10
555.3617
 20
28.5146
 10
556.4096
 20
28.636
 10
557.5355
 20
28.7088
 10
558.7396
 20
28.733
  0
LWPOLYLINE
  5
66
330
1F
100
AcDbEntity
  8
Layer 1
 62
     7
100
AcDbPolyline
 90
      129
 70
     1
 43
0.0
 10
564.554
 20
25.2718
 10
564.3091
 20
25.3668
 10
564.0488
 20
25.4545
 10
563.773
 20
25.5351
 10
563.4815
 20
25.6084
 10
563.1743
 20
25.6746
 10
562.851
 20
25.7337
 10
562.5117
 20
25.7856
 10
562.1561
 20
25.8304
 10
561.7872
 20
25.8677
 10
561.4017
 20
25.9004
 10
560.9996
 20
25.9284
 10
560.5809
 20
25.9514
 10
560.1456
 20
25.9696
 10
559.6937
 20
25.9826
 10
559.225
 20
25.9905
 10
558.7396
 20
25.9932
 10
558.2583
 20
25.9905
 10
557.7928
 20
25.9826
 10
557.3432
 20
25.9696
 10
556.9095
 20
25.9514
 10
556.492
 20
25.9284
 10
556.0906
 20
25.9004
 10
555.7054
 20
25.8677
 10
555.3365
 20
25.8304
 10
554.982
 20
25.7854
 10
554.6428
 20
25.7329
 10
554.3189
 20
25.673
 10
554.0104
 20
25.6056
 10
553.7172
 20
25.5307
 10
553.4393
 20
25.4485
 10
553.1766
 20
25.3588
 10
552.9292
 20
25.2618
 10
552.6929
 20
25.1552
 10
552.4714
 20
25.0391
 10
552.2648
 20
24.9135
 10
552.0729
 20
24.7786
 10
551.8957
 20
24.6345
 10
551.733
 20
24.4812
 10
551.5849
 20
24.3189
 10
551.4512
 20
24.1476
 10
551.3323
 20
23.9621
 10
551.2294
 20
23.7633
 10
551.1425
 20
23.5514
 10
551.0716
 20
23.3264
 10
551.0165
 20
23.0884
 10
550.9772
 20
22.8373
 10
550.9537
 20
22.5732
 10
550.9459
 20
22.2963
 10
550.9537
 20
22.0222
 10
550.9772
 20
21.7602
 10
551.0165
 20
21.5106
 10
551.0716
 20
21.2733
 10
551.1425
 20
21.0486
 10
551.2294
 20
20.8365
 10
551.3323
 20
20.6372
 10
551.4512
 20
20.4507
 10
551.5853
 20
20.2739
 10
551.7345
 20
20.1066
 10
551.899
 20
19.949
 10
552.0788
 20
19.8011
 10
552.274
 20
19.663
 10
552.4845
 20
19.5347
 10
552.7106
 20
19.4163
 10
552.9522
 20
19.3079
 10
553.2048
 20
19.2097
 10
553.4728
 20
19.1196
 10
553.7564
 20
19.0376
 10
554.0556
 20
18.9637
 10
554.3706
 20
18.8978
 10
554.7014
 20
18.8399
 10
555.0482
 20
18.79
 10
555.411
 20
18.748
 10
555.7891
 20
18.7142
 10
556.1788
 20
18.6846
 10
556.5802
 20
18.6594
 10
556.9933
 20
18.6385
 10
557.4185
 20
18.6221
 10
557.8556
 20
18.6103
 10
558.305
 20
18.6032
 10
558.7667
 20
18.6008
 10
559.2555
 20
18.6028
 10
559.724
 20
18.6088
 10
560.1723
 20
18.6189
 10
560.6004
 20
18.633
 10
561.0083
 20
18.651
 10
561.3958
 20
18.6732
 10
561.7631
 20
18.6993
 10
562.1101
 20
18.7294
 10
562.4399
 20
18.7655
 10
562.7618
 20
18.8115
 10
563.0756
 20
18.8675
 10
563.381
 20
18.9333
 10
563.6778
 20
19.0089
 10
563.9658
 20
19.0942
 10
564.2448
 20
19.1891
 10
564.5147
 20
19.2936
 10
564.7545
 20
19.3956
 10
564.9802
 20
19.5085
 10
565.1917
 20
19.6323
 10
565.389
 20
19.7669
 10
565.572
 20
19.9119
 10
565.7406
 20
20.0675
 10
565.8949
 20
20.2333
 10
566.0347
 20
20.4093
 10
566.1592
 20
20.5968
 10
566.2668
 20
20.7984
 10
566.3574
 20
21.0138
 10
566.4313
 20
21.243
 10
566.4885
 20
21.4859
 10
566.5293
 20
21.7425
 10
566.5536
 20
22.0127
 10
566.5617
 20
22.2963
 10
566.5537
 20
22.5704
 10
566.5298
 20
22.8324
 10
566.49
 20
23.0823
 10
566.4344
 20
23.32
 10
566.363
 20
23.5454
 10
566.2759
 20
23.7585
 10
566.1732
 20
23.9592
 10
566.055
 20
24.1476
 10
565.9209
 20
24.3223
 10
565.7717
 20
24.4876
 10
565.6072
 20
24.6432
 10
565.4274
 20
24.789
 10
565.2323
 20
24.9249
 10
565.0217
 20
25.0508
 10
564.7956
 20
25.1664
 10
564.554
 20
25.2718
  0
LWPOLYLINE
  5
67
330
1F
100
AcDbEntity
  8
Layer 1
 62
     7
100
AcDbPolyline
 90
      190
 70
     1
 43
0.0
 10
568.2957
 20
50.5516
 10
560.0171
 20
50.5516
 10
559.773
 20
50.5503
 10
559.5336
 20
50.5465
 10
559.2989
 20
50.5401
 10
559.0688
 20
50.5312
 10
558.8432
 20
50.5197
 10
558.6222
 20
50.5057
 10
558.4056
 20
50.4892
 10
558.1936
 20
50.4701
 10
557.9891
 20
50.4483
 10
557.7962
 20
50.4204
 10
557.6148
 20
50.3867
 10
557.4448
 20
50.3471
 10
557.2861
 20
50.3018
 10
557.1386
 20
50.251
 10
557.0022
 20
50.1946
 10
556.8768
 20
50.133
 10
556.7532
 20
50.0622
 10
556.6382
 20
49.984
 10
556.5317
 20
49.8983
 10
556.4337
 20
49.8054
 10
556.344
 20
49.7052
 10
556.2624
 20
49.5981
 10
556.189
 20
49.484
 10
556.1236
 20
49.3631
 10
556.0664
 20
49.2327
 10
556.0167
 20
49.0911
 10
555.9746
 20
48.9384
 10
555.9401
 20
48.7747
 10
555.9131
 20
48.6001
 10
555.8939
 20
48.4147
 10
555.8823
 20
48.2185
 10
555.8784
 20
48.0117
 10
555.8856
 20
47.8126
 10
555.9071
 20
47.6105
 10
555.943
 20
47.4054
 10
555.9932
 20
47.1969
 10
556.0578
 20
46.9851
 10
556.1368
 20
46.7697
 10
556.2301
 20
46.5505
 10
556.3377
 20
46.3275
 10
556.4575
 20
46.1015
 10
556.5904
 20
45.8735
 10
556.7362
 20
45.6435
 10
556.895
 20
45.4115
 10
557.0666
 20
45.1775
 10
557.2511
 20
44.9415
 10
557.4484
 20
44.7034
 10
557.6585
 20
44.4634
 10
558.1774
 20
44.5005
 10
558.8899
 20
44.5191
 10
568.2957
 20
44.5191
 10
568.2957
 20
41.9721
 10
560.0171
 20
41.9721
 10
559.773
 20
41.9708
 10
559.5336
 20
41.967
 10
559.2989
 20
41.9606
 10
559.0688
 20
41.9516
 10
558.8432
 20
41.94
 10
558.6222
 20
41.9257
 10
558.4056
 20
41.9088
 10
558.1936
 20
41.8893
 10
557.9891
 20
41.8671
 10
557.7962
 20
41.839
 10
557.6148
 20
41.8052
 10
557.4448
 20
41.7657
 10
557.2861
 20
41.7206
 10
557.1386
 20
41.6699
 10
557.0022
 20
41.6138
 10
556.8768
 20
41.5522
 10
556.7532
 20
41.4811
 10
556.6382
 20
41.4027
 10
556.5317
 20
41.3171
 10
556.4337
 20
41.2243
 10
556.344
 20
41.1243
 10
556.2624
 20
41.017
 10
556.189
 20
40.9025
 10
556.1236
 20
40.7808
 10
556.0664
 20
40.6513
 10
556.0167
 20
40.5104
 10
555.9746
 20
40.3582
 10
555.9401
 20
40.1948
 10
555.9131
 20
40.0202
 10
555.8939
 20
39.8347
 10
555.8823
 20
39.6382
 10
555.8784
 20
39.4309
 10
555.886
 20
39.222
 10
555.9089
 20
39.0108
 10
555.9471
 20
38.7975
 10
556.0007
 20
38.5818
 10
556.0696
 20
38.3638
 10
556.1539
 20
38.1434
 10
556.2536
 20
37.9206
 10
556.3688
 20
37.6953
 10
556.4963
 20
37.47
 10
556.632
 20
37.2462
 10
556.776
 20
37.024
 10
556.9283
 20
36.8034
 10
557.089
 20
36.5844
 10
557.2581
 20
36.3672
 10
557.4357
 20
36.1518
 10
557.6219
 20
35.9382
 10
568.2957
 20
35.9382
 10
568.2957
 20
33.3913
 10
553.99
 20
33.3913
 10
553.99
 20
35.9382
 10
555.5817
 20
35.9382
 10
555.352
 20
36.1885
 10
555.1353
 20
36.4381
 10
554.9318
 20
36.6869
 10
554.7416
 20
36.9351
 10
554.5648
 20
37.1827
 10
554.4015
 20
37.4298
 10
554.2518
 20
37.6763
 10
554.1159
 20
37.9224
 10
553.9943
 20
38.1708
 10
553.8887
 20
38.4254
 10
553.7991
 20
38.6861
 10
553.7256
 20
38.9529
 10
553.6683
 20
39.2257
 10
553.6273
 20
39.5047
 10
553.6026
 20
39.7897
 10
553.5944
 20
40.0808
 10
553.6035
 20
40.41
 10
553.6307
 20
40.73
 10
553.676
 20
41.0409
 10
553.7395
 20
41.3426
 10
553.8211
 20
41.635
 10
553.9207
 20
41.9181
 10
554.0384
 20
42.1919
 10
554.1742
 20
42.4564
 10
554.3296
 20
42.7065
 10
554.5082
 20
42.9416
 10
554.71
 20
43.1614
 10
554.9351
 20
43.366
 10
555.1832
 20
43.5551
 10
555.4546
 20
43.7287
 10
555.7491
 20
43.8868
 10
556.0667
 20
44.0291
 10
555.7724
 20
44.3172
 10
555.4961
 20
44.6032
 10
555.238
 20
44.887
 10
554.9982
 20
45.1687
 10
554.7768
 20
45.4484
 10
554.5739
 20
45.7261
 10
554.3897
 20
46.002
 10
554.2243
 20
46.2761
 10
554.0767
 20
46.5542
 10
553.9487
 20
46.8379
 10
553.8405
 20
47.1273
 10
553.7519
 20
47.4225
 10
553.683
 20
47.7236
 10
553.6338
 20
48.0306
 10
553.6042
 20
48.3438
 10
553.5944
 20
48.6631
 10
553.5989
 20
48.9036
 10
553.6125
 20
49.1387
 10
553.6351
 20
49.3683
 10
553.6667
 20
49.5925
 10
553.7075
 20
49.8111
 10
553.7573
 20
50.0241
 10
553.8162
 20
50.2314
 10
553.8843
 20
50.433
 10
553.9617
 20
50.6292
 10
554.0499
 20
50.8192
 10
554.1489
 20
51.0029
 10
554.2589
 20
51.1803
 10
554.3801
 20
51.3513
 10
554.5126
 20
51.516
 10
554.6566
 20
51.6741
 10
554.8123
 20
51.8258
 10
554.9807
 20
51.9741
 10
555.1589
 20
52.1137
 10
555.347
 20
52.2445
 10
555.5452
 20
52.3666
 10
555.7535
 20
52.4799
 10
555.9721
 20
52.5845
 10
556.2011
 20
52.6802
 10
556.4406
 20
52.7671
 10
556.6912
 20
52.8449
 10
556.9574
 20
52.9123
 10
557.2391
 20
52.9693
 10
557.5366
 20
53.0158
 10
557.8498
 20
53.052
 10
558.1788
 20
53.0779
 10
558.5237
 20
53.0933
 10
558.8845
 20
53.0985
 10
568.2957
 20
53.0985
 10
568.2957
 20
50.5516
  0
LWPOLYLINE
  5
68
330
1F
100
AcDbEntity
  8
Layer 1
 62
     7
100
AcDbPolyline
 90
      190
 70
     1
 43
0.0
 10
568.2957
 20
75.5299
 10
560.0171
 20
75.5299
 10
559.773
 20
75.5286
 10
559.5336
 20
75.5246
 10
559.2989
 20
75.518
 10
559.0688
 20
75.5088
 10
558.8432
 20
75.4971
 10
558.6222
 20
75.4829
 10
558.4056
 20
75.4662
 10
558.1936
 20
75.447
 10
557.9891
 20
75.4252
 10
557.7962
 20
75.3973
 10
557.6148
 20
75.3636
 10
557.4448
 20
75.324
 10
557.2861
 20
75.2787
 10
557.1386
 20
75.2279
 10
557.0022
 20
75.1715
 10
556.8768
 20
75.1099
 10
556.7532
 20
75.0391
 10
556.6382
 20
74.9609
 10
556.5317
 20
74.8753
 10
556.4337
 20
74.7824
 10
556.344
 20
74.6825
 10
556.2624
 20
74.5756
 10
556.189
 20
74.4618
 10
556.1236
 20
74.3414
 10
556.0664
 20
74.2106
 10
556.0167
 20
74.0687
 10
555.9746
 20
73.916
 10
555.9401
 20
73.7523
 10
555.9131
 20
73.5777
 10
555.8939
 20
73.3922
 10
555.8823
 20
73.1958
 10
555.8784
 20
72.9886
 10
555.8856
 20
72.7895
 10
555.9071
 20
72.5874
 10
555.943
 20
72.3823
 10
555.9932
 20
72.1738
 10
556.0578
 20
71.962
 10
556.1368
 20
71.7466
 10
556.2301
 20
71.5274
 10
556.3377
 20
71.3044
 10
556.4575
 20
71.0784
 10
556.5904
 20
70.8504
 10
556.7362
 20
70.6204
 10
556.895
 20
70.3884
 10
557.0666
 20
70.1544
 10
557.2511
 20
69.9184
 10
557.4484
 20
69.6803
 10
557.6585
 20
69.4403
 10
558.1774
 20
69.4774
 10
558.8899
 20
69.496
 10
568.2957
 20
69.496
 10
568.2957
 20
66.949
 10
560.0171
 20
66.949
 10
559.773
 20
66.9477
 10
559.5336
 20
66.9439
 10
559.2989
 20
66.9375
 10
559.0688
 20
66.9285
 10
558.8432
 20
66.9169
 10
558.6222
 20
66.9026
 10
558.4056
 20
66.8857
 10
558.1936
 20
66.8662
 10
557.9891
 20
66.844
 10
557.7962
 20
66.8159
 10
557.6148
 20
66.7821
 10
557.4448
 20
66.7426
 10
557.2861
 20
66.6975
 10
557.1386
 20
66.6468
 10
557.0022
 20
66.5907
 10
556.8768
 20
66.5291
 10
556.7532
 20
66.458
 10
556.6382
 20
66.3797
 10
556.5317
 20
66.2941
 10
556.4337
 20
66.2014
 10
556.344
 20
66.1015
 10
556.2624
 20
65.9945
 10
556.189
 20
65.8804
 10
556.1236
 20
65.7591
 10
556.0664
 20
65.6291
 10
556.0167
 20
65.4879
 10
555.9746
 20
65.3354
 10
555.9401
 20
65.1718
 10
555.9131
 20
64.9972
 10
555.8939
 20
64.8116
 10
555.8823
 20
64.6151
 10
555.8784
 20
64.4078
 10
555.886
 20
64.1989
 10
555.9089
 20
63.9877
 10
555.9471
 20
63.7744
 10
556.0007
 20
63.5587
 10
556.0696
 20
63.3407
 10
556.1539
 20
63.1203
 10
556.2536
 20
62.8975
 10
556.3688
 20
62.6722
 10
556.4963
 20
62.4469
 10
556.632
 20
62.2231
 10
556.776
 20
62.0009
 10
556.9283
 20
61.7803
 10
557.089
 20
61.5613
 10
557.2581
 20
61.3441
 10
557.4357
 20
61.1287
 10
557.6219
 20
60.9151
 10
568.2957
 20
60.9151
 10
568.2957
 20
58.3696
 10
553.99
 20
58.3696
 10
553.99
 20
60.9151
 10
555.5817
 20
60.9151
 10
555.352
 20
61.1654
 10
555.1353
 20
61.415
 10
554.9318
 20
61.6638
 10
554.7416
 20
61.912
 10
554.5648
 20
62.1596
 10
554.4015
 20
62.4067
 10
554.2518
 20
62.6532
 10
554.1159
 20
62.8993
 10
553.9943
 20
63.1477
 10
553.8887
 20
63.4023
 10
553.7991
 20
63.663
 10
553.7256
 20
63.9298
 10
553.6683
 20
64.2026
 10
553.6273
 20
64.4816
 10
553.6026
 20
64.7666
 10
553.5944
 20
65.0577
 10
553.6035
 20
65.3869
 10
553.6307
 20
65.7071
 10
553.676
 20
66.0182
 10
553.7395
 20
66.32
 10
553.8211
 20
66.6125
 10
553.9207
 20
66.8956
 10
554.0384
 20
67.1692
 10
554.1742
 20
67.4333
 10
554.3296
 20
67.6838
 10
554.5082
 20
67.9191
 10
554.71
 20
68.1389
 10
554.9351
 20
68.3434
 10
555.1832
 20
68.5324
 10
555.4546
 20
68.7058
 10
555.7491
 20
68.8637
 10
556.0667
 20
69.006
 10
555.7724
 20
69.2941
 10
555.4961
 20
69.5801
 10
555.238
 20
69.8639
 10
554.9982
 20
70.1456
 10
554.7768
 20
70.4253
 10
554.5739
 20
70.703
 10
554.3897
 20
70.9789
 10
554.2243
 20
71.253
 10
554.0767
 20
71.5311
 10
553.9487
 20
71.8148
 10
553.8405
 20
72.1042
 10
553.7519
 20
72.3994
 10
553.683
 20
72.7005
 10
553.6338
 20
73.0075
 10
553.6042
 20
73.3207
 10
553.5944
 20
73.64
 10
553.5989
 20
73.8805
 10
553.6125
 20
74.1156
 10
553.6351
 20
74.3452
 10
553.6667
 20
74.5694
 10
553.7075
 20
74.788
 10
553.7573
 20
75.001
 10
553.8162
 20
75.2083
 10
553.8843
 20
75.4099
 10
553.9617
 20
75.6061
 10
554.0499
 20
75.7961
 10
554.1489
 20
75.9798
 10
554.2589
 20
76.1572
 10
554.3801
 20
76.3282
 10
554.5126
 20
76.4929
 10
554.6566
 20
76.651
 10
554.8123
 20
76.8027
 10
554.9807
 20
76.951
 10
555.1589
 20
77.0906
 10
555.347
 20
77.2215
 10
555.5452
 20
77.3437
 10
555.7535
 20
77.4572
 10
555.9721
 20
77.5619
 10
556.2011
 20
77.658
 10
556.4406
 20
77.7454
 10
556.6912
 20
77.8227
 10
556.9574
 20
77.8898
 10
557.2391
 20
77.9465
 10
557.5366
 20
77.9929
 10
557.8498
 20
78.029
 10
558.1788
 20
78.0548
 10
558.5237
 20
78.0702
 10
558.8845
 20
78.0754
 10
568.2957
 20
78.0754
 10
568.2957
 20
75.5299
  0
LWPOLYLINE
  5
69
330
1F
100
AcDbEntity
  8
Layer 1
 62
     9
370
    18
100
AcDbPolyline
 90
        2
 70
     0
 43
0.0
 10
1058.1517
 20
242.1201
 10
602.3896
 20
242.1201
  0
LWPOLYLINE
  5
6A
330
1F
100
AcDbEntity
  8
Layer 1
 62
     9
370
    18
100
AcDbPolyline
 90
        2
 70
     0
 43
0.0
 10
1136.5095
 20
179.8143
 10
1031.697
 20
179.8143
  0
LWPOLYLINE
  5
6B
330
1F
100
AcDbEntity
  8
Layer 1
 62
     9
370
    18
100
AcDbPolyline
 90
        2
 70
     0
 43
0.0
 10
1136.5095
 20
-125.6666
 10
1035.417
 20
-125.6666
  0
LWPOLYLINE
  5
6C
330
1F
100
AcDbEntity
  8
Layer 1
 62
     9
370
    18
100
AcDbPolyline
 90
        2
 70
     0
 43
0.0
 10
1121.9084
 20
-124.5381
 10
1121.9084
 20
179.0072
  0
LWPOLYLINE
  5
6D
330
1F
100
AcDbEntity
  8
Layer 1
 62
     9
370
    18
100
AcDbPolyline
 90
        2
 70
     0
 43
0.0
 10
599.6437
 20
164.6896
 10
599.6437
 20
256.452
  0
LWPOLYLINE
  5
6E
330
1F
100
AcDbEntity
  8
Layer 1
 62
     9
370
    18
100
AcDbPolyline
 90
        2
 70
     0
 43
0.0
 10
1059.0553
 20
161.2656
 10
1059.0553
 20
256.452
  0
LWPOLYLINE
  5
6F
330
1F
100
AcDbEntity
  8
Layer 1
 62
     7
370
    25
100
AcDbPolyline
 90
       33
 70
     1
 43
0.0
 10
836.0147
 20
56.1683
 10
841.4976
 20
55.5855
 10
846.6044
 20
53.914
 10
851.2258
 20
51.2691
 10
855.2524
 20
47.7662
 10
858.5746
 20
43.5207
 10
861.0832
 20
38.6478
 10
862.6685
 20
33.2631
 10
863.2213
 20
27.4817
 10
862.6685
 20
21.7003
 10
861.0832
 20
16.3155
 10
858.5746
 20
11.4427
 10
855.2524
 20
7.1971
 10
851.2258
 20
3.6942
 10
846.6044
 20
1.0493
 10
841.4976
 20
-0.6222
 10
836.0147
 20
-1.205
 10
830.5318
 20
-0.6222
 10
825.4249
 20
1.0493
 10
820.8035
 20
3.6942
 10
816.7769
 20
7.1971
 10
813.4547
 20
11.4427
 10
810.9461
 20
16.3155
 10
809.3608
 20
21.7003
 10
808.808
 20
27.4817
 10
809.3608
 20
33.2631
 10
810.9461
 20
38.6478
 10
813.4547
 20
43.5207
 10
816.7769
 20
47.7662
 10
820.8035
 20
51.2691
 10
825.4249
 20
53.914
 10
830.5318
 20
55.5855
 10
836.0147
 20
56.1683
  0
LWPOLYLINE
  5
70
330
1F
100
AcDbEntity
  8
Layer 1
 62
     7
370
    25
100
AcDbPolyline
 90
       33
 70
     1
 43
0.0
 10
836.0147
 20
48.0917
 10
839.9537
 20
47.673
 10
843.6226
 20
46.472
 10
846.9427
 20
44.5717
 10
849.8354
 20
42.055
 10
852.2222
 20
39.0047
 10
854.0243
 20
35.5038
 10
855.1633
 20
31.6352
 10
855.5604
 20
27.4817
 10
855.1633
 20
23.3282
 10
854.0243
 20
19.4595
 10
852.2222
 20
15.9586
 10
849.8354
 20
12.9084
 10
846.9427
 20
10.3916
 10
843.6226
 20
8.4913
 10
839.9537
 20
7.2903
 10
836.0147
 20
6.8716
 10
832.0757
 20
7.2903
 10
828.407
 20
8.4913
 10
825.0871
 20
10.3916
 10
822.1946
 20
12.9084
 10
819.8081
 20
15.9586
 10
818.0062
 20
19.4595
 10
816.8674
 20
23.3282
 10
816.4703
 20
27.4817
 10
816.8674
 20
31.6352
 10
818.0062
 20
35.5038
 10
819.8081
 20
39.0047
 10
822.1946
 20
42.055
 10
825.0871
 20
44.5717
 10
828.407
 20
46.472
 10
832.0757
 20
47.673
 10
836.0147
 20
48.0917
  0
LWPOLYLINE
  5
71
330
1F
100
AcDbEntity
  8
Layer 1
 62
     7
370
    20
100
AcDbPolyline
 90
       37
 70
     1
 43
0.0
 10
679.1244
 20
116.2429
 10
980.3372
 20
116.2429
 10
981.0403
 20
116.1675
 10
981.6963
 20
115.9513
 10
982.2908
 20
115.6097
 10
982.8094
 20
115.1576
 10
983.2378
 20
114.6103
 10
983.5615
 20
113.983
 10
983.7663
 20
113.2907
 10
983.8378
 20
112.5488
 10
983.8378
 20
-60.8553
 10
983.7663
 20
-61.5971
 10
983.5615
 20
-62.289
 10
983.2378
 20
-62.9159
 10
982.8094
 20
-63.4626
 10
982.2908
 20
-63.9142
 10
981.6963
 20
-64.2554
 10
981.0403
 20
-64.4712
 10
980.3372
 20
-64.5465
 10
679.1244
 20
-64.5465
 10
678.4204
 20
-64.4712
 10
677.7638
 20
-64.2554
 10
677.1688
 20
-63.9142
 10
676.6499
 20
-63.4626
 10
676.2214
 20
-62.9159
 10
675.8975
 20
-62.289
 10
675.6927
 20
-61.5971
 10
675.6212
 20
-60.8553
 10
675.6212
 20
112.5488
 10
675.6927
 20
113.2907
 10
675.8975
 20
113.983
 10
676.2214
 20
114.6103
 10
676.6499
 20
115.1576
 10
677.1688
 20
115.6097
 10
677.7638
 20
115.9513
 10
678.4204
 20
116.1675
 10
679.1244
 20
116.2429
  0
LWPOLYLINE
  5
72
330
1F
100
AcDbEntity
  8
Layer 1
 62
     7
370
    25
100
AcDbPolyline
 90
       37
 70
     1
 43
0.0
 10
626.0239
 20
159.9899
 10
1032.648
 20
159.9899
 10
1034.5237
 20
159.789
 10
1036.2737
 20
159.2131
 10
1037.8595
 20
158.3027
 10
1039.2429
 20
157.0981
 10
1040.3855
 20
155.6397
 10
1041.2491
 20
153.9678
 10
1041.7954
 20
152.1227
 10
1041.986
 20
150.1449
 10
1041.986
 20
-98.4613
 10
1041.7954
 20
-100.4401
 10
1041.2491
 20
-102.2858
 10
1040.3855
 20
-103.9583
 10
1039.2429
 20
-105.4171
 10
1037.8595
 20
-106.6219
 10
1036.2737
 20
-107.5324
 10
1034.5237
 20
-108.1083
 10
1032.648
 20
-108.3092
 10
626.0239
 20
-108.3092
 10
624.1477
 20
-108.1083
 10
622.3974
 20
-107.5324
 10
620.8113
 20
-106.6219
 10
619.4278
 20
-105.4171
 10
618.285
 20
-103.9583
 10
617.4214
 20
-102.2858
 10
616.8751
 20
-100.4401
 10
616.6845
 20
-98.4613
 10
616.6845
 20
150.1449
 10
616.8751
 20
152.1227
 10
617.4214
 20
153.9678
 10
618.285
 20
155.6397
 10
619.4278
 20
157.0981
 10
620.8113
 20
158.3027
 10
622.3974
 20
159.2131
 10
624.1477
 20
159.789
 10
626.0239
 20
159.9899
  0
LWPOLYLINE
  5
73
330
1F
100
AcDbEntity
  8
Layer 1
 62
     7
370
    25
100
AcDbPolyline
 90
       37
 70
     1
 43
0.0
 10
618.2316
 20
179.8172
 10
1040.4403
 20
179.8172
 10
1044.177
 20
179.4168
 10
1047.6631
 20
178.2693
 10
1050.8223
 20
176.4552
 10
1053.5782
 20
174.0549
 10
1055.8546
 20
171.149
 10
1057.5751
 20
167.8181
 10
1058.6634
 20
164.1425
 10
1059.0431
 20
160.2028
 10
1059.0431
 20
-106.0822
 10
1058.6634
 20
-110.0227
 10
1057.5751
 20
-113.6987
 10
1055.8546
 20
-117.0297
 10
1053.5782
 20
-119.9354
 10
1050.8223
 20
-122.3353
 10
1047.6631
 20
-124.1491
 10
1044.177
 20
-125.2963
 10
1040.4403
 20
-125.6966
 10
618.2316
 20
-125.6966
 10
614.4945
 20
-125.2963
 10
611.0082
 20
-124.1491
 10
607.849
 20
-122.3353
 10
605.0932
 20
-119.9354
 10
602.8169
 20
-117.0297
 10
601.0966
 20
-113.6987
 10
600.0085
 20
-110.0227
 10
599.6288
 20
-106.0822
 10
599.6288
 20
160.2028
 10
600.0085
 20
164.1425
 10
601.0966
 20
167.8181
 10
602.8169
 20
171.149
 10
605.0932
 20
174.0549
 10
607.849
 20
176.4552
 10
611.0082
 20
178.2693
 10
614.4945
 20
179.4168
 10
618.2316
 20
179.8172
  0
LWPOLYLINE
  5
74
330
1F
100
AcDbEntity
  8
Layer 1
 62
     7
370
    18
100
AcDbPolyline
 90
        2
 70
     0
 43
0.0
 10
675.8853
 20
-60.9738
 10
616.9406
 20
-98.6556
  0
LWPOLYLINE
  5
75
330
1F
100
AcDbEntity
  8
Layer 1
 62
     7
370
    18
100
AcDbPolyline
 90
        2
 70
     0
 43
0.0
 10
679.1326
 20
-64.1536
 10
623.1479
 20
-108.6278
  0
LWPOLYLINE
  5
76
330
1F
100
AcDbEntity
  8
Layer 1
 62
     7
370
    18
100
AcDbPolyline
 90
        2
 70
     0
 43
0.0
 10
983.1293
 20
-60.9738
 10
1042.0713
 20
-98.6556
  0
LWPOLYLINE
  5
77
330
1F
100
AcDbEntity
  8
Layer 1
 62
     7
370
    18
100
AcDbPolyline
 90
        2
 70
     0
 43
0.0
 10
979.8794
 20
-64.1536
 10
1035.8654
 20
-108.6278
  0
LWPOLYLINE
  5
78
330
1F
100
AcDbEntity
  8
Layer 1
 62
     7
370
    18
100
AcDbPolyline
 90
        2
 70
     0
 43
0.0
 10
675.8853
 20
112.6374
 10
616.9406
 20
150.3192
  0
LWPOLYLINE
  5
79
330
1F
100
AcDbEntity
  8
Layer 1
 62
     7
370
    18
100
AcDbPolyline
 90
        2
 70
     0
 43
0.0
 10
679.1326
 20
115.8172
 10
623.1479
 20
160.2899
  0
LWPOLYLINE
  5
7A
330
1F
100
AcDbEntity
  8
Layer 1
 62
     7
370
    18
100
AcDbPolyline
 90
        2
 70
     0
 43
0.0
 10
983.1293
 20
112.6374
 10
1042.0713
 20
150.3192
  0
LWPOLYLINE
  5
7B
330
1F
100
AcDbEntity
  8
Layer 1
 62
     7
370
    18
100
AcDbPolyline
 90
        2
 70
     0
 43
0.0
 10
979.8794
 20
115.8172
 10
1035.8654
 20
160.2899
  0
LWPOLYLINE
  5
7C
330
1F
100
AcDbEntity
  8
Layer 1
 62
     7
100
AcDbPolyline
 90
       12
 70
     1
 43
0.0
 10
1148.4526
 20
-8.3645
 10
1143.9875
 20
-8.3645
 10
1143.9875
 20
-16.9254
 10
1141.8728
 20
-16.9254
 10
1129.7576
 20
-7.9231
 10
1129.7576
 20
-5.9404
 10
1141.8728
 20
-5.9404
 10
1141.8728
 20
-3.2706
 10
1143.9875
 20
-3.2706
 10
1143.9875
 20
-5.9404
 10
1148.4526
 20
-5.9404
 10
1148.4526
 20
-8.3645
  0
LWPOLYLINE
  5
7D
330
1F
100
AcDbEntity
  8
Layer 1
 62
     7
100
AcDbPolyline
 90
        4
 70
     1
 43
0.0
 10
1141.8728
 20
-8.3645
 10
1133.4627
 20
-8.3645
 10
1141.8728
 20
-14.5441
 10
1141.8728
 20
-8.3645
  0
LWPOLYLINE
  5
7E
330
1F
100
AcDbEntity
  8
Layer 1
 62
     7
100
AcDbPolyline
 90
      128
 70
     1
 43
0.0
 10
1143.5445
 20
-0.7893
 10
1143.3616
 20
1.7434
 10
1143.7865
 20
1.8257
 10
1144.1843
 20
1.9311
 10
1144.555
 20
2.0596
 10
1144.8987
 20
2.2111
 10
1145.2152
 20
2.3855
 10
1145.5046
 20
2.5829
 10
1145.7668
 20
2.8031
 10
1146.0019
 20
3.0462
 10
1146.2091
 20
3.3078
 10
1146.3887
 20
3.5836
 10
1146.5408
 20
3.8736
 10
1146.6652
 20
4.1777
 10
1146.762
 20
4.4958
 10
1146.8312
 20
4.8278
 10
1146.8727
 20
5.1736
 10
1146.8865
 20
5.5331
 10
1146.8669
 20
5.9661
 10
1146.8083
 20
6.3812
 10
1146.7106
 20
6.7785
 10
1146.5738
 20
7.1582
 10
1146.3979
 20
7.5202
 10
1146.183
 20
7.8647
 10
1145.9291
 20
8.1918
 10
1145.6362
 20
8.5015
 10
1145.311
 20
8.7823
 10
1144.9603
 20
9.0256
 10
1144.5841
 20
9.2316
 10
1144.1826
 20
9.4002
 10
1143.7556
 20
9.5313
 10
1143.3032
 20
9.625
 10
1142.8255
 20
9.6813
 10
1142.3225
 20
9.7
 10
1141.8443
 20
9.6821
 10
1141.392
 20
9.6284
 10
1140.9657
 20
9.5389
 10
1140.5653
 20
9.4136
 10
1140.1907
 20
9.2523
 10
1139.8419
 20
9.0552
 10
1139.5189
 20
8.822
 10
1139.2216
 20
8.5529
 10
1138.9559
 20
8.2537
 10
1138.7255
 20
7.9312
 10
1138.5306
 20
7.5857
 10
1138.3712
 20
7.2169
 10
1138.2472
 20
6.825
 10
1138.1586
 20
6.4099
 10
1138.1054
 20
5.9717
 10
1138.0877
 20
5.5103
 10
1138.0957
 20
5.2196
 10
1138.1196
 20
4.9367
 10
1138.1595
 20
4.6616
 10
1138.2152
 20
4.3941
 10
1138.2867
 20
4.1342
 10
1138.374
 20
3.8817
 10
1138.477
 20
3.6367
 10
1138.5957
 20
3.399
 10
1138.7282
 20
3.1733
 10
1138.8699
 20
2.9599
 10
1139.0207
 20
2.7589
 10
1139.1808
 20
2.5701
 10
1139.3502
 20
2.3935
 10
1139.529
 20
2.2291
 10
1139.7173
 20
2.0766
 10
1139.9152
 20
1.9362
 10
1139.6023
 20
-0.3479
 10
1129.9933
 20
1.5505
 10
1129.9933
 20
11.3228
 10
1132.188
 20
11.3228
 10
1132.188
 20
3.4818
 10
1137.2302
 20
2.4319
 10
1136.9532
 20
2.8767
 10
1136.7134
 20
3.3272
 10
1136.5108
 20
3.7832
 10
1136.3452
 20
4.2448
 10
1136.2166
 20
4.7118
 10
1136.1249
 20
5.1841
 10
1136.0699
 20
5.6617
 10
1136.0516
 20
6.1445
 10
1136.0781
 20
6.775
 10
1136.1576
 20
7.3807
 10
1136.2901
 20
7.9615
 10
1136.4756
 20
8.5172
 10
1136.7143
 20
9.0478
 10
1137.006
 20
9.553
 10
1137.3509
 20
10.0329
 10
1137.749
 20
10.4871
 10
1138.1883
 20
10.902
 10
1138.6576
 20
11.2619
 10
1139.1572
 20
11.5665
 10
1139.687
 20
11.8159
 10
1140.2469
 20
12.01
 10
1140.8372
 20
12.1487
 10
1141.4577
 20
12.232
 10
1142.1085
 20
12.2598
 10
1142.7323
 20
12.2355
 10
1143.3345
 20
12.1626
 10
1143.9152
 20
12.0411
 10
1144.4743
 20
11.8709
 10
1145.0118
 20
11.6522
 10
1145.5275
 20
11.3848
 10
1146.0215
 20
11.0688
 10
1146.4937
 20
10.7042
 10
1147.0265
 20
10.209
 10
1147.4882
 20
9.6706
 10
1147.8787
 20
9.089
 10
1148.1981
 20
8.4642
 10
1148.4464
 20
7.7962
 10
1148.6237
 20
7.085
 10
1148.7301
 20
6.3306
 10
1148.7655
 20
5.5331
 10
1148.7431
 20
4.8778
 10
1148.6759
 20
4.2534
 10
1148.564
 20
3.6596
 10
1148.4074
 20
3.0965
 10
1148.2061
 20
2.5641
 10
1147.9603
 20
2.0624
 10
1147.6699
 20
1.5912
 10
1147.335
 20
1.1506
 10
1146.9628
 20
0.7486
 10
1146.5617
 20
0.3921
 10
1146.1316
 20
0.0812
 10
1145.6724
 20
-0.1842
 10
1145.1841
 20
-0.4039
 10
1144.6668
 20
-0.578
 10
1144.1202
 20
-0.7065
 10
1143.5445
 20
-0.7893
  0
LWPOLYLINE
  5
7F
330
1F
100
AcDbEntity
  8
Layer 1
 62
     7
100
AcDbPolyline
 90
       97
 70
     1
 43
0.0
 10
1139.227
 20
14.5211
 10
1138.4197
 20
14.5322
 10
1137.6521
 20
14.5656
 10
1136.9243
 20
14.6214
 10
1136.2365
 20
14.6995
 10
1135.5888
 20
14.8
 10
1134.9814
 20
14.9231
 10
1134.4144
 20
15.0686
 10
1133.8881
 20
15.2368
 10
1133.3953
 20
15.4281
 10
1132.9318
 20
15.641
 10
1132.4978
 20
15.8756
 10
1132.0931
 20
16.1318
 10
1131.718
 20
16.4096
 10
1131.3723
 20
16.7093
 10
1131.0562
 20
17.0306
 10
1130.7696
 20
17.3738
 10
1130.5144
 20
17.7388
 10
1130.2933
 20
18.1267
 10
1130.1063
 20
18.5375
 10
1129.9533
 20
18.9712
 10
1129.8344
 20
19.4278
 10
1129.7496
 20
19.9073
 10
1129.6987
 20
20.4097
 10
1129.6817
 20
20.935
 10
1129.6911
 20
21.3248
 10
1129.7192
 20
21.7027
 10
1129.7661
 20
22.0686
 10
1129.8319
 20
22.4226
 10
1129.9167
 20
22.7647
 10
1130.0206
 20
23.095
 10
1130.1437
 20
23.4136
 10
1130.2859
 20
23.7205
 10
1130.4457
 20
24.0134
 10
1130.6224
 20
24.2933
 10
1130.8159
 20
24.56
 10
1131.0261
 20
24.8135
 10
1131.253
 20
25.0536
 10
1131.4966
 20
25.2803
 10
1131.7568
 20
25.4936
 10
1132.0335
 20
25.6932
 10
1132.3255
 20
25.8804
 10
1132.6336
 20
26.0574
 10
1132.9575
 20
26.2242
 10
1133.2971
 20
26.3808
 10
1133.6524
 20
26.5272
 10
1134.0232
 20
26.6633
 10
1134.4093
 20
26.7891
 10
1134.8107
 20
26.9046
 10
1135.2381
 20
27.0094
 10
1135.7013
 20
27.1002
 10
1136.2003
 20
27.1768
 10
1136.7349
 20
27.2393
 10
1137.3049
 20
27.2879
 10
1137.9104
 20
27.3226
 10
1138.5511
 20
27.3433
 10
1139.227
 20
27.3502
 10
1140.0303
 20
27.339
 10
1140.794
 20
27.3054
 10
1141.5181
 20
27.2494
 10
1142.2027
 20
27.1713
 10
1142.8476
 20
27.0711
 10
1143.4529
 20
26.9489
 10
1144.0184
 20
26.8048
 10
1144.5443
 20
26.6389
 10
1145.0371
 20
26.4504
 10
1145.5005
 20
26.2396
 10
1145.9346
 20
26.0065
 10
1146.3394
 20
25.7513
 10
1146.7151
 20
25.4738
 10
1147.0618
 20
25.1743
 10
1147.3795
 20
24.8526
 10
1147.6682
 20
24.509
 10
1147.9258
 20
24.1447
 10
1148.1488
 20
23.7567
 10
1148.3375
 20
23.3452
 10
1148.4917
 20
22.91
 10
1148.6116
 20
22.4514
 10
1148.6971
 20
21.9693
 10
1148.7484
 20
21.4638
 10
1148.7655
 20
20.935
 10
1148.7355
 20
20.2435
 10
1148.6454
 20
19.5898
 10
1148.4952
 20
18.9739
 10
1148.285
 20
18.396
 10
1148.0146
 20
17.8562
 10
1147.6842
 20
17.3547
 10
1147.2938
 20
16.8915
 10
1146.8432
 20
16.4667
 10
1146.21
 20
16.0099
 10
1145.4859
 20
15.6143
 10
1144.6708
 20
15.2799
 10
1143.7646
 20
15.0064
 10
1142.7672
 20
14.794
 10
1141.6786
 20
14.6423
 10
1140.4985
 20
14.5514
 10
1139.227
 20
14.5211
  0
LWPOLYLINE
  5
80
330
1F
100
AcDbEntity
  8
Layer 1
 62
     7
100
AcDbPolyline
 90
       65
 70
     1
 43
0.0
 10
1139.2352
 20
16.9981
 10
1140.341
 20
17.0157
 10
1141.3498
 20
17.0686
 10
1142.2617
 20
17.1569
 10
1143.0766
 20
17.2806
 10
1143.7946
 20
17.4398
 10
1144.4156
 20
17.6345
 10
1144.9396
 20
17.8649
 10
1145.3666
 20
18.1309
 10
1145.7232
 20
18.4236
 10
1146.0321
 20
18.7329
 10
1146.2934
 20
19.0588
 10
1146.507
 20
19.4011
 10
1146.6731
 20
19.76
 10
1146.7917
 20
20.1352
 10
1146.8628
 20
20.5269
 10
1146.8865
 20
20.935
 10
1146.8626
 20
21.3434
 10
1146.7911
 20
21.7353
 10
1146.6719
 20
22.1105
 10
1146.5052
 20
22.4691
 10
1146.291
 20
22.8111
 10
1146.0293
 20
23.1366
 10
1145.7203
 20
23.4454
 10
1145.3639
 20
23.7376
 10
1144.9344
 20
24.0041
 10
1144.4088
 20
24.2349
 10
1143.787
 20
24.4298
 10
1143.0692
 20
24.5892
 10
1142.2551
 20
24.713
 10
1141.3448
 20
24.8013
 10
1140.3382
 20
24.8542
 10
1139.2352
 20
24.8718
 10
1138.1307
 20
24.8542
 10
1137.1225
 20
24.8013
 10
1136.211
 20
24.713
 10
1135.3961
 20
24.5892
 10
1134.6781
 20
24.4298
 10
1134.057
 20
24.2349
 10
1133.5331
 20
24.0041
 10
1133.1064
 20
23.7376
 10
1132.7498
 20
23.4468
 10
1132.4409
 20
23.1378
 10
1132.1796
 20
22.8108
 10
1131.966
 20
22.4658
 10
1131.7999
 20
22.1029
 10
1131.6813
 20
21.7222
 10
1131.6102
 20
21.3238
 10
1131.5865
 20
20.9078
 10
1131.6075
 20
20.5019
 10
1131.6703
 20
20.1167
 10
1131.775
 20
19.7522
 10
1131.9216
 20
19.4085
 10
1132.11
 20
19.0856
 10
1132.3403
 20
18.7835
 10
1132.6124
 20
18.5024
 10
1132.9263
 20
18.2423
 10
1133.398
 20
17.9505
 10
1133.9604
 20
17.6977
 10
1134.6136
 20
17.4839
 10
1135.3573
 20
17.309
 10
1136.1914
 20
17.1729
 10
1137.1159
 20
17.0758
 10
1138.1305
 20
17.0175
 10
1139.2352
 20
16.9981
  0
LWPOLYLINE
  5
81
330
1F
100
AcDbEntity
  8
Layer 1
 62
     7
100
AcDbPolyline
 90
      148
 70
     1
 43
0.0
 10
1148.4526
 20
30.4915
 10
1134.9014
 20
30.4915
 10
1134.9014
 20
32.667
 10
1136.8184
 20
32.667
 10
1136.5755
 20
32.8408
 10
1136.3449
 20
33.0288
 10
1136.1266
 20
33.231
 10
1135.9207
 20
33.4473
 10
1135.7271
 20
33.6777
 10
1135.5459
 20
33.9221
 10
1135.3773
 20
34.1804
 10
1135.2211
 20
34.4526
 10
1135.0787
 20
34.7359
 10
1134.9554
 20
35.0286
 10
1134.8511
 20
35.3308
 10
1134.7658
 20
35.6427
 10
1134.6994
 20
35.9643
 10
1134.6521
 20
36.2957
 10
1134.6237
 20
36.637
 10
1134.6142
 20
36.9882
 10
1134.6241
 20
37.3753
 10
1134.6537
 20
37.7447
 10
1134.7028
 20
38.0964
 10
1134.7714
 20
38.4302
 10
1134.8592
 20
38.7461
 10
1134.9663
 20
39.0439
 10
1135.0924
 20
39.3236
 10
1135.2374
 20
39.5851
 10
1135.4015
 20
39.8292
 10
1135.5809
 20
40.0546
 10
1135.7757
 20
40.2613
 10
1135.9859
 20
40.4492
 10
1136.2116
 20
40.6183
 10
1136.4529
 20
40.7685
 10
1136.7097
 20
40.8998
 10
1136.9823
 20
41.0122
 10
1136.427
 20
41.4548
 10
1135.9459
 20
41.9289
 10
1135.5389
 20
42.4345
 10
1135.2059
 20
42.9719
 10
1134.947
 20
43.541
 10
1134.7621
 20
44.1421
 10
1134.6512
 20
44.7752
 10
1134.6142
 20
45.4405
 10
1134.6315
 20
45.9583
 10
1134.6836
 20
46.4455
 10
1134.7705
 20
46.9021
 10
1134.8923
 20
47.3279
 10
1135.049
 20
47.7227
 10
1135.2406
 20
48.0864
 10
1135.4674
 20
48.419
 10
1135.7292
 20
48.7202
 10
1136.0273
 20
48.99
 10
1136.3629
 20
49.2239
 10
1136.736
 20
49.4221
 10
1137.1464
 20
49.5843
 10
1137.5942
 20
49.7105
 10
1138.0795
 20
49.8007
 10
1138.602
 20
49.8549
 10
1139.162
 20
49.873
 10
1148.4526
 20
49.873
 10
1148.4526
 20
47.4503
 10
1139.9233
 20
47.4503
 10
1139.5931
 20
47.4464
 10
1139.2864
 20
47.4349
 10
1139.0032
 20
47.4158
 10
1138.7436
 20
47.3893
 10
1138.5076
 20
47.3553
 10
1138.2955
 20
47.3141
 10
1138.1072
 20
47.2657
 10
1137.9428
 20
47.2103
 10
1137.7953
 20
47.1459
 10
1137.6553
 20
47.0696
 10
1137.5229
 20
46.9811
 10
1137.3979
 20
46.8804
 10
1137.28
 20
46.7673
 10
1137.1693
 20
46.6419
 10
1137.0656
 20
46.5039
 10
1136.9687
 20
46.3533
 10
1136.8816
 20
46.195
 10
1136.8063
 20
46.0298
 10
1136.7428
 20
45.8578
 10
1136.6908
 20
45.679
 10
1136.6505
 20
45.4935
 10
1136.6218
 20
45.3014
 10
1136.6046
 20
45.1028
 10
1136.5989
 20
44.8976
 10
1136.6138
 20
44.5275
 10
1136.6585
 20
44.1736
 10
1136.7328
 20
43.8359
 10
1136.8368
 20
43.5143
 10
1136.9703
 20
43.2089
 10
1137.1332
 20
42.9196
 10
1137.3256
 20
42.6463
 10
1137.5472
 20
42.3892
 10
1137.8036
 20
42.1553
 10
1138.0952
 20
41.9528
 10
1138.4221
 20
41.7817
 10
1138.7844
 20
41.6418
 10
1139.1821
 20
41.5331
 10
1139.6153
 20
41.4556
 10
1140.0841
 20
41.4091
 10
1140.5885
 20
41.3936
 10
1148.4526
 20
41.3936
 10
1148.4526
 20
38.9709
 10
1139.6592
 20
38.9709
 10
1139.289
 20
38.9617
 10
1138.9427
 20
38.9339
 10
1138.6201
 20
38.8877
 10
1138.3214
 20
38.8229
 10
1138.0466
 20
38.7396
 10
1137.7957
 20
38.6377
 10
1137.5687
 20
38.5172
 10
1137.3657
 20
38.3781
 10
1137.1865
 20
38.2185
 10
1137.031
 20
38.0353
 10
1136.8992
 20
37.8286
 10
1136.7913
 20
37.5985
 10
1136.7072
 20
37.3449
 10
1136.6471
 20
37.068
 10
1136.611
 20
36.7676
 10
1136.5989
 20
36.4439
 10
1136.6069
 20
36.1913
 10
1136.6309
 20
35.9436
 10
1136.6708
 20
35.7006
 10
1136.7266
 20
35.4624
 10
1136.7983
 20
35.2289
 10
1136.8858
 20
35.0002
 10
1136.9892
 20
34.7762
 10
1137.1083
 20
34.5569
 10
1137.2431
 20
34.3475
 10
1137.3924
 20
34.1532
 10
1137.5565
 20
33.9739
 10
1137.7355
 20
33.8095
 10
1137.9295
 20
33.6599
 10
1138.1385
 20
33.5252
 10
1138.3628
 20
33.4052
 10
1138.6025
 20
33.2998
 10
1138.8602
 20
33.2094
 10
1139.1456
 20
33.1311
 10
1139.4585
 20
33.0648
 10
1139.7987
 20
33.0106
 10
1140.1661
 20
32.9684
 10
1140.5605
 20
32.9383
 10
1140.9818
 20
32.9202
 10
1141.4298
 20
32.9142
 10
1148.4526
 20
32.9142
 10
1148.4526
 20
30.4915
  0
LWPOLYLINE
  5
82
330
1F
100
AcDbEntity
  8
Layer 1
 62
     7
100
AcDbPolyline
 90
      148
 70
     1
 43
0.0
 10
1148.4526
 20
53.4242
 10
1134.9014
 20
53.4242
 10
1134.9014
 20
55.5984
 10
1136.8184
 20
55.5984
 10
1136.5755
 20
55.7721
 10
1136.3449
 20
55.9601
 10
1136.1266
 20
56.1623
 10
1135.9207
 20
56.3787
 10
1135.7271
 20
56.6091
 10
1135.5459
 20
56.8535
 10
1135.3773
 20
57.1118
 10
1135.2211
 20
57.384
 10
1135.0787
 20
57.6673
 10
1134.9554
 20
57.9602
 10
1134.8511
 20
58.2626
 10
1134.7658
 20
58.5746
 10
1134.6994
 20
58.8963
 10
1134.6521
 20
59.2276
 10
1134.6237
 20
59.5687
 10
1134.6142
 20
59.9195
 10
1134.6241
 20
60.307
 10
1134.6537
 20
60.6767
 10
1134.7028
 20
61.0284
 10
1134.7714
 20
61.3623
 10
1134.8592
 20
61.6782
 10
1134.9663
 20
61.9761
 10
1135.0924
 20
62.256
 10
1135.2374
 20
62.5179
 10
1135.4015
 20
62.7615
 10
1135.5809
 20
62.9865
 10
1135.7757
 20
63.1929
 10
1135.9859
 20
63.3807
 10
1136.2116
 20
63.5497
 10
1136.4529
 20
63.6998
 10
1136.7097
 20
63.8311
 10
1136.9823
 20
63.9435
 10
1136.427
 20
64.3861
 10
1135.9459
 20
64.8602
 10
1135.5389
 20
65.3659
 10
1135.2059
 20
65.9032
 10
1134.947
 20
66.4724
 10
1134.7621
 20
67.0734
 10
1134.6512
 20
67.7065
 10
1134.6142
 20
68.3718
 10
1134.6315
 20
68.89
 10
1134.6836
 20
69.3774
 10
1134.7705
 20
69.8341
 10
1134.8923
 20
70.2599
 10
1135.049
 20
70.6547
 10
1135.2406
 20
71.0186
 10
1135.4674
 20
71.3514
 10
1135.7292
 20
71.653
 10
1136.0273
 20
71.9223
 10
1136.3629
 20
72.1559
 10
1136.736
 20
72.3538
 10
1137.1464
 20
72.5158
 10
1137.5942
 20
72.6419
 10
1138.0795
 20
72.7321
 10
1138.602
 20
72.7862
 10
1139.162
 20
72.8043
 10
1148.4526
 20
72.8043
 10
1148.4526
 20
70.3817
 10
1139.9233
 20
70.3817
 10
1139.5931
 20
70.3778
 10
1139.2864
 20
70.3663
 10
1139.0032
 20
70.3473
 10
1138.7436
 20
70.3208
 10
1138.5076
 20
70.287
 10
1138.2955
 20
70.2461
 10
1138.1072
 20
70.1981
 10
1137.9428
 20
70.1431
 10
1137.7953
 20
70.0783
 10
1137.6553
 20
70.0016
 10
1137.5229
 20
69.9128
 10
1137.3979
 20
69.8121
 10
1137.28
 20
69.6991
 10
1137.1693
 20
69.5738
 10
1137.0656
 20
69.4361
 10
1136.9687
 20
69.286
 10
1136.8816
 20
69.1273
 10
1136.8063
 20
68.962
 10
1136.7428
 20
68.7899
 10
1136.6908
 20
68.6113
 10
1136.6505
 20
68.426
 10
1136.6218
 20
68.234
 10
1136.6046
 20
68.0355
 10
1136.5989
 20
67.8304
 10
1136.6138
 20
67.4599
 10
1136.6585
 20
67.1058
 10
1136.7328
 20
66.768
 10
1136.8368
 20
66.4464
 10
1136.9703
 20
66.1409
 10
1137.1332
 20
65.8515
 10
1137.3256
 20
65.5781
 10
1137.5472
 20
65.3206
 10
1137.8036
 20
65.0867
 10
1138.0952
 20
64.8842
 10
1138.4221
 20
64.713
 10
1138.7844
 20
64.5731
 10
1139.1821
 20
64.4644
 10
1139.6153
 20
64.3869
 10
1140.0841
 20
64.3404
 10
1140.5885
 20
64.3249
 10
1148.4526
 20
64.3249
 10
1148.4526
 20
61.9022
 10
1139.6592
 20
61.9022
 10
1139.289
 20
61.893
 10
1138.9427
 20
61.8652
 10
1138.6201
 20
61.819
 10
1138.3214
 20
61.7544
 10
1138.0466
 20
61.6712
 10
1137.7957
 20
61.5696
 10
1137.5687
 20
61.4494
 10
1137.3657
 20
61.3108
 10
1137.1865
 20
61.1511
 10
1137.031
 20
60.9678
 10
1136.8992
 20
60.7609
 10
1136.7913
 20
60.5305
 10
1136.7072
 20
60.2767
 10
1136.6471
 20
59.9995
 10
1136.611
 20
59.699
 10
1136.5989
 20
59.3752
 10
1136.6069
 20
59.123
 10
1136.6309
 20
58.8755
 10
1136.6708
 20
58.6326
 10
1136.7266
 20
58.3944
 10
1136.7983
 20
58.161
 10
1136.8858
 20
57.9324
 10
1136.9892
 20
57.7086
 10
1137.1083
 20
57.4897
 10
1137.2431
 20
57.2802
 10
1137.3924
 20
57.0857
 10
1137.5565
 20
56.9062
 10
1137.7355
 20
56.7415
 10
1137.9295
 20
56.5917
 10
1138.1385
 20
56.4568
 10
1138.3628
 20
56.3366
 10
1138.6025
 20
56.2312
 10
1138.8602
 20
56.1408
 10
1139.1456
 20
56.0626
 10
1139.4585
 20
55.9966
 10
1139.7987
 20
55.9426
 10
1140.1661
 20
55.9007
 10
1140.5605
 20
55.8708
 10
1140.9818
 20
55.8529
 10
1141.4298
 20
55.8469
 10
1148.4526
 20
55.8469
 10
1148.4526
 20
53.4242
  0
LWPOLYLINE
  5
83
330
1F
100
AcDbEntity
  8
Layer 1
 62
     7
100
AcDbPolyline
 90
      146
 70
     1
 43
0.0
 10
800.0973
 20
267.0428
 10
797.8268
 20
266.8499
 10
797.746
 20
267.1941
 10
797.6569
 20
267.5141
 10
797.5596
 20
267.8099
 10
797.4542
 20
268.0815
 10
797.3407
 20
268.3287
 10
797.219
 20
268.5516
 10
797.0893
 20
268.7501
 10
796.9516
 20
268.9241
 10
796.7111
 20
269.1676
 10
796.4569
 20
269.3784
 10
796.189
 20
269.5567
 10
795.9075
 20
269.7024
 10
795.6124
 20
269.8157
 10
795.3038
 20
269.8965
 10
794.9816
 20
269.945
 10
794.6459
 20
269.9611
 10
794.3739
 20
269.951
 10
794.1098
 20
269.9207
 10
793.8537
 20
269.8701
 10
793.6057
 20
269.7993
 10
793.3658
 20
269.7083
 10
793.1342
 20
269.5971
 10
792.9111
 20
269.4657
 10
792.6965
 20
269.314
 10
792.433
 20
269.0943
 10
792.184
 20
268.8506
 10
791.9493
 20
268.5832
 10
791.7287
 20
268.2918
 10
791.5222
 20
267.9765
 10
791.3296
 20
267.6373
 10
791.1508
 20
267.2742
 10
790.9855
 20
266.8871
 10
790.8384
 20
266.4649
 10
790.7101
 20
266.0007
 10
790.6005
 20
265.4945
 10
790.5096
 20
264.9461
 10
790.4374
 20
264.3556
 10
790.3839
 20
263.7228
 10
790.3489
 20
263.0477
 10
790.3325
 20
262.3302
 10
790.5461
 20
262.6518
 10
790.7714
 20
262.9522
 10
791.0082
 20
263.2314
 10
791.2566
 20
263.4891
 10
791.5165
 20
263.7252
 10
791.7878
 20
263.9397
 10
792.0705
 20
264.1323
 10
792.3646
 20
264.3029
 10
792.6665
 20
264.4551
 10
792.9718
 20
264.5869
 10
793.2805
 20
264.6984
 10
793.5928
 20
264.7895
 10
793.9087
 20
264.8604
 10
794.2283
 20
264.911
 10
794.5517
 20
264.9414
 10
794.8789
 20
264.9515
 10
795.4429
 20
264.9235
 10
795.9858
 20
264.8396
 10
796.5076
 20
264.6999
 10
797.0082
 20
264.5044
 10
797.4876
 20
264.2532
 10
797.9457
 20
263.9463
 10
798.3825
 20
263.5839
 10
798.7981
 20
263.1659
 10
799.1758
 20
262.7045
 10
799.5032
 20
262.2104
 10
799.7803
 20
261.6838
 10
800.007
 20
261.1244
 10
800.1834
 20
260.5323
 10
800.3094
 20
259.9074
 10
800.385
 20
259.2496
 10
800.4102
 20
258.559
 10
800.3984
 20
258.0989
 10
800.3631
 20
257.6472
 10
800.3042
 20
257.2038
 10
800.2216
 20
256.7686
 10
800.1152
 20
256.3416
 10
799.985
 20
255.9225
 10
799.8309
 20
255.5113
 10
799.6529
 20
255.1078
 10
799.4538
 20
254.7211
 10
799.2374
 20
254.3578
 10
799.0034
 20
254.018
 10
798.7517
 20
253.7015
 10
798.4821
 20
253.4084
 10
798.1944
 20
253.1384
 10
797.8884
 20
252.8917
 10
797.564
 20
252.668
 10
797.2275
 20
252.4696
 10
796.8797
 20
252.2974
 10
796.5205
 20
252.1516
 10
796.15
 20
252.0322
 10
795.7681
 20
251.9392
 10
795.375
 20
251.8727
 10
794.9707
 20
251.8328
 10
794.5551
 20
251.8195
 10
793.8547
 20
251.8544
 10
793.1872
 20
251.9589
 10
792.5526
 20
252.1331
 10
791.9509
 20
252.3768
 10
791.3819
 20
252.6899
 10
790.8458
 20
253.0724
 10
790.3424
 20
253.5241
 10
789.8719
 20
254.0451
 10
789.4479
 20
254.6458
 10
789.0802
 20
255.3368
 10
788.769
 20
256.118
 10
788.5142
 20
256.9895
 10
788.3159
 20
257.9511
 10
788.1741
 20
259.0028
 10
788.0891
 20
260.1444
 10
788.0607
 20
261.376
 10
788.0922
 20
262.7559
 10
788.1866
 20
264.0383
 10
788.3437
 20
265.2232
 10
788.5636
 20
266.3107
 10
788.8461
 20
267.3006
 10
789.1911
 20
268.193
 10
789.5985
 20
268.988
 10
790.0683
 20
269.6854
 10
790.5243
 20
270.2147
 10
791.0184
 20
270.6733
 10
791.5506
 20
271.0612
 10
792.1211
 20
271.3785
 10
792.7297
 20
271.6253
 10
793.3767
 20
271.8015
 10
794.0619
 20
271.9072
 10
794.7854
 20
271.9424
 10
795.3245
 20
271.922
 10
795.8391
 20
271.8608
 10
796.3291
 20
271.7588
 10
796.7945
 20
271.6162
 10
797.2349
 20
271.4329
 10
797.6503
 20
271.2091
 10
798.0404
 20
270.9446
 10
798.4052
 20
270.6397
 10
798.7398
 20
270.2991
 10
799.0394
 20
269.9274
 10
799.3038
 20
269.5247
 10
799.5332
 20
269.0909
 10
799.7273
 20
268.6258
 10
799.886
 20
268.1295
 10
800.0094
 20
267.6018
 10
800.0973
 20
267.0428
  0
LWPOLYLINE
  5
84
330
1F
100
AcDbEntity
  8
Layer 1
 62
     7
100
AcDbPolyline
 90
       73
 70
     1
 43
0.0
 10
790.6983
 20
258.5362
 10
790.7063
 20
258.225
 10
790.7304
 20
257.9172
 10
790.7703
 20
257.6128
 10
790.826
 20
257.3116
 10
790.8973
 20
257.0138
 10
790.984
 20
256.7194
 10
791.0862
 20
256.4283
 10
791.2036
 20
256.1406
 10
791.3359
 20
255.8641
 10
791.4806
 20
255.6046
 10
791.6377
 20
255.3621
 10
791.8071
 20
255.1364
 10
791.9887
 20
254.9277
 10
792.1824
 20
254.7357
 10
792.3881
 20
254.5606
 10
792.6057
 20
254.4022
 10
792.8324
 20
254.2619
 10
793.0623
 20
254.1401
 10
793.2956
 20
254.0367
 10
793.5324
 20
253.952
 10
793.7727
 20
253.886
 10
794.0166
 20
253.8387
 10
794.2644
 20
253.8103
 10
794.5159
 20
253.8008
 10
794.876
 20
253.8202
 10
795.2226
 20
253.8784
 10
795.5558
 20
253.9754
 10
795.8757
 20
254.1112
 10
796.1822
 20
254.2856
 10
796.4754
 20
254.4987
 10
796.7554
 20
254.7504
 10
797.0221
 20
255.0407
 10
797.2651
 20
255.3641
 10
797.4759
 20
255.715
 10
797.6545
 20
256.0935
 10
797.8007
 20
256.4997
 10
797.9145
 20
256.9337
 10
797.9959
 20
257.3956
 10
798.0448
 20
257.8854
 10
798.0611
 20
258.4033
 10
798.045
 20
258.9008
 10
797.9969
 20
259.3713
 10
797.9166
 20
259.8146
 10
797.8042
 20
260.2309
 10
797.6598
 20
260.62
 10
797.4833
 20
260.982
 10
797.2748
 20
261.3169
 10
797.0343
 20
261.6246
 10
796.7695
 20
261.9005
 10
796.4872
 20
262.1398
 10
796.1873
 20
262.3425
 10
795.8699
 20
262.5086
 10
795.535
 20
262.6379
 10
795.1826
 20
262.7304
 10
794.8126
 20
262.786
 10
794.4251
 20
262.8045
 10
794.0432
 20
262.786
 10
793.6759
 20
262.7304
 10
793.3232
 20
262.6379
 10
792.9852
 20
262.5086
 10
792.662
 20
262.3425
 10
792.3537
 20
262.1398
 10
792.0604
 20
261.9005
 10
791.7821
 20
261.6246
 10
791.5282
 20
261.319
 10
791.3081
 20
260.9905
 10
791.1218
 20
260.6391
 10
790.9694
 20
260.2646
 10
790.8508
 20
259.8672
 10
790.7661
 20
259.4466
 10
790.7153
 20
259.003
 10
790.6983
 20
258.5362
  0
LWPOLYLINE
  5
85
330
1F
100
AcDbEntity
  8
Layer 1
 62
     7
100
AcDbPolyline
 90
       97
 70
     1
 43
0.0
 10
802.6861
 20
261.8774
 10
802.6967
 20
262.7286
 10
802.7285
 20
263.5381
 10
802.7815
 20
264.3055
 10
802.8558
 20
265.0308
 10
802.9512
 20
265.7137
 10
803.0679
 20
266.3542
 10
803.2057
 20
266.952
 10
803.3648
 20
267.507
 10
803.5466
 20
268.0266
 10
803.7487
 20
268.5152
 10
803.9712
 20
268.9727
 10
804.2141
 20
269.3992
 10
804.4774
 20
269.7947
 10
804.7614
 20
270.1592
 10
805.0661
 20
270.4928
 10
805.3915
 20
270.7954
 10
805.7372
 20
271.0649
 10
806.1049
 20
271.2982
 10
806.4945
 20
271.4954
 10
806.906
 20
271.6566
 10
807.3393
 20
271.7817
 10
807.7945
 20
271.8711
 10
808.2714
 20
271.9246
 10
808.7701
 20
271.9424
 10
809.1394
 20
271.9325
 10
809.4974
 20
271.9029
 10
809.8441
 20
271.8534
 10
810.1797
 20
271.784
 10
810.5041
 20
271.6946
 10
810.8173
 20
271.585
 10
811.1194
 20
271.4553
 10
811.4104
 20
271.3053
 10
811.6879
 20
271.1368
 10
811.9533
 20
270.9505
 10
812.2063
 20
270.7464
 10
812.447
 20
270.5247
 10
812.6749
 20
270.2852
 10
812.8901
 20
270.0282
 10
813.0923
 20
269.7535
 10
813.2813
 20
269.4612
 10
813.4593
 20
269.1534
 10
813.6275
 20
268.8289
 10
813.786
 20
268.4878
 10
813.9346
 20
268.13
 10
814.0735
 20
267.7558
 10
814.2026
 20
267.365
 10
814.3219
 20
266.9578
 10
814.4314
 20
266.5342
 10
814.5304
 20
266.083
 10
814.6161
 20
265.5942
 10
814.6886
 20
265.0679
 10
814.7478
 20
264.5042
 10
814.7938
 20
263.9031
 10
814.8266
 20
263.2649
 10
814.8463
 20
262.5896
 10
814.8528
 20
261.8774
 10
814.8422
 20
261.0308
 10
814.8104
 20
260.2257
 10
814.7576
 20
259.4622
 10
814.6836
 20
258.7403
 10
814.5886
 20
258.0601
 10
814.4727
 20
257.4217
 10
814.3358
 20
256.8252
 10
814.1781
 20
256.2706
 10
813.9994
 20
255.7509
 10
813.7996
 20
255.2621
 10
813.5788
 20
254.8042
 10
813.3368
 20
254.377
 10
813.0738
 20
253.9806
 10
812.7897
 20
253.6148
 10
812.4845
 20
253.2797
 10
812.1582
 20
252.9751
 10
811.8132
 20
252.704
 10
811.4456
 20
252.4691
 10
811.0555
 20
252.2705
 10
810.643
 20
252.1081
 10
810.2081
 20
251.9818
 10
809.751
 20
251.8916
 10
809.2716
 20
251.8375
 10
808.7701
 20
251.8195
 10
808.1139
 20
251.8511
 10
807.4938
 20
251.946
 10
806.9096
 20
252.1042
 10
806.3616
 20
252.3257
 10
805.8497
 20
252.6107
 10
805.374
 20
252.9591
 10
804.9344
 20
253.371
 10
804.5312
 20
253.8465
 10
804.0984
 20
254.5142
 10
803.7234
 20
255.2777
 10
803.4063
 20
256.1372
 10
803.1469
 20
257.0928
 10
802.9452
 20
258.1444
 10
802.8012
 20
259.2924
 10
802.7149
 20
260.5367
 10
802.6861
 20
261.8774
  0
LWPOLYLINE
  5
86
330
1F
100
AcDbEntity
  8
Layer 1
 62
     7
100
AcDbPolyline
 90
       65
 70
     1
 43
0.0
 10
805.0365
 20
261.8674
 10
805.0532
 20
260.7019
 10
805.1032
 20
259.6385
 10
805.1867
 20
258.6771
 10
805.3038
 20
257.8179
 10
805.4545
 20
257.0607
 10
805.6389
 20
256.4057
 10
805.8573
 20
255.8528
 10
806.1095
 20
255.4021
 10
806.3875
 20
255.0265
 10
806.681
 20
254.7011
 10
806.9901
 20
254.4259
 10
807.3148
 20
254.2008
 10
807.6551
 20
254.0257
 10
808.0111
 20
253.9007
 10
808.3827
 20
253.8258
 10
808.7701
 20
253.8008
 10
809.157
 20
253.826
 10
809.5283
 20
253.9014
 10
809.8839
 20
254.0272
 10
810.2239
 20
254.2031
 10
810.5481
 20
254.4292
 10
810.8567
 20
254.7053
 10
811.1496
 20
255.0316
 10
811.4267
 20
255.4078
 10
811.6798
 20
255.8607
 10
811.8988
 20
256.4149
 10
812.0837
 20
257.0704
 10
812.2348
 20
257.8271
 10
812.352
 20
258.6852
 10
812.4356
 20
259.6446
 10
812.4856
 20
260.7053
 10
812.5023
 20
261.8674
 10
812.4856
 20
263.0329
 10
812.4356
 20
264.0963
 10
812.352
 20
265.0577
 10
812.2348
 20
265.917
 10
812.0837
 20
266.6741
 10
811.8988
 20
267.3291
 10
811.6798
 20
267.882
 10
811.4267
 20
268.3327
 10
811.1509
 20
268.7083
 10
810.858
 20
269.0337
 10
810.5481
 20
269.3089
 10
810.2212
 20
269.534
 10
809.8773
 20
269.7091
 10
809.5165
 20
269.8341
 10
809.1389
 20
269.909
 10
808.7444
 20
269.934
 10
808.359
 20
269.9118
 10
807.9933
 20
269.8454
 10
807.6474
 20
269.7348
 10
807.3212
 20
269.5799
 10
807.0149
 20
269.381
 10
806.7284
 20
269.1379
 10
806.4618
 20
268.8509
 10
806.2151
 20
268.5198
 10
805.9389
 20
268.0233
 10
805.6995
 20
267.4308
 10
805.4969
 20
266.7423
 10
805.3312
 20
265.958
 10
805.2022
 20
265.0783
 10
805.1102
 20
264.1031
 10
805.0549
 20
263.0327
 10
805.0365
 20
261.8674
  0
LWPOLYLINE
  5
87
330
1F
100
AcDbEntity
  8
Layer 1
 62
     7
100
AcDbPolyline
 90
       97
 70
     1
 43
0.0
 10
817.2072
 20
261.8774
 10
817.2177
 20
262.7286
 10
817.2494
 20
263.5381
 10
817.3021
 20
264.3055
 10
817.376
 20
265.0308
 10
817.4711
 20
265.7137
 10
817.5873
 20
266.3542
 10
817.7246
 20
266.952
 10
817.8832
 20
267.507
 10
818.0651
 20
268.0266
 10
818.2674
 20
268.5152
 10
818.4901
 20
268.9727
 10
818.7333
 20
269.3992
 10
818.9971
 20
269.7947
 10
819.2816
 20
270.1592
 10
819.5867
 20
270.4928
 10
819.9126
 20
270.7954
 10
820.2583
 20
271.0649
 10
820.6258
 20
271.2982
 10
821.0152
 20
271.4954
 10
821.4265
 20
271.6566
 10
821.8596
 20
271.7817
 10
822.3145
 20
271.8711
 10
822.7913
 20
271.9246
 10
823.2899
 20
271.9424
 10
823.6592
 20
271.9325
 10
824.0172
 20
271.9029
 10
824.3639
 20
271.8534
 10
824.6993
 20
271.784
 10
825.0235
 20
271.6946
 10
825.3365
 20
271.585
 10
825.6383
 20
271.4553
 10
825.9289
 20
271.3053
 10
826.2071
 20
271.1368
 10
826.4729
 20
270.9505
 10
826.7261
 20
270.7464
 10
826.9668
 20
270.5247
 10
827.1947
 20
270.2852
 10
827.41
 20
270.0282
 10
827.6126
 20
269.7535
 10
827.8024
 20
269.4612
 10
827.9796
 20
269.1534
 10
828.1473
 20
268.8289
 10
828.3054
 20
268.4878
 10
828.454
 20
268.13
 10
828.5929
 20
267.7558
 10
828.7222
 20
267.365
 10
828.8416
 20
266.9578
 10
828.9512
 20
266.5342
 10
829.0505
 20
266.083
 10
829.1363
 20
265.5942
 10
829.2085
 20
265.0679
 10
829.2674
 20
264.5042
 10
829.313
 20
263.9031
 10
829.3454
 20
263.2649
 10
829.3648
 20
262.5896
 10
829.3712
 20
261.8774
 10
829.3607
 20
261.0308
 10
829.329
 20
260.2257
 10
829.2763
 20
259.4622
 10
829.2025
 20
258.7403
 10
829.1076
 20
258.0601
 10
828.9917
 20
257.4217
 10
828.8546
 20
256.8252
 10
828.6965
 20
256.2706
 10
828.5182
 20
255.7509
 10
828.3187
 20
255.2621
 10
828.0979
 20
254.8042
 10
827.8561
 20
254.377
 10
827.5932
 20
253.9806
 10
827.3095
 20
253.6148
 10
827.0048
 20
253.2797
 10
826.6794
 20
252.9751
 10
826.3339
 20
252.704
 10
825.966
 20
252.4691
 10
825.5756
 20
252.2705
 10
825.163
 20
252.1081
 10
824.728
 20
251.9818
 10
824.2708
 20
251.8916
 10
823.7914
 20
251.8375
 10
823.2899
 20
251.8195
 10
822.6341
 20
251.8511
 10
822.0141
 20
251.946
 10
821.4301
 20
252.1042
 10
820.8821
 20
252.3257
 10
820.3701
 20
252.6107
 10
819.8945
 20
252.9591
 10
819.4552
 20
253.371
 10
819.0523
 20
253.8465
 10
818.6187
 20
254.5142
 10
818.2434
 20
255.2777
 10
817.9262
 20
256.1372
 10
817.667
 20
257.0928
 10
817.4656
 20
258.1444
 10
817.322
 20
259.2924
 10
817.2359
 20
260.5367
 10
817.2072
 20
261.8774
  0
LWPOLYLINE
  5
88
330
1F
100
AcDbEntity
  8
Layer 1
 62
     7
100
AcDbPolyline
 90
       65
 70
     1
 43
0.0
 10
819.5549
 20
261.8674
 10
819.5717
 20
260.7019
 10
819.622
 20
259.6385
 10
819.7059
 20
258.6771
 10
819.8233
 20
257.8179
 10
819.9744
 20
257.0607
 10
820.159
 20
256.4057
 10
820.3773
 20
255.8528
 10
820.6292
 20
255.4021
 10
820.9068
 20
255.0265
 10
821.2002
 20
254.7011
 10
821.5093
 20
254.4259
 10
821.8341
 20
254.2008
 10
822.1745
 20
254.0257
 10
822.5307
 20
253.9007
 10
822.9025
 20
253.8258
 10
823.2899
 20
253.8008
 10
823.6772
 20
253.826
 10
824.0488
 20
253.9014
 10
824.4046
 20
254.0272
 10
824.7447
 20
254.2031
 10
825.0689
 20
254.4292
 10
825.3773
 20
254.7053
 10
825.6698
 20
255.0316
 10
825.9465
 20
255.4078
 10
826.1993
 20
255.8607
 10
826.4182
 20
256.4149
 10
826.6034
 20
257.0704
 10
826.7547
 20
257.8271
 10
826.8724
 20
258.6852
 10
826.9564
 20
259.6446
 10
827.0067
 20
260.7053
 10
827.0235
 20
261.8674
 10
827.0067
 20
263.0329
 10
826.9564
 20
264.0963
 10
826.8724
 20
265.0577
 10
826.7547
 20
265.917
 10
826.6034
 20
266.6741
 10
826.4182
 20
267.3291
 10
826.1993
 20
267.882
 10
825.9465
 20
268.3327
 10
825.6707
 20
268.7083
 10
825.3778
 20
269.0337
 10
825.0679
 20
269.3089
 10
824.7409
 20
269.534
 10
824.397
 20
269.7091
 10
824.0362
 20
269.8341
 10
823.6586
 20
269.909
 10
823.2641
 20
269.934
 10
822.8783
 20
269.9118
 10
822.5125
 20
269.8454
 10
822.1665
 20
269.7348
 10
821.8405
 20
269.5799
 10
821.5343
 20
269.381
 10
821.248
 20
269.1379
 10
820.9815
 20
268.8509
 10
820.7349
 20
268.5198
 10
820.4582
 20
268.0233
 10
820.2185
 20
267.4308
 10
820.0156
 20
266.7423
 10
819.8497
 20
265.958
 10
819.7207
 20
265.0783
 10
819.6286
 20
264.1031
 10
819.5733
 20
263.0327
 10
819.5549
 20
261.8674
  0
LWPOLYLINE
  5
89
330
1F
100
AcDbEntity
  8
Layer 1
 62
     7
100
AcDbPolyline
 90
      148
 70
     1
 43
0.0
 10
832.3515
 20
252.1495
 10
832.3515
 20
266.4371
 10
834.4148
 20
266.4371
 10
834.4148
 20
264.4187
 10
834.5796
 20
264.6739
 10
834.7581
 20
264.9167
 10
834.9501
 20
265.1468
 10
835.1555
 20
265.3641
 10
835.3742
 20
265.5686
 10
835.6062
 20
265.7599
 10
835.8513
 20
265.938
 10
836.1095
 20
266.1028
 10
836.3777
 20
266.2525
 10
836.6549
 20
266.3822
 10
836.9414
 20
266.4919
 10
837.237
 20
266.5817
 10
837.5418
 20
266.6516
 10
837.856
 20
266.7015
 10
838.1796
 20
266.7314
 10
838.5127
 20
266.7414
 10
838.8798
 20
266.731
 10
839.2302
 20
266.7
 10
839.5638
 20
266.6483
 10
839.8805
 20
266.5762
 10
840.1802
 20
266.4836
 10
840.463
 20
266.3707
 10
840.7286
 20
266.2376
 10
840.977
 20
266.0843
 10
841.208
 20
265.9109
 10
841.4214
 20
265.7215
 10
841.6172
 20
265.5161
 10
841.7952
 20
265.2945
 10
841.9555
 20
265.0567
 10
842.0979
 20
264.8025
 10
842.2225
 20
264.5317
 10
842.329
 20
264.2444
 10
842.7491
 20
264.8299
 10
843.1989
 20
265.3372
 10
843.6785
 20
265.7664
 10
844.1881
 20
266.1175
 10
844.7279
 20
266.3905
 10
845.298
 20
266.5855
 10
845.8986
 20
266.7024
 10
846.5299
 20
266.7414
 10
847.0205
 20
266.7231
 10
847.4822
 20
266.668
 10
847.915
 20
266.5762
 10
848.3186
 20
266.4477
 10
848.693
 20
266.2824
 10
849.0379
 20
266.0803
 10
849.3533
 20
265.8414
 10
849.639
 20
265.5657
 10
849.8949
 20
265.2518
 10
850.1169
 20
264.8983
 10
850.305
 20
264.5051
 10
850.4591
 20
264.0724
 10
850.5791
 20
263.6001
 10
850.6649
 20
263.0883
 10
850.7164
 20
262.5369
 10
850.7336
 20
261.946
 10
850.7336
 20
252.1495
 10
848.4346
 20
252.1495
 10
848.4346
 20
261.1432
 10
848.4309
 20
261.4918
 10
848.42
 20
261.8156
 10
848.4019
 20
262.1144
 10
848.3767
 20
262.3881
 10
848.3445
 20
262.6366
 10
848.3055
 20
262.8599
 10
848.2596
 20
263.0578
 10
848.207
 20
263.2302
 10
848.146
 20
263.3863
 10
848.0736
 20
263.5343
 10
847.9896
 20
263.6744
 10
847.8941
 20
263.8066
 10
847.7869
 20
263.931
 10
847.6679
 20
264.0478
 10
847.5371
 20
264.157
 10
847.3942
 20
264.2587
 10
847.2441
 20
264.3505
 10
847.0875
 20
264.4299
 10
846.9244
 20
264.4969
 10
846.755
 20
264.5517
 10
846.5792
 20
264.5942
 10
846.3973
 20
264.6244
 10
846.2092
 20
264.6426
 10
846.0151
 20
264.6486
 10
845.6637
 20
264.6329
 10
845.3277
 20
264.5858
 10
845.0072
 20
264.5074
 10
844.702
 20
264.3977
 10
844.4123
 20
264.257
 10
844.1379
 20
264.0851
 10
843.8787
 20
263.8824
 10
843.6349
 20
263.6487
 10
843.4131
 20
263.3787
 10
843.221
 20
263.0713
 10
843.0587
 20
262.7264
 10
842.9261
 20
262.344
 10
842.823
 20
261.9242
 10
842.7495
 20
261.4669
 10
842.7054
 20
260.9723
 10
842.6907
 20
260.4403
 10
842.6907
 20
252.1495
 10
840.3931
 20
252.1495
 10
840.3931
 20
261.4231
 10
840.3844
 20
261.8129
 10
840.3582
 20
262.1778
 10
840.3145
 20
262.5177
 10
840.2532
 20
262.8325
 10
840.1743
 20
263.1222
 10
840.0776
 20
263.3867
 10
839.9632
 20
263.626
 10
839.8309
 20
263.8401
 10
839.6796
 20
264.029
 10
839.506
 20
264.193
 10
839.3101
 20
264.3319
 10
839.0919
 20
264.4458
 10
838.8513
 20
264.5344
 10
838.5884
 20
264.5978
 10
838.303
 20
264.6359
 10
837.9952
 20
264.6486
 10
837.7566
 20
264.6402
 10
837.5223
 20
264.6149
 10
837.2923
 20
264.5728
 10
837.0667
 20
264.514
 10
836.8455
 20
264.4384
 10
836.6287
 20
264.3461
 10
836.4163
 20
264.2371
 10
836.2084
 20
264.1115
 10
836.0098
 20
263.9693
 10
835.8255
 20
263.8117
 10
835.6554
 20
263.6386
 10
835.4994
 20
263.4498
 10
835.3574
 20
263.2454
 10
835.2294
 20
263.0252
 10
835.1153
 20
262.7892
 10
835.0149
 20
262.5374
 10
834.9296
 20
262.2648
 10
834.8557
 20
261.9635
 10
834.793
 20
261.6334
 10
834.7418
 20
261.2748
 10
834.7019
 20
260.8875
 10
834.6733
 20
260.4717
 10
834.6562
 20
260.0274
 10
834.6505
 20
259.5547
 10
834.6505
 20
252.1495
 10
832.3515
 20
252.1495
  0
LWPOLYLINE
  5
8A
330
1F
100
AcDbEntity
  8
Layer 1
 62
     7
100
AcDbPolyline
 90
      148
 70
     1
 43
0.0
 10
854.1
 20
252.1495
 10
854.1
 20
266.4371
 10
856.1619
 20
266.4371
 10
856.1619
 20
264.4187
 10
856.3271
 20
264.6739
 10
856.5058
 20
264.9167
 10
856.6977
 20
265.1468
 10
856.9029
 20
265.3641
 10
857.1214
 20
265.5686
 10
857.3529
 20
265.7599
 10
857.5976
 20
265.938
 10
857.8553
 20
266.1028
 10
858.124
 20
266.2525
 10
858.4019
 20
266.3822
 10
858.6889
 20
266.4919
 10
858.9851
 20
266.5817
 10
859.2904
 20
266.6516
 10
859.6049
 20
266.7015
 10
859.9285
 20
266.7314
 10
860.2612
 20
266.7414
 10
860.6283
 20
266.731
 10
860.9785
 20
266.7
 10
861.3118
 20
266.6483
 10
861.6282
 20
266.5762
 10
861.9275
 20
266.4836
 10
862.2098
 20
266.3707
 10
862.4749
 20
266.2376
 10
862.7228
 20
266.0843
 10
862.9543
 20
265.9109
 10
863.1682
 20
265.7215
 10
863.3643
 20
265.5161
 10
863.5427
 20
265.2945
 10
863.7032
 20
265.0567
 10
863.8456
 20
264.8025
 10
863.97
 20
264.5317
 10
864.0761
 20
264.2444
 10
864.4959
 20
264.8299
 10
864.9457
 20
265.3372
 10
865.4254
 20
265.7664
 10
865.9351
 20
266.1175
 10
866.475
 20
266.3905
 10
867.045
 20
266.5855
 10
867.6452
 20
266.7024
 10
868.2757
 20
266.7414
 10
868.7672
 20
266.7231
 10
869.2296
 20
266.668
 10
869.6628
 20
266.5762
 10
870.0668
 20
266.4477
 10
870.4414
 20
266.2824
 10
870.7864
 20
266.0803
 10
871.1018
 20
265.8414
 10
871.3875
 20
265.5657
 10
871.6433
 20
265.2518
 10
871.865
 20
264.8983
 10
872.0527
 20
264.5051
 10
872.2063
 20
264.0724
 10
872.3257
 20
263.6001
 10
872.4111
 20
263.0883
 10
872.4623
 20
262.5369
 10
872.4794
 20
261.946
 10
872.4794
 20
252.1495
 10
870.1831
 20
252.1495
 10
870.1831
 20
261.1432
 10
870.1794
 20
261.4918
 10
870.1683
 20
261.8156
 10
870.15
 20
262.1144
 10
870.1247
 20
262.3881
 10
870.0924
 20
262.6366
 10
870.0534
 20
262.8599
 10
870.0077
 20
263.0578
 10
869.9555
 20
263.2302
 10
869.8944
 20
263.3863
 10
869.8219
 20
263.5343
 10
869.7378
 20
263.6744
 10
869.6421
 20
263.8066
 10
869.5348
 20
263.931
 10
869.4158
 20
264.0478
 10
869.2852
 20
264.157
 10
869.1427
 20
264.2587
 10
868.9926
 20
264.3505
 10
868.836
 20
264.4299
 10
868.6728
 20
264.4969
 10
868.5033
 20
264.5517
 10
868.3274
 20
264.5942
 10
868.1453
 20
264.6244
 10
867.9569
 20
264.6426
 10
867.7623
 20
264.6486
 10
867.411
 20
264.6329
 10
867.0753
 20
264.5858
 10
866.7551
 20
264.5074
 10
866.4504
 20
264.3977
 10
866.161
 20
264.257
 10
865.8867
 20
264.0851
 10
865.6276
 20
263.8824
 10
865.3834
 20
263.6487
 10
865.1616
 20
263.3787
 10
864.9695
 20
263.0713
 10
864.8072
 20
262.7264
 10
864.6746
 20
262.344
 10
864.5715
 20
261.9242
 10
864.498
 20
261.4669
 10
864.4539
 20
260.9723
 10
864.4392
 20
260.4403
 10
864.4392
 20
252.1495
 10
862.1402
 20
252.1495
 10
862.1402
 20
261.4231
 10
862.1314
 20
261.8129
 10
862.1052
 20
262.1778
 10
862.0613
 20
262.5177
 10
862.0
 20
262.8325
 10
861.9212
 20
263.1222
 10
861.8248
 20
263.3867
 10
861.7108
 20
263.626
 10
861.5794
 20
263.8401
 10
861.428
 20
264.029
 10
861.2541
 20
264.193
 10
861.058
 20
264.3319
 10
860.8396
 20
264.4458
 10
860.599
 20
264.5344
 10
860.3363
 20
264.5978
 10
860.0517
 20
264.6359
 10
859.7451
 20
264.6486
 10
859.5055
 20
264.6402
 10
859.2704
 20
264.6149
 10
859.0398
 20
264.5728
 10
858.8137
 20
264.514
 10
858.5922
 20
264.4384
 10
858.3753
 20
264.3461
 10
858.1631
 20
264.2371
 10
857.9555
 20
264.1115
 10
857.7565
 20
263.9693
 10
857.5721
 20
263.8117
 10
857.402
 20
263.6386
 10
857.2462
 20
263.4498
 10
857.1045
 20
263.2454
 10
856.9769
 20
263.0252
 10
856.8632
 20
262.7892
 10
856.7634
 20
262.5374
 10
856.6777
 20
262.2648
 10
856.6033
 20
261.9635
 10
856.5405
 20
261.6334
 10
856.489
 20
261.2748
 10
856.449
 20
260.8875
 10
856.4205
 20
260.4717
 10
856.4033
 20
260.0274
 10
856.3976
 20
259.5547
 10
856.3976
 20
252.1495
 10
854.1
 20
252.1495
  0
LWPOLYLINE
  5
8B
330
1F
100
AcDbEntity
  8
Layer 1
 62
     9
370
    18
100
AcDbPolyline
 90
        2
 70
     0
 43
0.0
 10
692.0497
 20
159.5071
 10
566.5928
 20
159.5071
  0
LWPOLYLINE
  5
8C
330
1F
100
AcDbEntity
  8
Layer 1
 62
     9
370
    18
100
AcDbPolyline
 90
        2
 70
     0
 43
0.0
 10
692.0497
 20
-107.695
 10
566.5928
 20
-107.695
  0
LWPOLYLINE
  5
8D
330
1F
100
AcDbEntity
  8
Layer 1
 62
     9
370
    18
100
AcDbPolyline
 90
        2
 70
     0
 43
0.0
 10
574.7021
 20
-105.708
 10
574.7021
 20
158.48
  0
LWPOLYLINE
  5
8E
330
1F
100
AcDbEntity
  8
Layer 1
 62
     7
370
    18
100
AcDbPolyline
 90
        2
 70
     0
 43
0.0
 10
1040.1761
 20
-149.3065
 10
618.0176
 20
-149.3065
  0
LWPOLYLINE
  5
8F
330
1F
100
AcDbEntity
  8
Layer 1
 62
     9
370
    18
100
AcDbPolyline
 90
        2
 70
     0
 43
0.0
 10
615.4057
 20
-171.0565
 10
615.4057
 20
-79.294
  0
LWPOLYLINE
  5
90
330
1F
100
AcDbEntity
  8
Layer 1
 62
     9
370
    18
100
AcDbPolyline
 90
        2
 70
     0
 43
0.0
 10
1043.3664
 20
-171.0565
 10
1043.3664
 20
-79.294
  0
LWPOLYLINE
  5
91
330
1F
100
AcDbEntity
  8
Layer 1
 62
     7
100
AcDbPolyline
 90
      190
 70
     1
 43
0.0
 10
796.5859
 20
-171.2336
 10
796.5789
 20
-171.5953
 10
796.558
 20
-171.95
 10
796.5233
 20
-172.2976
 10
796.4748
 20
-172.6385
 10
796.4125
 20
-172.9727
 10
796.3367
 20
-173.3003
 10
796.2472
 20
-173.6214
 10
796.1442
 20
-173.9363
 10
796.0287
 20
-174.2422
 10
795.9016
 20
-174.5375
 10
795.7631
 20
-174.822
 10
795.6134
 20
-175.0958
 10
795.4525
 20
-175.3588
 10
795.2807
 20
-175.6108
 10
795.098
 20
-175.8518
 10
794.9047
 20
-176.0818
 10
794.6975
 20
-176.3056
 10
794.4781
 20
-176.5173
 10
794.2465
 20
-176.7168
 10
794.0026
 20
-176.9041
 10
793.7463
 20
-177.0792
 10
793.4776
 20
-177.2419
 10
793.1963
 20
-177.3923
 10
792.9024
 20
-177.5303
 10
792.5974
 20
-177.6534
 10
792.2837
 20
-177.7603
 10
791.9614
 20
-177.8509
 10
791.6302
 20
-177.9251
 10
791.29
 20
-177.9829
 10
790.9408
 20
-178.0243
 10
790.5824
 20
-178.0491
 10
790.2147
 20
-178.0574
 10
789.8726
 20
-178.0524
 10
789.5323
 20
-178.0374
 10
789.1935
 20
-178.0124
 10
788.8562
 20
-177.9774
 10
788.5203
 20
-177.9326
 10
788.1858
 20
-177.8779
 10
787.8524
 20
-177.8133
 10
787.5201
 20
-177.7389
 10
787.1938
 20
-177.6556
 10
786.8783
 20
-177.5665
 10
786.5738
 20
-177.4715
 10
786.2804
 20
-177.3703
 10
785.998
 20
-177.263
 10
785.7269
 20
-177.1495
 10
785.467
 20
-177.0296
 10
785.2185
 20
-176.9032
 10
785.2185
 20
-174.042
 10
785.3973
 20
-174.042
 10
785.5612
 20
-174.164
 10
785.7563
 20
-174.2927
 10
785.9829
 20
-174.4289
 10
786.2413
 20
-174.5734
 10
786.5256
 20
-174.7164
 10
786.8238
 20
-174.8564
 10
787.1363
 20
-174.9934
 10
787.4632
 20
-175.1276
 10
787.8329
 20
-175.2638
 10
788.1863
 20
-175.3833
 10
788.524
 20
-175.4868
 10
788.8464
 20
-175.5747
 10
789.0061
 20
-175.6113
 10
789.1704
 20
-175.643
 10
789.3392
 20
-175.6698
 10
789.5128
 20
-175.6917
 10
789.691
 20
-175.7086
 10
789.8742
 20
-175.7207
 10
790.0622
 20
-175.728
 10
790.2553
 20
-175.7304
 10
790.448
 20
-175.7259
 10
790.6392
 20
-175.7122
 10
790.8287
 20
-175.6895
 10
791.0168
 20
-175.6578
 10
791.2034
 20
-175.617
 10
791.3886
 20
-175.5671
 10
791.5725
 20
-175.5083
 10
791.755
 20
-175.4405
 10
791.9354
 20
-175.3624
 10
792.1088
 20
-175.2729
 10
792.2753
 20
-175.1721
 10
792.4352
 20
-175.0599
 10
792.5886
 20
-174.9366
 10
792.7355
 20
-174.8022
 10
792.8762
 20
-174.6568
 10
793.0108
 20
-174.5005
 10
793.127
 20
-174.3481
 10
793.2359
 20
-174.1897
 10
793.3375
 20
-174.0251
 10
793.4319
 20
-173.8542
 10
793.5192
 20
-173.6768
 10
793.5993
 20
-173.4929
 10
793.6723
 20
-173.3023
 10
793.7383
 20
-173.1049
 10
793.796
 20
-172.9016
 10
793.8462
 20
-172.6893
 10
793.8888
 20
-172.4679
 10
793.9237
 20
-172.2376
 10
793.951
 20
-171.9984
 10
793.9705
 20
-171.7504
 10
793.9823
 20
-171.4935
 10
793.9862
 20
-171.2279
 10
793.9819
 20
-170.9657
 10
793.9689
 20
-170.7157
 10
793.9474
 20
-170.478
 10
793.9173
 20
-170.2524
 10
793.8785
 20
-170.039
 10
793.8313
 20
-169.8376
 10
793.7755
 20
-169.6483
 10
793.7112
 20
-169.4709
 10
793.6383
 20
-169.3018
 10
793.5577
 20
-169.1405
 10
793.4694
 20
-168.987
 10
793.3733
 20
-168.8411
 10
793.2695
 20
-168.7028
 10
793.1577
 20
-168.5719
 10
793.0381
 20
-168.4485
 10
792.9105
 20
-168.3324
 10
792.7688
 20
-168.2087
 10
792.6192
 20
-168.0946
 10
792.4618
 20
-167.9901
 10
792.2965
 20
-167.8951
 10
792.1235
 20
-167.8093
 10
791.9427
 20
-167.7327
 10
791.7544
 20
-167.6652
 10
791.5585
 20
-167.6067
 10
791.3559
 20
-167.5584
 10
791.1473
 20
-167.5165
 10
790.9329
 20
-167.4809
 10
790.7125
 20
-167.4517
 10
790.4863
 20
-167.429
 10
790.2543
 20
-167.4127
 10
790.0165
 20
-167.4029
 10
789.773
 20
-167.3996
 10
789.5137
 20
-167.4022
 10
789.2541
 20
-167.4099
 10
788.994
 20
-167.4229
 10
788.7335
 20
-167.4414
 10
788.4725
 20
-167.4653
 10
788.2111
 20
-167.4948
 10
787.9492
 20
-167.53
 10
787.6868
 20
-167.571
 10
787.4293
 20
-167.6141
 10
787.1858
 20
-167.6567
 10
786.9561
 20
-167.6986
 10
786.74
 20
-167.7399
 10
786.5372
 20
-167.7805
 10
786.3473
 20
-167.8205
 10
786.1702
 20
-167.8597
 10
786.0056
 20
-167.8981
 10
786.0056
 20
-157.5174
 10
796.4815
 20
-157.5174
 10
796.4815
 20
-159.8701
 10
788.4752
 20
-159.8701
 10
788.4752
 20
-165.2354
 10
789.3829
 20
-165.1583
 10
790.2011
 20
-165.1297
 10
790.5598
 20
-165.1338
 10
790.9045
 20
-165.146
 10
791.2351
 20
-165.1663
 10
791.5518
 20
-165.1947
 10
791.8544
 20
-165.2312
 10
792.1431
 20
-165.2756
 10
792.418
 20
-165.328
 10
792.6789
 20
-165.3883
 10
792.9302
 20
-165.46
 10
793.1791
 20
-165.5467
 10
793.4256
 20
-165.6484
 10
793.6699
 20
-165.7652
 10
793.9118
 20
-165.8972
 10
794.1515
 20
-166.0445
 10
794.3889
 20
-166.2072
 10
794.6242
 20
-166.3853
 10
794.8537
 20
-166.5806
 10
795.0697
 20
-166.7875
 10
795.272
 20
-167.0059
 10
795.4606
 20
-167.236
 10
795.6354
 20
-167.4779
 10
795.7964
 20
-167.7316
 10
795.9435
 20
-167.9974
 10
796.0765
 20
-168.2752
 10
796.1956
 20
-168.5703
 10
796.299
 20
-168.8867
 10
796.3865
 20
-169.2244
 10
796.4582
 20
-169.5835
 10
796.514
 20
-169.964
 10
796.5539
 20
-170.3658
 10
796.5779
 20
-170.789
 10
796.5859
 20
-171.2336
  0
LWPOLYLINE
  5
92
330
1F
100
AcDbEntity
  8
Layer 1
 62
     7
100
AcDbPolyline
 90
      154
 70
     1
 43
0.0
 10
812.7381
 20
-177.6417
 10
800.9778
 20
-177.6417
 10
800.9778
 20
-174.8034
 10
803.3743
 20
-172.3735
 10
803.6556
 20
-172.0812
 10
803.9355
 20
-171.7859
 10
804.214
 20
-171.4876
 10
804.4908
 20
-171.1863
 10
804.7659
 20
-170.882
 10
805.0392
 20
-170.5747
 10
805.3105
 20
-170.2643
 10
805.5798
 20
-169.9508
 10
806.1033
 20
-169.3346
 10
806.5836
 20
-168.7502
 10
807.0207
 20
-168.1975
 10
807.4146
 20
-167.6763
 10
807.7652
 20
-167.1866
 10
808.0725
 20
-166.7283
 10
808.3366
 20
-166.3013
 10
808.5574
 20
-165.9054
 10
808.7429
 20
-165.5249
 10
808.904
 20
-165.1409
 10
809.0406
 20
-164.7535
 10
809.1526
 20
-164.3624
 10
809.2399
 20
-163.9679
 10
809.3025
 20
-163.5697
 10
809.34
 20
-163.168
 10
809.3526
 20
-162.7627
 10
809.3487
 20
-162.5565
 10
809.3369
 20
-162.3569
 10
809.3172
 20
-162.1636
 10
809.2898
 20
-161.9767
 10
809.2545
 20
-161.7961
 10
809.2114
 20
-161.6218
 10
809.1606
 20
-161.4535
 10
809.102
 20
-161.2914
 10
809.0365
 20
-161.1357
 10
808.9651
 20
-160.9869
 10
808.8878
 20
-160.845
 10
808.8047
 20
-160.71
 10
808.7156
 20
-160.582
 10
808.6208
 20
-160.4609
 10
808.5202
 20
-160.3469
 10
808.4138
 20
-160.24
 10
808.3
 20
-160.141
 10
808.1814
 20
-160.0485
 10
808.058
 20
-159.9626
 10
807.93
 20
-159.8831
 10
807.7977
 20
-159.8102
 10
807.6611
 20
-159.7437
 10
807.5205
 20
-159.6837
 10
807.3761
 20
-159.6301
 10
807.2258
 20
-159.5829
 10
807.0724
 20
-159.542
 10
806.9158
 20
-159.5074
 10
806.7558
 20
-159.479
 10
806.5924
 20
-159.457
 10
806.4253
 20
-159.4413
 10
806.2545
 20
-159.4318
 10
806.0797
 20
-159.4287
 10
805.9097
 20
-159.4315
 10
805.739
 20
-159.4398
 10
805.5677
 20
-159.4538
 10
805.3957
 20
-159.4735
 10
805.223
 20
-159.499
 10
805.0496
 20
-159.5305
 10
804.8755
 20
-159.568
 10
804.7006
 20
-159.6115
 10
804.3541
 20
-159.7076
 10
804.0158
 20
-159.8154
 10
803.6856
 20
-159.9345
 10
803.3635
 20
-160.0643
 10
803.0936
 20
-160.1843
 10
802.8304
 20
-160.3169
 10
802.5732
 20
-160.4617
 10
802.3217
 20
-160.6186
 10
801.5116
 20
-161.17
 10
801.372
 20
-161.17
 10
801.372
 20
-158.3145
 10
801.5799
 20
-158.21
 10
801.8072
 20
-158.1065
 10
802.0539
 20
-158.0039
 10
802.3202
 20
-157.902
 10
802.6059
 20
-157.8008
 10
802.9111
 20
-157.7002
 10
803.2359
 20
-157.6
 10
803.5802
 20
-157.5002
 10
803.9328
 20
-157.4072
 10
804.2804
 20
-157.3265
 10
804.623
 20
-157.258
 10
804.9607
 20
-157.2019
 10
805.2936
 20
-157.1581
 10
805.6217
 20
-157.1268
 10
805.9451
 20
-157.108
 10
806.2639
 20
-157.1017
 10
806.9118
 20
-157.1251
 10
807.5236
 20
-157.1951
 10
808.0995
 20
-157.3118
 10
808.6394
 20
-157.4751
 10
809.1435
 20
-157.6849
 10
809.6119
 20
-157.9411
 10
810.0446
 20
-158.2439
 10
810.4418
 20
-158.593
 10
810.7957
 20
-158.9829
 10
811.1023
 20
-159.4059
 10
811.3617
 20
-159.862
 10
811.5739
 20
-160.3511
 10
811.7389
 20
-160.8733
 10
811.8567
 20
-161.4286
 10
811.9274
 20
-162.017
 10
811.951
 20
-162.6385
 10
811.9469
 20
-162.9298
 10
811.9345
 20
-163.2156
 10
811.9139
 20
-163.4959
 10
811.8851
 20
-163.7706
 10
811.8481
 20
-164.0396
 10
811.803
 20
-164.303
 10
811.7497
 20
-164.5606
 10
811.6882
 20
-164.8126
 10
811.6199
 20
-165.0595
 10
811.5453
 20
-165.3019
 10
811.4643
 20
-165.5398
 10
811.3771
 20
-165.7732
 10
811.2837
 20
-166.0021
 10
811.1843
 20
-166.2263
 10
811.0788
 20
-166.446
 10
810.9674
 20
-166.661
 10
810.8464
 20
-166.8804
 10
810.7191
 20
-167.0995
 10
810.5855
 20
-167.3181
 10
810.4457
 20
-167.5363
 10
810.2998
 20
-167.7541
 10
810.1477
 20
-167.9716
 10
809.9895
 20
-168.1886
 10
809.8254
 20
-168.4052
 10
809.6585
 20
-168.6197
 10
809.4889
 20
-168.8337
 10
809.3168
 20
-169.047
 10
809.1421
 20
-169.2596
 10
808.965
 20
-169.4715
 10
808.7854
 20
-169.6826
 10
808.6035
 20
-169.8928
 10
808.4192
 20
-170.1022
 10
808.1138
 20
-170.4483
 10
807.7999
 20
-170.7978
 10
807.4776
 20
-171.1508
 10
807.1468
 20
-171.5071
 10
806.8075
 20
-171.867
 10
806.4597
 20
-172.2304
 10
806.1033
 20
-172.5973
 10
805.7383
 20
-172.9678
 10
803.3743
 20
-175.3147
 10
812.7381
 20
-175.3147
 10
812.7381
 20
-177.6417
  0
LWPOLYLINE
  5
93
330
1F
100
AcDbEntity
  8
Layer 1
 62
     7
100
AcDbPolyline
 90
      190
 70
     1
 43
0.0
 10
828.5245
 20
-171.2336
 10
828.5175
 20
-171.5953
 10
828.4966
 20
-171.95
 10
828.4619
 20
-172.2976
 10
828.4134
 20
-172.6385
 10
828.3512
 20
-172.9727
 10
828.2753
 20
-173.3003
 10
828.1858
 20
-173.6214
 10
828.0828
 20
-173.9363
 10
827.9665
 20
-174.2422
 10
827.8392
 20
-174.5375
 10
827.7009
 20
-174.822
 10
827.5514
 20
-175.0958
 10
827.391
 20
-175.3588
 10
827.2195
 20
-175.6108
 10
827.0369
 20
-175.8518
 10
826.8433
 20
-176.0818
 10
826.6352
 20
-176.3056
 10
826.4153
 20
-176.5173
 10
826.1834
 20
-176.7168
 10
825.9394
 20
-176.9041
 10
825.683
 20
-177.0792
 10
825.4141
 20
-177.2419
 10
825.1326
 20
-177.3923
 10
824.8383
 20
-177.5303
 10
824.5339
 20
-177.6534
 10
824.2208
 20
-177.7603
 10
823.8991
 20
-177.8509
 10
823.5684
 20
-177.9251
 10
823.2287
 20
-177.9829
 10
822.8797
 20
-178.0243
 10
822.5213
 20
-178.0491
 10
822.1533
 20
-178.0574
 10
821.8116
 20
-178.0524
 10
821.4712
 20
-178.0374
 10
821.1323
 20
-178.0124
 10
820.7947
 20
-177.9774
 10
820.4584
 20
-177.9326
 10
820.1234
 20
-177.8779
 10
819.7898
 20
-177.8133
 10
819.4574
 20
-177.7389
 10
819.132
 20
-177.6556
 10
818.8172
 20
-177.5665
 10
818.5132
 20
-177.4715
 10
818.2201
 20
-177.3703
 10
817.9379
 20
-177.263
 10
817.6669
 20
-177.1495
 10
817.407
 20
-177.0296
 10
817.1585
 20
-176.9032
 10
817.1585
 20
-174.042
 10
817.3346
 20
-174.042
 10
817.4987
 20
-174.164
 10
817.6943
 20
-174.2927
 10
817.9213
 20
-174.4289
 10
818.1799
 20
-174.5734
 10
818.4636
 20
-174.7164
 10
818.7618
 20
-174.8564
 10
819.0742
 20
-174.9934
 10
819.4005
 20
-175.1276
 10
819.7702
 20
-175.2638
 10
820.1236
 20
-175.3833
 10
820.4613
 20
-175.4868
 10
820.7837
 20
-175.5747
 10
820.9435
 20
-175.6113
 10
821.1078
 20
-175.643
 10
821.2768
 20
-175.6698
 10
821.4504
 20
-175.6917
 10
821.6286
 20
-175.7086
 10
821.8115
 20
-175.7207
 10
821.999
 20
-175.728
 10
822.1912
 20
-175.7304
 10
822.384
 20
-175.7259
 10
822.5753
 20
-175.7122
 10
822.7651
 20
-175.6895
 10
822.9534
 20
-175.6578
 10
823.1402
 20
-175.617
 10
823.3257
 20
-175.5671
 10
823.5096
 20
-175.5083
 10
823.6922
 20
-175.4405
 10
823.8727
 20
-175.3624
 10
824.0464
 20
-175.2729
 10
824.2133
 20
-175.1721
 10
824.3736
 20
-175.0599
 10
824.5273
 20
-174.9366
 10
824.6745
 20
-174.8022
 10
824.8151
 20
-174.6568
 10
824.9494
 20
-174.5005
 10
825.0656
 20
-174.3481
 10
825.1745
 20
-174.1897
 10
825.276
 20
-174.0251
 10
825.3702
 20
-173.8542
 10
825.4571
 20
-173.6768
 10
825.5367
 20
-173.4929
 10
825.6091
 20
-173.3023
 10
825.6742
 20
-173.1049
 10
825.7329
 20
-172.9016
 10
825.7838
 20
-172.6893
 10
825.8271
 20
-172.4679
 10
825.8626
 20
-172.2376
 10
825.8903
 20
-171.9984
 10
825.9102
 20
-171.7504
 10
825.9221
 20
-171.4935
 10
825.9261
 20
-171.2279
 10
825.9217
 20
-170.9657
 10
825.9084
 20
-170.7157
 10
825.8865
 20
-170.478
 10
825.8558
 20
-170.2524
 10
825.8166
 20
-170.039
 10
825.769
 20
-169.8376
 10
825.7128
 20
-169.6483
 10
825.6484
 20
-169.4709
 10
825.5763
 20
-169.3018
 10
825.4961
 20
-169.1405
 10
825.4078
 20
-168.987
 10
825.3116
 20
-168.8411
 10
825.2075
 20
-168.7028
 10
825.0954
 20
-168.5719
 10
824.9755
 20
-168.4485
 10
824.8478
 20
-168.3324
 10
824.7062
 20
-168.2087
 10
824.5568
 20
-168.0946
 10
824.3995
 20
-167.9901
 10
824.2345
 20
-167.8951
 10
824.0617
 20
-167.8093
 10
823.8812
 20
-167.7327
 10
823.693
 20
-167.6652
 10
823.4972
 20
-167.6067
 10
823.2942
 20
-167.5584
 10
823.0854
 20
-167.5165
 10
822.8709
 20
-167.4809
 10
822.6506
 20
-167.4517
 10
822.4246
 20
-167.429
 10
822.1927
 20
-167.4127
 10
821.9551
 20
-167.4029
 10
821.7116
 20
-167.3996
 10
821.4523
 20
-167.4022
 10
821.1925
 20
-167.4099
 10
820.9322
 20
-167.4229
 10
820.6715
 20
-167.4414
 10
820.4105
 20
-167.4653
 10
820.1491
 20
-167.4948
 10
819.8874
 20
-167.53
 10
819.6254
 20
-167.571
 10
819.3682
 20
-167.6141
 10
819.1248
 20
-167.6567
 10
818.895
 20
-167.6986
 10
818.6788
 20
-167.7399
 10
818.4759
 20
-167.7805
 10
818.2861
 20
-167.8205
 10
818.1094
 20
-167.8597
 10
817.9456
 20
-167.8981
 10
817.9456
 20
-157.5174
 10
828.4188
 20
-157.5174
 10
828.4188
 20
-159.8701
 10
820.4125
 20
-159.8701
 10
820.4125
 20
-165.2354
 10
821.3215
 20
-165.1583
 10
822.1411
 20
-165.1297
 10
822.4997
 20
-165.1338
 10
822.8441
 20
-165.146
 10
823.1743
 20
-165.1663
 10
823.4904
 20
-165.1947
 10
823.7925
 20
-165.2312
 10
824.0808
 20
-165.2756
 10
824.3553
 20
-165.328
 10
824.6161
 20
-165.3883
 10
824.8674
 20
-165.46
 10
825.1165
 20
-165.5467
 10
825.3633
 20
-165.6484
 10
825.6079
 20
-165.7652
 10
825.8503
 20
-165.8972
 10
826.0904
 20
-166.0445
 10
826.3284
 20
-166.2072
 10
826.5642
 20
-166.3853
 10
826.7936
 20
-166.5806
 10
827.0095
 20
-166.7875
 10
827.2116
 20
-167.0059
 10
827.4001
 20
-167.236
 10
827.5748
 20
-167.4779
 10
827.7358
 20
-167.7316
 10
827.8831
 20
-167.9974
 10
828.0165
 20
-168.2752
 10
828.1348
 20
-168.5703
 10
828.2376
 20
-168.8867
 10
828.3248
 20
-169.2244
 10
828.3965
 20
-169.5835
 10
828.4523
 20
-169.964
 10
828.4924
 20
-170.3658
 10
828.5164
 20
-170.789
 10
828.5245
 20
-171.2336
  0
LWPOLYLINE
  5
94
330
1F
100
AcDbEntity
  8
Layer 1
 62
     7
100
AcDbPolyline
 90
      190
 70
     1
 43
0.0
 10
849.5306
 20
-177.6417
 10
849.5306
 20
-168.9123
 10
849.5294
 20
-168.655
 10
849.5259
 20
-168.4026
 10
849.52
 20
-168.155
 10
849.5116
 20
-167.9122
 10
849.5007
 20
-167.6742
 10
849.4871
 20
-167.4409
 10
849.4709
 20
-167.2123
 10
849.452
 20
-166.9882
 10
849.4322
 20
-166.773
 10
849.4063
 20
-166.5697
 10
849.3746
 20
-166.3785
 10
849.3372
 20
-166.1991
 10
849.2944
 20
-166.0316
 10
849.2463
 20
-165.8759
 10
849.1931
 20
-165.7319
 10
849.135
 20
-165.5997
 10
849.0679
 20
-165.4697
 10
848.9937
 20
-165.3486
 10
848.9124
 20
-165.2365
 10
848.8241
 20
-165.1331
 10
848.729
 20
-165.0385
 10
848.6271
 20
-164.9527
 10
848.5186
 20
-164.8755
 10
848.4035
 20
-164.8069
 10
848.2803
 20
-164.7466
 10
848.1463
 20
-164.6942
 10
848.0017
 20
-164.6498
 10
847.8465
 20
-164.6133
 10
847.6809
 20
-164.5849
 10
847.5048
 20
-164.5646
 10
847.3185
 20
-164.5524
 10
847.1219
 20
-164.5483
 10
846.9331
 20
-164.5558
 10
846.7417
 20
-164.5784
 10
846.5473
 20
-164.616
 10
846.3497
 20
-164.6688
 10
846.1489
 20
-164.7368
 10
845.9446
 20
-164.8201
 10
845.7366
 20
-164.9187
 10
845.5247
 20
-165.0326
 10
845.3108
 20
-165.1589
 10
845.0949
 20
-165.299
 10
844.877
 20
-165.4528
 10
844.657
 20
-165.6202
 10
844.435
 20
-165.8012
 10
844.211
 20
-165.9958
 10
843.9849
 20
-166.2038
 10
843.7568
 20
-166.4253
 10
843.7934
 20
-166.971
 10
843.811
 20
-167.7224
 10
843.811
 20
-177.6417
 10
841.3956
 20
-177.6417
 10
841.3956
 20
-168.9123
 10
841.3944
 20
-168.655
 10
841.3907
 20
-168.4026
 10
841.3846
 20
-168.155
 10
841.3759
 20
-167.9122
 10
841.3647
 20
-167.6742
 10
841.351
 20
-167.4409
 10
841.3346
 20
-167.2123
 10
841.3156
 20
-166.9882
 10
841.2945
 20
-166.773
 10
841.268
 20
-166.5697
 10
841.2359
 20
-166.3785
 10
841.1985
 20
-166.1991
 10
841.1557
 20
-166.0316
 10
841.1076
 20
-165.8759
 10
841.0543
 20
-165.7319
 10
840.9959
 20
-165.5997
 10
840.9285
 20
-165.4697
 10
840.8544
 20
-165.3486
 10
840.7734
 20
-165.2365
 10
840.6855
 20
-165.1331
 10
840.5907
 20
-165.0385
 10
840.489
 20
-164.9527
 10
840.3802
 20
-164.8755
 10
840.2644
 20
-164.8069
 10
840.142
 20
-164.7466
 10
840.0086
 20
-164.6942
 10
839.8643
 20
-164.6498
 10
839.7093
 20
-164.6133
 10
839.5438
 20
-164.5849
 10
839.3678
 20
-164.5646
 10
839.1817
 20
-164.5524
 10
838.9855
 20
-164.5483
 10
838.7874
 20
-164.5563
 10
838.5872
 20
-164.5803
 10
838.3848
 20
-164.6203
 10
838.1803
 20
-164.6765
 10
837.9736
 20
-164.7489
 10
837.7646
 20
-164.8376
 10
837.5533
 20
-164.9426
 10
837.3396
 20
-165.064
 10
837.1255
 20
-165.1989
 10
836.9129
 20
-165.3422
 10
836.7019
 20
-165.494
 10
836.4925
 20
-165.6545
 10
836.2848
 20
-165.8238
 10
836.0788
 20
-166.0019
 10
835.8745
 20
-166.189
 10
835.6719
 20
-166.3853
 10
835.6719
 20
-177.6417
 10
833.2578
 20
-177.6417
 10
833.2578
 20
-162.5556
 10
835.6719
 20
-162.5556
 10
835.6719
 20
-164.2341
 10
835.9097
 20
-163.9919
 10
836.1465
 20
-163.7636
 10
836.3826
 20
-163.5492
 10
836.6179
 20
-163.3488
 10
836.8525
 20
-163.1624
 10
837.0866
 20
-162.9902
 10
837.3203
 20
-162.8322
 10
837.5536
 20
-162.6885
 10
837.7896
 20
-162.5603
 10
838.0312
 20
-162.4491
 10
838.2785
 20
-162.3548
 10
838.5315
 20
-162.2776
 10
838.7903
 20
-162.2174
 10
839.055
 20
-162.1744
 10
839.3255
 20
-162.1485
 10
839.6019
 20
-162.1399
 10
839.9137
 20
-162.1494
 10
840.217
 20
-162.178
 10
840.5118
 20
-162.2256
 10
840.798
 20
-162.2922
 10
841.0754
 20
-162.378
 10
841.3441
 20
-162.4828
 10
841.6039
 20
-162.6068
 10
841.8548
 20
-162.7499
 10
842.092
 20
-162.9137
 10
842.3149
 20
-163.1021
 10
842.5234
 20
-163.3149
 10
842.7172
 20
-163.5521
 10
842.8965
 20
-163.8139
 10
843.0609
 20
-164.1
 10
843.2104
 20
-164.4106
 10
843.345
 20
-164.7455
 10
843.6183
 20
-164.4356
 10
843.8896
 20
-164.1447
 10
844.1589
 20
-163.8727
 10
844.4262
 20
-163.62
 10
844.6916
 20
-163.3866
 10
844.955
 20
-163.1728
 10
845.2164
 20
-162.9786
 10
845.476
 20
-162.8042
 10
845.7398
 20
-162.6485
 10
846.009
 20
-162.5136
 10
846.2836
 20
-162.3994
 10
846.5636
 20
-162.306
 10
846.8492
 20
-162.2333
 10
847.1404
 20
-162.1814
 10
847.4372
 20
-162.1503
 10
847.7397
 20
-162.1399
 10
847.9682
 20
-162.1447
 10
848.1915
 20
-162.1589
 10
848.4095
 20
-162.1827
 10
848.6221
 20
-162.216
 10
848.8293
 20
-162.2588
 10
849.0311
 20
-162.3111
 10
849.2274
 20
-162.3729
 10
849.4182
 20
-162.4442
 10
849.6047
 20
-162.5263
 10
849.7852
 20
-162.6196
 10
849.9597
 20
-162.7242
 10
850.1281
 20
-162.8403
 10
850.2904
 20
-162.968
 10
850.4465
 20
-163.1075
 10
850.5966
 20
-163.259
 10
850.7404
 20
-163.4227
 10
850.881
 20
-163.6007
 10
851.0132
 20
-163.7888
 10
851.1371
 20
-163.9872
 10
851.2528
 20
-164.196
 10
851.3601
 20
-164.4155
 10
851.4593
 20
-164.6458
 10
851.5503
 20
-164.8872
 10
851.6331
 20
-165.1397
 10
851.7065
 20
-165.4039
 10
851.7702
 20
-165.6846
 10
851.8242
 20
-165.9818
 10
851.8685
 20
-166.2955
 10
851.903
 20
-166.6259
 10
851.9276
 20
-166.9731
 10
851.9425
 20
-167.3372
 10
851.9474
 20
-167.7181
 10
851.9474
 20
-177.6417
 10
849.5306
 20
-177.6417
  0
LWPOLYLINE
  5
95
330
1F
100
AcDbEntity
  8
Layer 1
 62
     7
100
AcDbPolyline
 90
      190
 70
     1
 43
0.0
 10
873.219
 20
-177.6417
 10
873.219
 20
-168.9123
 10
873.2177
 20
-168.655
 10
873.214
 20
-168.4026
 10
873.2078
 20
-168.155
 10
873.1992
 20
-167.9122
 10
873.1882
 20
-167.6742
 10
873.175
 20
-167.4409
 10
873.1595
 20
-167.2123
 10
873.1418
 20
-166.9882
 10
873.1207
 20
-166.773
 10
873.0942
 20
-166.5697
 10
873.0621
 20
-166.3785
 10
873.0247
 20
-166.1991
 10
872.9819
 20
-166.0316
 10
872.9338
 20
-165.8759
 10
872.8805
 20
-165.7319
 10
872.8221
 20
-165.5997
 10
872.7546
 20
-165.4697
 10
872.68
 20
-165.3486
 10
872.5986
 20
-165.2365
 10
872.5105
 20
-165.1331
 10
872.4158
 20
-165.0385
 10
872.3146
 20
-164.9527
 10
872.2071
 20
-164.8755
 10
872.0933
 20
-164.8069
 10
871.9688
 20
-164.7466
 10
871.8339
 20
-164.6942
 10
871.6888
 20
-164.6498
 10
871.5334
 20
-164.6133
 10
871.3677
 20
-164.5849
 10
871.1918
 20
-164.5646
 10
871.0055
 20
-164.5524
 10
870.809
 20
-164.5483
 10
870.6202
 20
-164.5558
 10
870.4287
 20
-164.5784
 10
870.2343
 20
-164.616
 10
870.0368
 20
-164.6688
 10
869.836
 20
-164.7368
 10
869.6317
 20
-164.8201
 10
869.4237
 20
-164.9187
 10
869.2118
 20
-165.0326
 10
868.9979
 20
-165.1589
 10
868.7821
 20
-165.299
 10
868.5642
 20
-165.4528
 10
868.3443
 20
-165.6202
 10
868.1225
 20
-165.8012
 10
867.8987
 20
-165.9958
 10
867.6729
 20
-166.2038
 10
867.4453
 20
-166.4253
 10
867.4805
 20
-166.971
 10
867.4981
 20
-167.7224
 10
867.4981
 20
-177.6417
 10
865.0813
 20
-177.6417
 10
865.0813
 20
-168.9123
 10
865.0801
 20
-168.655
 10
865.0765
 20
-168.4026
 10
865.0705
 20
-168.155
 10
865.062
 20
-167.9122
 10
865.0512
 20
-167.6742
 10
865.0379
 20
-167.4409
 10
865.0222
 20
-167.2123
 10
865.0041
 20
-166.9882
 10
864.983
 20
-166.773
 10
864.9562
 20
-166.5697
 10
864.924
 20
-166.3785
 10
864.8864
 20
-166.1991
 10
864.8435
 20
-166.0316
 10
864.7955
 20
-165.8759
 10
864.7424
 20
-165.7319
 10
864.6844
 20
-165.5997
 10
864.617
 20
-165.4697
 10
864.5427
 20
-165.3486
 10
864.4615
 20
-165.2365
 10
864.3735
 20
-165.1331
 10
864.2786
 20
-165.0385
 10
864.1768
 20
-164.9527
 10
864.0682
 20
-164.8755
 10
863.9528
 20
-164.8069
 10
863.8296
 20
-164.7466
 10
863.6958
 20
-164.6942
 10
863.5514
 20
-164.6498
 10
863.3965
 20
-164.6133
 10
863.2311
 20
-164.5849
 10
863.0553
 20
-164.5646
 10
862.8691
 20
-164.5524
 10
862.6726
 20
-164.5483
 10
862.4744
 20
-164.5563
 10
862.2741
 20
-164.5803
 10
862.0715
 20
-164.6203
 10
861.8667
 20
-164.6765
 10
861.6597
 20
-164.7489
 10
861.4505
 20
-164.8376
 10
861.239
 20
-164.9426
 10
861.0253
 20
-165.064
 10
860.8116
 20
-165.1989
 10
860.5994
 20
-165.3422
 10
860.3887
 20
-165.494
 10
860.1796
 20
-165.6545
 10
859.9722
 20
-165.8238
 10
859.7664
 20
-166.0019
 10
859.5625
 20
-166.189
 10
859.3604
 20
-166.3853
 10
859.3604
 20
-177.6417
 10
856.9449
 20
-177.6417
 10
856.9449
 20
-162.5556
 10
859.3604
 20
-162.5556
 10
859.3604
 20
-164.2341
 10
859.5973
 20
-163.9919
 10
859.8336
 20
-163.7636
 10
860.0694
 20
-163.5492
 10
860.3046
 20
-163.3488
 10
860.5393
 20
-163.1624
 10
860.7735
 20
-162.9902
 10
861.0073
 20
-162.8322
 10
861.2407
 20
-162.6885
 10
861.4763
 20
-162.5603
 10
861.7177
 20
-162.4491
 10
861.9649
 20
-162.3548
 10
862.218
 20
-162.2776
 10
862.4768
 20
-162.2174
 10
862.7413
 20
-162.1744
 10
863.0116
 20
-162.1485
 10
863.2877
 20
-162.1399
 10
863.5999
 20
-162.1494
 10
863.9036
 20
-162.178
 10
864.1985
 20
-162.2256
 10
864.4848
 20
-162.2922
 10
864.7621
 20
-162.378
 10
865.0306
 20
-162.4828
 10
865.2901
 20
-162.6068
 10
865.5405
 20
-162.7499
 10
865.7786
 20
-162.9137
 10
866.002
 20
-163.1021
 10
866.2107
 20
-163.3149
 10
866.4047
 20
-163.5521
 10
866.5839
 20
-163.8139
 10
866.7482
 20
-164.1
 10
866.8976
 20
-164.4106
 10
867.0321
 20
-164.7455
 10
867.3057
 20
-164.4356
 10
867.5771
 20
-164.1447
 10
867.8462
 20
-163.8727
 10
868.1133
 20
-163.62
 10
868.3784
 20
-163.3866
 10
868.6416
 20
-163.1728
 10
868.9031
 20
-162.9786
 10
869.163
 20
-162.8042
 10
869.4268
 20
-162.6485
 10
869.6958
 20
-162.5136
 10
869.9703
 20
-162.3994
 10
870.2504
 20
-162.306
 10
870.536
 20
-162.2333
 10
870.8275
 20
-162.1814
 10
871.1248
 20
-162.1503
 10
871.4281
 20
-162.1399
 10
871.6562
 20
-162.1447
 10
871.879
 20
-162.1589
 10
872.0966
 20
-162.1827
 10
872.309
 20
-162.216
 10
872.5162
 20
-162.2588
 10
872.7182
 20
-162.3111
 10
872.915
 20
-162.3729
 10
873.1066
 20
-162.4442
 10
873.2923
 20
-162.5263
 10
873.4722
 20
-162.6196
 10
873.6464
 20
-162.7242
 10
873.8148
 20
-162.8403
 10
873.9771
 20
-162.968
 10
874.1334
 20
-163.1075
 10
874.2835
 20
-163.259
 10
874.4274
 20
-163.4227
 10
874.568
 20
-163.6007
 10
874.7003
 20
-163.7888
 10
874.8243
 20
-163.9872
 10
874.94
 20
-164.196
 10
875.0475
 20
-164.4155
 10
875.147
 20
-164.6458
 10
875.2383
 20
-164.8872
 10
875.3215
 20
-165.1397
 10
875.3944
 20
-165.4039
 10
875.4576
 20
-165.6846
 10
875.5112
 20
-165.9818
 10
875.555
 20
-166.2955
 10
875.5892
 20
-166.6259
 10
875.6136
 20
-166.9731
 10
875.6282
 20
-167.3372
 10
875.6331
 20
-167.7181
 10
875.6331
 20
-177.6417
 10
873.219
 20
-177.6417
  0
LWPOLYLINE
  5
96
330
1F
100
AcDbEntity
  8
Layer 1
 62
     7
370
    25
100
AcDbPolyline
 90
       78
 70
     1
 43
0.0
 10
1255.7639
 20
83.2187
 10
1255.7639
 20
91.3869
 10
1286.85
 20
91.437
 10
1289.3091
 20
91.3209
 10
1291.6971
 20
90.9121
 10
1293.9394
 20
90.2117
 10
1295.9613
 20
89.2206
 10
1297.6881
 20
87.9401
 10
1299.0452
 20
86.371
 10
1299.9579
 20
84.5146
 10
1300.3516
 20
82.3718
 10
1301.1734
 20
73.9326
 10
1301.9793
 20
65.5405
 10
1302.7746
 20
57.1797
 10
1303.5646
 20
48.8346
 10
1304.3547
 20
40.4895
 10
1305.1502
 20
32.1288
 10
1305.9566
 20
23.7366
 10
1306.7791
 20
15.2974
 10
1307.3702
 20
12.4693
 10
1308.4628
 20
9.9623
 10
1310.063
 20
7.7794
 10
1312.1772
 20
5.9234
 10
1314.8115
 20
4.3974
 10
1317.9723
 20
3.2044
 10
1321.6658
 20
2.3472
 10
1325.8982
 20
1.8289
 10
1338.2529
 20
1.3138
 10
1350.9132
 20
0.8668
 10
1363.7747
 20
0.4901
 10
1376.7335
 20
0.1858
 10
1389.6853
 20
-0.0439
 10
1402.526
 20
-0.1969
 10
1415.1516
 20
-0.2709
 10
1427.4577
 20
-0.2638
 10
1437.5927
 20
-1.658
 10
1440.5565
 20
-1.9708
 10
1443.481
 20
-2.2654
 10
1446.3795
 20
-2.548
 10
1449.2649
 20
-2.8246
 10
1452.1502
 20
-3.1011
 10
1455.0487
 20
-3.3836
 10
1457.9732
 20
-3.6781
 10
1460.937
 20
-3.9906
 10
1461.0395
 20
-9.1291
 10
1444.5027
 20
-9.0395
 10
1427.9489
 20
-8.8849
 10
1411.3836
 20
-8.687
 10
1394.8126
 20
-8.4674
 10
1378.2416
 20
-8.2478
 10
1361.6763
 20
-8.0499
 10
1345.1225
 20
-7.8953
 10
1328.5857
 20
-7.8057
 10
1319.7596
 20
-7.0462
 10
1312.3672
 20
-5.7454
 10
1306.3099
 20
-3.9343
 10
1301.4892
 20
-1.6439
 10
1297.8063
 20
1.0949
 10
1295.1629
 20
4.2509
 10
1293.4601
 20
7.7933
 10
1292.5996
 20
11.6909
 10
1291.8677
 20
20.1087
 10
1291.1148
 20
28.5266
 10
1290.3478
 20
36.9445
 10
1289.5737
 20
45.3624
 10
1288.7997
 20
53.7803
 10
1288.0329
 20
62.1983
 10
1287.2801
 20
70.6162
 10
1286.5486
 20
79.034
 10
1286.4402
 20
79.8345
 10
1286.2322
 20
80.5967
 10
1285.8615
 20
81.2988
 10
1285.2651
 20
81.919
 10
1284.38
 20
82.4353
 10
1283.1431
 20
82.826
 10
1281.4914
 20
83.0692
 10
1279.3619
 20
83.1431
 10
1255.7639
 20
83.2187
  0
LWPOLYLINE
  5
97
330
1F
100
AcDbEntity
  8
Layer 1
 62
     7
370
    25
100
AcDbPolyline
 90
       78
 70
     1
 43
0.0
 10
1716.9913
 20
83.2187
 10
1716.9913
 20
91.3869
 10
1685.9042
 20
91.437
 10
1683.4455
 20
91.3209
 10
1681.0578
 20
90.9121
 10
1678.8157
 20
90.2117
 10
1676.794
 20
89.2206
 10
1675.0674
 20
87.9401
 10
1673.7105
 20
86.371
 10
1672.798
 20
84.5146
 10
1672.4047
 20
82.3718
 10
1671.5822
 20
73.9326
 10
1670.7759
 20
65.5405
 10
1669.9805
 20
57.1797
 10
1669.1904
 20
48.8346
 10
1668.4004
 20
40.4895
 10
1667.6049
 20
32.1288
 10
1666.7987
 20
23.7366
 10
1665.9762
 20
15.2974
 10
1665.3853
 20
12.4693
 10
1664.2927
 20
9.9623
 10
1662.6925
 20
7.7794
 10
1660.5783
 20
5.9234
 10
1657.944
 20
4.3974
 10
1654.7834
 20
3.2044
 10
1651.0905
 20
2.3472
 10
1646.859
 20
1.8289
 10
1634.5036
 20
1.3138
 10
1621.8429
 20
0.8668
 10
1608.981
 20
0.4901
 10
1596.022
 20
0.1858
 10
1583.07
 20
-0.0439
 10
1570.2292
 20
-0.1969
 10
1557.6037
 20
-0.2709
 10
1545.2975
 20
-0.2638
 10
1535.1625
 20
-1.658
 10
1532.1991
 20
-1.9708
 10
1529.2748
 20
-2.2654
 10
1526.3765
 20
-2.548
 10
1523.4911
 20
-2.8246
 10
1520.6057
 20
-3.1011
 10
1517.7071
 20
-3.3836
 10
1514.7823
 20
-3.6781
 10
1511.8182
 20
-3.9906
 10
1511.7157
 20
-9.1291
 10
1528.2525
 20
-9.0395
 10
1544.8065
 20
-8.8849
 10
1561.3719
 20
-8.687
 10
1577.9431
 20
-8.4674
 10
1594.5143
 20
-8.2478
 10
1611.0797
 20
-8.0499
 10
1627.6337
 20
-7.8953
 10
1644.1705
 20
-7.8057
 10
1652.9963
 20
-7.0462
 10
1660.3884
 20
-5.7454
 10
1666.4455
 20
-3.9343
 10
1671.2662
 20
-1.6439
 10
1674.949
 20
1.0949
 10
1677.5924
 20
4.2509
 10
1679.2951
 20
7.7933
 10
1680.1557
 20
11.6909
 10
1680.8876
 20
20.1087
 10
1681.6405
 20
28.5266
 10
1682.4075
 20
36.9445
 10
1683.1816
 20
45.3624
 10
1683.9555
 20
53.7803
 10
1684.7224
 20
62.1983
 10
1685.4751
 20
70.6162
 10
1686.2066
 20
79.034
 10
1686.315
 20
79.8345
 10
1686.523
 20
80.5967
 10
1686.8937
 20
81.2988
 10
1687.49
 20
81.919
 10
1688.375
 20
82.4353
 10
1689.6117
 20
82.826
 10
1691.2632
 20
83.0692
 10
1693.3923
 20
83.1431
 10
1716.9913
 20
83.2187
  0
LWPOLYLINE
  5
98
330
1F
100
AcDbEntity
  8
Layer 1
 62
     7
370
    25
100
AcDbPolyline
 90
        5
 70
     1
 43
0.0
 10
1449.7688
 20
-10.4966
 10
1461.0395
 20
-10.4966
 10
1461.0395
 20
-18.5165
 10
1449.7688
 20
-18.5165
 10
1449.7688
 20
-10.4966
  0
LWPOLYLINE
  5
99
330
1F
100
AcDbEntity
  8
Layer 1
 62
     7
370
    25
100
AcDbPolyline
 90
        5
 70
     1
 43
0.0
 10
1511.7157
 20
-10.4966
 10
1522.9865
 20
-10.4966
 10
1522.9865
 20
-18.5165
 10
1511.7157
 20
-18.5165
 10
1511.7157
 20
-10.4966
  0
LWPOLYLINE
  5
9A
330
1F
100
AcDbEntity
  8
Layer 1
 62
     9
370
    20
100
AcDbPolyline
 90
        2
 70
     0
 43
0.0
 10
1671.0264
 20
125.011
 10
1671.0264
 20
97.1998
  0
LWPOLYLINE
  5
9B
330
1F
100
AcDbEntity
  8
Layer 1
 62
     9
370
    20
100
AcDbPolyline
 90
        2
 70
     0
 43
0.0
 10
1299.431
 20
125.011
 10
1299.431
 20
97.1998
  0
LWPOLYLINE
  5
9C
330
1F
100
AcDbEntity
  8
Layer 1
 62
     9
370
    20
100
AcDbPolyline
 90
        2
 70
     0
 43
0.0
 10
1299.431
 20
112.2604
 10
1671.0264
 20
112.2604
  0
LWPOLYLINE
  5
9D
330
1F
100
AcDbEntity
  8
Layer 1
 62
     7
100
AcDbPolyline
 90
      162
 70
     1
 43
0.0
 10
1457.6365
 20
123.0293
 10
1457.631
 20
122.8496
 10
1457.6146
 20
122.6732
 10
1457.5872
 20
122.5003
 10
1457.5489
 20
122.3307
 10
1457.4997
 20
122.1644
 10
1457.4395
 20
122.0014
 10
1457.3684
 20
121.8417
 10
1457.2863
 20
121.6852
 10
1457.1942
 20
121.5332
 10
1457.0931
 20
121.3866
 10
1456.9829
 20
121.2452
 10
1456.8639
 20
121.1093
 10
1456.7359
 20
120.9787
 10
1456.5992
 20
120.8534
 10
1456.4538
 20
120.7336
 10
1456.2998
 20
120.6191
 10
1456.1344
 20
120.5076
 10
1455.9594
 20
120.4022
 10
1455.7748
 20
120.3029
 10
1455.5805
 20
120.2097
 10
1455.3763
 20
120.1227
 10
1455.1623
 20
120.0418
 10
1454.9383
 20
119.9671
 10
1454.7043
 20
119.8986
 10
1454.4619
 20
119.8375
 10
1454.2126
 20
119.7844
 10
1453.9564
 20
119.7395
 10
1453.6931
 20
119.7027
 10
1453.4226
 20
119.6741
 10
1453.1448
 20
119.6536
 10
1452.8596
 20
119.6413
 10
1452.5669
 20
119.6372
 10
1452.2943
 20
119.6397
 10
1452.0232
 20
119.6471
 10
1451.7533
 20
119.6595
 10
1451.4848
 20
119.6769
 10
1451.2174
 20
119.6991
 10
1450.9513
 20
119.7264
 10
1450.6863
 20
119.7586
 10
1450.4224
 20
119.7957
 10
1450.1628
 20
119.8368
 10
1449.9118
 20
119.8809
 10
1449.6693
 20
119.9281
 10
1449.4355
 20
119.9784
 10
1449.2105
 20
120.0317
 10
1448.9944
 20
120.0882
 10
1448.7873
 20
120.1479
 10
1448.5894
 20
120.2107
 10
1448.5894
 20
121.6324
 10
1448.7325
 20
121.6324
 10
1449.4054
 20
121.369
 10
1450.3757
 20
121.0936
 10
1451.4759
 20
120.8711
 10
1451.7348
 20
120.8367
 10
1452.0077
 20
120.8125
 10
1452.2951
 20
120.7982
 10
1452.5974
 20
120.7935
 10
1452.9032
 20
120.8025
 10
1453.2043
 20
120.8296
 10
1453.5008
 20
120.8748
 10
1453.7929
 20
120.9379
 10
1453.9363
 20
120.9768
 10
1454.0743
 20
121.0213
 10
1454.2069
 20
121.0713
 10
1454.3343
 20
121.127
 10
1454.4564
 20
121.1883
 10
1454.5735
 20
121.2552
 10
1454.6855
 20
121.3277
 10
1454.7926
 20
121.4058
 10
1454.8848
 20
121.4812
 10
1454.9712
 20
121.5597
 10
1455.0519
 20
121.6414
 10
1455.1268
 20
121.7262
 10
1455.1962
 20
121.8142
 10
1455.26
 20
121.9055
 10
1455.3183
 20
122.0002
 10
1455.3712
 20
122.0982
 10
1455.4172
 20
122.1994
 10
1455.4572
 20
122.3051
 10
1455.491
 20
122.4152
 10
1455.5187
 20
122.5297
 10
1455.5402
 20
122.6487
 10
1455.5557
 20
122.772
 10
1455.5649
 20
122.8998
 10
1455.568
 20
123.0319
 10
1455.5646
 20
123.162
 10
1455.5543
 20
123.2862
 10
1455.5372
 20
123.4044
 10
1455.5132
 20
123.5166
 10
1455.4824
 20
123.6228
 10
1455.4447
 20
123.7231
 10
1455.4002
 20
123.8173
 10
1455.3488
 20
123.9055
 10
1455.2912
 20
123.9895
 10
1455.2274
 20
124.0697
 10
1455.1572
 20
124.1461
 10
1455.0808
 20
124.2187
 10
1454.998
 20
124.2875
 10
1454.9088
 20
124.3525
 10
1454.8134
 20
124.4139
 10
1454.7115
 20
124.4716
 10
1454.599
 20
124.5329
 10
1454.4802
 20
124.5896
 10
1454.3549
 20
124.6415
 10
1454.2234
 20
124.6888
 10
1454.0857
 20
124.7315
 10
1453.9417
 20
124.7696
 10
1453.7917
 20
124.803
 10
1453.6356
 20
124.8319
 10
1453.3083
 20
124.8771
 10
1452.9626
 20
124.9095
 10
1452.5985
 20
124.929
 10
1452.2158
 20
124.9355
 10
1452.009
 20
124.9342
 10
1451.802
 20
124.9302
 10
1451.5947
 20
124.9236
 10
1451.3872
 20
124.9144
 10
1451.1793
 20
124.9024
 10
1450.971
 20
124.8878
 10
1450.7624
 20
124.8706
 10
1450.5533
 20
124.8506
 10
1449.2166
 20
124.6875
 10
1449.2166
 20
129.8474
 10
1457.5532
 20
129.8474
 10
1457.5532
 20
128.6777
 10
1451.1805
 20
128.6777
 10
1451.1805
 20
126.0109
 10
1451.9042
 20
126.0497
 10
1452.5558
 20
126.0637
 10
1452.8415
 20
126.0617
 10
1453.1158
 20
126.0556
 10
1453.3787
 20
126.0455
 10
1453.6303
 20
126.0314
 10
1453.8708
 20
126.0133
 10
1454.1003
 20
125.9913
 10
1454.3189
 20
125.9653
 10
1454.5267
 20
125.9354
 10
1454.7274
 20
125.8998
 10
1454.926
 20
125.8567
 10
1455.1226
 20
125.806
 10
1455.3173
 20
125.7478
 10
1455.5101
 20
125.6821
 10
1455.701
 20
125.6087
 10
1455.8901
 20
125.5279
 10
1456.0775
 20
125.4394
 10
1456.2601
 20
125.3421
 10
1456.432
 20
125.2391
 10
1456.5929
 20
125.1304
 10
1456.7429
 20
125.0159
 10
1456.882
 20
124.8957
 10
1457.0099
 20
124.7696
 10
1457.1268
 20
124.6376
 10
1457.2325
 20
124.4997
 10
1457.3271
 20
124.3532
 10
1457.4091
 20
124.1961
 10
1457.4785
 20
124.0282
 10
1457.5354
 20
123.8497
 10
1457.5796
 20
123.6605
 10
1457.6112
 20
123.4607
 10
1457.6302
 20
123.2503
 10
1457.6365
 20
123.0293
  0
LWPOLYLINE
  5
9E
330
1F
100
AcDbEntity
  8
Layer 1
 62
     7
100
AcDbPolyline
 90
      125
 70
     1
 43
0.0
 10
1469.1894
 20
119.8438
 10
1459.8277
 20
119.8438
 10
1459.8277
 20
121.2541
 10
1461.7368
 20
122.4632
 10
1461.961
 20
122.6083
 10
1462.1838
 20
122.755
 10
1462.4053
 20
122.9032
 10
1462.6254
 20
123.053
 10
1462.8441
 20
123.2042
 10
1463.0615
 20
123.357
 10
1463.2777
 20
123.5112
 10
1463.4926
 20
123.6669
 10
1463.9086
 20
123.9729
 10
1464.2905
 20
124.2632
 10
1464.638
 20
124.5379
 10
1464.9513
 20
124.797
 10
1465.2302
 20
125.0406
 10
1465.4747
 20
125.2686
 10
1465.6848
 20
125.4811
 10
1465.8604
 20
125.6781
 10
1466.0083
 20
125.8674
 10
1466.1366
 20
126.0584
 10
1466.2454
 20
126.2511
 10
1466.3346
 20
126.4455
 10
1466.4041
 20
126.6416
 10
1466.4538
 20
126.8394
 10
1466.4837
 20
127.0389
 10
1466.4937
 20
127.2401
 10
1466.4906
 20
127.3425
 10
1466.4813
 20
127.4417
 10
1466.4659
 20
127.5378
 10
1466.4442
 20
127.6308
 10
1466.4164
 20
127.7207
 10
1466.3824
 20
127.8075
 10
1466.3422
 20
127.8912
 10
1466.2958
 20
127.9719
 10
1466.2435
 20
128.0492
 10
1466.1865
 20
128.1231
 10
1466.1247
 20
128.1935
 10
1466.0584
 20
128.2606
 10
1465.9876
 20
128.3242
 10
1465.9123
 20
128.3845
 10
1465.8327
 20
128.4412
 10
1465.7488
 20
128.4946
 10
1465.5633
 20
128.5895
 10
1465.3632
 20
128.6715
 10
1465.1489
 20
128.7408
 10
1464.9206
 20
128.7974
 10
1464.6801
 20
128.8411
 10
1464.4286
 20
128.8726
 10
1464.1653
 20
128.8918
 10
1463.8894
 20
128.8983
 10
1463.6188
 20
128.8926
 10
1463.3458
 20
128.8756
 10
1463.0703
 20
128.847
 10
1462.7923
 20
128.8067
 10
1461.7256
 20
128.5815
 10
1460.8974
 20
128.3068
 10
1460.2529
 20
128.0314
 10
1460.1413
 20
128.0314
 10
1460.1413
 20
129.451
 10
1460.3072
 20
129.5031
 10
1460.4885
 20
129.5546
 10
1460.6851
 20
129.6057
 10
1460.8972
 20
129.6564
 10
1461.1247
 20
129.7067
 10
1461.3679
 20
129.7569
 10
1461.6267
 20
129.8069
 10
1461.9012
 20
129.8568
 10
1462.181
 20
129.9029
 10
1462.457
 20
129.9429
 10
1462.7294
 20
129.9767
 10
1462.9979
 20
130.0045
 10
1463.2628
 20
130.0261
 10
1463.5238
 20
130.0415
 10
1463.7811
 20
130.0508
 10
1464.0346
 20
130.0539
 10
1464.5507
 20
130.0423
 10
1465.038
 20
130.0076
 10
1465.4964
 20
129.9496
 10
1465.9263
 20
129.8686
 10
1466.3275
 20
129.7644
 10
1466.7002
 20
129.6372
 10
1467.0445
 20
129.4868
 10
1467.3605
 20
129.3134
 10
1467.6423
 20
129.1195
 10
1467.8865
 20
128.9092
 10
1468.093
 20
128.6825
 10
1468.2619
 20
128.4394
 10
1468.3933
 20
128.1798
 10
1468.4871
 20
127.9038
 10
1468.5434
 20
127.6113
 10
1468.5621
 20
127.3022
 10
1468.5589
 20
127.1573
 10
1468.5491
 20
127.0152
 10
1468.5329
 20
126.876
 10
1468.5101
 20
126.7396
 10
1468.4808
 20
126.606
 10
1468.4448
 20
126.4753
 10
1468.4023
 20
126.3473
 10
1468.3531
 20
126.2221
 10
1468.2985
 20
126.0992
 10
1468.2389
 20
125.9785
 10
1468.1744
 20
125.8601
 10
1468.105
 20
125.744
 10
1468.0307
 20
125.6301
 10
1467.9516
 20
125.5186
 10
1467.8675
 20
125.4093
 10
1467.7786
 20
125.3024
 10
1467.5811
 20
125.0842
 10
1467.3635
 20
124.867
 10
1467.1261
 20
124.6507
 10
1466.8692
 20
124.4355
 10
1465.7518
 20
123.5914
 10
1465.5084
 20
123.4194
 10
1465.2583
 20
123.2456
 10
1465.0016
 20
123.0702
 10
1464.7381
 20
122.893
 10
1464.4679
 20
122.7141
 10
1464.191
 20
122.5335
 10
1463.9071
 20
122.3512
 10
1463.6164
 20
122.1671
 10
1461.7368
 20
120.9994
 10
1469.1894
 20
120.9994
 10
1469.1894
 20
119.8438
  0
LWPOLYLINE
  5
9F
330
1F
100
AcDbEntity
  8
Layer 1
 62
     7
100
AcDbPolyline
 90
      162
 70
     1
 43
0.0
 10
1480.4489
 20
123.0293
 10
1480.4433
 20
122.8496
 10
1480.4267
 20
122.6732
 10
1480.399
 20
122.5003
 10
1480.3604
 20
122.3307
 10
1480.3108
 20
122.1644
 10
1480.2502
 20
122.0014
 10
1480.1789
 20
121.8417
 10
1480.0967
 20
121.6852
 10
1480.0046
 20
121.5332
 10
1479.9035
 20
121.3866
 10
1479.7935
 20
121.2452
 10
1479.6746
 20
121.1093
 10
1479.5469
 20
120.9787
 10
1479.4106
 20
120.8534
 10
1479.2657
 20
120.7336
 10
1479.1123
 20
120.6191
 10
1478.9469
 20
120.5076
 10
1478.7719
 20
120.4022
 10
1478.5873
 20
120.3029
 10
1478.393
 20
120.2097
 10
1478.1888
 20
120.1227
 10
1477.9748
 20
120.0418
 10
1477.7508
 20
119.9671
 10
1477.5168
 20
119.8986
 10
1477.2743
 20
119.8375
 10
1477.0248
 20
119.7844
 10
1476.7682
 20
119.7395
 10
1476.5045
 20
119.7027
 10
1476.2337
 20
119.6741
 10
1475.9555
 20
119.6536
 10
1475.6701
 20
119.6413
 10
1475.3773
 20
119.6372
 10
1475.1054
 20
119.6397
 10
1474.8347
 20
119.6471
 10
1474.5652
 20
119.6595
 10
1474.2967
 20
119.6769
 10
1474.0293
 20
119.6991
 10
1473.7629
 20
119.7264
 10
1473.4974
 20
119.7586
 10
1473.2328
 20
119.7957
 10
1472.9734
 20
119.8368
 10
1472.7225
 20
119.8809
 10
1472.4804
 20
119.9281
 10
1472.247
 20
119.9784
 10
1472.0223
 20
120.0317
 10
1471.8066
 20
120.0882
 10
1471.5998
 20
120.1479
 10
1471.4019
 20
120.2107
 10
1471.4019
 20
121.6324
 10
1471.545
 20
121.6324
 10
1472.2159
 20
121.369
 10
1473.1882
 20
121.0936
 10
1474.2883
 20
120.8711
 10
1474.546
 20
120.8367
 10
1474.8186
 20
120.8125
 10
1475.1064
 20
120.7982
 10
1475.4098
 20
120.7935
 10
1475.7154
 20
120.8025
 10
1476.0158
 20
120.8296
 10
1476.3116
 20
120.8748
 10
1476.6034
 20
120.9379
 10
1476.7475
 20
120.9768
 10
1476.8859
 20
121.0213
 10
1477.0188
 20
121.0713
 10
1477.1462
 20
121.127
 10
1477.2683
 20
121.1883
 10
1477.3851
 20
121.2552
 10
1477.4967
 20
121.3277
 10
1477.6031
 20
121.4058
 10
1477.696
 20
121.4812
 10
1477.7828
 20
121.5597
 10
1477.8637
 20
121.6414
 10
1477.9387
 20
121.7262
 10
1478.008
 20
121.8142
 10
1478.0715
 20
121.9055
 10
1478.1293
 20
122.0002
 10
1478.1816
 20
122.0982
 10
1478.2283
 20
122.1994
 10
1478.2687
 20
122.3051
 10
1478.3029
 20
122.4152
 10
1478.3309
 20
122.5297
 10
1478.3526
 20
122.6487
 10
1478.3681
 20
122.772
 10
1478.3774
 20
122.8998
 10
1478.3805
 20
123.0319
 10
1478.3771
 20
123.162
 10
1478.3668
 20
123.2862
 10
1478.3497
 20
123.4044
 10
1478.3257
 20
123.5166
 10
1478.2949
 20
123.6228
 10
1478.2572
 20
123.7231
 10
1478.2127
 20
123.8173
 10
1478.1613
 20
123.9055
 10
1478.1031
 20
123.9895
 10
1478.0387
 20
124.0697
 10
1477.9683
 20
124.1461
 10
1477.8917
 20
124.2187
 10
1477.809
 20
124.2875
 10
1477.7201
 20
124.3525
 10
1477.6251
 20
124.4139
 10
1477.5239
 20
124.4716
 10
1477.4109
 20
124.5329
 10
1477.2917
 20
124.5896
 10
1477.1665
 20
124.6415
 10
1477.0351
 20
124.6888
 10
1476.8976
 20
124.7315
 10
1476.7539
 20
124.7696
 10
1476.6041
 20
124.803
 10
1476.4481
 20
124.8319
 10
1476.1196
 20
124.8771
 10
1475.7733
 20
124.9095
 10
1475.4089
 20
124.929
 10
1475.0262
 20
124.9355
 10
1474.82
 20
124.9342
 10
1474.6133
 20
124.9302
 10
1474.4062
 20
124.9236
 10
1474.1986
 20
124.9144
 10
1473.9908
 20
124.9024
 10
1473.7826
 20
124.8878
 10
1473.5743
 20
124.8706
 10
1473.3658
 20
124.8506
 10
1472.0291
 20
124.6875
 10
1472.0291
 20
129.8474
 10
1480.3657
 20
129.8474
 10
1480.3657
 20
128.6777
 10
1473.993
 20
128.6777
 10
1473.993
 20
126.0109
 10
1474.7166
 20
126.0497
 10
1475.3682
 20
126.0637
 10
1475.6534
 20
126.0617
 10
1475.9274
 20
126.0556
 10
1476.1902
 20
126.0455
 10
1476.442
 20
126.0314
 10
1476.6828
 20
126.0133
 10
1476.9125
 20
125.9913
 10
1477.1313
 20
125.9653
 10
1477.3392
 20
125.9354
 10
1477.5392
 20
125.8998
 10
1477.7374
 20
125.8567
 10
1477.9336
 20
125.806
 10
1478.1281
 20
125.7478
 10
1478.3207
 20
125.6821
 10
1478.5116
 20
125.6087
 10
1478.7007
 20
125.5279
 10
1478.888
 20
125.4394
 10
1479.0706
 20
125.3421
 10
1479.2424
 20
125.2391
 10
1479.4035
 20
125.1304
 10
1479.5536
 20
125.0159
 10
1479.6929
 20
124.8957
 10
1479.8212
 20
124.7696
 10
1479.9386
 20
124.6376
 10
1480.045
 20
124.4997
 10
1480.1396
 20
124.3532
 10
1480.2216
 20
124.1961
 10
1480.291
 20
124.0282
 10
1480.3478
 20
123.8497
 10
1480.392
 20
123.6605
 10
1480.4236
 20
123.4607
 10
1480.4426
 20
123.2503
 10
1480.4489
 20
123.0293
  0
LWPOLYLINE
  5
A0
330
1F
100
AcDbEntity
  8
Layer 1
 62
     7
100
AcDbPolyline
 90
      172
 70
     1
 43
0.0
 10
1502.3957
 20
119.8438
 10
1502.3957
 20
124.1829
 10
1502.3919
 20
124.4363
 10
1502.3803
 20
124.6802
 10
1502.361
 20
124.9145
 10
1502.3337
 20
125.1393
 10
1502.3173
 20
125.2464
 10
1502.2964
 20
125.3474
 10
1502.2709
 20
125.4425
 10
1502.2411
 20
125.5317
 10
1502.207
 20
125.615
 10
1502.1687
 20
125.6924
 10
1502.1264
 20
125.764
 10
1502.08
 20
125.8298
 10
1502.0262
 20
125.8945
 10
1501.967
 20
125.9547
 10
1501.9023
 20
126.0106
 10
1501.8323
 20
126.062
 10
1501.7568
 20
126.1091
 10
1501.676
 20
126.1518
 10
1501.5899
 20
126.1901
 10
1501.4985
 20
126.2241
 10
1501.4
 20
126.254
 10
1501.2932
 20
126.28
 10
1501.1781
 20
126.302
 10
1501.0547
 20
126.3201
 10
1500.7832
 20
126.3443
 10
1500.4785
 20
126.3524
 10
1500.3281
 20
126.3486
 10
1500.1754
 20
126.3374
 10
1500.0203
 20
126.3186
 10
1499.8628
 20
126.2923
 10
1499.7027
 20
126.2584
 10
1499.5401
 20
126.2171
 10
1499.3748
 20
126.1682
 10
1499.2068
 20
126.1118
 10
1499.0362
 20
126.049
 10
1498.8639
 20
125.9794
 10
1498.6901
 20
125.903
 10
1498.5147
 20
125.8198
 10
1498.3379
 20
125.7298
 10
1498.1596
 20
125.6331
 10
1497.98
 20
125.5296
 10
1497.7991
 20
125.4194
 10
1497.8275
 20
125.1487
 10
1497.8407
 20
124.7744
 10
1497.8407
 20
119.8438
 10
1495.9184
 20
119.8438
 10
1495.9184
 20
124.1829
 10
1495.9146
 20
124.4363
 10
1495.9031
 20
124.6802
 10
1495.8837
 20
124.9145
 10
1495.8565
 20
125.1393
 10
1495.84
 20
125.2464
 10
1495.819
 20
125.3474
 10
1495.7933
 20
125.4425
 10
1495.7634
 20
125.5317
 10
1495.7291
 20
125.615
 10
1495.6906
 20
125.6924
 10
1495.6482
 20
125.764
 10
1495.6018
 20
125.8298
 10
1495.5481
 20
125.8945
 10
1495.489
 20
125.9547
 10
1495.4244
 20
126.0106
 10
1495.3545
 20
126.062
 10
1495.2792
 20
126.1091
 10
1495.1986
 20
126.1518
 10
1495.1125
 20
126.1901
 10
1495.0212
 20
126.2241
 10
1494.9229
 20
126.254
 10
1494.816
 20
126.28
 10
1494.7006
 20
126.302
 10
1494.5768
 20
126.3201
 10
1494.3043
 20
126.3443
 10
1493.9992
 20
126.3524
 10
1493.8419
 20
126.3484
 10
1493.6829
 20
126.3365
 10
1493.5221
 20
126.3165
 10
1493.3594
 20
126.2885
 10
1493.1949
 20
126.2525
 10
1493.0285
 20
126.2084
 10
1492.8602
 20
126.1562
 10
1492.6899
 20
126.0958
 10
1492.3512
 20
125.9579
 10
1492.0173
 20
125.8027
 10
1491.6883
 20
125.63
 10
1491.3644
 20
125.4394
 10
1491.3644
 20
119.8438
 10
1489.4422
 20
119.8438
 10
1489.4422
 20
127.343
 10
1491.3644
 20
127.343
 10
1491.3644
 20
126.5082
 10
1491.5529
 20
126.6288
 10
1491.741
 20
126.7424
 10
1491.9287
 20
126.849
 10
1492.116
 20
126.9486
 10
1492.3029
 20
127.0412
 10
1492.4894
 20
127.1268
 10
1492.6756
 20
127.2053
 10
1492.8615
 20
127.2768
 10
1493.0494
 20
127.3405
 10
1493.2419
 20
127.3958
 10
1493.4388
 20
127.4427
 10
1493.6401
 20
127.4811
 10
1493.846
 20
127.511
 10
1494.0563
 20
127.5324
 10
1494.2711
 20
127.5452
 10
1494.4904
 20
127.5495
 10
1494.7393
 20
127.5448
 10
1494.9813
 20
127.5306
 10
1495.2163
 20
127.5069
 10
1495.4443
 20
127.4738
 10
1495.6652
 20
127.4312
 10
1495.879
 20
127.3792
 10
1496.0855
 20
127.3177
 10
1496.2848
 20
127.2467
 10
1496.4736
 20
127.165
 10
1496.651
 20
127.0712
 10
1496.8169
 20
126.9654
 10
1496.9713
 20
126.8475
 10
1497.1139
 20
126.7174
 10
1497.2449
 20
126.5752
 10
1497.364
 20
126.4208
 10
1497.4712
 20
126.2542
 10
1497.6888
 20
126.4084
 10
1497.9048
 20
126.5531
 10
1498.1192
 20
126.6883
 10
1498.332
 20
126.8139
 10
1498.5434
 20
126.9299
 10
1498.7533
 20
127.0362
 10
1498.9619
 20
127.1326
 10
1499.1692
 20
127.2193
 10
1499.3787
 20
127.2968
 10
1499.5925
 20
127.364
 10
1499.8107
 20
127.4207
 10
1500.0333
 20
127.4671
 10
1500.2604
 20
127.5032
 10
1500.4921
 20
127.5289
 10
1500.7285
 20
127.5444
 10
1500.9697
 20
127.5495
 10
1501.329
 20
127.5401
 10
1501.6715
 20
127.5118
 10
1501.8365
 20
127.4906
 10
1501.9973
 20
127.4647
 10
1502.1539
 20
127.434
 10
1502.3063
 20
127.3985
 10
1502.4543
 20
127.3578
 10
1502.5975
 20
127.3115
 10
1502.736
 20
127.2595
 10
1502.8697
 20
127.2018
 10
1502.9988
 20
127.1382
 10
1503.1231
 20
127.0687
 10
1503.2428
 20
126.9933
 10
1503.3578
 20
126.9119
 10
1503.4695
 20
126.8234
 10
1503.5747
 20
126.7299
 10
1503.6734
 20
126.6313
 10
1503.7656
 20
126.5276
 10
1503.8511
 20
126.4185
 10
1503.9301
 20
126.3041
 10
1504.0025
 20
126.1843
 10
1504.0683
 20
126.059
 10
1504.1271
 20
125.9276
 10
1504.1781
 20
125.788
 10
1504.2212
 20
125.6403
 10
1504.2564
 20
125.4842
 10
1504.2837
 20
125.3199
 10
1504.3033
 20
125.1473
 10
1504.315
 20
124.9664
 10
1504.3189
 20
124.7771
 10
1504.3189
 20
119.8438
 10
1502.3957
 20
119.8438
  0
LWPOLYLINE
  5
A1
330
1F
100
AcDbEntity
  8
Layer 1
 62
     7
100
AcDbPolyline
 90
      172
 70
     1
 43
0.0
 10
1519.9437
 20
119.8438
 10
1519.9437
 20
124.1829
 10
1519.9399
 20
124.4363
 10
1519.9284
 20
124.6802
 10
1519.909
 20
124.9145
 10
1519.8818
 20
125.1393
 10
1519.8654
 20
125.2464
 10
1519.8444
 20
125.3474
 10
1519.819
 20
125.4425
 10
1519.7892
 20
125.5317
 10
1519.7551
 20
125.615
 10
1519.7168
 20
125.6924
 10
1519.6745
 20
125.764
 10
1519.6281
 20
125.8298
 10
1519.5743
 20
125.8945
 10
1519.5151
 20
125.9547
 10
1519.4504
 20
126.0106
 10
1519.3803
 20
126.062
 10
1519.3048
 20
126.1091
 10
1519.224
 20
126.1518
 10
1519.1379
 20
126.1901
 10
1519.0465
 20
126.2241
 10
1518.948
 20
126.254
 10
1518.8412
 20
126.28
 10
1518.7261
 20
126.302
 10
1518.6027
 20
126.3201
 10
1518.3312
 20
126.3443
 10
1518.0265
 20
126.3524
 10
1517.8762
 20
126.3486
 10
1517.7235
 20
126.3374
 10
1517.5684
 20
126.3186
 10
1517.4109
 20
126.2923
 10
1517.2508
 20
126.2584
 10
1517.0881
 20
126.2171
 10
1516.9228
 20
126.1682
 10
1516.7548
 20
126.1118
 10
1516.5842
 20
126.049
 10
1516.412
 20
125.9794
 10
1516.2381
 20
125.903
 10
1516.0628
 20
125.8198
 10
1515.8859
 20
125.7298
 10
1515.7076
 20
125.6331
 10
1515.528
 20
125.5296
 10
1515.3471
 20
125.4194
 10
1515.3755
 20
125.1487
 10
1515.3887
 20
124.7744
 10
1515.3887
 20
119.8438
 10
1513.4665
 20
119.8438
 10
1513.4665
 20
124.1829
 10
1513.4627
 20
124.4363
 10
1513.4511
 20
124.6802
 10
1513.4318
 20
124.9145
 10
1513.4045
 20
125.1393
 10
1513.3881
 20
125.2464
 10
1513.367
 20
125.3474
 10
1513.3414
 20
125.4425
 10
1513.3114
 20
125.5317
 10
1513.2771
 20
125.615
 10
1513.2387
 20
125.6924
 10
1513.1962
 20
125.764
 10
1513.1498
 20
125.8298
 10
1513.0961
 20
125.8945
 10
1513.037
 20
125.9547
 10
1512.9725
 20
126.0106
 10
1512.9026
 20
126.062
 10
1512.8273
 20
126.1091
 10
1512.7466
 20
126.1518
 10
1512.6606
 20
126.1901
 10
1512.5693
 20
126.2241
 10
1512.471
 20
126.254
 10
1512.3641
 20
126.28
 10
1512.2487
 20
126.302
 10
1512.1249
 20
126.3201
 10
1511.8523
 20
126.3443
 10
1511.5472
 20
126.3524
 10
1511.3899
 20
126.3484
 10
1511.2309
 20
126.3365
 10
1511.0701
 20
126.3165
 10
1510.9075
 20
126.2885
 10
1510.743
 20
126.2525
 10
1510.5766
 20
126.2084
 10
1510.4083
 20
126.1562
 10
1510.238
 20
126.0958
 10
1509.8993
 20
125.9579
 10
1509.5654
 20
125.8027
 10
1509.2364
 20
125.63
 10
1508.9125
 20
125.4394
 10
1508.9125
 20
119.8438
 10
1506.9902
 20
119.8438
 10
1506.9902
 20
127.343
 10
1508.9125
 20
127.343
 10
1508.9125
 20
126.5082
 10
1509.101
 20
126.6288
 10
1509.2891
 20
126.7424
 10
1509.4768
 20
126.849
 10
1509.664
 20
126.9486
 10
1509.8509
 20
127.0412
 10
1510.0374
 20
127.1268
 10
1510.2236
 20
127.2053
 10
1510.4095
 20
127.2768
 10
1510.5975
 20
127.3405
 10
1510.7899
 20
127.3958
 10
1510.9868
 20
127.4427
 10
1511.1882
 20
127.4811
 10
1511.3941
 20
127.511
 10
1511.6044
 20
127.5324
 10
1511.8192
 20
127.5452
 10
1512.0385
 20
127.5495
 10
1512.2874
 20
127.5448
 10
1512.5294
 20
127.5306
 10
1512.7644
 20
127.5069
 10
1512.9924
 20
127.4738
 10
1513.2133
 20
127.4312
 10
1513.427
 20
127.3792
 10
1513.6335
 20
127.3177
 10
1513.8328
 20
127.2467
 10
1514.0216
 20
127.165
 10
1514.199
 20
127.0712
 10
1514.365
 20
126.9654
 10
1514.5193
 20
126.8475
 10
1514.662
 20
126.7174
 10
1514.7929
 20
126.5752
 10
1514.9121
 20
126.4208
 10
1515.0193
 20
126.2542
 10
1515.2369
 20
126.4084
 10
1515.4529
 20
126.5531
 10
1515.6672
 20
126.6883
 10
1515.88
 20
126.8139
 10
1516.0912
 20
126.9299
 10
1516.301
 20
127.0362
 10
1516.5093
 20
127.1326
 10
1516.7162
 20
127.2193
 10
1516.9261
 20
127.2968
 10
1517.1402
 20
127.364
 10
1517.3585
 20
127.4207
 10
1517.5812
 20
127.4671
 10
1517.8084
 20
127.5032
 10
1518.0401
 20
127.5289
 10
1518.2765
 20
127.5444
 10
1518.5177
 20
127.5495
 10
1518.877
 20
127.5401
 10
1519.2195
 20
127.5118
 10
1519.3845
 20
127.4906
 10
1519.5453
 20
127.4647
 10
1519.702
 20
127.434
 10
1519.8544
 20
127.3985
 10
1520.0024
 20
127.3578
 10
1520.1456
 20
127.3115
 10
1520.284
 20
127.2595
 10
1520.4178
 20
127.2018
 10
1520.5468
 20
127.1382
 10
1520.6712
 20
127.0687
 10
1520.7909
 20
126.9933
 10
1520.9059
 20
126.9119
 10
1521.0176
 20
126.8234
 10
1521.1228
 20
126.7299
 10
1521.2215
 20
126.6313
 10
1521.3136
 20
126.5276
 10
1521.3992
 20
126.4185
 10
1521.4782
 20
126.3041
 10
1521.5506
 20
126.1843
 10
1521.6163
 20
126.059
 10
1521.6751
 20
125.9276
 10
1521.726
 20
125.788
 10
1521.7689
 20
125.6403
 10
1521.804
 20
125.4842
 10
1521.8312
 20
125.3199
 10
1521.8505
 20
125.1473
 10
1521.8621
 20
124.9664
 10
1521.866
 20
124.7771
 10
1521.866
 20
119.8438
 10
1519.9437
 20
119.8438
  0
LWPOLYLINE
  5
A2
330
1F
100
AcDbEntity
  8
Layer 1
  6
New Line1
 62
     7
370
    20
100
AcDbPolyline
 90
        2
 70
     0
 43
0.0
 10
1485.2282
 20
104.4938
 10
1485.2282
 20
13.2422
  0
LWPOLYLINE
  5
A4
330
1F
100
AcDbEntity
  8
Layer 1
 62
     7
100
AcDbPolyline
 90
      125
 70
     1
 43
0.0
 10
1508.9724
 20
53.9851
 10
1499.6097
 20
53.9851
 10
1499.6097
 20
55.3954
 10
1501.5188
 20
56.6045
 10
1501.7427
 20
56.7497
 10
1501.9653
 20
56.8964
 10
1502.1865
 20
57.0446
 10
1502.4065
 20
57.1944
 10
1502.6252
 20
57.3456
 10
1502.8426
 20
57.4984
 10
1503.0587
 20
57.6526
 10
1503.2736
 20
57.8083
 10
1503.6903
 20
58.1143
 10
1504.0726
 20
58.4046
 10
1504.4204
 20
58.6793
 10
1504.7338
 20
58.9384
 10
1505.0126
 20
59.182
 10
1505.2569
 20
59.41
 10
1505.4665
 20
59.6224
 10
1505.6414
 20
59.8194
 10
1505.7899
 20
60.0087
 10
1505.9186
 20
60.1997
 10
1506.0276
 20
60.3925
 10
1506.1169
 20
60.5869
 10
1506.1863
 20
60.783
 10
1506.236
 20
60.9808
 10
1506.2658
 20
61.1802
 10
1506.2757
 20
61.3814
 10
1506.2726
 20
61.4838
 10
1506.2635
 20
61.5831
 10
1506.2481
 20
61.6792
 10
1506.2265
 20
61.7722
 10
1506.1986
 20
61.8621
 10
1506.1644
 20
61.9489
 10
1506.1238
 20
62.0326
 10
1506.0768
 20
62.1133
 10
1506.0252
 20
62.1905
 10
1505.9685
 20
62.2644
 10
1505.907
 20
62.3349
 10
1505.8407
 20
62.402
 10
1505.7698
 20
62.4656
 10
1505.6944
 20
62.5258
 10
1505.6147
 20
62.5826
 10
1505.5308
 20
62.636
 10
1505.3451
 20
62.7309
 10
1505.1447
 20
62.8129
 10
1504.9301
 20
62.8822
 10
1504.7016
 20
62.9387
 10
1504.4615
 20
62.9824
 10
1504.21
 20
63.014
 10
1503.9464
 20
63.0332
 10
1503.6704
 20
63.0397
 10
1503.4008
 20
63.034
 10
1503.128
 20
63.017
 10
1502.8521
 20
62.9884
 10
1502.5733
 20
62.9481
 10
1501.5086
 20
62.7229
 10
1500.6804
 20
62.4481
 10
1500.036
 20
62.1728
 10
1499.9243
 20
62.1728
 10
1499.9243
 20
63.5924
 10
1500.0897
 20
63.6445
 10
1500.2706
 20
63.696
 10
1500.4671
 20
63.7471
 10
1500.6792
 20
63.7978
 10
1500.9067
 20
63.8481
 10
1501.1497
 20
63.8982
 10
1501.4083
 20
63.9482
 10
1501.6822
 20
63.9981
 10
1501.9625
 20
64.0442
 10
1502.2389
 20
64.0842
 10
1502.5113
 20
64.1181
 10
1502.7799
 20
64.1458
 10
1503.0448
 20
64.1674
 10
1503.306
 20
64.1829
 10
1503.5635
 20
64.1922
 10
1503.8176
 20
64.1953
 10
1504.3331
 20
64.1837
 10
1504.8201
 20
64.149
 10
1505.2785
 20
64.091
 10
1505.7085
 20
64.01
 10
1506.1099
 20
63.9058
 10
1506.4829
 20
63.7785
 10
1506.8274
 20
63.6282
 10
1507.1435
 20
63.4547
 10
1507.4247
 20
63.2608
 10
1507.6685
 20
63.0505
 10
1507.8748
 20
62.8239
 10
1508.0437
 20
62.5807
 10
1508.1751
 20
62.3212
 10
1508.269
 20
62.0451
 10
1508.3253
 20
61.7526
 10
1508.3441
 20
61.4436
 10
1508.3408
 20
61.2986
 10
1508.331
 20
61.1566
 10
1508.3146
 20
61.0174
 10
1508.2917
 20
60.881
 10
1508.2623
 20
60.7474
 10
1508.2264
 20
60.6167
 10
1508.184
 20
60.4887
 10
1508.1351
 20
60.3635
 10
1508.0808
 20
60.2405
 10
1508.0215
 20
60.1199
 10
1507.9572
 20
60.0014
 10
1507.8879
 20
59.8853
 10
1507.8137
 20
59.7715
 10
1507.7346
 20
59.6599
 10
1507.6505
 20
59.5507
 10
1507.5616
 20
59.4438
 10
1507.3637
 20
59.2256
 10
1507.1461
 20
59.0084
 10
1506.909
 20
58.7921
 10
1506.6523
 20
58.5769
 10
1505.5348
 20
57.7327
 10
1505.2908
 20
57.5607
 10
1505.0405
 20
57.3869
 10
1504.7837
 20
57.2115
 10
1504.5204
 20
57.0344
 10
1504.2505
 20
56.8555
 10
1503.9737
 20
56.6749
 10
1503.6901
 20
56.4925
 10
1503.3994
 20
56.3084
 10
1501.5188
 20
55.1408
 10
1508.9724
 20
55.1408
 10
1508.9724
 20
53.9851
  0
LWPOLYLINE
  5
A5
330
1F
100
AcDbEntity
  8
Layer 1
 62
     7
100
AcDbPolyline
 90
       65
 70
     1
 43
0.0
 10
1520.4826
 20
58.994
 10
1520.4639
 20
58.3429
 10
1520.4079
 20
57.7365
 10
1520.3147
 20
57.1749
 10
1520.1844
 20
56.658
 10
1520.0169
 20
56.1858
 10
1519.8125
 20
55.7584
 10
1519.5712
 20
55.3757
 10
1519.2931
 20
55.0378
 10
1518.9755
 20
54.7427
 10
1518.6177
 20
54.4869
 10
1518.2196
 20
54.2705
 10
1517.7813
 20
54.0934
 10
1517.3026
 20
53.9557
 10
1516.7834
 20
53.8573
 10
1516.2236
 20
53.7983
 10
1515.6232
 20
53.7786
 10
1515.016
 20
53.7987
 10
1514.4509
 20
53.859
 10
1513.928
 20
53.9595
 10
1513.4469
 20
54.1001
 10
1513.0076
 20
54.2808
 10
1512.61
 20
54.5016
 10
1512.2538
 20
54.7624
 10
1511.939
 20
55.0632
 10
1511.6633
 20
55.4051
 10
1511.4247
 20
55.7891
 10
1511.223
 20
56.2153
 10
1511.0582
 20
56.6837
 10
1510.9301
 20
57.1943
 10
1510.8387
 20
57.7472
 10
1510.7839
 20
58.3424
 10
1510.7657
 20
58.9799
 10
1510.7843
 20
59.6342
 10
1510.8401
 20
60.243
 10
1510.9329
 20
60.8064
 10
1511.0629
 20
61.3242
 10
1511.2298
 20
61.7966
 10
1511.4337
 20
62.2235
 10
1511.6745
 20
62.6049
 10
1511.9522
 20
62.9407
 10
1512.2706
 20
63.2351
 10
1512.629
 20
63.4901
 10
1513.0275
 20
63.7057
 10
1513.4661
 20
63.8821
 10
1513.9449
 20
64.0192
 10
1514.464
 20
64.117
 10
1515.0234
 20
64.1757
 10
1515.6232
 20
64.1953
 10
1516.2302
 20
64.175
 10
1516.7953
 20
64.1141
 10
1517.3185
 20
64.0127
 10
1517.7999
 20
63.8706
 10
1518.2396
 20
63.6881
 10
1518.6375
 20
63.465
 10
1518.9938
 20
63.2014
 10
1519.3084
 20
62.8973
 10
1519.5835
 20
62.5528
 10
1519.822
 20
62.1673
 10
1520.0238
 20
61.7409
 10
1520.1889
 20
61.2735
 10
1520.3174
 20
60.7651
 10
1520.4092
 20
60.2158
 10
1520.4642
 20
59.6254
 10
1520.4826
 20
58.994
  0
LWPOLYLINE
  5
A6
330
1F
100
AcDbEntity
  8
Layer 1
 62
     7
100
AcDbPolyline
 90
      129
 70
     1
 43
0.0
 10
1517.8692
 20
55.9462
 10
1517.9413
 20
56.0748
 10
1518.0077
 20
56.2114
 10
1518.0684
 20
56.3562
 10
1518.1237
 20
56.5091
 10
1518.1735
 20
56.6701
 10
1518.218
 20
56.8394
 10
1518.2573
 20
57.0169
 10
1518.2914
 20
57.2027
 10
1518.3194
 20
57.3962
 10
1518.3438
 20
57.5984
 10
1518.3647
 20
57.8092
 10
1518.382
 20
58.0286
 10
1518.3955
 20
58.2568
 10
1518.4053
 20
58.4938
 10
1518.4112
 20
58.7395
 10
1518.4132
 20
58.994
 10
1518.4112
 20
59.2463
 10
1518.4053
 20
59.4903
 10
1518.3955
 20
59.726
 10
1518.382
 20
59.9534
 10
1518.3647
 20
60.1724
 10
1518.3438
 20
60.3829
 10
1518.3194
 20
60.585
 10
1518.2914
 20
60.7785
 10
1518.2571
 20
60.9644
 10
1518.2172
 20
61.1422
 10
1518.1718
 20
61.312
 10
1518.1209
 20
61.4736
 10
1518.0645
 20
61.6271
 10
1518.0026
 20
61.7727
 10
1517.9351
 20
61.9102
 10
1517.8621
 20
62.0398
 10
1517.7819
 20
62.1639
 10
1517.6945
 20
62.2801
 10
1517.5999
 20
62.3885
 10
1517.4981
 20
62.4891
 10
1517.3892
 20
62.582
 10
1517.2733
 20
62.6673
 10
1517.1505
 20
62.7449
 10
1517.0207
 20
62.8151
 10
1516.8806
 20
62.8772
 10
1516.7307
 20
62.9311
 10
1516.5708
 20
62.9768
 10
1516.4011
 20
63.0143
 10
1516.2215
 20
63.0434
 10
1516.032
 20
63.0643
 10
1515.8325
 20
63.0769
 10
1515.6232
 20
63.0811
 10
1515.4162
 20
63.0769
 10
1515.2184
 20
63.0643
 10
1515.0298
 20
63.0434
 10
1514.8507
 20
63.0143
 10
1514.681
 20
62.9768
 10
1514.5209
 20
62.9311
 10
1514.3705
 20
62.8772
 10
1514.2297
 20
62.8151
 10
1514.0966
 20
62.7447
 10
1513.9706
 20
62.6664
 10
1513.8517
 20
62.5802
 10
1513.7401
 20
62.4859
 10
1513.6358
 20
62.3836
 10
1513.5388
 20
62.2733
 10
1513.4492
 20
62.1549
 10
1513.367
 20
62.0284
 10
1513.2929
 20
61.896
 10
1513.2251
 20
61.7555
 10
1513.1635
 20
61.6068
 10
1513.1079
 20
61.4499
 10
1513.0584
 20
61.2848
 10
1513.0147
 20
61.1113
 10
1512.9769
 20
60.9294
 10
1512.9448
 20
60.7391
 10
1512.9191
 20
60.5408
 10
1512.8967
 20
60.3365
 10
1512.8777
 20
60.126
 10
1512.8621
 20
59.9094
 10
1512.8499
 20
59.6865
 10
1512.8412
 20
59.4573
 10
1512.836
 20
59.2218
 10
1512.8342
 20
58.9799
 10
1512.8357
 20
58.7238
 10
1512.8401
 20
58.4782
 10
1512.8476
 20
58.2432
 10
1512.8582
 20
58.0188
 10
1512.8718
 20
57.8051
 10
1512.8885
 20
57.602
 10
1512.9085
 20
57.4097
 10
1512.9316
 20
57.2281
 10
1512.9589
 20
57.0548
 10
1512.9936
 20
56.8859
 10
1513.0357
 20
56.7215
 10
1513.0852
 20
56.5614
 10
1513.1421
 20
56.4059
 10
1513.2063
 20
56.2549
 10
1513.2779
 20
56.1086
 10
1513.3568
 20
55.9669
 10
1513.434
 20
55.8415
 10
1513.5193
 20
55.7234
 10
1513.6126
 20
55.6128
 10
1513.714
 20
55.5095
 10
1513.8233
 20
55.4136
 10
1513.9405
 20
55.3252
 10
1514.0654
 20
55.2443
 10
1514.1982
 20
55.1708
 10
1514.3395
 20
55.1055
 10
1514.4915
 20
55.0491
 10
1514.6542
 20
55.0014
 10
1514.8273
 20
54.9625
 10
1515.0109
 20
54.9322
 10
1515.2049
 20
54.9107
 10
1515.409
 20
54.8978
 10
1515.6232
 20
54.8935
 10
1515.8302
 20
54.8977
 10
1516.028
 20
54.9102
 10
1516.2165
 20
54.9311
 10
1516.3958
 20
54.9603
 10
1516.5659
 20
54.9978
 10
1516.7267
 20
55.0435
 10
1516.8783
 20
55.0974
 10
1517.0207
 20
55.1595
 10
1517.1529
 20
55.2296
 10
1517.2778
 20
55.3078
 10
1517.3952
 20
55.3939
 10
1517.5051
 20
55.4882
 10
1517.6075
 20
55.5905
 10
1517.7024
 20
55.7009
 10
1517.7896
 20
55.8195
 10
1517.8692
 20
55.9462
  0
LWPOLYLINE
  5
A7
330
1F
100
AcDbEntity
  8
Layer 1
 62
     7
100
AcDbPolyline
 90
       65
 70
     1
 43
0.0
 10
1531.8873
 20
58.994
 10
1531.8687
 20
58.3429
 10
1531.8128
 20
57.7365
 10
1531.7198
 20
57.1749
 10
1531.5897
 20
56.658
 10
1531.4226
 20
56.1858
 10
1531.2185
 20
55.7584
 10
1530.9776
 20
55.3757
 10
1530.6999
 20
55.0378
 10
1530.3819
 20
54.7427
 10
1530.0237
 20
54.4869
 10
1529.6254
 20
54.2705
 10
1529.1869
 20
54.0934
 10
1528.7081
 20
53.9557
 10
1528.1891
 20
53.8573
 10
1527.6297
 20
53.7983
 10
1527.0299
 20
53.7786
 10
1526.4226
 20
53.7987
 10
1525.8574
 20
53.859
 10
1525.3341
 20
53.9595
 10
1524.8526
 20
54.1001
 10
1524.413
 20
54.2808
 10
1524.015
 20
54.5016
 10
1523.6586
 20
54.7624
 10
1523.3437
 20
55.0632
 10
1523.0686
 20
55.4051
 10
1522.8303
 20
55.7891
 10
1522.6286
 20
56.2153
 10
1522.4637
 20
56.6837
 10
1522.3354
 20
57.1943
 10
1522.2438
 20
57.7472
 10
1522.1888
 20
58.3424
 10
1522.1705
 20
58.9799
 10
1522.1891
 20
59.6342
 10
1522.245
 20
60.243
 10
1522.3381
 20
60.8064
 10
1522.4682
 20
61.3242
 10
1522.6355
 20
61.7966
 10
1522.8397
 20
62.2235
 10
1523.0808
 20
62.6049
 10
1523.3589
 20
62.9407
 10
1523.6766
 20
63.2351
 10
1524.0346
 20
63.4901
 10
1524.4328
 20
63.7057
 10
1524.8713
 20
63.8821
 10
1525.3502
 20
64.0192
 10
1525.8696
 20
64.117
 10
1526.4295
 20
64.1757
 10
1527.0299
 20
64.1953
 10
1527.6365
 20
64.175
 10
1528.2013
 20
64.1141
 10
1528.7242
 20
64.0127
 10
1529.2054
 20
63.8706
 10
1529.6449
 20
63.6881
 10
1530.0428
 20
63.465
 10
1530.3992
 20
63.2014
 10
1530.7141
 20
62.8973
 10
1530.9895
 20
62.5528
 10
1531.228
 20
62.1673
 10
1531.4296
 20
61.7409
 10
1531.5945
 20
61.2735
 10
1531.7227
 20
60.7651
 10
1531.8142
 20
60.2158
 10
1531.869
 20
59.6254
 10
1531.8873
 20
58.994
  0
LWPOLYLINE
  5
A8
330
1F
100
AcDbEntity
  8
Layer 1
 62
     7
100
AcDbPolyline
 90
      129
 70
     1
 43
0.0
 10
1529.2759
 20
55.9462
 10
1529.3477
 20
56.0748
 10
1529.414
 20
56.2114
 10
1529.4746
 20
56.3562
 10
1529.5298
 20
56.5091
 10
1529.5795
 20
56.6701
 10
1529.6238
 20
56.8394
 10
1529.6626
 20
57.0169
 10
1529.6961
 20
57.2027
 10
1529.7244
 20
57.3962
 10
1529.749
 20
57.5984
 10
1529.7699
 20
57.8092
 10
1529.7871
 20
58.0286
 10
1529.8005
 20
58.2568
 10
1529.8101
 20
58.4938
 10
1529.816
 20
58.7395
 10
1529.8179
 20
58.994
 10
1529.816
 20
59.2463
 10
1529.8101
 20
59.4903
 10
1529.8005
 20
59.726
 10
1529.7871
 20
59.9534
 10
1529.7699
 20
60.1724
 10
1529.749
 20
60.3829
 10
1529.7244
 20
60.585
 10
1529.6961
 20
60.7785
 10
1529.6624
 20
60.9644
 10
1529.6229
 20
61.1422
 10
1529.5777
 20
61.312
 10
1529.5269
 20
61.4736
 10
1529.4704
 20
61.6271
 10
1529.4084
 20
61.7727
 10
1529.3408
 20
61.9102
 10
1529.2678
 20
62.0398
 10
1529.1873
 20
62.1639
 10
1529.0997
 20
62.2801
 10
1529.0049
 20
62.3885
 10
1528.903
 20
62.4891
 10
1528.794
 20
62.582
 10
1528.6781
 20
62.6673
 10
1528.5552
 20
62.7449
 10
1528.4254
 20
62.8151
 10
1528.286
 20
62.8772
 10
1528.1366
 20
62.9311
 10
1527.9771
 20
62.9768
 10
1527.8076
 20
63.0143
 10
1527.6281
 20
63.0434
 10
1527.4386
 20
63.0643
 10
1527.2392
 20
63.0769
 10
1527.0299
 20
63.0811
 10
1526.8229
 20
63.0769
 10
1526.6251
 20
63.0643
 10
1526.4365
 20
63.0434
 10
1526.2574
 20
63.0143
 10
1526.0877
 20
62.9768
 10
1525.9276
 20
62.9311
 10
1525.7772
 20
62.8772
 10
1525.6364
 20
62.8151
 10
1525.5027
 20
62.7447
 10
1525.3763
 20
62.6664
 10
1525.2572
 20
62.5802
 10
1525.1456
 20
62.4859
 10
1525.0413
 20
62.3836
 10
1524.9443
 20
62.2733
 10
1524.8548
 20
62.1549
 10
1524.7727
 20
62.0284
 10
1524.6989
 20
61.896
 10
1524.6312
 20
61.7555
 10
1524.5696
 20
61.6068
 10
1524.5141
 20
61.4499
 10
1524.4644
 20
61.2848
 10
1524.4206
 20
61.1113
 10
1524.3827
 20
60.9294
 10
1524.3505
 20
60.7391
 10
1524.3247
 20
60.5408
 10
1524.3022
 20
60.3365
 10
1524.2831
 20
60.126
 10
1524.2673
 20
59.9094
 10
1524.2549
 20
59.6865
 10
1524.2461
 20
59.4573
 10
1524.2407
 20
59.2218
 10
1524.2389
 20
58.9799
 10
1524.2404
 20
58.7238
 10
1524.2449
 20
58.4782
 10
1524.2524
 20
58.2432
 10
1524.263
 20
58.0188
 10
1524.2767
 20
57.8051
 10
1524.2937
 20
57.602
 10
1524.3138
 20
57.4097
 10
1524.3373
 20
57.2281
 10
1524.3644
 20
57.0548
 10
1524.399
 20
56.8859
 10
1524.4412
 20
56.7215
 10
1524.4908
 20
56.5614
 10
1524.5477
 20
56.4059
 10
1524.6119
 20
56.2549
 10
1524.6832
 20
56.1086
 10
1524.7616
 20
55.9669
 10
1524.8391
 20
55.8415
 10
1524.9246
 20
55.7234
 10
1525.0181
 20
55.6128
 10
1525.1196
 20
55.5095
 10
1525.2289
 20
55.4136
 10
1525.3461
 20
55.3252
 10
1525.4711
 20
55.2443
 10
1525.6039
 20
55.1708
 10
1525.7454
 20
55.1055
 10
1525.8975
 20
55.0491
 10
1526.0601
 20
55.0014
 10
1526.2332
 20
54.9625
 10
1526.4167
 20
54.9322
 10
1526.6107
 20
54.9107
 10
1526.8151
 20
54.8978
 10
1527.0299
 20
54.8935
 10
1527.2369
 20
54.8977
 10
1527.4345
 20
54.9102
 10
1527.6228
 20
54.9311
 10
1527.8019
 20
54.9603
 10
1527.9716
 20
54.9978
 10
1528.1321
 20
55.0435
 10
1528.2834
 20
55.0974
 10
1528.4254
 20
55.1595
 10
1528.5577
 20
55.2296
 10
1528.6828
 20
55.3078
 10
1528.8005
 20
55.3939
 10
1528.9108
 20
55.4882
 10
1529.0136
 20
55.5905
 10
1529.1088
 20
55.7009
 10
1529.1963
 20
55.8195
 10
1529.2759
 20
55.9462
  0
LWPOLYLINE
  5
A9
330
1F
100
AcDbEntity
  8
Layer 1
 62
     7
100
AcDbPolyline
 90
      172
 70
     1
 43
0.0
 10
1553.5844
 20
53.9851
 10
1553.5844
 20
58.3243
 10
1553.5806
 20
58.5777
 10
1553.5691
 20
58.8216
 10
1553.5497
 20
59.0559
 10
1553.5225
 20
59.2807
 10
1553.5057
 20
59.3877
 10
1553.4844
 20
59.4888
 10
1553.4586
 20
59.5839
 10
1553.4285
 20
59.673
 10
1553.3941
 20
59.7563
 10
1553.3556
 20
59.8337
 10
1553.3131
 20
59.9053
 10
1553.2667
 20
59.9711
 10
1553.213
 20
60.0358
 10
1553.1537
 20
60.0961
 10
1553.0891
 20
60.1519
 10
1553.0191
 20
60.2034
 10
1552.9437
 20
60.2505
 10
1552.8631
 20
60.2932
 10
1552.7773
 20
60.3315
 10
1552.6862
 20
60.3655
 10
1552.5879
 20
60.3954
 10
1552.4811
 20
60.4214
 10
1552.3659
 20
60.4434
 10
1552.2423
 20
60.4615
 10
1551.9702
 20
60.4857
 10
1551.6652
 20
60.4938
 10
1551.5155
 20
60.49
 10
1551.3632
 20
60.4788
 10
1551.2082
 20
60.46
 10
1551.0507
 20
60.4337
 10
1550.8904
 20
60.3998
 10
1550.7275
 20
60.3585
 10
1550.5619
 20
60.3096
 10
1550.3935
 20
60.2532
 10
1550.2233
 20
60.1904
 10
1550.0514
 20
60.1208
 10
1549.8778
 20
60.0443
 10
1549.7027
 20
59.9611
 10
1549.526
 20
59.8711
 10
1549.3477
 20
59.7744
 10
1549.168
 20
59.671
 10
1548.9868
 20
59.5608
 10
1549.0152
 20
59.2901
 10
1549.0294
 20
58.9158
 10
1549.0294
 20
53.9851
 10
1547.1072
 20
53.9851
 10
1547.1072
 20
58.3243
 10
1547.1031
 20
58.5777
 10
1547.0908
 20
58.8216
 10
1547.0708
 20
59.0559
 10
1547.0432
 20
59.2807
 10
1547.0268
 20
59.3877
 10
1547.0059
 20
59.4888
 10
1546.9804
 20
59.5839
 10
1546.9506
 20
59.673
 10
1546.9165
 20
59.7563
 10
1546.8782
 20
59.8337
 10
1546.8359
 20
59.9053
 10
1546.7895
 20
59.9711
 10
1546.736
 20
60.0358
 10
1546.6769
 20
60.0961
 10
1546.6123
 20
60.1519
 10
1546.5421
 20
60.2034
 10
1546.4665
 20
60.2505
 10
1546.3856
 20
60.2932
 10
1546.2993
 20
60.3315
 10
1546.2079
 20
60.3655
 10
1546.11
 20
60.3954
 10
1546.0034
 20
60.4214
 10
1545.8884
 20
60.4434
 10
1545.7648
 20
60.4615
 10
1545.4924
 20
60.4857
 10
1545.1869
 20
60.4938
 10
1545.0296
 20
60.4898
 10
1544.8706
 20
60.4779
 10
1544.7098
 20
60.4579
 10
1544.5473
 20
60.4299
 10
1544.3829
 20
60.3938
 10
1544.2167
 20
60.3497
 10
1544.0486
 20
60.2975
 10
1543.8787
 20
60.2372
 10
1543.5389
 20
60.0993
 10
1543.2044
 20
59.9441
 10
1542.8755
 20
59.7713
 10
1542.5522
 20
59.5808
 10
1542.5522
 20
53.9851
 10
1540.6289
 20
53.9851
 10
1540.6289
 20
61.4843
 10
1542.5522
 20
61.4843
 10
1542.5522
 20
60.6495
 10
1542.7411
 20
60.7701
 10
1542.9294
 20
60.8837
 10
1543.1171
 20
60.9904
 10
1543.3044
 20
61.09
 10
1543.4911
 20
61.1826
 10
1543.6773
 20
61.2682
 10
1543.863
 20
61.3467
 10
1544.0482
 20
61.4182
 10
1544.2362
 20
61.4819
 10
1544.4288
 20
61.5372
 10
1544.6258
 20
61.5841
 10
1544.8274
 20
61.6225
 10
1545.0334
 20
61.6524
 10
1545.2439
 20
61.6738
 10
1545.4588
 20
61.6866
 10
1545.6781
 20
61.6909
 10
1545.927
 20
61.6862
 10
1546.1688
 20
61.672
 10
1546.4037
 20
61.6483
 10
1546.6315
 20
61.6152
 10
1546.8522
 20
61.5726
 10
1547.0658
 20
61.5206
 10
1547.2723
 20
61.4591
 10
1547.4715
 20
61.3881
 10
1547.661
 20
61.3064
 10
1547.8388
 20
61.2126
 10
1548.0049
 20
61.1068
 10
1548.1594
 20
60.9889
 10
1548.3022
 20
60.8588
 10
1548.4332
 20
60.7166
 10
1548.5525
 20
60.5622
 10
1548.66
 20
60.3956
 10
1548.8769
 20
60.5498
 10
1549.0924
 20
60.6945
 10
1549.3064
 20
60.8297
 10
1549.519
 20
60.9553
 10
1549.7302
 20
61.0713
 10
1549.9401
 20
61.1776
 10
1550.1486
 20
61.274
 10
1550.3559
 20
61.3607
 10
1550.5655
 20
61.4382
 10
1550.7796
 20
61.5054
 10
1550.998
 20
61.5621
 10
1551.2208
 20
61.6085
 10
1551.448
 20
61.6446
 10
1551.6797
 20
61.6703
 10
1551.9158
 20
61.6858
 10
1552.1564
 20
61.6909
 10
1552.5158
 20
61.6815
 10
1552.8586
 20
61.6532
 10
1553.0237
 20
61.6319
 10
1553.1845
 20
61.606
 10
1553.341
 20
61.5753
 10
1553.4931
 20
61.5398
 10
1553.6414
 20
61.4992
 10
1553.785
 20
61.4529
 10
1553.9238
 20
61.4009
 10
1554.0577
 20
61.3432
 10
1554.1869
 20
61.2796
 10
1554.3113
 20
61.2101
 10
1554.4308
 20
61.1347
 10
1554.5455
 20
61.0532
 10
1554.6572
 20
60.9648
 10
1554.7623
 20
60.8713
 10
1554.8608
 20
60.7727
 10
1554.9528
 20
60.6689
 10
1555.0382
 20
60.5599
 10
1555.117
 20
60.4455
 10
1555.1893
 20
60.3257
 10
1555.255
 20
60.2004
 10
1555.3141
 20
60.069
 10
1555.3652
 20
59.9294
 10
1555.4083
 20
59.7816
 10
1555.4435
 20
59.6256
 10
1555.4708
 20
59.4613
 10
1555.4902
 20
59.2887
 10
1555.5018
 20
59.1077
 10
1555.5057
 20
58.9184
 10
1555.5057
 20
53.9851
 10
1553.5844
 20
53.9851
  0
LWPOLYLINE
  5
AA
330
1F
100
AcDbEntity
  8
Layer 1
 62
     7
100
AcDbPolyline
 90
      172
 70
     1
 43
0.0
 10
1571.1325
 20
53.9851
 10
1571.1325
 20
58.3243
 10
1571.1287
 20
58.5777
 10
1571.1171
 20
58.8216
 10
1571.0978
 20
59.0559
 10
1571.0705
 20
59.2807
 10
1571.0537
 20
59.3877
 10
1571.0324
 20
59.4888
 10
1571.0067
 20
59.5839
 10
1570.9766
 20
59.673
 10
1570.9422
 20
59.7563
 10
1570.9037
 20
59.8337
 10
1570.8612
 20
59.9053
 10
1570.8148
 20
59.9711
 10
1570.761
 20
60.0358
 10
1570.7018
 20
60.0961
 10
1570.6372
 20
60.1519
 10
1570.5671
 20
60.2034
 10
1570.4918
 20
60.2505
 10
1570.4111
 20
60.2932
 10
1570.3253
 20
60.3315
 10
1570.2342
 20
60.3655
 10
1570.1359
 20
60.3954
 10
1570.0292
 20
60.4214
 10
1569.914
 20
60.4434
 10
1569.7903
 20
60.4615
 10
1569.5182
 20
60.4857
 10
1569.2132
 20
60.4938
 10
1569.0635
 20
60.49
 10
1568.9113
 20
60.4788
 10
1568.7565
 20
60.46
 10
1568.5991
 20
60.4337
 10
1568.4389
 20
60.3998
 10
1568.2759
 20
60.3585
 10
1568.1102
 20
60.3096
 10
1567.9415
 20
60.2532
 10
1567.7713
 20
60.1904
 10
1567.5994
 20
60.1208
 10
1567.4259
 20
60.0443
 10
1567.2508
 20
59.9611
 10
1567.074
 20
59.8711
 10
1566.8958
 20
59.7744
 10
1566.716
 20
59.671
 10
1566.5348
 20
59.5608
 10
1566.5633
 20
59.2901
 10
1566.5775
 20
58.9158
 10
1566.5775
 20
53.9851
 10
1564.6552
 20
53.9851
 10
1564.6552
 20
58.3243
 10
1564.6511
 20
58.5777
 10
1564.6389
 20
58.8216
 10
1564.6188
 20
59.0559
 10
1564.5913
 20
59.2807
 10
1564.5749
 20
59.3877
 10
1564.5539
 20
59.4888
 10
1564.5285
 20
59.5839
 10
1564.4986
 20
59.673
 10
1564.4645
 20
59.7563
 10
1564.4262
 20
59.8337
 10
1564.3839
 20
59.9053
 10
1564.3375
 20
59.9711
 10
1564.284
 20
60.0358
 10
1564.2249
 20
60.0961
 10
1564.1603
 20
60.1519
 10
1564.0901
 20
60.2034
 10
1564.0146
 20
60.2505
 10
1563.9336
 20
60.2932
 10
1563.8474
 20
60.3315
 10
1563.756
 20
60.3655
 10
1563.6578
 20
60.3954
 10
1563.5511
 20
60.4214
 10
1563.436
 20
60.4434
 10
1563.3126
 20
60.4615
 10
1563.0408
 20
60.4857
 10
1562.736
 20
60.4938
 10
1562.5784
 20
60.4898
 10
1562.4191
 20
60.4779
 10
1562.2581
 20
60.4579
 10
1562.0954
 20
60.4299
 10
1561.931
 20
60.3938
 10
1561.7647
 20
60.3497
 10
1561.5966
 20
60.2975
 10
1561.4267
 20
60.2372
 10
1561.0869
 20
60.0993
 10
1560.7524
 20
59.9441
 10
1560.4235
 20
59.7713
 10
1560.1002
 20
59.5808
 10
1560.1002
 20
53.9851
 10
1558.1769
 20
53.9851
 10
1558.1769
 20
61.4843
 10
1560.1002
 20
61.4843
 10
1560.1002
 20
60.6495
 10
1560.2891
 20
60.7701
 10
1560.4774
 20
60.8837
 10
1560.6652
 20
60.9904
 10
1560.8524
 20
61.09
 10
1561.0391
 20
61.1826
 10
1561.2253
 20
61.2682
 10
1561.411
 20
61.3467
 10
1561.5962
 20
61.4182
 10
1561.7842
 20
61.4819
 10
1561.9768
 20
61.5372
 10
1562.1739
 20
61.5841
 10
1562.3754
 20
61.6225
 10
1562.5815
 20
61.6524
 10
1562.792
 20
61.6738
 10
1563.0069
 20
61.6866
 10
1563.2262
 20
61.6909
 10
1563.4748
 20
61.6862
 10
1563.7165
 20
61.672
 10
1563.9514
 20
61.6483
 10
1564.1792
 20
61.6152
 10
1564.4001
 20
61.5726
 10
1564.6138
 20
61.5206
 10
1564.8203
 20
61.4591
 10
1565.0196
 20
61.3881
 10
1565.209
 20
61.3064
 10
1565.3868
 20
61.2126
 10
1565.553
 20
61.1068
 10
1565.7074
 20
60.9889
 10
1565.8502
 20
60.8588
 10
1565.9812
 20
60.7166
 10
1566.1005
 20
60.5622
 10
1566.208
 20
60.3956
 10
1566.425
 20
60.5498
 10
1566.6404
 20
60.6945
 10
1566.8545
 20
60.8297
 10
1567.0671
 20
60.9553
 10
1567.2783
 20
61.0713
 10
1567.4882
 20
61.1776
 10
1567.6967
 20
61.274
 10
1567.904
 20
61.3607
 10
1568.1136
 20
61.4382
 10
1568.3276
 20
61.5054
 10
1568.546
 20
61.5621
 10
1568.7688
 20
61.6085
 10
1568.9961
 20
61.6446
 10
1569.2277
 20
61.6703
 10
1569.4639
 20
61.6858
 10
1569.7045
 20
61.6909
 10
1570.0639
 20
61.6815
 10
1570.4067
 20
61.6532
 10
1570.5717
 20
61.6319
 10
1570.7325
 20
61.606
 10
1570.889
 20
61.5753
 10
1571.0411
 20
61.5398
 10
1571.1894
 20
61.4992
 10
1571.333
 20
61.4529
 10
1571.4718
 20
61.4009
 10
1571.6058
 20
61.3432
 10
1571.735
 20
61.2796
 10
1571.8594
 20
61.2101
 10
1571.9789
 20
61.1347
 10
1572.0936
 20
61.0532
 10
1572.205
 20
60.9648
 10
1572.3099
 20
60.8713
 10
1572.4084
 20
60.7727
 10
1572.5005
 20
60.6689
 10
1572.586
 20
60.5599
 10
1572.6649
 20
60.4455
 10
1572.7373
 20
60.3257
 10
1572.803
 20
60.2004
 10
1572.8622
 20
60.069
 10
1572.9133
 20
59.9294
 10
1572.9564
 20
59.7816
 10
1572.9915
 20
59.6256
 10
1573.0188
 20
59.4613
 10
1573.0382
 20
59.2887
 10
1573.0498
 20
59.1077
 10
1573.0537
 20
58.9184
 10
1573.0537
 20
53.9851
 10
1571.1325
 20
53.9851
  0
LWPOLYLINE
  5
AB
330
1F
100
AcDbEntity
  8
Layer 1
 62
     9
370
    20
100
AcDbPolyline
 90
        2
 70
     0
 43
0.0
 10
1682.2708
 20
-23.6222
 10
1682.2708
 20
-51.4334
  0
LWPOLYLINE
  5
AC
330
1F
100
AcDbEntity
  8
Layer 1
 62
     9
370
    20
100
AcDbPolyline
 90
        2
 70
     0
 43
0.0
 10
1292.3032
 20
-23.6222
 10
1292.3032
 20
-51.4334
  0
LWPOLYLINE
  5
AD
330
1F
100
AcDbEntity
  8
Layer 1
 62
     9
370
    20
100
AcDbPolyline
 90
        2
 70
     0
 43
0.0
 10
1292.3032
 20
-36.3729
 10
1682.2708
 20
-36.3729
  0
LWPOLYLINE
  5
AE
330
1F
100
AcDbEntity
  8
Layer 1
 62
     9
370
    20
100
AcDbPolyline
 90
        2
 70
     0
 43
0.0
 10
1511.392
 20
-19.4369
 10
1511.392
 20
-47.2487
  0
LWPOLYLINE
  5
AF
330
1F
100
AcDbEntity
  8
Layer 1
 62
     9
370
    20
100
AcDbPolyline
 90
        2
 70
     0
 43
0.0
 10
1461.6515
 20
-19.4369
 10
1461.6515
 20
-47.2487
  0
LWPOLYLINE
  5
B0
330
1F
100
AcDbEntity
  8
Layer 1
 62
     9
370
    20
100
AcDbPolyline
 90
        2
 70
     0
 43
0.0
 10
1461.6515
 20
-32.1875
 10
1511.392
 20
-32.1875
  0
LWPOLYLINE
  5
B1
330
1F
100
AcDbEntity
  8
Layer 1
 62
     7
100
AcDbPolyline
 90
       81
 70
     1
 43
0.0
 10
1463.8539
 20
-63.8432
 10
1463.8495
 20
-63.5954
 10
1463.8363
 20
-63.3594
 10
1463.8142
 20
-63.1352
 10
1463.7831
 20
-62.9227
 10
1463.743
 20
-62.7219
 10
1463.6938
 20
-62.5328
 10
1463.6354
 20
-62.3554
 10
1463.5677
 20
-62.1897
 10
1463.494
 20
-62.0351
 10
1463.4131
 20
-61.8895
 10
1463.3252
 20
-61.753
 10
1463.2305
 20
-61.6255
 10
1463.1289
 20
-61.5071
 10
1463.0208
 20
-61.3977
 10
1462.9061
 20
-61.2972
 10
1462.7852
 20
-61.2058
 10
1462.6728
 20
-61.1281
 10
1462.5601
 20
-61.0569
 10
1462.4471
 20
-60.9921
 10
1462.3339
 20
-60.9337
 10
1462.2205
 20
-60.8816
 10
1462.1068
 20
-60.8359
 10
1461.993
 20
-60.7965
 10
1461.8789
 20
-60.7633
 10
1461.6432
 20
-60.7108
 10
1461.3961
 20
-60.6734
 10
1461.1383
 20
-60.6511
 10
1460.87
 20
-60.6437
 10
1460.5647
 20
-60.6529
 10
1460.2752
 20
-60.6803
 10
1460.0016
 20
-60.7262
 10
1459.7441
 20
-60.7903
 10
1459.5025
 20
-60.8729
 10
1459.2771
 20
-60.9739
 10
1459.0678
 20
-61.0933
 10
1458.8747
 20
-61.2312
 10
1458.6993
 20
-61.3866
 10
1458.5475
 20
-61.5584
 10
1458.4192
 20
-61.7467
 10
1458.3144
 20
-61.9515
 10
1458.2331
 20
-62.1727
 10
1458.175
 20
-62.4103
 10
1458.1403
 20
-62.6644
 10
1458.1287
 20
-62.9349
 10
1458.1325
 20
-63.0888
 10
1458.1438
 20
-63.2356
 10
1458.1627
 20
-63.3755
 10
1458.1894
 20
-63.5084
 10
1458.2237
 20
-63.6344
 10
1458.2657
 20
-63.7536
 10
1458.3156
 20
-63.866
 10
1458.3733
 20
-63.9716
 10
1458.4393
 20
-64.0714
 10
1458.5149
 20
-64.1677
 10
1458.5998
 20
-64.2605
 10
1458.6943
 20
-64.3498
 10
1458.7981
 20
-64.4355
 10
1458.9114
 20
-64.5177
 10
1459.034
 20
-64.5963
 10
1459.166
 20
-64.6713
 10
1459.2643
 20
-64.7214
 10
1459.3659
 20
-64.7671
 10
1459.4709
 20
-64.8083
 10
1459.579
 20
-64.8451
 10
1459.8051
 20
-64.9056
 10
1460.0439
 20
-64.9487
 10
1460.2936
 20
-64.9801
 10
1460.5513
 20
-65.0022
 10
1460.8174
 20
-65.0153
 10
1461.0923
 20
-65.0196
 10
1461.4254
 20
-65.0102
 10
1461.7713
 20
-64.9819
 10
1462.1293
 20
-64.9347
 10
1462.499
 20
-64.8685
 10
1462.8636
 20
-64.788
 10
1463.204
 20
-64.6948
 10
1463.5202
 20
-64.5893
 10
1463.8123
 20
-64.4715
 10
1463.8407
 20
-64.2082
 10
1463.8539
 20
-63.8432
  0
LWPOLYLINE
  5
B2
330
1F
100
AcDbEntity
  8
Layer 1
 62
     7
100
AcDbPolyline
 90
      176
 70
     1
 43
0.0
 10
1456.0593
 20
-62.9857
 10
1456.0653
 20
-62.7949
 10
1456.0834
 20
-62.6081
 10
1456.1136
 20
-62.4253
 10
1456.1557
 20
-62.2466
 10
1456.2098
 20
-62.0722
 10
1456.2759
 20
-61.902
 10
1456.354
 20
-61.7361
 10
1456.4439
 20
-61.5747
 10
1456.5435
 20
-61.4175
 10
1456.6519
 20
-61.2657
 10
1456.7692
 20
-61.1195
 10
1456.8953
 20
-60.9787
 10
1457.0303
 20
-60.8435
 10
1457.1741
 20
-60.714
 10
1457.3268
 20
-60.5901
 10
1457.4883
 20
-60.4719
 10
1457.6517
 20
-60.3639
 10
1457.8236
 20
-60.262
 10
1458.0042
 20
-60.1662
 10
1458.1934
 20
-60.0766
 10
1458.3913
 20
-59.9931
 10
1458.5978
 20
-59.9157
 10
1458.8131
 20
-59.8445
 10
1459.0371
 20
-59.7795
 10
1459.2653
 20
-59.7206
 10
1459.4946
 20
-59.6696
 10
1459.7251
 20
-59.6267
 10
1459.9565
 20
-59.5916
 10
1460.1888
 20
-59.5644
 10
1460.4219
 20
-59.545
 10
1460.6558
 20
-59.5334
 10
1460.8903
 20
-59.5295
 10
1461.1495
 20
-59.5331
 10
1461.4026
 20
-59.544
 10
1461.6495
 20
-59.5621
 10
1461.8904
 20
-59.5875
 10
1462.1251
 20
-59.62
 10
1462.3537
 20
-59.6598
 10
1462.5761
 20
-59.7067
 10
1462.7923
 20
-59.7608
 10
1463.0028
 20
-59.8225
 10
1463.2057
 20
-59.8904
 10
1463.4011
 20
-59.9646
 10
1463.5891
 20
-60.045
 10
1463.7698
 20
-60.1318
 10
1463.9431
 20
-60.2249
 10
1464.1091
 20
-60.3245
 10
1464.268
 20
-60.4305
 10
1464.4595
 20
-60.5743
 10
1464.6397
 20
-60.7287
 10
1464.8087
 20
-60.8936
 10
1464.9665
 20
-61.069
 10
1465.1132
 20
-61.2551
 10
1465.2488
 20
-61.4519
 10
1465.3733
 20
-61.6593
 10
1465.4869
 20
-61.8775
 10
1465.5887
 20
-62.1087
 10
1465.6771
 20
-62.3546
 10
1465.7521
 20
-62.6153
 10
1465.8136
 20
-62.8906
 10
1465.8615
 20
-63.1807
 10
1465.8958
 20
-63.4855
 10
1465.9164
 20
-63.805
 10
1465.9233
 20
-64.1393
 10
1465.9166
 20
-64.4485
 10
1465.8965
 20
-64.7537
 10
1465.8631
 20
-65.0547
 10
1465.8165
 20
-65.3516
 10
1465.7566
 20
-65.6442
 10
1465.6835
 20
-65.9326
 10
1465.5974
 20
-66.2168
 10
1465.4981
 20
-66.4967
 10
1465.386
 20
-66.7694
 10
1465.2612
 20
-67.03
 10
1465.1238
 20
-67.2787
 10
1464.9737
 20
-67.5156
 10
1464.8111
 20
-67.7406
 10
1464.6359
 20
-67.9538
 10
1464.4481
 20
-68.1554
 10
1464.2477
 20
-68.3454
 10
1464.0229
 20
-68.5348
 10
1463.7869
 20
-68.7126
 10
1463.5399
 20
-68.8788
 10
1463.2819
 20
-69.0333
 10
1463.0129
 20
-69.1763
 10
1462.7332
 20
-69.3077
 10
1462.4428
 20
-69.4275
 10
1462.1417
 20
-69.5358
 10
1461.8244
 20
-69.6317
 10
1461.4892
 20
-69.715
 10
1461.1359
 20
-69.7855
 10
1460.7647
 20
-69.8433
 10
1460.3755
 20
-69.8883
 10
1459.9683
 20
-69.9204
 10
1459.5431
 20
-69.9398
 10
1459.1
 20
-69.9462
 10
1458.2332
 20
-69.9161
 10
1458.0073
 20
-69.8975
 10
1457.7893
 20
-69.8727
 10
1457.5791
 20
-69.8416
 10
1457.3766
 20
-69.8038
 10
1457.3766
 20
-68.5152
 10
1457.4771
 20
-68.5152
 10
1457.6231
 20
-68.5628
 10
1457.8039
 20
-68.6096
 10
1458.0197
 20
-68.6556
 10
1458.2708
 20
-68.701
 10
1458.5433
 20
-68.74
 10
1458.8177
 20
-68.7678
 10
1459.0942
 20
-68.7844
 10
1459.373
 20
-68.7899
 10
1459.858
 20
-68.7764
 10
1460.3167
 20
-68.7357
 10
1460.749
 20
-68.6679
 10
1461.1547
 20
-68.573
 10
1461.5338
 20
-68.4509
 10
1461.8861
 20
-68.3015
 10
1462.2116
 20
-68.1249
 10
1462.5101
 20
-67.921
 10
1462.7794
 20
-67.6918
 10
1463.018
 20
-67.4393
 10
1463.2257
 20
-67.1636
 10
1463.4026
 20
-66.8645
 10
1463.5486
 20
-66.5421
 10
1463.6637
 20
-66.1963
 10
1463.7479
 20
-65.8272
 10
1463.8011
 20
-65.4346
 10
1463.5991
 20
-65.5227
 10
1463.3995
 20
-65.6046
 10
1463.2022
 20
-65.6803
 10
1463.0072
 20
-65.7498
 10
1462.8144
 20
-65.8131
 10
1462.6237
 20
-65.8704
 10
1462.435
 20
-65.9216
 10
1462.2483
 20
-65.9667
 10
1462.062
 20
-66.0063
 10
1461.8716
 20
-66.0405
 10
1461.677
 20
-66.0694
 10
1461.4784
 20
-66.0929
 10
1461.2757
 20
-66.1111
 10
1461.069
 20
-66.1241
 10
1460.8583
 20
-66.1318
 10
1460.6437
 20
-66.1344
 10
1460.4357
 20
-66.1325
 10
1460.232
 20
-66.1267
 10
1460.0328
 20
-66.1171
 10
1459.8382
 20
-66.1037
 10
1459.6483
 20
-66.0865
 10
1459.4632
 20
-66.0656
 10
1459.2831
 20
-66.0411
 10
1459.1081
 20
-66.0128
 10
1458.9337
 20
-65.9792
 10
1458.7593
 20
-65.9384
 10
1458.5847
 20
-65.8905
 10
1458.4101
 20
-65.8355
 10
1458.2354
 20
-65.7732
 10
1458.0605
 20
-65.7037
 10
1457.8856
 20
-65.627
 10
1457.7106
 20
-65.5429
 10
1457.5135
 20
-65.437
 10
1457.3286
 20
-65.3242
 10
1457.1561
 20
-65.2046
 10
1456.9958
 20
-65.0781
 10
1456.8478
 20
-64.9448
 10
1456.712
 20
-64.8046
 10
1456.5886
 20
-64.6575
 10
1456.4774
 20
-64.5036
 10
1456.3799
 20
-64.3422
 10
1456.2952
 20
-64.1728
 10
1456.2233
 20
-63.9953
 10
1456.1644
 20
-63.8098
 10
1456.1185
 20
-63.6161
 10
1456.0857
 20
-63.4142
 10
1456.0659
 20
-63.2041
 10
1456.0593
 20
-62.9857
  0
LWPOLYLINE
  5
B3
330
1F
100
AcDbEntity
  8
Layer 1
 62
     7
100
AcDbPolyline
 90
       65
 70
     1
 43
0.0
 10
1477.3504
 20
-64.7308
 10
1477.3318
 20
-65.3819
 10
1477.2759
 20
-65.9883
 10
1477.1828
 20
-66.5499
 10
1477.0525
 20
-67.0668
 10
1476.8851
 20
-67.539
 10
1476.6807
 20
-67.9664
 10
1476.4393
 20
-68.3491
 10
1476.1609
 20
-68.687
 10
1475.8435
 20
-68.9821
 10
1475.4858
 20
-69.2379
 10
1475.0878
 20
-69.4543
 10
1474.6494
 20
-69.6314
 10
1474.1705
 20
-69.7691
 10
1473.6512
 20
-69.8675
 10
1473.0913
 20
-69.9265
 10
1472.4909
 20
-69.9462
 10
1471.8837
 20
-69.9261
 10
1471.3187
 20
-69.8658
 10
1470.7957
 20
-69.7653
 10
1470.3147
 20
-69.6247
 10
1469.8754
 20
-69.444
 10
1469.4777
 20
-69.2232
 10
1469.1215
 20
-68.9624
 10
1468.8067
 20
-68.6616
 10
1468.5311
 20
-68.3197
 10
1468.2924
 20
-67.9357
 10
1468.0907
 20
-67.5095
 10
1467.9259
 20
-67.0411
 10
1467.7979
 20
-66.5305
 10
1467.7065
 20
-65.9776
 10
1467.6517
 20
-65.3824
 10
1467.6335
 20
-64.7449
 10
1467.6521
 20
-64.0906
 10
1467.7077
 20
-63.4818
 10
1467.8004
 20
-62.9184
 10
1467.9302
 20
-62.4006
 10
1468.0971
 20
-61.9282
 10
1468.301
 20
-61.5013
 10
1468.5419
 20
-61.1199
 10
1468.8199
 20
-60.7841
 10
1469.1383
 20
-60.4897
 10
1469.4967
 20
-60.2347
 10
1469.8952
 20
-60.0191
 10
1470.3338
 20
-59.8427
 10
1470.8126
 20
-59.7056
 10
1471.3317
 20
-59.6078
 10
1471.8911
 20
-59.5491
 10
1472.4909
 20
-59.5295
 10
1473.0979
 20
-59.5498
 10
1473.663
 20
-59.6107
 10
1474.1862
 20
-59.7121
 10
1474.6675
 20
-59.8542
 10
1475.1071
 20
-60.0367
 10
1475.5048
 20
-60.2598
 10
1475.8608
 20
-60.5234
 10
1476.1751
 20
-60.8275
 10
1476.4506
 20
-61.172
 10
1476.6893
 20
-61.5575
 10
1476.8913
 20
-61.9839
 10
1477.0566
 20
-62.4513
 10
1477.1851
 20
-62.9597
 10
1477.2769
 20
-63.5091
 10
1477.332
 20
-64.0994
 10
1477.3504
 20
-64.7308
  0
LWPOLYLINE
  5
B4
330
1F
100
AcDbEntity
  8
Layer 1
 62
     7
100
AcDbPolyline
 90
      129
 70
     1
 43
0.0
 10
1474.7369
 20
-67.7786
 10
1474.809
 20
-67.65
 10
1474.8754
 20
-67.5134
 10
1474.9362
 20
-67.3686
 10
1474.9914
 20
-67.2158
 10
1475.0412
 20
-67.0547
 10
1475.0857
 20
-66.8854
 10
1475.125
 20
-66.7079
 10
1475.1591
 20
-66.5221
 10
1475.1874
 20
-66.3286
 10
1475.212
 20
-66.1264
 10
1475.2329
 20
-65.9156
 10
1475.2501
 20
-65.6962
 10
1475.2635
 20
-65.468
 10
1475.2731
 20
-65.231
 10
1475.279
 20
-64.9853
 10
1475.2809
 20
-64.7308
 10
1475.279
 20
-64.4785
 10
1475.2731
 20
-64.2345
 10
1475.2635
 20
-63.9988
 10
1475.2501
 20
-63.7714
 10
1475.2329
 20
-63.5524
 10
1475.212
 20
-63.3419
 10
1475.1874
 20
-63.1398
 10
1475.1591
 20
-62.9463
 10
1475.1248
 20
-62.7604
 10
1475.0851
 20
-62.5826
 10
1475.0398
 20
-62.4128
 10
1474.9891
 20
-62.2512
 10
1474.9329
 20
-62.0977
 10
1474.8711
 20
-61.9521
 10
1474.8037
 20
-61.8146
 10
1474.7308
 20
-61.685
 10
1474.6503
 20
-61.5609
 10
1474.5627
 20
-61.4447
 10
1474.4679
 20
-61.3363
 10
1474.366
 20
-61.2357
 10
1474.2571
 20
-61.1428
 10
1474.1411
 20
-61.0575
 10
1474.0183
 20
-60.9799
 10
1473.8885
 20
-60.9097
 10
1473.7484
 20
-60.8476
 10
1473.5985
 20
-60.7937
 10
1473.4386
 20
-60.748
 10
1473.2689
 20
-60.7106
 10
1473.0892
 20
-60.6814
 10
1472.8997
 20
-60.6605
 10
1472.7002
 20
-60.6479
 10
1472.4909
 20
-60.6437
 10
1472.2839
 20
-60.6479
 10
1472.0861
 20
-60.6605
 10
1471.8975
 20
-60.6814
 10
1471.7184
 20
-60.7106
 10
1471.5487
 20
-60.748
 10
1471.3886
 20
-60.7937
 10
1471.2382
 20
-60.8476
 10
1471.0974
 20
-60.9097
 10
1470.9643
 20
-60.9801
 10
1470.8382
 20
-61.0584
 10
1470.7192
 20
-61.1446
 10
1470.6074
 20
-61.2389
 10
1470.5028
 20
-61.3412
 10
1470.4056
 20
-61.4515
 10
1470.3159
 20
-61.5699
 10
1470.2337
 20
-61.6964
 10
1470.1599
 20
-61.8288
 10
1470.0923
 20
-61.9693
 10
1470.0308
 20
-62.118
 10
1469.9753
 20
-62.2749
 10
1469.9259
 20
-62.44
 10
1469.8825
 20
-62.6135
 10
1469.845
 20
-62.7954
 10
1469.8135
 20
-62.9857
 10
1469.7877
 20
-63.184
 10
1469.7653
 20
-63.3883
 10
1469.7461
 20
-63.5988
 10
1469.7303
 20
-63.8154
 10
1469.718
 20
-64.0383
 10
1469.7091
 20
-64.2675
 10
1469.7037
 20
-64.503
 10
1469.7019
 20
-64.7449
 10
1469.7034
 20
-65.001
 10
1469.7078
 20
-65.2466
 10
1469.7153
 20
-65.4816
 10
1469.7258
 20
-65.706
 10
1469.7393
 20
-65.9197
 10
1469.7559
 20
-66.1228
 10
1469.7755
 20
-66.3151
 10
1469.7983
 20
-66.4967
 10
1469.8259
 20
-66.67
 10
1469.8609
 20
-66.8389
 10
1469.9032
 20
-67.0033
 10
1469.9528
 20
-67.1634
 10
1470.0098
 20
-67.3189
 10
1470.074
 20
-67.4699
 10
1470.1457
 20
-67.6162
 10
1470.2246
 20
-67.7579
 10
1470.3017
 20
-67.8833
 10
1470.3869
 20
-68.0014
 10
1470.4801
 20
-68.112
 10
1470.5813
 20
-68.2153
 10
1470.6905
 20
-68.3112
 10
1470.8077
 20
-68.3996
 10
1470.9329
 20
-68.4805
 10
1471.0659
 20
-68.554
 10
1471.2072
 20
-68.6193
 10
1471.3592
 20
-68.6757
 10
1471.5219
 20
-68.7234
 10
1471.6951
 20
-68.7623
 10
1471.8787
 20
-68.7926
 10
1472.0726
 20
-68.8141
 10
1472.2767
 20
-68.827
 10
1472.4909
 20
-68.8313
 10
1472.6979
 20
-68.8271
 10
1472.8957
 20
-68.8146
 10
1473.0842
 20
-68.7937
 10
1473.2635
 20
-68.7645
 10
1473.4336
 20
-68.727
 10
1473.5945
 20
-68.6813
 10
1473.7461
 20
-68.6274
 10
1473.8885
 20
-68.5653
 10
1474.0207
 20
-68.4952
 10
1474.1455
 20
-68.417
 10
1474.2629
 20
-68.3309
 10
1474.3729
 20
-68.2366
 10
1474.4753
 20
-68.1343
 10
1474.5701
 20
-68.0239
 10
1474.6573
 20
-67.9053
 10
1474.7369
 20
-67.7786
  0
LWPOLYLINE
  5
B5
330
1F
100
AcDbEntity
  8
Layer 1
 62
     7
100
AcDbPolyline
 90
      172
 70
     1
 43
0.0
 10
1499.0464
 20
-69.7397
 10
1499.0464
 20
-65.4005
 10
1499.0424
 20
-65.1471
 10
1499.0306
 20
-64.9033
 10
1499.0109
 20
-64.6689
 10
1498.9835
 20
-64.4441
 10
1498.9668
 20
-64.3371
 10
1498.9457
 20
-64.236
 10
1498.9202
 20
-64.1409
 10
1498.8905
 20
-64.0518
 10
1498.8565
 20
-63.9685
 10
1498.8184
 20
-63.8911
 10
1498.7761
 20
-63.8195
 10
1498.7298
 20
-63.7537
 10
1498.676
 20
-63.689
 10
1498.6166
 20
-63.6287
 10
1498.5518
 20
-63.5729
 10
1498.4815
 20
-63.5214
 10
1498.4058
 20
-63.4743
 10
1498.3249
 20
-63.4316
 10
1498.2386
 20
-63.3933
 10
1498.1472
 20
-63.3593
 10
1498.049
 20
-63.3294
 10
1497.9424
 20
-63.3034
 10
1497.8275
 20
-63.2814
 10
1497.7043
 20
-63.2633
 10
1497.4329
 20
-63.2391
 10
1497.1282
 20
-63.231
 10
1496.9779
 20
-63.2348
 10
1496.8253
 20
-63.246
 10
1496.6704
 20
-63.2648
 10
1496.5129
 20
-63.2912
 10
1496.3529
 20
-63.325
 10
1496.1902
 20
-63.3663
 10
1496.0248
 20
-63.4152
 10
1495.8565
 20
-63.4716
 10
1495.6856
 20
-63.5344
 10
1495.5132
 20
-63.604
 10
1495.3394
 20
-63.6805
 10
1495.1642
 20
-63.7637
 10
1494.9876
 20
-63.8537
 10
1494.8096
 20
-63.9504
 10
1494.6303
 20
-64.0538
 10
1494.4498
 20
-64.164
 10
1494.4762
 20
-64.4347
 10
1494.4904
 20
-64.809
 10
1494.4904
 20
-69.7397
 10
1492.5681
 20
-69.7397
 10
1492.5681
 20
-65.4005
 10
1492.5643
 20
-65.1471
 10
1492.5528
 20
-64.9033
 10
1492.5334
 20
-64.6689
 10
1492.5062
 20
-64.4441
 10
1492.4898
 20
-64.3371
 10
1492.4689
 20
-64.236
 10
1492.4434
 20
-64.1409
 10
1492.4136
 20
-64.0518
 10
1492.3795
 20
-63.9685
 10
1492.3412
 20
-63.8911
 10
1492.2989
 20
-63.8195
 10
1492.2525
 20
-63.7537
 10
1492.1985
 20
-63.689
 10
1492.1391
 20
-63.6287
 10
1492.0744
 20
-63.5729
 10
1492.0044
 20
-63.5214
 10
1491.929
 20
-63.4743
 10
1491.8483
 20
-63.4316
 10
1491.7623
 20
-63.3933
 10
1491.671
 20
-63.3593
 10
1491.5724
 20
-63.3294
 10
1491.4653
 20
-63.3034
 10
1491.3499
 20
-63.2814
 10
1491.2263
 20
-63.2633
 10
1490.9543
 20
-63.2391
 10
1490.6499
 20
-63.231
 10
1490.4926
 20
-63.235
 10
1490.3336
 20
-63.2469
 10
1490.1727
 20
-63.2669
 10
1490.01
 20
-63.2949
 10
1489.8454
 20
-63.331
 10
1489.6789
 20
-63.3751
 10
1489.5103
 20
-63.4273
 10
1489.3397
 20
-63.4876
 10
1489.001
 20
-63.6255
 10
1488.6669
 20
-63.7807
 10
1488.3376
 20
-63.9535
 10
1488.0132
 20
-64.144
 10
1488.0132
 20
-69.7397
 10
1486.0919
 20
-69.7397
 10
1486.0919
 20
-62.2405
 10
1488.0132
 20
-62.2405
 10
1488.0132
 20
-63.0753
 10
1488.2021
 20
-62.9547
 10
1488.3904
 20
-62.8411
 10
1488.5782
 20
-62.7344
 10
1488.7656
 20
-62.6348
 10
1488.9526
 20
-62.5422
 10
1489.1391
 20
-62.4566
 10
1489.3253
 20
-62.3781
 10
1489.5112
 20
-62.3066
 10
1489.6991
 20
-62.2429
 10
1489.8915
 20
-62.1876
 10
1490.0883
 20
-62.1407
 10
1490.2896
 20
-62.1023
 10
1490.4955
 20
-62.0724
 10
1490.7061
 20
-62.051
 10
1490.9213
 20
-62.0382
 10
1491.1412
 20
-62.0339
 10
1491.3895
 20
-62.0386
 10
1491.631
 20
-62.0528
 10
1491.8659
 20
-62.0765
 10
1492.0938
 20
-62.1096
 10
1492.3147
 20
-62.1522
 10
1492.5286
 20
-62.2042
 10
1492.7352
 20
-62.2657
 10
1492.9345
 20
-62.3367
 10
1493.1233
 20
-62.4184
 10
1493.3006
 20
-62.5122
 10
1493.4664
 20
-62.618
 10
1493.6206
 20
-62.7359
 10
1493.7633
 20
-62.866
 10
1493.8942
 20
-63.0082
 10
1494.0135
 20
-63.1626
 10
1494.121
 20
-63.3292
 10
1494.3386
 20
-63.175
 10
1494.5545
 20
-63.0303
 10
1494.7689
 20
-62.8951
 10
1494.9817
 20
-62.7695
 10
1495.1931
 20
-62.6535
 10
1495.403
 20
-62.5472
 10
1495.6116
 20
-62.4508
 10
1495.8189
 20
-62.3641
 10
1496.0285
 20
-62.2866
 10
1496.2423
 20
-62.2194
 10
1496.4604
 20
-62.1627
 10
1496.6829
 20
-62.1163
 10
1496.9099
 20
-62.0802
 10
1497.1414
 20
-62.0545
 10
1497.3776
 20
-62.039
 10
1497.6184
 20
-62.0339
 10
1497.9784
 20
-62.0433
 10
1498.3215
 20
-62.0716
 10
1498.4866
 20
-62.0929
 10
1498.6475
 20
-62.1188
 10
1498.804
 20
-62.1495
 10
1498.9561
 20
-62.185
 10
1499.1038
 20
-62.2256
 10
1499.2468
 20
-62.2719
 10
1499.3852
 20
-62.3239
 10
1499.519
 20
-62.3817
 10
1499.648
 20
-62.4452
 10
1499.7723
 20
-62.5147
 10
1499.8918
 20
-62.5901
 10
1500.0065
 20
-62.6716
 10
1500.1182
 20
-62.76
 10
1500.2236
 20
-62.8535
 10
1500.3224
 20
-62.9521
 10
1500.4148
 20
-63.0559
 10
1500.5005
 20
-63.1649
 10
1500.5797
 20
-63.2793
 10
1500.6522
 20
-63.3991
 10
1500.718
 20
-63.5244
 10
1500.7765
 20
-63.6558
 10
1500.8274
 20
-63.7954
 10
1500.8704
 20
-63.9432
 10
1500.9058
 20
-64.0992
 10
1500.9333
 20
-64.2635
 10
1500.9529
 20
-64.4361
 10
1500.9648
 20
-64.6171
 10
1500.9687
 20
-64.8064
 10
1500.9687
 20
-69.7397
 10
1499.0464
 20
-69.7397
  0
LWPOLYLINE
  5
B6
330
1F
100
AcDbEntity
  8
Layer 1
 62
     7
100
AcDbPolyline
 90
      172
 70
     1
 43
0.0
 10
1516.5934
 20
-69.7397
 10
1516.5934
 20
-65.4005
 10
1516.5896
 20
-65.1471
 10
1516.5781
 20
-64.9033
 10
1516.5587
 20
-64.6689
 10
1516.5315
 20
-64.4441
 10
1516.5148
 20
-64.3371
 10
1516.4937
 20
-64.236
 10
1516.4683
 20
-64.1409
 10
1516.4386
 20
-64.0518
 10
1516.4046
 20
-63.9685
 10
1516.3664
 20
-63.8911
 10
1516.3241
 20
-63.8195
 10
1516.2778
 20
-63.7537
 10
1516.224
 20
-63.689
 10
1516.1648
 20
-63.6287
 10
1516.1001
 20
-63.5729
 10
1516.0299
 20
-63.5214
 10
1515.9543
 20
-63.4743
 10
1515.8733
 20
-63.4316
 10
1515.7869
 20
-63.3933
 10
1515.6952
 20
-63.3593
 10
1515.597
 20
-63.3294
 10
1515.4904
 20
-63.3034
 10
1515.3755
 20
-63.2814
 10
1515.2523
 20
-63.2633
 10
1514.9809
 20
-63.2391
 10
1514.6762
 20
-63.231
 10
1514.5259
 20
-63.2348
 10
1514.3733
 20
-63.246
 10
1514.2184
 20
-63.2648
 10
1514.0609
 20
-63.2912
 10
1513.9009
 20
-63.325
 10
1513.7382
 20
-63.3663
 10
1513.5728
 20
-63.4152
 10
1513.4045
 20
-63.4716
 10
1513.2336
 20
-63.5344
 10
1513.0613
 20
-63.604
 10
1512.8875
 20
-63.6805
 10
1512.7123
 20
-63.7637
 10
1512.5357
 20
-63.8537
 10
1512.3577
 20
-63.9504
 10
1512.1784
 20
-64.0538
 10
1511.9979
 20
-64.164
 10
1512.0243
 20
-64.4347
 10
1512.0385
 20
-64.809
 10
1512.0385
 20
-69.7397
 10
1510.1162
 20
-69.7397
 10
1510.1162
 20
-65.4005
 10
1510.1124
 20
-65.1471
 10
1510.1009
 20
-64.9033
 10
1510.0815
 20
-64.6689
 10
1510.0543
 20
-64.4441
 10
1510.0379
 20
-64.3371
 10
1510.0169
 20
-64.236
 10
1509.9915
 20
-64.1409
 10
1509.9617
 20
-64.0518
 10
1509.9276
 20
-63.9685
 10
1509.8893
 20
-63.8911
 10
1509.8469
 20
-63.8195
 10
1509.8006
 20
-63.7537
 10
1509.7465
 20
-63.689
 10
1509.6871
 20
-63.6287
 10
1509.6224
 20
-63.5729
 10
1509.5524
 20
-63.5214
 10
1509.477
 20
-63.4743
 10
1509.3964
 20
-63.4316
 10
1509.3103
 20
-63.3933
 10
1509.219
 20
-63.3593
 10
1509.1204
 20
-63.3294
 10
1509.0134
 20
-63.3034
 10
1508.898
 20
-63.2814
 10
1508.7744
 20
-63.2633
 10
1508.5024
 20
-63.2391
 10
1508.198
 20
-63.231
 10
1508.0407
 20
-63.235
 10
1507.8817
 20
-63.2469
 10
1507.7208
 20
-63.2669
 10
1507.5581
 20
-63.2949
 10
1507.3934
 20
-63.331
 10
1507.2269
 20
-63.3751
 10
1507.0583
 20
-63.4273
 10
1506.8877
 20
-63.4876
 10
1506.549
 20
-63.6255
 10
1506.2149
 20
-63.7807
 10
1505.8856
 20
-63.9535
 10
1505.5612
 20
-64.144
 10
1505.5612
 20
-69.7397
 10
1503.64
 20
-69.7397
 10
1503.64
 20
-62.2405
 10
1505.5612
 20
-62.2405
 10
1505.5612
 20
-63.0753
 10
1505.7501
 20
-62.9547
 10
1505.9384
 20
-62.8411
 10
1506.1263
 20
-62.7344
 10
1506.3137
 20
-62.6348
 10
1506.5006
 20
-62.5422
 10
1506.6872
 20
-62.4566
 10
1506.8733
 20
-62.3781
 10
1507.0592
 20
-62.3066
 10
1507.2471
 20
-62.2429
 10
1507.4395
 20
-62.1876
 10
1507.6363
 20
-62.1407
 10
1507.8377
 20
-62.1023
 10
1508.0436
 20
-62.0724
 10
1508.2541
 20
-62.051
 10
1508.4693
 20
-62.0382
 10
1508.6892
 20
-62.0339
 10
1508.9378
 20
-62.0386
 10
1509.1795
 20
-62.0528
 10
1509.4144
 20
-62.0765
 10
1509.6422
 20
-62.1096
 10
1509.8631
 20
-62.1522
 10
1510.0768
 20
-62.2042
 10
1510.2833
 20
-62.2657
 10
1510.4826
 20
-62.3367
 10
1510.6714
 20
-62.4184
 10
1510.8487
 20
-62.5122
 10
1511.0144
 20
-62.618
 10
1511.1687
 20
-62.7359
 10
1511.3113
 20
-62.866
 10
1511.4422
 20
-63.0082
 10
1511.5615
 20
-63.1626
 10
1511.669
 20
-63.3292
 10
1511.8866
 20
-63.175
 10
1512.1026
 20
-63.0303
 10
1512.317
 20
-62.8951
 10
1512.5298
 20
-62.7695
 10
1512.7412
 20
-62.6535
 10
1512.9511
 20
-62.5472
 10
1513.1597
 20
-62.4508
 10
1513.367
 20
-62.3641
 10
1513.5765
 20
-62.2866
 10
1513.7903
 20
-62.2194
 10
1514.0085
 20
-62.1627
 10
1514.2311
 20
-62.1163
 10
1514.4582
 20
-62.0802
 10
1514.6899
 20
-62.0545
 10
1514.9263
 20
-62.039
 10
1515.1675
 20
-62.0339
 10
1515.5269
 20
-62.0433
 10
1515.8697
 20
-62.0716
 10
1516.0347
 20
-62.0929
 10
1516.1955
 20
-62.1188
 10
1516.352
 20
-62.1495
 10
1516.5041
 20
-62.185
 10
1516.6518
 20
-62.2256
 10
1516.7948
 20
-62.2719
 10
1516.9333
 20
-62.3239
 10
1517.067
 20
-62.3817
 10
1517.1961
 20
-62.4452
 10
1517.3204
 20
-62.5147
 10
1517.4399
 20
-62.5901
 10
1517.5546
 20
-62.6716
 10
1517.6663
 20
-62.76
 10
1517.7717
 20
-62.8535
 10
1517.8705
 20
-62.9521
 10
1517.9628
 20
-63.0559
 10
1518.0486
 20
-63.1649
 10
1518.1277
 20
-63.2793
 10
1518.2002
 20
-63.3991
 10
1518.266
 20
-63.5244
 10
1518.3246
 20
-63.6558
 10
1518.3754
 20
-63.7954
 10
1518.4185
 20
-63.9432
 10
1518.4538
 20
-64.0992
 10
1518.4813
 20
-64.2635
 10
1518.5009
 20
-64.4361
 10
1518.5128
 20
-64.6171
 10
1518.5167
 20
-64.8064
 10
1518.5167
 20
-69.7397
 10
1516.5934
 20
-69.7397
  0
LWPOLYLINE
  5
B7
330
1F
100
AcDbEntity
  8
Layer 1
 62
     7
100
AcDbPolyline
 90
      162
 70
     1
 43
0.0
 10
1564.1538
 20
-30.5841
 10
1564.1483
 20
-30.7638
 10
1564.1318
 20
-30.9402
 10
1564.1043
 20
-31.1131
 10
1564.0658
 20
-31.2827
 10
1564.0164
 20
-31.449
 10
1563.956
 20
-31.612
 10
1563.8848
 20
-31.7717
 10
1563.8027
 20
-31.9282
 10
1563.7106
 20
-32.0802
 10
1563.6094
 20
-32.2268
 10
1563.4993
 20
-32.3681
 10
1563.3802
 20
-32.5041
 10
1563.2523
 20
-32.6346
 10
1563.1156
 20
-32.7599
 10
1562.9702
 20
-32.8797
 10
1562.8162
 20
-32.9942
 10
1562.6508
 20
-33.1057
 10
1562.4758
 20
-33.2111
 10
1562.2912
 20
-33.3104
 10
1562.0969
 20
-33.4036
 10
1561.8927
 20
-33.4906
 10
1561.6787
 20
-33.5715
 10
1561.4547
 20
-33.6462
 10
1561.2207
 20
-33.7147
 10
1560.9783
 20
-33.7758
 10
1560.729
 20
-33.8289
 10
1560.4728
 20
-33.8738
 10
1560.2095
 20
-33.9106
 10
1559.939
 20
-33.9392
 10
1559.6612
 20
-33.9597
 10
1559.376
 20
-33.972
 10
1559.0833
 20
-33.9761
 10
1558.8107
 20
-33.9736
 10
1558.5395
 20
-33.9662
 10
1558.2696
 20
-33.9538
 10
1558.001
 20
-33.9365
 10
1557.7335
 20
-33.9142
 10
1557.4672
 20
-33.887
 10
1557.202
 20
-33.8548
 10
1556.9377
 20
-33.8177
 10
1556.6785
 20
-33.7766
 10
1556.4277
 20
-33.7325
 10
1556.1854
 20
-33.6853
 10
1555.9517
 20
-33.635
 10
1555.7268
 20
-33.5816
 10
1555.5108
 20
-33.5251
 10
1555.3037
 20
-33.4654
 10
1555.1058
 20
-33.4026
 10
1555.1058
 20
-31.981
 10
1555.2489
 20
-31.981
 10
1555.9218
 20
-32.2443
 10
1556.892
 20
-32.5197
 10
1557.9922
 20
-32.7423
 10
1558.2511
 20
-32.7767
 10
1558.5242
 20
-32.8009
 10
1558.8119
 20
-32.8151
 10
1559.1147
 20
-32.8198
 10
1559.4204
 20
-32.8108
 10
1559.7212
 20
-32.7837
 10
1560.0173
 20
-32.7386
 10
1560.3093
 20
-32.6754
 10
1560.4527
 20
-32.6365
 10
1560.5906
 20
-32.5921
 10
1560.7232
 20
-32.542
 10
1560.8505
 20
-32.4864
 10
1560.9725
 20
-32.4251
 10
1561.0894
 20
-32.3582
 10
1561.2012
 20
-32.2857
 10
1561.308
 20
-32.2076
 10
1561.4008
 20
-32.1321
 10
1561.4876
 20
-32.0536
 10
1561.5684
 20
-31.972
 10
1561.6434
 20
-31.8872
 10
1561.7127
 20
-31.7991
 10
1561.7764
 20
-31.7078
 10
1561.8346
 20
-31.6131
 10
1561.8875
 20
-31.5151
 10
1561.9336
 20
-31.4139
 10
1561.9736
 20
-31.3082
 10
1562.0076
 20
-31.1981
 10
1562.0355
 20
-31.0836
 10
1562.0573
 20
-30.9646
 10
1562.0729
 20
-30.8413
 10
1562.0823
 20
-30.7135
 10
1562.0854
 20
-30.5814
 10
1562.0819
 20
-30.4513
 10
1562.0715
 20
-30.3271
 10
1562.0542
 20
-30.209
 10
1562.0301
 20
-30.0968
 10
1561.9991
 20
-29.9905
 10
1561.9612
 20
-29.8903
 10
1561.9166
 20
-29.796
 10
1561.8652
 20
-29.7078
 10
1561.8073
 20
-29.6238
 10
1561.7433
 20
-29.5436
 10
1561.6731
 20
-29.4672
 10
1561.5967
 20
-29.3947
 10
1561.514
 20
-29.3259
 10
1561.425
 20
-29.2608
 10
1561.3296
 20
-29.1994
 10
1561.2278
 20
-29.1417
 10
1561.1153
 20
-29.0804
 10
1560.9965
 20
-29.0237
 10
1560.8712
 20
-28.9718
 10
1560.7397
 20
-28.9245
 10
1560.602
 20
-28.8818
 10
1560.4581
 20
-28.8437
 10
1560.3081
 20
-28.8103
 10
1560.152
 20
-28.7814
 10
1559.8246
 20
-28.7362
 10
1559.479
 20
-28.7038
 10
1559.1148
 20
-28.6843
 10
1558.7321
 20
-28.6778
 10
1558.5253
 20
-28.6791
 10
1558.3184
 20
-28.6831
 10
1558.1112
 20
-28.6897
 10
1557.9037
 20
-28.699
 10
1557.6959
 20
-28.7109
 10
1557.4879
 20
-28.7255
 10
1557.2795
 20
-28.7427
 10
1557.0707
 20
-28.7627
 10
1555.733
 20
-28.9258
 10
1555.733
 20
-23.7659
 10
1564.0696
 20
-23.7659
 10
1564.0696
 20
-24.9356
 10
1557.6969
 20
-24.9356
 10
1557.6969
 20
-27.6024
 10
1558.4205
 20
-27.5637
 10
1559.0721
 20
-27.5496
 10
1559.3578
 20
-27.5516
 10
1559.6321
 20
-27.5577
 10
1559.895
 20
-27.5678
 10
1560.1466
 20
-27.582
 10
1560.3871
 20
-27.6001
 10
1560.6166
 20
-27.6221
 10
1560.8353
 20
-27.6481
 10
1561.0431
 20
-27.678
 10
1561.2438
 20
-27.7136
 10
1561.4424
 20
-27.7567
 10
1561.639
 20
-27.8073
 10
1561.8337
 20
-27.8655
 10
1562.0265
 20
-27.9312
 10
1562.2174
 20
-28.0046
 10
1562.4065
 20
-28.0854
 10
1562.5939
 20
-28.1739
 10
1562.7765
 20
-28.2712
 10
1562.9484
 20
-28.3742
 10
1563.1093
 20
-28.4829
 10
1563.2593
 20
-28.5974
 10
1563.3983
 20
-28.7177
 10
1563.5263
 20
-28.8438
 10
1563.6432
 20
-28.9757
 10
1563.7489
 20
-29.1136
 10
1563.8438
 20
-29.2601
 10
1563.926
 20
-29.4172
 10
1563.9956
 20
-29.5851
 10
1564.0526
 20
-29.7636
 10
1564.0969
 20
-29.9528
 10
1564.1285
 20
-30.1526
 10
1564.1475
 20
-30.363
 10
1564.1538
 20
-30.5841
  0
LWPOLYLINE
  5
B8
330
1F
100
AcDbEntity
  8
Layer 1
 62
     7
100
AcDbPolyline
 90
       27
 70
     1
 43
0.0
 10
1574.9536
 20
-33.7696
 10
1567.5356
 20
-33.7696
 10
1567.5356
 20
-32.7509
 10
1570.2931
 20
-32.7509
 10
1570.2931
 20
-26.0364
 10
1567.5356
 20
-26.0364
 10
1567.5356
 20
-25.1281
 10
1567.9136
 20
-25.1235
 10
1568.266
 20
-25.1096
 10
1568.5926
 20
-25.0866
 10
1568.8937
 20
-25.0543
 10
1569.1691
 20
-25.013
 10
1569.4188
 20
-24.9626
 10
1569.643
 20
-24.9031
 10
1569.8415
 20
-24.8347
 10
1570.0157
 20
-24.7532
 10
1570.1699
 20
-24.6553
 10
1570.304
 20
-24.5409
 10
1570.4181
 20
-24.4102
 10
1570.512
 20
-24.2631
 10
1570.5858
 20
-24.0998
 10
1570.6394
 20
-23.9202
 10
1570.6727
 20
-23.7245
 10
1572.259
 20
-23.7245
 10
1572.259
 20
-32.7509
 10
1574.9536
 20
-32.7509
 10
1574.9536
 20
-33.7696
  0
LWPOLYLINE
  5
B9
330
1F
100
AcDbEntity
  8
Layer 1
 62
     7
100
AcDbPolyline
 90
       65
 70
     1
 43
0.0
 10
1587.216
 20
-28.7607
 10
1587.1974
 20
-29.4118
 10
1587.1416
 20
-30.0182
 10
1587.0487
 20
-30.5798
 10
1586.9187
 20
-31.0967
 10
1586.7517
 20
-31.5689
 10
1586.5476
 20
-31.9963
 10
1586.3065
 20
-32.379
 10
1586.0285
 20
-32.7169
 10
1585.7107
 20
-33.012
 10
1585.3527
 20
-33.2678
 10
1584.9544
 20
-33.4842
 10
1584.5159
 20
-33.6613
 10
1584.037
 20
-33.799
 10
1583.5178
 20
-33.8974
 10
1582.9583
 20
-33.9564
 10
1582.3585
 20
-33.9761
 10
1581.7512
 20
-33.956
 10
1581.186
 20
-33.8957
 10
1580.6627
 20
-33.7952
 10
1580.1814
 20
-33.6546
 10
1579.7419
 20
-33.4739
 10
1579.3441
 20
-33.2531
 10
1578.9879
 20
-32.9923
 10
1578.6733
 20
-32.6915
 10
1578.3979
 20
-32.3496
 10
1578.1593
 20
-31.9656
 10
1577.9575
 20
-31.5394
 10
1577.7924
 20
-31.071
 10
1577.664
 20
-30.5604
 10
1577.5724
 20
-30.0075
 10
1577.5174
 20
-29.4123
 10
1577.4991
 20
-28.7748
 10
1577.5177
 20
-28.1205
 10
1577.5735
 20
-27.5117
 10
1577.6664
 20
-26.9483
 10
1577.7965
 20
-26.4305
 10
1577.9636
 20
-25.9581
 10
1578.1679
 20
-25.5312
 10
1578.4092
 20
-25.1498
 10
1578.6876
 20
-24.814
 10
1579.0053
 20
-24.5196
 10
1579.3632
 20
-24.2646
 10
1579.7614
 20
-24.049
 10
1580.1999
 20
-23.8726
 10
1580.6788
 20
-23.7355
 10
1581.1982
 20
-23.6377
 10
1581.7581
 20
-23.579
 10
1582.3585
 20
-23.5594
 10
1582.9655
 20
-23.5797
 10
1583.5305
 20
-23.6406
 10
1584.0535
 20
-23.742
 10
1584.5347
 20
-23.8841
 10
1584.974
 20
-24.0666
 10
1585.3716
 20
-24.2897
 10
1585.7275
 20
-24.5533
 10
1586.0417
 20
-24.8574
 10
1586.3174
 20
-25.2019
 10
1586.5561
 20
-25.5874
 10
1586.758
 20
-26.0138
 10
1586.923
 20
-26.4812
 10
1587.0513
 20
-26.9896
 10
1587.1428
 20
-27.539
 10
1587.1977
 20
-28.1293
 10
1587.216
 20
-28.7607
  0
LWPOLYLINE
  5
BA
330
1F
100
AcDbEntity
  8
Layer 1
 62
     7
100
AcDbPolyline
 90
      129
 70
     1
 43
0.0
 10
1584.6046
 20
-31.8085
 10
1584.6761
 20
-31.6799
 10
1584.7422
 20
-31.5433
 10
1584.8028
 20
-31.3985
 10
1584.858
 20
-31.2457
 10
1584.9078
 20
-31.0846
 10
1584.9522
 20
-30.9153
 10
1584.9912
 20
-30.7378
 10
1585.0247
 20
-30.552
 10
1585.0532
 20
-30.3585
 10
1585.078
 20
-30.1563
 10
1585.0989
 20
-29.9455
 10
1585.1161
 20
-29.7261
 10
1585.1294
 20
-29.4979
 10
1585.1389
 20
-29.2609
 10
1585.1446
 20
-29.0152
 10
1585.1465
 20
-28.7607
 10
1585.1446
 20
-28.5084
 10
1585.1389
 20
-28.2644
 10
1585.1294
 20
-28.0287
 10
1585.1161
 20
-27.8013
 10
1585.0989
 20
-27.5823
 10
1585.078
 20
-27.3718
 10
1585.0532
 20
-27.1697
 10
1585.0247
 20
-26.9762
 10
1584.991
 20
-26.7903
 10
1584.9517
 20
-26.6125
 10
1584.9066
 20
-26.4427
 10
1584.856
 20
-26.2811
 10
1584.7997
 20
-26.1276
 10
1584.7379
 20
-25.982
 10
1584.6705
 20
-25.8445
 10
1584.5975
 20
-25.7149
 10
1584.5167
 20
-25.5908
 10
1584.4287
 20
-25.4746
 10
1584.3337
 20
-25.3662
 10
1584.2317
 20
-25.2656
 10
1584.1227
 20
-25.1727
 10
1584.0067
 20
-25.0874
 10
1583.8839
 20
-25.0098
 10
1583.7541
 20
-24.9396
 10
1583.6147
 20
-24.8775
 10
1583.4651
 20
-24.8236
 10
1583.3055
 20
-24.7779
 10
1583.1358
 20
-24.7405
 10
1582.9563
 20
-24.7113
 10
1582.7668
 20
-24.6904
 10
1582.5675
 20
-24.6778
 10
1582.3585
 20
-24.6736
 10
1582.1512
 20
-24.6778
 10
1581.9532
 20
-24.6904
 10
1581.7647
 20
-24.7113
 10
1581.5857
 20
-24.7405
 10
1581.4161
 20
-24.7779
 10
1581.2561
 20
-24.8236
 10
1581.1057
 20
-24.8775
 10
1580.965
 20
-24.9396
 10
1580.8313
 20
-25.01
 10
1580.7048
 20
-25.0883
 10
1580.5856
 20
-25.1745
 10
1580.4737
 20
-25.2688
 10
1580.3692
 20
-25.3711
 10
1580.2721
 20
-25.4814
 10
1580.1825
 20
-25.5998
 10
1580.1003
 20
-25.7263
 10
1580.0268
 20
-25.8587
 10
1579.9593
 20
-25.9992
 10
1579.8978
 20
-26.1479
 10
1579.8423
 20
-26.3048
 10
1579.7928
 20
-26.4699
 10
1579.7492
 20
-26.6434
 10
1579.7117
 20
-26.8253
 10
1579.6801
 20
-27.0156
 10
1579.6543
 20
-27.2139
 10
1579.6317
 20
-27.4182
 10
1579.6124
 20
-27.6287
 10
1579.5964
 20
-27.8453
 10
1579.5839
 20
-28.0682
 10
1579.5748
 20
-28.2974
 10
1579.5693
 20
-28.5329
 10
1579.5675
 20
-28.7748
 10
1579.569
 20
-29.0309
 10
1579.5736
 20
-29.2765
 10
1579.5812
 20
-29.5115
 10
1579.5919
 20
-29.7359
 10
1579.6056
 20
-29.9496
 10
1579.6223
 20
-30.1527
 10
1579.6421
 20
-30.345
 10
1579.6649
 20
-30.5266
 10
1579.6926
 20
-30.6999
 10
1579.7277
 20
-30.8688
 10
1579.7701
 20
-31.0332
 10
1579.8199
 20
-31.1933
 10
1579.8769
 20
-31.3488
 10
1579.9411
 20
-31.4998
 10
1580.0126
 20
-31.6461
 10
1580.0912
 20
-31.7878
 10
1580.168
 20
-31.9132
 10
1580.2531
 20
-32.0313
 10
1580.3463
 20
-32.1419
 10
1580.4477
 20
-32.2452
 10
1580.5571
 20
-32.341
 10
1580.6747
 20
-32.4294
 10
1580.8002
 20
-32.5104
 10
1580.9336
 20
-32.5838
 10
1581.0748
 20
-32.6491
 10
1581.2267
 20
-32.7056
 10
1581.3893
 20
-32.7533
 10
1581.5623
 20
-32.7922
 10
1581.7458
 20
-32.8224
 10
1581.9398
 20
-32.844
 10
1582.144
 20
-32.8569
 10
1582.3585
 20
-32.8612
 10
1582.5655
 20
-32.857
 10
1582.7632
 20
-32.8445
 10
1582.9517
 20
-32.8236
 10
1583.1309
 20
-32.7944
 10
1583.3007
 20
-32.7569
 10
1583.4612
 20
-32.7112
 10
1583.6124
 20
-32.6573
 10
1583.7541
 20
-32.5952
 10
1583.8867
 20
-32.5251
 10
1584.0119
 20
-32.4469
 10
1584.1296
 20
-32.3608
 10
1584.2398
 20
-32.2665
 10
1584.3425
 20
-32.1642
 10
1584.4376
 20
-32.0538
 10
1584.525
 20
-31.9352
 10
1584.6046
 20
-31.8085
  0
LWPOLYLINE
  5
BB
330
1F
100
AcDbEntity
  8
Layer 1
 62
     7
100
AcDbPolyline
 90
      172
 70
     1
 43
0.0
 10
1608.912
 20
-33.7696
 10
1608.912
 20
-29.4304
 10
1608.9083
 20
-29.177
 10
1608.897
 20
-28.9332
 10
1608.8777
 20
-28.6988
 10
1608.8501
 20
-28.474
 10
1608.8337
 20
-28.367
 10
1608.8127
 20
-28.2659
 10
1608.7873
 20
-28.1708
 10
1608.7575
 20
-28.0817
 10
1608.7234
 20
-27.9984
 10
1608.6851
 20
-27.921
 10
1608.6428
 20
-27.8494
 10
1608.5964
 20
-27.7836
 10
1608.5426
 20
-27.7189
 10
1608.4834
 20
-27.6586
 10
1608.4187
 20
-27.6028
 10
1608.3486
 20
-27.5513
 10
1608.2731
 20
-27.5042
 10
1608.1923
 20
-27.4615
 10
1608.1062
 20
-27.4232
 10
1608.0148
 20
-27.3892
 10
1607.9163
 20
-27.3593
 10
1607.8095
 20
-27.3333
 10
1607.6944
 20
-27.3113
 10
1607.571
 20
-27.2932
 10
1607.2995
 20
-27.269
 10
1606.9948
 20
-27.2609
 10
1606.8445
 20
-27.2647
 10
1606.6918
 20
-27.2759
 10
1606.5367
 20
-27.2947
 10
1606.3792
 20
-27.3211
 10
1606.2191
 20
-27.3549
 10
1606.0564
 20
-27.3962
 10
1605.8911
 20
-27.4451
 10
1605.7231
 20
-27.5015
 10
1605.5525
 20
-27.5643
 10
1605.3803
 20
-27.6339
 10
1605.2064
 20
-27.7104
 10
1605.0311
 20
-27.7936
 10
1604.8542
 20
-27.8836
 10
1604.6759
 20
-27.9803
 10
1604.4963
 20
-28.0837
 10
1604.3154
 20
-28.1939
 10
1604.3438
 20
-28.4646
 10
1604.357
 20
-28.8389
 10
1604.357
 20
-33.7696
 10
1602.4358
 20
-33.7696
 10
1602.4358
 20
-29.4304
 10
1602.4318
 20
-29.177
 10
1602.42
 20
-28.9332
 10
1602.4003
 20
-28.6988
 10
1602.3729
 20
-28.474
 10
1602.3564
 20
-28.367
 10
1602.3354
 20
-28.2659
 10
1602.3097
 20
-28.1708
 10
1602.2797
 20
-28.0817
 10
1602.2455
 20
-27.9984
 10
1602.207
 20
-27.921
 10
1602.1645
 20
-27.8494
 10
1602.1181
 20
-27.7836
 10
1602.0643
 20
-27.7189
 10
1602.0051
 20
-27.6586
 10
1601.9405
 20
-27.6028
 10
1601.8705
 20
-27.5513
 10
1601.7951
 20
-27.5042
 10
1601.7145
 20
-27.4615
 10
1601.6286
 20
-27.4232
 10
1601.5376
 20
-27.3892
 10
1601.4393
 20
-27.3593
 10
1601.3324
 20
-27.3333
 10
1601.217
 20
-27.3113
 10
1601.0932
 20
-27.2932
 10
1600.8206
 20
-27.269
 10
1600.5155
 20
-27.2609
 10
1600.3582
 20
-27.2649
 10
1600.1992
 20
-27.2768
 10
1600.0384
 20
-27.2968
 10
1599.8759
 20
-27.3248
 10
1599.7115
 20
-27.3609
 10
1599.5453
 20
-27.405
 10
1599.3772
 20
-27.4572
 10
1599.2073
 20
-27.5175
 10
1598.868
 20
-27.6554
 10
1598.5338
 20
-27.8106
 10
1598.2047
 20
-27.9834
 10
1597.8808
 20
-28.1739
 10
1597.8808
 20
-33.7696
 10
1595.9585
 20
-33.7696
 10
1595.9585
 20
-26.2703
 10
1597.8808
 20
-26.2703
 10
1597.8808
 20
-27.1052
 10
1598.0693
 20
-26.9846
 10
1598.2574
 20
-26.871
 10
1598.4451
 20
-26.7643
 10
1598.6323
 20
-26.6647
 10
1598.8192
 20
-26.5721
 10
1599.0057
 20
-26.4865
 10
1599.1919
 20
-26.408
 10
1599.3778
 20
-26.3365
 10
1599.5655
 20
-26.2728
 10
1599.7578
 20
-26.2175
 10
1599.9547
 20
-26.1706
 10
1600.1562
 20
-26.1322
 10
1600.3621
 20
-26.1023
 10
1600.5726
 20
-26.0809
 10
1600.7875
 20
-26.0681
 10
1601.0068
 20
-26.0638
 10
1601.2557
 20
-26.0685
 10
1601.4977
 20
-26.0827
 10
1601.7327
 20
-26.1064
 10
1601.9607
 20
-26.1395
 10
1602.1816
 20
-26.1821
 10
1602.3953
 20
-26.2341
 10
1602.6018
 20
-26.2956
 10
1602.8011
 20
-26.3666
 10
1602.9899
 20
-26.4483
 10
1603.1674
 20
-26.5421
 10
1603.3333
 20
-26.6479
 10
1603.4877
 20
-26.7658
 10
1603.6305
 20
-26.8959
 10
1603.7617
 20
-27.0381
 10
1603.881
 20
-27.1925
 10
1603.9886
 20
-27.3591
 10
1604.2059
 20
-27.2049
 10
1604.4216
 20
-27.0602
 10
1604.6358
 20
-26.925
 10
1604.8484
 20
-26.7994
 10
1605.0596
 20
-26.6834
 10
1605.2693
 20
-26.5771
 10
1605.4776
 20
-26.4807
 10
1605.6845
 20
-26.394
 10
1605.8944
 20
-26.3165
 10
1606.1085
 20
-26.2493
 10
1606.3268
 20
-26.1926
 10
1606.5495
 20
-26.1462
 10
1606.7767
 20
-26.1101
 10
1607.0084
 20
-26.0844
 10
1607.2448
 20
-26.0689
 10
1607.486
 20
-26.0638
 10
1607.8453
 20
-26.0732
 10
1608.1878
 20
-26.1015
 10
1608.3528
 20
-26.1227
 10
1608.5136
 20
-26.1487
 10
1608.6703
 20
-26.1794
 10
1608.8227
 20
-26.2149
 10
1608.9707
 20
-26.2555
 10
1609.1139
 20
-26.3018
 10
1609.2523
 20
-26.3538
 10
1609.3861
 20
-26.4116
 10
1609.5151
 20
-26.4751
 10
1609.6395
 20
-26.5446
 10
1609.7592
 20
-26.62
 10
1609.8742
 20
-26.7015
 10
1609.9859
 20
-26.7899
 10
1610.091
 20
-26.8834
 10
1610.1895
 20
-26.982
 10
1610.2815
 20
-27.0858
 10
1610.367
 20
-27.1948
 10
1610.446
 20
-27.3092
 10
1610.5186
 20
-27.429
 10
1610.5846
 20
-27.5543
 10
1610.6434
 20
-27.6857
 10
1610.6943
 20
-27.8253
 10
1610.7372
 20
-27.9731
 10
1610.7723
 20
-28.1291
 10
1610.7995
 20
-28.2934
 10
1610.8188
 20
-28.466
 10
1610.8304
 20
-28.647
 10
1610.8343
 20
-28.8363
 10
1610.8343
 20
-33.7696
 10
1608.912
 20
-33.7696
  0
LWPOLYLINE
  5
BC
330
1F
100
AcDbEntity
  8
Layer 1
 62
     7
100
AcDbPolyline
 90
      172
 70
     1
 43
0.0
 10
1626.4601
 20
-33.7696
 10
1626.4601
 20
-29.4304
 10
1626.4564
 20
-29.177
 10
1626.4451
 20
-28.9332
 10
1626.4258
 20
-28.6988
 10
1626.3981
 20
-28.474
 10
1626.3817
 20
-28.367
 10
1626.3608
 20
-28.2659
 10
1626.3353
 20
-28.1708
 10
1626.3055
 20
-28.0817
 10
1626.2714
 20
-27.9984
 10
1626.2331
 20
-27.921
 10
1626.1908
 20
-27.8494
 10
1626.1444
 20
-27.7836
 10
1626.0906
 20
-27.7189
 10
1626.0314
 20
-27.6586
 10
1625.9667
 20
-27.6028
 10
1625.8967
 20
-27.5513
 10
1625.8212
 20
-27.5042
 10
1625.7404
 20
-27.4615
 10
1625.6543
 20
-27.4232
 10
1625.5629
 20
-27.3892
 10
1625.4644
 20
-27.3593
 10
1625.3576
 20
-27.3333
 10
1625.2425
 20
-27.3113
 10
1625.1191
 20
-27.2932
 10
1624.8476
 20
-27.269
 10
1624.5429
 20
-27.2609
 10
1624.3925
 20
-27.2647
 10
1624.2398
 20
-27.2759
 10
1624.0847
 20
-27.2947
 10
1623.9272
 20
-27.3211
 10
1623.7671
 20
-27.3549
 10
1623.6045
 20
-27.3962
 10
1623.4392
 20
-27.4451
 10
1623.2712
 20
-27.5015
 10
1623.1006
 20
-27.5643
 10
1622.9283
 20
-27.6339
 10
1622.7545
 20
-27.7104
 10
1622.5791
 20
-27.7936
 10
1622.4023
 20
-27.8836
 10
1622.224
 20
-27.9803
 10
1622.0444
 20
-28.0837
 10
1621.8635
 20
-28.1939
 10
1621.8919
 20
-28.4646
 10
1621.9051
 20
-28.8389
 10
1621.9051
 20
-33.7696
 10
1619.9838
 20
-33.7696
 10
1619.9838
 20
-29.4304
 10
1619.9797
 20
-29.177
 10
1619.9676
 20
-28.9332
 10
1619.9479
 20
-28.6988
 10
1619.9209
 20
-28.474
 10
1619.9044
 20
-28.367
 10
1619.8834
 20
-28.2659
 10
1619.8577
 20
-28.1708
 10
1619.8278
 20
-28.0817
 10
1619.7935
 20
-27.9984
 10
1619.755
 20
-27.921
 10
1619.7126
 20
-27.8494
 10
1619.6662
 20
-27.7836
 10
1619.6124
 20
-27.7189
 10
1619.5532
 20
-27.6586
 10
1619.4886
 20
-27.6028
 10
1619.4185
 20
-27.5513
 10
1619.3432
 20
-27.5042
 10
1619.2625
 20
-27.4615
 10
1619.1767
 20
-27.4232
 10
1619.0856
 20
-27.3892
 10
1618.9873
 20
-27.3593
 10
1618.8804
 20
-27.3333
 10
1618.765
 20
-27.3113
 10
1618.6412
 20
-27.2932
 10
1618.3687
 20
-27.269
 10
1618.0636
 20
-27.2609
 10
1617.9063
 20
-27.2649
 10
1617.7473
 20
-27.2768
 10
1617.5865
 20
-27.2968
 10
1617.4239
 20
-27.3248
 10
1617.2595
 20
-27.3609
 10
1617.0933
 20
-27.405
 10
1616.9252
 20
-27.4572
 10
1616.7553
 20
-27.5175
 10
1616.416
 20
-27.6554
 10
1616.0818
 20
-27.8106
 10
1615.7527
 20
-27.9834
 10
1615.4288
 20
-28.1739
 10
1615.4288
 20
-33.7696
 10
1613.5066
 20
-33.7696
 10
1613.5066
 20
-26.2703
 10
1615.4288
 20
-26.2703
 10
1615.4288
 20
-27.1052
 10
1615.6173
 20
-26.9846
 10
1615.8054
 20
-26.871
 10
1615.9931
 20
-26.7643
 10
1616.1804
 20
-26.6647
 10
1616.3673
 20
-26.5721
 10
1616.5538
 20
-26.4865
 10
1616.74
 20
-26.408
 10
1616.9259
 20
-26.3365
 10
1617.1136
 20
-26.2728
 10
1617.3058
 20
-26.2175
 10
1617.5027
 20
-26.1706
 10
1617.7042
 20
-26.1322
 10
1617.9101
 20
-26.1023
 10
1618.1206
 20
-26.0809
 10
1618.3355
 20
-26.0681
 10
1618.5548
 20
-26.0638
 10
1618.8037
 20
-26.0685
 10
1619.0455
 20
-26.0827
 10
1619.2804
 20
-26.1064
 10
1619.5082
 20
-26.1395
 10
1619.7289
 20
-26.1821
 10
1619.9425
 20
-26.2341
 10
1620.149
 20
-26.2956
 10
1620.3482
 20
-26.3666
 10
1620.5373
 20
-26.4483
 10
1620.715
 20
-26.5421
 10
1620.8811
 20
-26.6479
 10
1621.0357
 20
-26.7658
 10
1621.1786
 20
-26.8959
 10
1621.3097
 20
-27.0381
 10
1621.4291
 20
-27.1925
 10
1621.5367
 20
-27.3591
 10
1621.754
 20
-27.2049
 10
1621.9696
 20
-27.0602
 10
1622.1838
 20
-26.925
 10
1622.3964
 20
-26.7994
 10
1622.6076
 20
-26.6834
 10
1622.8173
 20
-26.5771
 10
1623.0256
 20
-26.4807
 10
1623.2326
 20
-26.394
 10
1623.4425
 20
-26.3165
 10
1623.6565
 20
-26.2493
 10
1623.8748
 20
-26.1926
 10
1624.0975
 20
-26.1462
 10
1624.3247
 20
-26.1101
 10
1624.5565
 20
-26.0844
 10
1624.7929
 20
-26.0689
 10
1625.0341
 20
-26.0638
 10
1625.3934
 20
-26.0732
 10
1625.7359
 20
-26.1015
 10
1625.9009
 20
-26.1227
 10
1626.0617
 20
-26.1487
 10
1626.2183
 20
-26.1794
 10
1626.3707
 20
-26.2149
 10
1626.5187
 20
-26.2555
 10
1626.6619
 20
-26.3018
 10
1626.8004
 20
-26.3538
 10
1626.9341
 20
-26.4116
 10
1627.0632
 20
-26.4751
 10
1627.1875
 20
-26.5446
 10
1627.3072
 20
-26.62
 10
1627.4222
 20
-26.7015
 10
1627.5339
 20
-26.7899
 10
1627.639
 20
-26.8834
 10
1627.7375
 20
-26.982
 10
1627.8296
 20
-27.0858
 10
1627.9151
 20
-27.1948
 10
1627.9941
 20
-27.3092
 10
1628.0667
 20
-27.429
 10
1628.1327
 20
-27.5543
 10
1628.1915
 20
-27.6857
 10
1628.2423
 20
-27.8253
 10
1628.2852
 20
-27.9731
 10
1628.3203
 20
-28.1291
 10
1628.3475
 20
-28.2934
 10
1628.3668
 20
-28.466
 10
1628.3784
 20
-28.647
 10
1628.3823
 20
-28.8363
 10
1628.3823
 20
-33.7696
 10
1626.4601
 20
-33.7696
  0
LWPOLYLINE
  5
BD
330
1F
100
AcDbEntity
  8
Layer 1
 62
     7
100
AcDbPolyline
 90
       13
 70
     1
 43
0.0
 10
1748.1851
 20
91.55
 10
1748.1851
 20
89.9646
 10
1737.372
 20
89.9646
 10
1737.372
 20
84.5207
 10
1748.1851
 20
84.5207
 10
1748.1851
 20
82.9346
 10
1726.1054
 20
82.9346
 10
1726.1054
 20
84.5207
 10
1734.7617
 20
84.5207
 10
1734.7617
 20
89.9646
 10
1726.1054
 20
89.9646
 10
1726.1054
 20
91.55
 10
1748.1851
 20
91.55
  0
LWPOLYLINE
  5
BE
330
1F
100
AcDbEntity
  8
Layer 1
 62
     7
100
AcDbPolyline
 90
       70
 70
     1
 43
0.0
 10
1768.7413
 20
69.5697
 10
1768.4909
 20
69.5627
 10
1768.251
 20
69.5417
 10
1768.0217
 20
69.5067
 10
1767.8029
 20
69.4576
 10
1767.5945
 20
69.3944
 10
1767.3965
 20
69.3171
 10
1767.2087
 20
69.2256
 10
1767.0312
 20
69.1199
 10
1766.8709
 20
69.0026
 10
1766.7319
 20
68.8744
 10
1766.6142
 20
68.7352
 10
1766.5178
 20
68.585
 10
1766.4427
 20
68.4239
 10
1766.3891
 20
68.2518
 10
1766.3568
 20
68.0687
 10
1766.3461
 20
67.8747
 10
1766.3557
 20
67.6958
 10
1766.3846
 20
67.5254
 10
1766.4326
 20
67.3635
 10
1766.5
 20
67.21
 10
1766.5866
 20
67.0647
 10
1766.6925
 20
66.9276
 10
1766.8177
 20
66.7986
 10
1766.9622
 20
66.6776
 10
1767.122
 20
66.5688
 10
1767.2956
 20
66.4743
 10
1767.4828
 20
66.3943
 10
1767.6837
 20
66.3287
 10
1767.8982
 20
66.2776
 10
1768.1264
 20
66.2411
 10
1768.3682
 20
66.2191
 10
1768.6236
 20
66.2118
 10
1768.8091
 20
66.2156
 10
1768.9872
 20
66.2268
 10
1769.158
 20
66.2455
 10
1769.3216
 20
66.2717
 10
1769.4781
 20
66.3053
 10
1769.6276
 20
66.3463
 10
1769.77
 20
66.3947
 10
1769.9055
 20
66.4504
 10
1770.0341
 20
66.5136
 10
1770.1595
 20
66.5842
 10
1770.2819
 20
66.6624
 10
1770.401
 20
66.7482
 10
1770.5171
 20
66.8414
 10
1770.6299
 20
66.9421
 10
1770.7397
 20
67.0504
 10
1770.8463
 20
67.1662
 10
1771.3253
 20
67.7992
 10
1771.4717
 20
68.0075
 10
1771.6005
 20
68.2064
 10
1771.712
 20
68.3955
 10
1771.8064
 20
68.5745
 10
1771.6346
 20
68.7141
 10
1771.4616
 20
68.8419
 10
1771.2874
 20
68.9581
 10
1771.1121
 20
69.0626
 10
1770.9355
 20
69.1554
 10
1770.7578
 20
69.2364
 10
1770.5789
 20
69.3057
 10
1770.3987
 20
69.3632
 10
1770.2141
 20
69.4116
 10
1770.0233
 20
69.4536
 10
1769.8261
 20
69.4891
 10
1769.6225
 20
69.5181
 10
1769.4124
 20
69.5407
 10
1769.1955
 20
69.5568
 10
1768.9719
 20
69.5665
 10
1768.7413
 20
69.5697
  0
LWPOLYLINE
  5
BF
330
1F
100
AcDbEntity
  8
Layer 1
 62
     7
100
AcDbPolyline
 90
       70
 70
     1
 43
0.0
 10
1776.3695
 20
69.7762
 10
1776.1411
 20
69.7724
 10
1775.9246
 20
69.7611
 10
1775.7203
 20
69.7422
 10
1775.528
 20
69.7157
 10
1775.3479
 20
69.6816
 10
1775.1799
 20
69.6398
 10
1775.0241
 20
69.5902
 10
1774.8806
 20
69.533
 10
1774.7423
 20
69.4657
 10
1774.6036
 20
69.3842
 10
1774.4643
 20
69.2885
 10
1774.3244
 20
69.1786
 10
1774.1838
 20
69.0545
 10
1774.0423
 20
68.9163
 10
1773.8997
 20
68.7638
 10
1773.7561
 20
68.5972
 10
1773.6575
 20
68.4728
 10
1773.5551
 20
68.33
 10
1773.4489
 20
68.1682
 10
1773.339
 20
67.987
 10
1772.8051
 20
67.1268
 10
1772.9505
 20
66.9917
 10
1773.1037
 20
66.8648
 10
1773.2647
 20
66.7459
 10
1773.4336
 20
66.6352
 10
1773.6107
 20
66.5326
 10
1773.7959
 20
66.4382
 10
1773.9895
 20
66.3519
 10
1774.1915
 20
66.2739
 10
1774.4002
 20
66.2046
 10
1774.6162
 20
66.1445
 10
1774.8394
 20
66.0936
 10
1775.0698
 20
66.052
 10
1775.3073
 20
66.0196
 10
1775.5521
 20
65.9964
 10
1775.804
 20
65.9825
 10
1776.063
 20
65.9779
 10
1776.4003
 20
65.9865
 10
1776.7224
 20
66.0123
 10
1777.0295
 20
66.0553
 10
1777.3216
 20
66.1153
 10
1777.5987
 20
66.1925
 10
1777.8609
 20
66.2866
 10
1778.1081
 20
66.3978
 10
1778.3405
 20
66.5259
 10
1778.5507
 20
66.6678
 10
1778.7329
 20
66.8184
 10
1778.8871
 20
66.9777
 10
1779.0133
 20
67.1457
 10
1779.1114
 20
67.3223
 10
1779.1816
 20
67.5077
 10
1779.2237
 20
67.7019
 10
1779.2377
 20
67.9048
 10
1779.2256
 20
68.1112
 10
1779.1894
 20
68.3072
 10
1779.1292
 20
68.4928
 10
1779.045
 20
68.668
 10
1778.9368
 20
68.8328
 10
1778.8048
 20
68.9871
 10
1778.649
 20
69.1309
 10
1778.4694
 20
69.2643
 10
1778.2674
 20
69.3845
 10
1778.0481
 20
69.4887
 10
1777.8115
 20
69.5766
 10
1777.5576
 20
69.6486
 10
1777.2864
 20
69.7045
 10
1776.998
 20
69.7443
 10
1776.6924
 20
69.7682
 10
1776.3695
 20
69.7762
  0
LWPOLYLINE
  5
C0
330
1F
100
AcDbEntity
  8
Layer 1
 62
     7
100
AcDbPolyline
 90
      147
 70
     1
 43
0.0
 10
1780.7641
 20
67.8774
 10
1780.7589
 20
67.6928
 10
1780.7431
 20
67.5125
 10
1780.7169
 20
67.3365
 10
1780.68
 20
67.1647
 10
1780.6326
 20
66.9971
 10
1780.5745
 20
66.8337
 10
1780.5057
 20
66.6744
 10
1780.4262
 20
66.5192
 10
1780.3378
 20
66.3689
 10
1780.2399
 20
66.2243
 10
1780.1328
 20
66.0853
 10
1780.0163
 20
65.952
 10
1779.8905
 20
65.8243
 10
1779.7555
 20
65.7025
 10
1779.6113
 20
65.5863
 10
1779.4579
 20
65.4759
 10
1779.3003
 20
65.3733
 10
1779.1358
 20
65.2772
 10
1778.9643
 20
65.1875
 10
1778.7858
 20
65.1041
 10
1778.6004
 20
65.027
 10
1778.4081
 20
64.9563
 10
1778.2088
 20
64.8918
 10
1778.0025
 20
64.8336
 10
1777.7895
 20
64.7828
 10
1777.5739
 20
64.7386
 10
1777.3554
 20
64.7012
 10
1777.134
 20
64.6705
 10
1776.9097
 20
64.6466
 10
1776.6823
 20
64.6294
 10
1776.4519
 20
64.6191
 10
1776.2183
 20
64.6157
 10
1775.9124
 20
64.6225
 10
1775.6129
 20
64.6428
 10
1775.3196
 20
64.6768
 10
1775.0325
 20
64.7243
 10
1774.7516
 20
64.7856
 10
1774.4767
 20
64.8605
 10
1774.2078
 20
64.9491
 10
1773.9449
 20
65.0515
 10
1773.6927
 20
65.1669
 10
1773.4537
 20
65.2945
 10
1773.2279
 20
65.4345
 10
1773.0153
 20
65.5868
 10
1772.8159
 20
65.7514
 10
1772.6296
 20
65.9285
 10
1772.4565
 20
66.1181
 10
1772.2966
 20
66.3201
 10
1772.2347
 20
66.3201
 10
1772.0695
 20
66.1403
 10
1771.9006
 20
65.9727
 10
1771.7278
 20
65.8174
 10
1771.5513
 20
65.6742
 10
1771.371
 20
65.543
 10
1771.187
 20
65.4239
 10
1770.9992
 20
65.3166
 10
1770.8077
 20
65.2212
 10
1770.6068
 20
65.1373
 10
1770.3939
 20
65.0647
 10
1770.1691
 20
65.0032
 10
1769.9323
 20
64.953
 10
1769.6838
 20
64.9139
 10
1769.4236
 20
64.886
 10
1769.1517
 20
64.8693
 10
1768.8682
 20
64.8637
 10
1768.4474
 20
64.877
 10
1768.0445
 20
64.917
 10
1767.6594
 20
64.9836
 10
1767.2923
 20
65.0768
 10
1766.9432
 20
65.1967
 10
1766.612
 20
65.3433
 10
1766.299
 20
65.5165
 10
1766.0041
 20
65.7165
 10
1765.7365
 20
65.937
 10
1765.5046
 20
66.1719
 10
1765.3083
 20
66.4211
 10
1765.1478
 20
66.6847
 10
1765.0229
 20
66.9625
 10
1764.9337
 20
67.2546
 10
1764.8801
 20
67.5609
 10
1764.8623
 20
67.8814
 10
1764.8793
 20
68.2136
 10
1764.9302
 20
68.529
 10
1765.0151
 20
68.8276
 10
1765.1339
 20
69.1093
 10
1765.2867
 20
69.3741
 10
1765.4733
 20
69.622
 10
1765.6939
 20
69.853
 10
1765.9483
 20
70.067
 10
1766.2308
 20
70.2599
 10
1766.532
 20
70.4271
 10
1766.8517
 20
70.5687
 10
1767.1902
 20
70.6845
 10
1767.5473
 20
70.7745
 10
1767.9231
 20
70.8389
 10
1768.3178
 20
70.8775
 10
1768.7312
 20
70.8904
 10
1768.987
 20
70.8843
 10
1769.2421
 20
70.866
 10
1769.4963
 20
70.8354
 10
1769.7498
 20
70.7926
 10
1770.0023
 20
70.7375
 10
1770.2539
 20
70.6702
 10
1770.5044
 20
70.5906
 10
1770.7539
 20
70.4988
 10
1770.998
 20
70.3951
 10
1771.228
 20
70.2805
 10
1771.4439
 20
70.1551
 10
1771.6461
 20
70.0187
 10
1771.8345
 20
69.8716
 10
1772.0094
 20
69.7136
 10
1772.1708
 20
69.5448
 10
1772.319
 20
69.3652
 10
1772.3768
 20
69.3652
 10
1772.5378
 20
69.5771
 10
1772.7066
 20
69.7756
 10
1772.8833
 20
69.9609
 10
1773.068
 20
70.1329
 10
1773.2609
 20
70.2917
 10
1773.4621
 20
70.4372
 10
1773.6718
 20
70.5695
 10
1773.8901
 20
70.6886
 10
1774.1208
 20
70.7943
 10
1774.367
 20
70.8858
 10
1774.6287
 20
70.9631
 10
1774.9062
 20
71.0263
 10
1775.1996
 20
71.0754
 10
1775.5091
 20
71.1104
 10
1775.8347
 20
71.1314
 10
1776.1767
 20
71.1384
 10
1776.6553
 20
71.1239
 10
1777.1139
 20
71.0803
 10
1777.5526
 20
71.0077
 10
1777.9712
 20
70.906
 10
1778.3699
 20
70.7751
 10
1778.7487
 20
70.6151
 10
1779.1077
 20
70.4258
 10
1779.4468
 20
70.2074
 10
1779.7555
 20
69.9671
 10
1780.023
 20
69.7123
 10
1780.2494
 20
69.443
 10
1780.4347
 20
69.1592
 10
1780.5788
 20
68.8607
 10
1780.6817
 20
68.5477
 10
1780.7435
 20
68.2199
 10
1780.7641
 20
67.8774
  0
LWPOLYLINE
  5
C1
330
1F
100
AcDbEntity
  8
Layer 1
 62
     7
100
AcDbPolyline
 90
        5
 70
     1
 43
0.0
 10
1780.4089
 20
74.5211
 10
1780.4089
 20
72.9116
 10
1777.5042
 20
72.9116
 10
1777.5042
 20
74.5211
 10
1780.4089
 20
74.5211
  0
LWPOLYLINE
  5
C2
330
1F
100
AcDbEntity
  8
Layer 1
 62
     7
100
AcDbPolyline
 90
      166
 70
     1
 43
0.0
 10
1775.5718
 20
82.5937
 10
1775.8444
 20
82.5901
 10
1776.1119
 20
82.5792
 10
1776.3744
 20
82.5611
 10
1776.6318
 20
82.5357
 10
1776.8842
 20
82.5032
 10
1777.1316
 20
82.4635
 10
1777.3742
 20
82.4166
 10
1777.6118
 20
82.3625
 10
1777.8426
 20
82.3018
 10
1778.0653
 20
82.2352
 10
1778.2798
 20
82.1627
 10
1778.4863
 20
82.0844
 10
1778.6846
 20
82.0002
 10
1778.8747
 20
81.9103
 10
1779.0568
 20
81.8147
 10
1779.2306
 20
81.7135
 10
1779.4002
 20
81.6046
 10
1779.5604
 20
81.4893
 10
1779.7112
 20
81.3677
 10
1779.8526
 20
81.2398
 10
1779.9847
 20
81.1053
 10
1780.1074
 20
80.9644
 10
1780.2207
 20
80.8169
 10
1780.3247
 20
80.6628
 10
1780.4176
 20
80.5031
 10
1780.4982
 20
80.3389
 10
1780.5665
 20
80.17
 10
1780.6226
 20
79.9965
 10
1780.6662
 20
79.8182
 10
1780.6975
 20
79.6352
 10
1780.7162
 20
79.4473
 10
1780.7225
 20
79.2545
 10
1780.7187
 20
79.0752
 10
1780.7075
 20
78.8968
 10
1780.6887
 20
78.7192
 10
1780.6624
 20
78.5424
 10
1780.6285
 20
78.3663
 10
1780.5872
 20
78.1909
 10
1780.5384
 20
78.0162
 10
1780.482
 20
77.8422
 10
1780.4196
 20
77.6713
 10
1780.3525
 20
77.506
 10
1780.2808
 20
77.3464
 10
1780.2044
 20
77.1926
 10
1780.1232
 20
77.0446
 10
1780.0373
 20
76.9024
 10
1779.9464
 20
76.7661
 10
1779.8507
 20
76.6358
 10
1777.692
 20
76.6358
 10
1777.692
 20
76.7301
 10
1777.7836
 20
76.8156
 10
1777.8806
 20
76.9177
 10
1777.9835
 20
77.0366
 10
1778.0929
 20
77.1725
 10
1778.511
 20
77.8122
 10
1778.6137
 20
78.0059
 10
1778.7043
 20
78.191
 10
1778.7828
 20
78.3679
 10
1778.849
 20
78.5367
 10
1778.9012
 20
78.7068
 10
1778.9379
 20
78.8864
 10
1778.9596
 20
79.0758
 10
1778.9667
 20
79.2752
 10
1778.9633
 20
79.3763
 10
1778.953
 20
79.4765
 10
1778.9358
 20
79.5759
 10
1778.9118
 20
79.6746
 10
1778.8808
 20
79.7725
 10
1778.843
 20
79.8696
 10
1778.7982
 20
79.9661
 10
1778.7465
 20
80.0619
 10
1778.6875
 20
80.1565
 10
1778.6201
 20
80.2476
 10
1778.5442
 20
80.335
 10
1778.4598
 20
80.4189
 10
1778.3668
 20
80.4993
 10
1778.2652
 20
80.5763
 10
1778.155
 20
80.65
 10
1778.036
 20
80.7203
 10
1777.9218
 20
80.7812
 10
1777.8028
 20
80.8383
 10
1777.679
 20
80.8914
 10
1777.5502
 20
80.9408
 10
1777.2777
 20
81.0284
 10
1776.9846
 20
81.1012
 10
1776.8312
 20
81.1318
 10
1776.671
 20
81.1582
 10
1776.5039
 20
81.1806
 10
1776.3301
 20
81.199
 10
1775.9619
 20
81.2234
 10
1775.5667
 20
81.2316
 10
1775.1806
 20
81.2226
 10
1774.8309
 20
81.1955
 10
1774.6697
 20
81.1752
 10
1774.5177
 20
81.1504
 10
1774.3748
 20
81.1211
 10
1774.2412
 20
81.0872
 10
1774.1133
 20
81.0491
 10
1773.9914
 20
81.0069
 10
1773.8755
 20
80.9606
 10
1773.7654
 20
80.9102
 10
1773.661
 20
80.8557
 10
1773.5623
 20
80.7971
 10
1773.4692
 20
80.7344
 10
1773.3816
 20
80.6675
 10
1773.2884
 20
80.5932
 10
1773.2023
 20
80.5149
 10
1773.1233
 20
80.4324
 10
1773.0514
 20
80.3458
 10
1772.9865
 20
80.2552
 10
1772.9287
 20
80.1605
 10
1772.878
 20
80.0618
 10
1772.8345
 20
79.959
 10
1772.7977
 20
79.8525
 10
1772.7657
 20
79.743
 10
1772.7385
 20
79.6306
 10
1772.7162
 20
79.5152
 10
1772.6987
 20
79.3968
 10
1772.6862
 20
79.2753
 10
1772.6787
 20
79.1508
 10
1772.6762
 20
79.0233
 10
1772.6842
 20
78.7511
 10
1772.7083
 20
78.478
 10
1772.7486
 20
78.2039
 10
1772.8051
 20
77.9291
 10
1773.0538
 20
77.0489
 10
1765.2185
 20
77.0489
 10
1765.2185
 20
82.5389
 10
1766.9936
 20
82.5389
 10
1766.9936
 20
78.3422
 10
1771.0432
 20
78.3422
 10
1770.9853
 20
78.8187
 10
1770.963
 20
79.2478
 10
1770.9661
 20
79.4358
 10
1770.9755
 20
79.6163
 10
1770.991
 20
79.7894
 10
1771.0126
 20
79.9552
 10
1771.0403
 20
80.1137
 10
1771.0739
 20
80.2649
 10
1771.1135
 20
80.4089
 10
1771.1589
 20
80.5458
 10
1771.2129
 20
80.6777
 10
1771.2784
 20
80.8084
 10
1771.3553
 20
80.9378
 10
1771.4437
 20
81.0659
 10
1771.5436
 20
81.1928
 10
1771.6549
 20
81.3185
 10
1771.7777
 20
81.443
 10
1771.912
 20
81.5664
 10
1772.0597
 20
81.6867
 10
1772.216
 20
81.7999
 10
1772.381
 20
81.9059
 10
1772.5547
 20
82.0047
 10
1772.7372
 20
82.0964
 10
1772.9287
 20
82.1808
 10
1773.1293
 20
82.2579
 10
1773.339
 20
82.3277
 10
1773.561
 20
82.39
 10
1773.7994
 20
82.444
 10
1774.0542
 20
82.4897
 10
1774.3252
 20
82.5271
 10
1774.6125
 20
82.5562
 10
1774.9161
 20
82.577
 10
1775.2358
 20
82.5895
 10
1775.5718
 20
82.5937
  0
LWPOLYLINE
  5
C3
330
1F
100
AcDbEntity
  8
Layer 1
 62
     7
100
AcDbPolyline
 90
      166
 70
     1
 43
0.0
 10
1780.4089
 20
97.0474
 10
1773.819
 20
97.0474
 10
1772.3677
 20
97.0066
 10
1772.0512
 20
96.9816
 10
1771.7712
 20
96.9451
 10
1771.5273
 20
96.8973
 10
1771.3192
 20
96.8389
 10
1771.2209
 20
96.8035
 10
1771.1293
 20
96.7645
 10
1771.0444
 20
96.7219
 10
1770.9661
 20
96.6757
 10
1770.8944
 20
96.626
 10
1770.8294
 20
96.5728
 10
1770.7711
 20
96.5161
 10
1770.7194
 20
96.4559
 10
1770.6741
 20
96.3912
 10
1770.6347
 20
96.321
 10
1770.6014
 20
96.2452
 10
1770.5742
 20
96.1639
 10
1770.5529
 20
96.0771
 10
1770.5378
 20
95.9849
 10
1770.5286
 20
95.8873
 10
1770.5256
 20
95.7842
 10
1770.5313
 20
95.6854
 10
1770.5483
 20
95.585
 10
1770.5767
 20
95.4829
 10
1770.6164
 20
95.3792
 10
1770.6676
 20
95.2738
 10
1770.7303
 20
95.1666
 10
1770.8043
 20
95.0576
 10
1770.8899
 20
94.9467
 10
1770.9853
 20
94.8344
 10
1771.0912
 20
94.721
 10
1771.2074
 20
94.6066
 10
1771.3339
 20
94.4913
 10
1771.4706
 20
94.3749
 10
1771.6174
 20
94.2576
 10
1771.7744
 20
94.1394
 10
1771.9414
 20
94.0203
 10
1772.3524
 20
94.0384
 10
1772.9208
 20
94.0477
 10
1780.4089
 20
94.0477
 10
1780.4089
 20
92.7818
 10
1773.819
 20
92.7818
 10
1772.3677
 20
92.7404
 10
1772.0512
 20
92.7158
 10
1771.7712
 20
92.6794
 10
1771.5273
 20
92.6317
 10
1771.3192
 20
92.5733
 10
1771.2209
 20
92.5379
 10
1771.1293
 20
92.4989
 10
1771.0444
 20
92.4563
 10
1770.9661
 20
92.4101
 10
1770.8944
 20
92.3604
 10
1770.8294
 20
92.3072
 10
1770.7711
 20
92.2505
 10
1770.7194
 20
92.1903
 10
1770.6741
 20
92.1256
 10
1770.6347
 20
92.0553
 10
1770.6014
 20
91.9794
 10
1770.5742
 20
91.898
 10
1770.5529
 20
91.8111
 10
1770.5378
 20
91.7188
 10
1770.5286
 20
91.621
 10
1770.5256
 20
91.5179
 10
1770.5316
 20
91.4143
 10
1770.5498
 20
91.3096
 10
1770.5801
 20
91.2037
 10
1770.6225
 20
91.0966
 10
1770.6771
 20
90.9883
 10
1770.744
 20
90.8787
 10
1770.823
 20
90.7678
 10
1770.9143
 20
90.6557
 10
1771.0161
 20
90.5436
 10
1771.1243
 20
90.4323
 10
1771.239
 20
90.3218
 10
1771.3602
 20
90.2122
 10
1771.6226
 20
89.9954
 10
1771.912
 20
89.7821
 10
1780.4089
 20
89.7821
 10
1780.4089
 20
88.5162
 10
1769.0215
 20
88.5162
 10
1769.0215
 20
89.7821
 10
1770.2881
 20
89.7821
 10
1770.105
 20
89.9065
 10
1769.9326
 20
90.0305
 10
1769.7709
 20
90.1542
 10
1769.6198
 20
90.2776
 10
1769.4793
 20
90.4006
 10
1769.3495
 20
90.5233
 10
1769.2304
 20
90.6458
 10
1769.1219
 20
90.768
 10
1769.0248
 20
90.8918
 10
1768.9406
 20
91.0185
 10
1768.8693
 20
91.1482
 10
1768.8109
 20
91.2809
 10
1768.7654
 20
91.4165
 10
1768.7328
 20
91.5551
 10
1768.7133
 20
91.6968
 10
1768.7068
 20
91.8414
 10
1768.714
 20
92.0051
 10
1768.7355
 20
92.1643
 10
1768.7715
 20
92.319
 10
1768.8218
 20
92.469
 10
1768.8864
 20
92.6144
 10
1768.9655
 20
92.7552
 10
1769.0588
 20
92.8912
 10
1769.1666
 20
93.0224
 10
1769.2907
 20
93.1469
 10
1769.4331
 20
93.2639
 10
1769.5938
 20
93.3732
 10
1769.773
 20
93.4748
 10
1769.9707
 20
93.5688
 10
1770.1868
 20
93.6551
 10
1770.4215
 20
93.7336
 10
1770.6748
 20
93.8044
 10
1770.4403
 20
93.9475
 10
1770.2203
 20
94.0896
 10
1770.0148
 20
94.2306
 10
1769.8239
 20
94.3707
 10
1769.6477
 20
94.5098
 10
1769.4863
 20
94.6481
 10
1769.3398
 20
94.7855
 10
1769.2082
 20
94.922
 10
1769.0908
 20
95.06
 10
1768.989
 20
95.2009
 10
1768.9028
 20
95.3446
 10
1768.8323
 20
95.4913
 10
1768.7774
 20
95.6409
 10
1768.7382
 20
95.7935
 10
1768.7146
 20
95.9491
 10
1768.7068
 20
96.1077
 10
1768.7104
 20
96.2274
 10
1768.7213
 20
96.3444
 10
1768.7393
 20
96.4586
 10
1768.7646
 20
96.5701
 10
1768.797
 20
96.6788
 10
1768.8366
 20
96.7847
 10
1768.8833
 20
96.8877
 10
1768.9372
 20
96.9879
 10
1768.9989
 20
97.0854
 10
1769.0692
 20
97.1797
 10
1769.1481
 20
97.271
 10
1769.2358
 20
97.3592
 10
1769.3322
 20
97.4442
 10
1769.4375
 20
97.5261
 10
1769.5518
 20
97.6049
 10
1769.6751
 20
97.6804
 10
1769.8097
 20
97.7539
 10
1769.9519
 20
97.8232
 10
1770.1018
 20
97.8882
 10
1770.2594
 20
97.9489
 10
1770.4249
 20
98.0052
 10
1770.5985
 20
98.0572
 10
1770.7802
 20
98.1049
 10
1770.9701
 20
98.1482
 10
1771.1697
 20
98.187
 10
1771.3817
 20
98.2205
 10
1771.6063
 20
98.2489
 10
1771.8433
 20
98.2721
 10
1772.0929
 20
98.2901
 10
1772.3549
 20
98.303
 10
1772.6295
 20
98.3107
 10
1772.9167
 20
98.3133
 10
1780.4089
 20
98.3133
 10
1780.4089
 20
97.0474
  0
LWPOLYLINE
  5
C4
330
1F
100
AcDbEntity
  8
Layer 1
 62
     7
100
AcDbPolyline
 90
      166
 70
     1
 43
0.0
 10
1780.4089
 20
108.6037
 10
1773.819
 20
108.6037
 10
1772.3677
 20
108.5629
 10
1772.0512
 20
108.5379
 10
1771.7712
 20
108.5013
 10
1771.5273
 20
108.4536
 10
1771.3192
 20
108.3951
 10
1771.2209
 20
108.3597
 10
1771.1293
 20
108.3207
 10
1771.0444
 20
108.2781
 10
1770.9661
 20
108.232
 10
1770.8944
 20
108.1823
 10
1770.8294
 20
108.1291
 10
1770.7711
 20
108.0724
 10
1770.7194
 20
108.0122
 10
1770.6741
 20
107.9475
 10
1770.6347
 20
107.8773
 10
1770.6014
 20
107.8015
 10
1770.5742
 20
107.7202
 10
1770.5529
 20
107.6334
 10
1770.5378
 20
107.5412
 10
1770.5286
 20
107.4435
 10
1770.5256
 20
107.3404
 10
1770.5313
 20
107.2416
 10
1770.5483
 20
107.1412
 10
1770.5767
 20
107.0392
 10
1770.6164
 20
106.9355
 10
1770.6676
 20
106.83
 10
1770.7303
 20
106.7228
 10
1770.8043
 20
106.6138
 10
1770.8899
 20
106.503
 10
1770.9853
 20
106.3907
 10
1771.0912
 20
106.2773
 10
1771.2074
 20
106.1629
 10
1771.3339
 20
106.0476
 10
1771.4706
 20
105.9312
 10
1771.6174
 20
105.8139
 10
1771.7744
 20
105.6957
 10
1771.9414
 20
105.5766
 10
1772.3524
 20
105.5946
 10
1772.9208
 20
105.604
 10
1780.4089
 20
105.604
 10
1780.4089
 20
104.3381
 10
1773.819
 20
104.3381
 10
1772.3677
 20
104.2966
 10
1772.0512
 20
104.272
 10
1771.7712
 20
104.2356
 10
1771.5273
 20
104.188
 10
1771.3192
 20
104.1295
 10
1771.2209
 20
104.0941
 10
1771.1293
 20
104.0551
 10
1771.0444
 20
104.0125
 10
1770.9661
 20
103.9664
 10
1770.8944
 20
103.9167
 10
1770.8294
 20
103.8635
 10
1770.7711
 20
103.8068
 10
1770.7194
 20
103.7466
 10
1770.6741
 20
103.6819
 10
1770.6347
 20
103.6115
 10
1770.6014
 20
103.5357
 10
1770.5742
 20
103.4542
 10
1770.5529
 20
103.3673
 10
1770.5378
 20
103.275
 10
1770.5286
 20
103.1773
 10
1770.5256
 20
103.0742
 10
1770.5316
 20
102.9706
 10
1770.5498
 20
102.8659
 10
1770.5801
 20
102.76
 10
1770.6225
 20
102.6529
 10
1770.6771
 20
102.5445
 10
1770.744
 20
102.4349
 10
1770.823
 20
102.3241
 10
1770.9143
 20
102.212
 10
1771.0161
 20
102.0999
 10
1771.1243
 20
101.9886
 10
1771.239
 20
101.8781
 10
1771.3602
 20
101.7685
 10
1771.6226
 20
101.5517
 10
1771.912
 20
101.3384
 10
1780.4089
 20
101.3384
 10
1780.4089
 20
100.0725
 10
1769.0215
 20
100.0725
 10
1769.0215
 20
101.3384
 10
1770.2881
 20
101.3384
 10
1770.105
 20
101.4628
 10
1769.9326
 20
101.5868
 10
1769.7709
 20
101.7105
 10
1769.6198
 20
101.8339
 10
1769.4793
 20
101.9569
 10
1769.3495
 20
102.0796
 10
1769.2304
 20
102.2021
 10
1769.1219
 20
102.3243
 10
1769.0248
 20
102.4481
 10
1768.9406
 20
102.5748
 10
1768.8693
 20
102.7045
 10
1768.8109
 20
102.8372
 10
1768.7654
 20
102.9728
 10
1768.7328
 20
103.1114
 10
1768.7133
 20
103.2531
 10
1768.7068
 20
103.3977
 10
1768.714
 20
103.5614
 10
1768.7355
 20
103.7206
 10
1768.7715
 20
103.8752
 10
1768.8218
 20
104.0253
 10
1768.8864
 20
104.1707
 10
1768.9655
 20
104.3114
 10
1769.0588
 20
104.4474
 10
1769.1666
 20
104.5787
 10
1769.2907
 20
104.7032
 10
1769.4331
 20
104.8202
 10
1769.5938
 20
104.9294
 10
1769.773
 20
105.0311
 10
1769.9707
 20
105.1251
 10
1770.1868
 20
105.2113
 10
1770.4215
 20
105.2899
 10
1770.6748
 20
105.3607
 10
1770.4403
 20
105.5038
 10
1770.2203
 20
105.6459
 10
1770.0148
 20
105.7869
 10
1769.8239
 20
105.927
 10
1769.6477
 20
106.0661
 10
1769.4863
 20
106.2044
 10
1769.3398
 20
106.3417
 10
1769.2082
 20
106.4782
 10
1769.0908
 20
106.6162
 10
1768.989
 20
106.7571
 10
1768.9028
 20
106.9008
 10
1768.8323
 20
107.0475
 10
1768.7774
 20
107.1971
 10
1768.7382
 20
107.3497
 10
1768.7146
 20
107.5053
 10
1768.7068
 20
107.6639
 10
1768.7104
 20
107.7836
 10
1768.7213
 20
107.9006
 10
1768.7393
 20
108.0149
 10
1768.7646
 20
108.1264
 10
1768.797
 20
108.2351
 10
1768.8366
 20
108.3409
 10
1768.8833
 20
108.444
 10
1768.9372
 20
108.5442
 10
1768.9989
 20
108.6417
 10
1769.0692
 20
108.736
 10
1769.1481
 20
108.8273
 10
1769.2358
 20
108.9155
 10
1769.3322
 20
109.0005
 10
1769.4375
 20
109.0823
 10
1769.5518
 20
109.1611
 10
1769.6751
 20
109.2366
 10
1769.8097
 20
109.3102
 10
1769.9519
 20
109.3795
 10
1770.1018
 20
109.4445
 10
1770.2594
 20
109.5052
 10
1770.4249
 20
109.5615
 10
1770.5985
 20
109.6135
 10
1770.7802
 20
109.6612
 10
1770.9701
 20
109.7045
 10
1771.1697
 20
109.7433
 10
1771.3817
 20
109.7768
 10
1771.6063
 20
109.8052
 10
1771.8433
 20
109.8284
 10
1772.0929
 20
109.8464
 10
1772.3549
 20
109.8593
 10
1772.6295
 20
109.867
 10
1772.9167
 20
109.8696
 10
1780.4089
 20
109.8696
 10
1780.4089
 20
108.6037
  0
ENDSEC
  0
SECTION
  2
OBJECTS
  0
DICTIONARY
  5
C
330
0
100
AcDbDictionary
281
     1
  3
ACAD_DETAILVIEWSTYLE
350
CC
  3
ACAD_GROUP
350
D
  3
ACAD_LAYOUT
350
1A
  3
ACAD_MATERIAL
350
43
  3
ACAD_MLEADERSTYLE
350
5B
  3
ACAD_MLINESTYLE
350
17
  3
ACAD_PLOTSETTINGS
350
19
  3
ACAD_PLOTSTYLENAME
350
E
  3
ACAD_SCALELIST
350
47
  3
ACAD_SECTIONVIEWSTYLE
350
CD
  3
ACAD_TABLESTYLE
350
59
  3
ACAD_VISUALSTYLE
350
2A
  3
ACDB_RECOMPOSE_DATA
350
C9
  3
AcDbVariableDictionary
350
C5
  0
SUN
  5
5D
330
29
100
AcDbSun
 90
        1
290
     0
 63
     7
421
 16777215
 40
1.0
291
     1
 91
  2455826
 92
 54000000
292
     0
 70
     2
 71
   256
280
     1
  0
DICTIONARY
  5
CC
102
{ACAD_REACTORS
330
C
102
}
330
C
100
AcDbDictionary
281
     1
  0
DICTIONARY
  5
D
102
{ACAD_REACTORS
330
C
102
}
330
C
100
AcDbDictionary
281
     1
  0
DICTIONARY
  5
1A
102
{ACAD_REACTORS
330
C
102
}
330
C
100
AcDbDictionary
281
     1
  3
Layout1
350
1E
  3
Layout2
350
26
  3
Model
350
22
  0
DICTIONARY
  5
43
102
{ACAD_REACTORS
330
C
102
}
330
C
100
AcDbDictionary
281
     1
  3
ByBlock
350
45
  3
ByLayer
350
44
  3
Global
350
46
  0
DICTIONARY
  5
5B
102
{ACAD_REACTORS
330
C
102
}
330
C
100
AcDbDictionary
281
     1
  3
Standard
350
5C
  0
DICTIONARY
  5
17
102
{ACAD_REACTORS
330
C
102
}
330
C
100
AcDbDictionary
281
     1
  3
Standard
350
18
  0
DICTIONARY
  5
19
102
{ACAD_REACTORS
330
C
102
}
330
C
100
AcDbDictionary
281
     1
  0
ACDBDICTIONARYWDFLT
  5
E
102
{ACAD_REACTORS
330
C
102
}
330
C
100
AcDbDictionary
281
     1
  3
Normal
350
F
100
AcDbDictionaryWithDefault
340
F
  0
DICTIONARY
  5
47
102
{ACAD_REACTORS
330
C
102
}
330
C
100
AcDbDictionary
281
     1
  3
A0
350
48
  3
A1
350
49
  3
A2
350
4A
  3
A3
350
4B
  3
A4
350
4C
  3
A5
350
4D
  3
A6
350
4E
  3
A7
350
4F
  3
A8
350
50
  3
A9
350
51
  3
B1
350
52
  3
B2
350
53
  3
B3
350
54
  3
B4
350
55
  3
B5
350
56
  3
B6
350
57
  3
B7
350
58
  0
DICTIONARY
  5
CD
102
{ACAD_REACTORS
330
C
102
}
330
C
100
AcDbDictionary
281
     1
  0
DICTIONARY
  5
59
102
{ACAD_REACTORS
330
C
102
}
330
C
100
AcDbDictionary
281
     1
  3
Standard
350
5A
  0
DICTIONARY
  5
2A
102
{ACAD_REACTORS
330
C
102
}
330
C
100
AcDbDictionary
281
     1
  3
2dWireframe
350
2F
  3
Basic
350
32
  3
Brighten
350
36
  3
ColorChange
350
3A
  3
Conceptual
350
34
  3
Dim
350
35
  3
EdgeColorOff
350
3D
  3
Facepattern
350
39
  3
Flat
350
2B
  3
FlatWithEdges
350
2C
  3
Gouraud
350
2D
  3
GouraudWithEdges
350
2E
  3
Hidden
350
31
  3
JitterOff
350
3B
  3
Linepattern
350
38
  3
OverhangOff
350
3C
  3
Realistic
350
33
  3
Shaded
350
42
  3
Shaded with edges
350
41
  3
Shades of Gray
350
3E
  3
Sketchy
350
3F
  3
Thicken
350
37
  3
Wireframe
350
30
  3
X-Ray
350
40
  0
XRECORD
  5
C9
102
{ACAD_REACTORS
330
C
102
}
330
C
100
AcDbXrecord
280
     1
 90
        1
330
5A
  0
DICTIONARY
  5
C5
102
{ACAD_REACTORS
330
C
102
}
330
C
100
AcDbDictionary
281
     1
  3
CANNOSCALE
350
C6
  3
CMLEADERSTYLE
350
CB
  3
CTABLESTYLE
350
CA
  0
LAYOUT
  5
1E
102
{ACAD_REACTORS
330
1A
102
}
330
1A
100
AcDbPlotSettings
  1

  2
none_device
  4

  6

 40
0.0
 41
0.0
 42
0.0
 43
0.0
 44
0.0
 45
0.0
 46
0.0
 47
0.0
 48
0.0
 49
0.0
140
0.0
141
0.0
142
1.0
143
1.0
 70
   688
 72
     0
 73
     0
 74
     5
  7

 75
    16
 76
     0
 77
     2
 78
   300
147
1.0
148
0.0
149
0.0
100
AcDbLayout
  1
Layout1
 70
     1
 71
     1
 10
0.0
 20
0.0
 11
12.0
 21
9.0
 12
0.0
 22
0.0
 32
0.0
 14
1.000000000000000E+20
 24
1.000000000000000E+20
 34
1.000000000000000E+20
 15
-1.000000000000000E+20
 25
-1.000000000000000E+20
 35
-1.000000000000000E+20
146
0.0
 13
0.0
 23
0.0
 33
0.0
 16
1.0
 26
0.0
 36
0.0
 17
0.0
 27
1.0
 37
0.0
 76
     0
330
1B
  0
LAYOUT
  5
26
102
{ACAD_REACTORS
330
1A
102
}
330
1A
100
AcDbPlotSettings
  1

  2
none_device
  4

  6

 40
0.0
 41
0.0
 42
0.0
 43
0.0
 44
0.0
 45
0.0
 46
0.0
 47
0.0
 48
0.0
 49
0.0
140
0.0
141
0.0
142
1.0
143
1.0
 70
   688
 72
     0
 73
     0
 74
     5
  7

 75
    16
 76
     0
 77
     2
 78
   300
147
1.0
148
0.0
149
0.0
100
AcDbLayout
  1
Layout2
 70
     1
 71
     2
 10
0.0
 20
0.0
 11
0.0
 21
0.0
 12
0.0
 22
0.0
 32
0.0
 14
0.0
 24
0.0
 34
0.0
 15
0.0
 25
0.0
 35
0.0
146
0.0
 13
0.0
 23
0.0
 33
0.0
 16
1.0
 26
0.0
 36
0.0
 17
0.0
 27
1.0
 37
0.0
 76
     0
330
23
  0
LAYOUT
  5
22
102
{ACAD_REACTORS
330
1A
102
}
330
1A
100
AcDbPlotSettings
  1

  2
none_device
  4
Letter_(8.50_x_11.00_Inches)
  6

 40
6.35
 41
6.35
 42
6.35000508
 43
6.35000508
 44
215.9
 45
279.4
 46
0.0
 47
0.0
 48
0.0
 49
0.0
140
0.0
141
0.0
142
1.0
143
1.0
 70
  1712
 72
     0
 73
     0
 74
     0
  7

 75
     0
 76
     0
 77
     2
 78
   300
147
1.0
148
0.0
149
0.0
100
AcDbLayout
  1
Model
 70
     1
 71
     0
 10
0.0
 20
0.0
 11
12.0
 21
9.0
 12
0.0
 22
0.0
 32
0.0
 14
484.9806
 24
-319.5607
 34
0.0
 15
1837.4972
 25
395.7053
 35
0.0
146
0.0
 13
0.0
 23
0.0
 33
0.0
 16
1.0
 26
0.0
 36
0.0
 17
0.0
 27
1.0
 37
0.0
 76
     0
330
1F
331
29
  0
MATERIAL
  5
45
102
{ACAD_REACTORS
330
43
102
}
330
43
100
AcDbMaterial
  1
ByBlock
 72
     1
 94
      127
  0
MATERIAL
  5
44
102
{ACAD_REACTORS
330
43
102
}
330
43
100
AcDbMaterial
  1
ByLayer
 72
     1
 94
      127
  0
MATERIAL
  5
46
102
{ACAD_REACTORS
330
43
102
}
330
43
100
AcDbMaterial
  1
Global
 72
     1
 94
      127
  0
MLEADERSTYLE
  5
5C
102
{ACAD_REACTORS
330
5B
102
}
330
5B
100
AcDbMLeaderStyle
179
     2
170
     2
171
     1
172
     0
 90
        2
 40
0.0
 41
0.0
173
     1
 91
-1056964608
340
14
 92
       -2
290
     1
 42
0.09
291
     1
 43
0.36
  3
Standard
341
0
 44
0.18
300

342
11
174
     1
178
     6
175
     1
176
     0
 93
-1056964608
 45
0.18
292
     0
297
     0
 46
0.18
343
0
 94
-1056964608
 47
1.0
 49
1.0
140
1.0
293
     1
141
0.0
294
     1
177
     0
142
1.0
295
     0
296
     0
143
0.125
271
     0
272
     9
273
     9
298
     0
  0
MLINESTYLE
  5
18
102
{ACAD_REACTORS
330
17
102
}
330
17
100
AcDbMlineStyle
  2
Standard
 70
     0
  3

 62
   256
 51
90.0
 52
90.0
 71
     2
 49
0.5
 62
   256
  6
BYLAYER
 49
-0.5
 62
   256
  6
BYLAYER
  0
ACDBPLACEHOLDER
  5
F
102
{ACAD_REACTORS
330
E
102
}
330
E
  0
SCALE
  5
48
102
{ACAD_REACTORS
330
47
102
}
330
47
100
AcDbScale
 70
     0
300
1:1
140
1.0
141
1.0
290
     1
  0
SCALE
  5
49
102
{ACAD_REACTORS
330
47
102
}
330
47
100
AcDbScale
 70
     0
300
1/128" = 1'-0"
140
0.0078125
141
12.0
290
     0
  0
SCALE
  5
4A
102
{ACAD_REACTORS
330
47
102
}
330
47
100
AcDbScale
 70
     0
300
1/64" = 1'-0"
140
0.015625
141
12.0
290
     0
  0
SCALE
  5
4B
102
{ACAD_REACTORS
330
47
102
}
330
47
100
AcDbScale
 70
     0
300
1/32" = 1'-0"
140
0.03125
141
12.0
290
     0
  0
SCALE
  5
4C
102
{ACAD_REACTORS
330
47
102
}
330
47
100
AcDbScale
 70
     0
300
1/16" = 1'-0"
140
0.0625
141
12.0
290
     0
  0
SCALE
  5
4D
102
{ACAD_REACTORS
330
47
102
}
330
47
100
AcDbScale
 70
     0
300
3/32" = 1'-0"
140
0.09375
141
12.0
290
     0
  0
SCALE
  5
4E
102
{ACAD_REACTORS
330
47
102
}
330
47
100
AcDbScale
 70
     0
300
1/8" = 1'-0"
140
0.125
141
12.0
290
     0
  0
SCALE
  5
4F
102
{ACAD_REACTORS
330
47
102
}
330
47
100
AcDbScale
 70
     0
300
3/16" = 1'-0"
140
0.1875
141
12.0
290
     0
  0
SCALE
  5
50
102
{ACAD_REACTORS
330
47
102
}
330
47
100
AcDbScale
 70
     0
300
1/4" = 1'-0"
140
0.25
141
12.0
290
     0
  0
SCALE
  5
51
102
{ACAD_REACTORS
330
47
102
}
330
47
100
AcDbScale
 70
     0
300
3/8" = 1'-0"
140
0.375
141
12.0
290
     0
  0
SCALE
  5
52
102
{ACAD_REACTORS
330
47
102
}
330
47
100
AcDbScale
 70
     0
300
1/2" = 1'-0"
140
0.5
141
12.0
290
     0
  0
SCALE
  5
53
102
{ACAD_REACTORS
330
47
102
}
330
47
100
AcDbScale
 70
     0
300
3/4" = 1'-0"
140
0.75
141
12.0
290
     0
  0
SCALE
  5
54
102
{ACAD_REACTORS
330
47
102
}
330
47
100
AcDbScale
 70
     0
300
1" = 1'-0"
140
1.0
141
12.0
290
     0
  0
SCALE
  5
55
102
{ACAD_REACTORS
330
47
102
}
330
47
100
AcDbScale
 70
     0
300
1-1/2" = 1'-0"
140
1.5
141
12.0
290
     0
  0
SCALE
  5
56
102
{ACAD_REACTORS
330
47
102
}
330
47
100
AcDbScale
 70
     0
300
3" = 1'-0"
140
3.0
141
12.0
290
     0
  0
SCALE
  5
57
102
{ACAD_REACTORS
330
47
102
}
330
47
100
AcDbScale
 70
     0
300
6" = 1'-0"
140
6.0
141
12.0
290
     0
  0
SCALE
  5
58
102
{ACAD_REACTORS
330
47
102
}
330
47
100
AcDbScale
 70
     0
300
1'-0" = 1'-0"
140
12.0
141
12.0
290
     0
  0
TABLESTYLE
  5
5A
102
{ACAD_REACTORS
330
59
102
}
102
{ACAD_XDICTIONARY
360
C7
102
}
330
59
100
AcDbTableStyle
  3
Standard
 70
     0
 71
     0
 40
0.06
 41
0.06
280
     0
281
     0
  7
Standard
140
0.18
170
     2
 62
     0
 63
   257
283
     0
 90
        4
 91
        0
  1

274
    -2
284
     1
 64
     0
275
    -2
285
     1
 65
     0
276
    -2
286
     1
 66
     0
277
    -2
287
     1
 67
     0
278
    -2
288
     1
 68
     0
279
    -2
289
     1
 69
     0
  7
Standard
140
0.25
170
     5
 62
     0
 63
   257
283
     0
 90
        4
 91
        0
  1

274
    -2
284
     1
 64
     0
275
    -2
285
     1
 65
     0
276
    -2
286
     1
 66
     0
277
    -2
287
     1
 67
     0
278
    -2
288
     1
 68
     0
279
    -2
289
     1
 69
     0
  7
Standard
140
0.18
170
     5
 62
     0
 63
   257
283
     0
 90
        4
 91
        0
  1

274
    -2
284
     1
 64
     0
275
    -2
285
     1
 65
     0
276
    -2
286
     1
 66
     0
277
    -2
287
     1
 67
     0
278
    -2
288
     1
 68
     0
279
    -2
289
     1
 69
     0
  0
VISUALSTYLE
  5
2F
102
{ACAD_REACTORS
330
2A
102
}
330
2A
100
AcDbVisualStyle
  2
2dWireframe
 70
     4
177
     3
291
     0
 70
    58
 90
        0
176
     1
 90
        2
176
     1
 90
        0
176
     1
 90
        0
176
     1
 40
0.6
176
     1
 40
30.0
176
     1
 62
     7
420
 16777215
176
     1
 90
        1
176
     1
 90
        4
176
     1
 62
     7
176
     1
 62
   257
176
     1
 90
        1
176
     1
 90
        1
176
     1
 40
1.0
176
     1
 90
        0
176
     1
 62
   257
176
     1
 40
1.0
176
     1
 90
        1
176
     1
 90
        6
176
     1
 90
        2
176
     1
 62
     7
176
     1
 90
        5
176
     1
 90
        0
176
     1
 90
        0
176
     1
290
     0
176
     1
 90
        1
176
     1
 40
0.0
176
     1
 90
        0
176
     1
290
     1
176
     1
290
     1
176
     1
290
     0
176
     1
290
     0
176
     1
290
     0
176
     1
290
     0
176
     1
290
     0
176
     1
290
     0
176
     1
290
     0
176
     1
 90
       50
176
     1
 40
0.0
176
     1
 40
1.0
176
     1
 90
        0
176
     1
 62
    18
420
        0
176
     1
 90
       50
176
     1
 90
        3
176
     1
 62
     5
420
      255
176
     1
290
     0
176
     1
 90
       50
176
     1
 90
       50
176
     1
 90
       50
176
     1
290
     0
176
     1
 90
       50
176
     1
 62
   256
176
     0
 40
1.0
176
     0
 90
        2
176
     1
  1
strokes_ogs.tif
176
     1
290
     0
176
     1
 40
1.0
176
     1
 40
1.0
176
     1
  0
VISUALSTYLE
  5
32
102
{ACAD_REACTORS
330
2A
102
}
330
2A
100
AcDbVisualStyle
  2
Basic
 70
     7
177
     3
291
     1
 70
    58
 90
        1
176
     1
 90
        0
176
     1
 90
        1
176
     1
 90
        0
176
     1
 40
0.6
176
     1
 40
30.0
176
     1
 62
     7
420
 16777215
176
     1
 90
        0
176
     1
 90
        4
176
     1
 62
     7
176
     1
 62
   257
176
     1
 90
        1
176
     1
 90
        1
176
     1
 40
1.0
176
     1
 90
        8
176
     1
 62
     7
176
     1
 40
1.0
176
     1
 90
        1
176
     1
 90
        6
176
     1
 90
        2
176
     1
 62
     7
176
     1
 90
        5
176
     1
 90
        0
176
     1
 90
        0
176
     1
290
     0
176
     1
 90
        1
176
     1
 40
0.0
176
     1
 90
        0
176
     1
290
     0
176
     1
290
     1
176
     1
290
     1
176
     1
290
     0
176
     1
290
     0
176
     1
290
     0
176
     1
290
     0
176
     1
290
     0
176
     1
290
     0
176
     1
 90
       50
176
     1
 40
0.0
176
     1
 40
1.0
176
     1
 90
        0
176
     1
 62
    18
420
        0
176
     1
 90
       50
176
     1
 90
        3
176
     1
 62
     5
420
      255
176
     1
290
     0
176
     1
 90
       50
176
     1
 90
       50
176
     1
 90
       50
176
     1
290
     0
176
     1
 90
       50
176
     1
 62
   256
176
     0
 40
1.0
176
     0
 90
        2
176
     1
  1
strokes_ogs.tif
176
     1
290
     0
176
     1
 40
1.0
176
     1
 40
1.0
176
     1
  0
VISUALSTYLE
  5
36
102
{ACAD_REACTORS
330
2A
102
}
330
2A
100
AcDbVisualStyle
  2
Brighten
 70
    12
177
     3
291
     1
 70
    58
 90
        2
176
     1
 90
        2
176
     1
 90
        0
176
     1
 90
        0
176
     1
 40
0.6
176
     1
 40
30.0
176
     1
 62
     7
420
 16777215
176
     1
 90
        1
176
     1
 90
        4
176
     1
 62
     7
176
     1
 62
   257
176
     1
 90
        1
176
     1
 90
        1
176
     1
 40
1.0
176
     1
 90
        8
176
     1
 62
     7
176
     1
 40
1.0
176
     1
 90
        1
176
     1
 90
        6
176
     1
 90
        2
176
     1
 62
     7
176
     1
 90
        5
176
     1
 90
        0
176
     1
 90
        0
176
     1
290
     0
176
     1
 90
        1
176
     1
 40
50.0
176
     1
 90
        0
176
     1
290
     0
176
     1
290
     1
176
     1
290
     1
176
     1
290
     0
176
     1
290
     0
176
     1
290
     0
176
     1
290
     0
176
     1
290
     0
176
     1
290
     0
176
     1
 90
       50
176
     1
 40
0.0
176
     1
 40
1.0
176
     1
 90
        0
176
     1
 62
    18
420
        0
176
     1
 90
       50
176
     1
 90
        3
176
     1
 62
     5
420
      255
176
     1
290
     0
176
     1
 90
       50
176
     1
 90
       50
176
     1
 90
       50
176
     1
290
     0
176
     1
 90
       50
176
     1
 62
   256
176
     0
 40
1.0
176
     0
 90
        2
176
     1
  1
strokes_ogs.tif
176
     1
290
     0
176
     1
 40
1.0
176
     1
 40
1.0
176
     1
  0
VISUALSTYLE
  5
3A
102
{ACAD_REACTORS
330
2A
102
}
330
2A
100
AcDbVisualStyle
  2
ColorChange
 70
    16
177
     3
291
     1
 70
    58
 90
        2
176
     1
 90
        2
176
     1
 90
        3
176
     1
 90
        0
176
     1
 40
0.6
176
     1
 40
30.0
176
     1
 62
     8
420
  8421504
176
     1
 90
        1
176
     1
 90
        4
176
     1
 62
     7
176
     1
 62
   257
176
     1
 90
        1
176
     1
 90
        1
176
     1
 40
1.0
176
     1
 90
        8
176
     1
 62
     8
420
  8421504
176
     1
 40
1.0
176
     1
 90
        1
176
     1
 90
        6
176
     1
 90
        2
176
     1
 62
     7
176
     1
 90
        5
176
     1
 90
        0
176
     1
 90
        0
176
     1
290
     0
176
     1
 90
        1
176
     1
 40
0.0
176
     1
 90
        0
176
     1
290
     0
176
     1
290
     1
176
     1
290
     1
176
     1
290
     0
176
     1
290
     0
176
     1
290
     0
176
     1
290
     0
176
     1
290
     0
176
     1
290
     0
176
     1
 90
       50
176
     1
 40
0.0
176
     1
 40
1.0
176
     1
 90
        0
176
     1
 62
    18
420
        0
176
     1
 90
       50
176
     1
 90
        3
176
     1
 62
     5
420
      255
176
     1
290
     0
176
     1
 90
       50
176
     1
 90
       50
176
     1
 90
       50
176
     1
290
     0
176
     1
 90
       50
176
     1
 62
   256
176
     0
 40
1.0
176
     0
 90
        2
176
     1
  1
strokes_ogs.tif
176
     1
290
     0
176
     1
 40
1.0
176
     1
 40
1.0
176
     1
  0
VISUALSTYLE
  5
34
102
{ACAD_REACTORS
330
2A
102
}
330
2A
100
AcDbVisualStyle
  2
Conceptual
 70
     9
177
     3
291
     0
 70
    58
 90
        3
176
     1
 90
        2
176
     1
 90
        0
176
     1
 90
        0
176
     1
 40
0.6
176
     1
 40
30.0
176
     1
 62
     7
420
 16777215
176
     1
 90
        2
176
     1
 90
        2
176
     1
 62
     7
176
     1
 62
   257
176
     1
 90
        1
176
     1
 90
        1
176
     1
 40
179.0
176
     1
 90
        8
176
     1
 62
     7
176
     1
 40
1.0
176
     1
 90
        1
176
     1
 90
        6
176
     1
 90
        2
176
     1
 62
     7
176
     1
 90
        3
176
     1
 90
        0
176
     1
 90
        0
176
     1
290
     0
176
     1
 90
        1
176
     1
 40
0.0
176
     1
 90
        0
176
     1
290
     0
176
     1
290
     1
176
     1
290
     1
176
     1
290
     0
176
     1
290
     0
176
     1
290
     0
176
     1
290
     0
176
     1
290
     0
176
     1
290
     0
176
     1
 90
       50
176
     1
 40
0.0
176
     1
 40
1.0
176
     1
 90
        0
176
     1
 62
    18
420
        0
176
     1
 90
       50
176
     1
 90
        3
176
     1
 62
     5
420
      255
176
     1
290
     0
176
     1
 90
       50
176
     1
 90
       50
176
     1
 90
       50
176
     1
290
     0
176
     1
 90
       50
176
     1
 62
   256
176
     0
 40
1.0
176
     0
 90
        2
176
     1
  1
strokes_ogs.tif
176
     1
290
     0
176
     1
 40
1.0
176
     1
 40
1.0
176
     1
  0
VISUALSTYLE
  5
35
102
{ACAD_REACTORS
330
2A
102
}
330
2A
100
AcDbVisualStyle
  2
Dim
 70
    11
177
     3
291
     1
 70
    58
 90
        2
176
     1
 90
        2
176
     1
 90
        0
176
     1
 90
        0
176
     1
 40
0.6
176
     1
 40
30.0
176
     1
 62
     7
420
 16777215
176
     1
 90
        1
176
     1
 90
        4
176
     1
 62
     7
176
     1
 62
   257
176
     1
 90
        1
176
     1
 90
        1
176
     1
 40
1.0
176
     1
 90
        8
176
     1
 62
     7
176
     1
 40
1.0
176
     1
 90
        1
176
     1
 90
        6
176
     1
 90
        2
176
     1
 62
     7
176
     1
 90
        5
176
     1
 90
        0
176
     1
 90
        0
176
     1
290
     0
176
     1
 90
        1
176
     1
 40
-50.0
176
     1
 90
        0
176
     1
290
     0
176
     1
290
     1
176
     1
290
     1
176
     1
290
     0
176
     1
290
     0
176
     1
290
     0
176
     1
290
     0
176
     1
290
     0
176
     1
290
     0
176
     1
 90
       50
176
     1
 40
0.0
176
     1
 40
1.0
176
     1
 90
        0
176
     1
 62
    18
420
        0
176
     1
 90
       50
176
     1
 90
        3
176
     1
 62
     5
420
      255
176
     1
290
     0
176
     1
 90
       50
176
     1
 90
       50
176
     1
 90
       50
176
     1
290
     0
176
     1
 90
       50
176
     1
 62
   256
176
     0
 40
1.0
176
     0
 90
        2
176
     1
  1
strokes_ogs.tif
176
     1
290
     0
176
     1
 40
1.0
176
     1
 40
1.0
176
     1
  0
VISUALSTYLE
  5
3D
102
{ACAD_REACTORS
330
2A
102
}
330
2A
100
AcDbVisualStyle
  2
EdgeColorOff
 70
    22
177
     3
291
     1
 70
    58
 90
        2
176
     0
 90
        2
176
     0
 90
        0
176
     0
 90
        0
176
     0
 40
0.6
176
     0
 40
30.0
176
     0
 62
     7
420
 16777215
176
     0
 90
        1
176
     0
 90
        4
176
     0
 62
     7
176
     0
 62
   257
176
     0
 90
        1
176
     0
 90
        1
176
     0
 40
1.0
176
     0
 90
        8
176
     2
 62
     7
176
     0
 40
1.0
176
     0
 90
        1
176
     0
 90
        6
176
     0
 90
        2
176
     0
 62
     7
176
     0
 90
        5
176
     0
 90
        0
176
     0
 90
        0
176
     0
290
     0
176
     0
 90
        1
176
     0
 40
0.0
176
     0
 90
        0
176
     0
290
     0
176
     0
290
     1
176
     0
290
     1
176
     0
290
     0
176
     0
290
     0
176
     0
290
     0
176
     0
290
     0
176
     0
290
     0
176
     0
290
     0
176
     0
 90
       50
176
     0
 40
0.0
176
     0
 40
1.0
176
     0
 90
        0
176
     0
 62
    18
420
        0
176
     0
 90
       50
176
     0
 90
        3
176
     0
 62
     5
420
      255
176
     0
290
     0
176
     0
 90
       50
176
     0
 90
       50
176
     0
 90
       50
176
     0
290
     0
176
     0
 90
       50
176
     0
 62
   256
176
     0
 40
1.0
176
     0
 90
        2
176
     0
  1
strokes_ogs.tif
176
     0
290
     0
176
     0
 40
1.0
176
     0
 40
1.0
176
     0
  0
VISUALSTYLE
  5
39
102
{ACAD_REACTORS
330
2A
102
}
330
2A
100
AcDbVisualStyle
  2
Facepattern
 70
    15
177
     3
291
     1
 70
    58
 90
        2
176
     1
 90
        2
176
     1
 90
        0
176
     1
 90
        0
176
     1
 40
0.6
176
     1
 40
30.0
176
     1
 62
     7
420
 16777215
176
     1
 90
        1
176
     1
 90
        4
176
     1
 62
     7
176
     1
 62
   257
176
     1
 90
        1
176
     1
 90
        1
176
     1
 40
1.0
176
     1
 90
        8
176
     1
 62
     7
176
     1
 40
1.0
176
     1
 90
        1
176
     1
 90
        6
176
     1
 90
        2
176
     1
 62
     7
176
     1
 90
        5
176
     1
 90
        0
176
     1
 90
        0
176
     1
290
     0
176
     1
 90
        1
176
     1
 40
0.0
176
     1
 90
        0
176
     1
290
     0
176
     1
290
     1
176
     1
290
     1
176
     1
290
     0
176
     1
290
     0
176
     1
290
     0
176
     1
290
     0
176
     1
290
     0
176
     1
290
     0
176
     1
 90
       50
176
     1
 40
0.0
176
     1
 40
1.0
176
     1
 90
        0
176
     1
 62
    18
420
        0
176
     1
 90
       50
176
     1
 90
        3
176
     1
 62
     5
420
      255
176
     1
290
     0
176
     1
 90
       50
176
     1
 90
       50
176
     1
 90
       50
176
     1
290
     0
176
     1
 90
       50
176
     1
 62
   256
176
     0
 40
1.0
176
     0
 90
        2
176
     1
  1
strokes_ogs.tif
176
     1
290
     0
176
     1
 40
1.0
176
     1
 40
1.0
176
     1
  0
VISUALSTYLE
  5
2B
102
{ACAD_REACTORS
330
2A
102
}
330
2A
100
AcDbVisualStyle
  2
Flat
 70
     0
177
     3
291
     1
 70
    58
 90
        2
176
     1
 90
        1
176
     1
 90
        1
176
     1
 90
        2
176
     1
 40
0.6
176
     1
 40
30.0
176
     1
 62
     7
420
 16777215
176
     1
 90
        0
176
     1
 90
        0
176
     1
 62
     7
176
     1
 62
   257
176
     1
 90
        1
176
     1
 90
        1
176
     1
 40
1.0
176
     1
 90
        8
176
     1
 62
     7
176
     1
 40
1.0
176
     1
 90
        1
176
     1
 90
        6
176
     1
 90
        2
176
     1
 62
     7
176
     1
 90
        5
176
     1
 90
        0
176
     1
 90
        0
176
     1
290
     0
176
     1
 90
       13
176
     1
 40
0.0
176
     1
 90
        0
176
     1
290
     0
176
     1
290
     1
176
     1
290
     1
176
     1
290
     0
176
     1
290
     0
176
     1
290
     0
176
     1
290
     0
176
     1
290
     0
176
     1
290
     0
176
     1
 90
       50
176
     1
 40
0.0
176
     1
 40
1.0
176
     1
 90
        0
176
     1
 62
    18
420
        0
176
     1
 90
       50
176
     1
 90
        3
176
     1
 62
     5
420
      255
176
     1
290
     0
176
     1
 90
       50
176
     1
 90
       50
176
     1
 90
       50
176
     1
290
     0
176
     1
 90
       50
176
     1
 62
   256
176
     0
 40
1.0
176
     0
 90
        2
176
     1
  1
strokes_ogs.tif
176
     1
290
     0
176
     1
 40
1.0
176
     1
 40
1.0
176
     1
  0
VISUALSTYLE
  5
2C
102
{ACAD_REACTORS
330
2A
102
}
330
2A
100
AcDbVisualStyle
  2
FlatWithEdges
 70
     1
177
     3
291
     1
 70
    58
 90
        2
176
     1
 90
        1
176
     1
 90
        1
176
     1
 90
        2
176
     1
 40
0.6
176
     1
 40
30.0
176
     1
 62
     7
420
 16777215
176
     1
 90
        1
176
     1
 90
        0
176
     1
 62
     7
176
     1
 62
   257
176
     1
 90
        1
176
     1
 90
        1
176
     1
 40
1.0
176
     1
 90
        0
176
     1
 62
   257
176
     1
 40
1.0
176
     1
 90
        1
176
     1
 90
        6
176
     1
 90
        2
176
     1
 62
     7
176
     1
 90
        5
176
     1
 90
        0
176
     1
 90
        0
176
     1
290
     0
176
     1
 90
       13
176
     1
 40
0.0
176
     1
 90
        0
176
     1
290
     0
176
     1
290
     1
176
     1
290
     1
176
     1
290
     0
176
     1
290
     0
176
     1
290
     0
176
     1
290
     0
176
     1
290
     0
176
     1
290
     0
176
     1
 90
       50
176
     1
 40
0.0
176
     1
 40
1.0
176
     1
 90
        0
176
     1
 62
    18
420
        0
176
     1
 90
       50
176
     1
 90
        3
176
     1
 62
     5
420
      255
176
     1
290
     0
176
     1
 90
       50
176
     1
 90
       50
176
     1
 90
       50
176
     1
290
     0
176
     1
 90
       50
176
     1
 62
   256
176
     0
 40
1.0
176
     0
 90
        2
176
     1
  1
strokes_ogs.tif
176
     1
290
     0
176
     1
 40
1.0
176
     1
 40
1.0
176
     1
  0
VISUALSTYLE
  5
2D
102
{ACAD_REACTORS
330
2A
102
}
330
2A
100
AcDbVisualStyle
  2
Gouraud
 70
     2
177
     3
291
     1
 70
    58
 90
        2
176
     1
 90
        2
176
     1
 90
        1
176
     1
 90
        2
176
     1
 40
0.6
176
     1
 40
30.0
176
     1
 62
     7
420
 16777215
176
     1
 90
        0
176
     1
 90
        0
176
     1
 62
     7
176
     1
 62
   257
176
     1
 90
        1
176
     1
 90
        1
176
     1
 40
1.0
176
     1
 90
        0
176
     1
 62
     7
176
     1
 40
1.0
176
     1
 90
        1
176
     1
 90
        6
176
     1
 90
        2
176
     1
 62
     7
176
     1
 90
        5
176
     1
 90
        0
176
     1
 90
        0
176
     1
290
     0
176
     1
 90
       13
176
     1
 40
0.0
176
     1
 90
        0
176
     1
290
     0
176
     1
290
     1
176
     1
290
     1
176
     1
290
     0
176
     1
290
     0
176
     1
290
     0
176
     1
290
     0
176
     1
290
     0
176
     1
290
     0
176
     1
 90
       50
176
     1
 40
0.0
176
     1
 40
1.0
176
     1
 90
        0
176
     1
 62
    18
420
        0
176
     1
 90
       50
176
     1
 90
        3
176
     1
 62
     5
420
      255
176
     1
290
     0
176
     1
 90
       50
176
     1
 90
       50
176
     1
 90
       50
176
     1
290
     0
176
     1
 90
       50
176
     1
 62
   256
176
     0
 40
1.0
176
     0
 90
        2
176
     1
  1
strokes_ogs.tif
176
     1
290
     0
176
     1
 40
1.0
176
     1
 40
1.0
176
     1
  0
VISUALSTYLE
  5
2E
102
{ACAD_REACTORS
330
2A
102
}
330
2A
100
AcDbVisualStyle
  2
GouraudWithEdges
 70
     3
177
     3
291
     1
 70
    58
 90
        2
176
     1
 90
        2
176
     1
 90
        1
176
     1
 90
        2
176
     1
 40
0.6
176
     1
 40
30.0
176
     1
 62
     7
420
 16777215
176
     1
 90
        1
176
     1
 90
        0
176
     1
 62
     7
176
     1
 62
   257
176
     1
 90
        1
176
     1
 90
        1
176
     1
 40
1.0
176
     1
 90
        0
176
     1
 62
   257
176
     1
 40
1.0
176
     1
 90
        1
176
     1
 90
        6
176
     1
 90
        2
176
     1
 62
     7
176
     1
 90
        5
176
     1
 90
        0
176
     1
 90
        0
176
     1
290
     0
176
     1
 90
       13
176
     1
 40
0.0
176
     1
 90
        0
176
     1
290
     0
176
     1
290
     1
176
     1
290
     1
176
     1
290
     0
176
     1
290
     0
176
     1
290
     0
176
     1
290
     0
176
     1
290
     0
176
     1
290
     0
176
     1
 90
       50
176
     1
 40
0.0
176
     1
 40
1.0
176
     1
 90
        0
176
     1
 62
    18
420
        0
176
     1
 90
       50
176
     1
 90
        3
176
     1
 62
     5
420
      255
176
     1
290
     0
176
     1
 90
       50
176
     1
 90
       50
176
     1
 90
       50
176
     1
290
     0
176
     1
 90
       50
176
     1
 62
   256
176
     0
 40
1.0
176
     0
 90
        2
176
     1
  1
strokes_ogs.tif
176
     1
290
     0
176
     1
 40
1.0
176
     1
 40
1.0
176
     1
  0
VISUALSTYLE
  5
31
102
{ACAD_REACTORS
330
2A
102
}
330
2A
100
AcDbVisualStyle
  2
Hidden
 70
     6
177
     3
291
     0
 70
    58
 90
        1
176
     1
 90
        2
176
     1
 90
        2
176
     1
 90
        0
176
     1
 40
0.6
176
     1
 40
30.0
176
     1
 62
     7
420
 16777215
176
     1
 90
        2
176
     1
 90
        2
176
     1
 62
     7
176
     1
 62
   257
176
     1
 90
        2
176
     1
 90
        1
176
     1
 40
40.0
176
     1
 90
        0
176
     1
 62
   257
176
     1
 40
1.0
176
     1
 90
        1
176
     1
 90
        6
176
     1
 90
        2
176
     1
 62
     7
176
     1
 90
        3
176
     1
 90
        0
176
     1
 90
        0
176
     1
290
     0
176
     1
 90
        1
176
     1
 40
0.0
176
     1
 90
        0
176
     1
290
     0
176
     1
290
     1
176
     1
290
     1
176
     1
290
     0
176
     1
290
     0
176
     1
290
     0
176
     1
290
     0
176
     1
290
     0
176
     1
290
     0
176
     1
 90
       50
176
     1
 40
0.0
176
     1
 40
1.0
176
     1
 90
        0
176
     1
 62
    18
420
        0
176
     1
 90
       50
176
     1
 90
        3
176
     1
 62
     5
420
      255
176
     1
290
     0
176
     1
 90
       50
176
     1
 90
       50
176
     1
 90
       50
176
     1
290
     0
176
     1
 90
       50
176
     1
 62
   256
176
     0
 40
1.0
176
     0
 90
        2
176
     1
  1
strokes_ogs.tif
176
     1
290
     0
176
     1
 40
1.0
176
     1
 40
1.0
176
     1
  0
VISUALSTYLE
  5
3B
102
{ACAD_REACTORS
330
2A
102
}
330
2A
100
AcDbVisualStyle
  2
JitterOff
 70
    20
177
     3
291
     1
 70
    58
 90
        2
176
     0
 90
        2
176
     0
 90
        0
176
     0
 90
        0
176
     0
 40
0.6
176
     0
 40
30.0
176
     0
 62
     7
420
 16777215
176
     0
 90
        1
176
     0
 90
        4
176
     0
 62
     7
176
     0
 62
   257
176
     0
 90
        1
176
     0
 90
        1
176
     0
 40
1.0
176
     0
 90
       10
176
     2
 62
     7
176
     0
 40
1.0
176
     0
 90
        1
176
     0
 90
        6
176
     0
 90
        2
176
     0
 62
     7
176
     0
 90
        5
176
     0
 90
        0
176
     0
 90
        0
176
     0
290
     0
176
     0
 90
        1
176
     0
 40
0.0
176
     0
 90
        0
176
     0
290
     0
176
     0
290
     1
176
     0
290
     1
176
     0
290
     0
176
     0
290
     0
176
     0
290
     0
176
     0
290
     0
176
     0
290
     0
176
     0
290
     0
176
     0
 90
       50
176
     0
 40
0.0
176
     0
 40
1.0
176
     0
 90
        0
176
     0
 62
    18
420
        0
176
     0
 90
       50
176
     0
 90
        3
176
     0
 62
     5
420
      255
176
     0
290
     0
176
     0
 90
       50
176
     0
 90
       50
176
     0
 90
       50
176
     0
290
     0
176
     0
 90
       50
176
     0
 62
   256
176
     0
 40
1.0
176
     0
 90
        2
176
     0
  1
strokes_ogs.tif
176
     0
290
     0
176
     0
 40
1.0
176
     0
 40
1.0
176
     0
  0
VISUALSTYLE
  5
38
102
{ACAD_REACTORS
330
2A
102
}
330
2A
100
AcDbVisualStyle
  2
Linepattern
 70
    14
177
     3
291
     1
 70
    58
 90
        2
176
     1
 90
        2
176
     1
 90
        0
176
     1
 90
        0
176
     1
 40
0.6
176
     1
 40
30.0
176
     1
 62
     7
420
 16777215
176
     1
 90
        1
176
     1
 90
        4
176
     1
 62
     7
176
     1
 62
   257
176
     1
 90
        7
176
     1
 90
        7
176
     1
 40
1.0
176
     1
 90
        8
176
     1
 62
     7
176
     1
 40
1.0
176
     1
 90
        1
176
     1
 90
        6
176
     1
 90
        2
176
     1
 62
     7
176
     1
 90
        5
176
     1
 90
        0
176
     1
 90
        0
176
     1
290
     0
176
     1
 90
        1
176
     1
 40
0.0
176
     1
 90
        0
176
     1
290
     0
176
     1
290
     1
176
     1
290
     1
176
     1
290
     0
176
     1
290
     0
176
     1
290
     0
176
     1
290
     0
176
     1
290
     0
176
     1
290
     0
176
     1
 90
       50
176
     1
 40
0.0
176
     1
 40
1.0
176
     1
 90
        0
176
     1
 62
    18
420
        0
176
     1
 90
       50
176
     1
 90
        3
176
     1
 62
     5
420
      255
176
     1
290
     0
176
     1
 90
       50
176
     1
 90
       50
176
     1
 90
       50
176
     1
290
     0
176
     1
 90
       50
176
     1
 62
   256
176
     0
 40
1.0
176
     0
 90
        2
176
     1
  1
strokes_ogs.tif
176
     1
290
     0
176
     1
 40
1.0
176
     1
 40
1.0
176
     1
  0
VISUALSTYLE
  5
3C
102
{ACAD_REACTORS
330
2A
102
}
330
2A
100
AcDbVisualStyle
  2
OverhangOff
 70
    21
177
     3
291
     1
 70
    58
 90
        2
176
     0
 90
        2
176
     0
 90
        0
176
     0
 90
        0
176
     0
 40
0.6
176
     0
 40
30.0
176
     0
 62
     7
420
 16777215
176
     0
 90
        1
176
     0
 90
        4
176
     0
 62
     7
176
     0
 62
   257
176
     0
 90
        1
176
     0
 90
        1
176
     0
 40
1.0
176
     0
 90
        9
176
     2
 62
     7
176
     0
 40
1.0
176
     0
 90
        1
176
     0
 90
        6
176
     0
 90
        2
176
     0
 62
     7
176
     0
 90
        5
176
     0
 90
        0
176
     0
 90
        0
176
     0
290
     0
176
     0
 90
        1
176
     0
 40
0.0
176
     0
 90
        0
176
     0
290
     0
176
     0
290
     1
176
     0
290
     1
176
     0
290
     0
176
     0
290
     0
176
     0
290
     0
176
     0
290
     0
176
     0
290
     0
176
     0
290
     0
176
     0
 90
       50
176
     0
 40
0.0
176
     0
 40
1.0
176
     0
 90
        0
176
     0
 62
    18
420
        0
176
     0
 90
       50
176
     0
 90
        3
176
     0
 62
     5
420
      255
176
     0
290
     0
176
     0
 90
       50
176
     0
 90
       50
176
     0
 90
       50
176
     0
290
     0
176
     0
 90
       50
176
     0
 62
   256
176
     0
 40
1.0
176
     0
 90
        2
176
     0
  1
strokes_ogs.tif
176
     0
290
     0
176
     0
 40
1.0
176
     0
 40
1.0
176
     0
  0
VISUALSTYLE
  5
33
102
{ACAD_REACTORS
330
2A
102
}
330
2A
100
AcDbVisualStyle
  2
Realistic
 70
     8
177
     3
291
     0
 70
    58
 90
        2
176
     1
 90
        3
176
     1
 90
        0
176
     1
 90
        2
176
     1
 40
0.6
176
     1
 40
30.0
176
     1
 62
     7
420
 16777215
176
     1
 90
        0
176
     1
 90
        0
176
     1
 62
     7
176
     1
 62
   257
176
     1
 90
        1
176
     1
 90
        1
176
     1
 40
1.0
176
     1
 90
        8
176
     1
 62
   257
176
     1
 40
1.0
176
     1
 90
        1
176
     1
 90
        6
176
     1
 90
        2
176
     1
 62
     7
176
     1
 90
        3
176
     1
 90
        0
176
     1
 90
        0
176
     1
290
     0
176
     1
 90
       13
176
     1
 40
0.0
176
     1
 90
        0
176
     1
290
     0
176
     1
290
     1
176
     1
290
     1
176
     1
290
     0
176
     1
290
     0
176
     1
290
     0
176
     1
290
     0
176
     1
290
     0
176
     1
290
     0
176
     1
 90
       50
176
     1
 40
0.0
176
     1
 40
1.0
176
     1
 90
        0
176
     1
 62
    18
420
        0
176
     1
 90
       50
176
     1
 90
        3
176
     1
 62
     5
420
      255
176
     1
290
     0
176
     1
 90
       50
176
     1
 90
       50
176
     1
 90
       50
176
     1
290
     0
176
     1
 90
       50
176
     1
 62
   256
176
     0
 40
1.0
176
     0
 90
        2
176
     1
  1
strokes_ogs.tif
176
     1
290
     0
176
     1
 40
1.0
176
     1
 40
1.0
176
     1
  0
VISUALSTYLE
  5
42
102
{ACAD_REACTORS
330
2A
102
}
330
2A
100
AcDbVisualStyle
  2
Shaded
 70
    27
177
     3
291
     0
 70
    58
 90
        2
176
     1
 90
        2
176
     1
 90
        1
176
     1
 90
        2
176
     1
 40
0.6
176
     1
 40
30.0
176
     1
 62
     7
420
 16777215
176
     1
 90
        0
176
     1
 90
        4
176
     1
 62
     7
176
     1
 62
   257
176
     1
 90
        1
176
     1
 90
        1
176
     1
 40
1.0
176
     1
 90
        8
176
     1
 62
   257
176
     1
 40
1.0
176
     1
 90
        1
176
     1
 90
        6
176
     1
 90
        2
176
     1
 62
     8
420
  7895160
176
     1
 90
        3
176
     1
 90
        0
176
     1
 90
        0
176
     1
290
     0
176
     1
 90
        5
176
     1
 40
0.0
176
     1
 90
        0
176
     1
290
     0
176
     1
290
     1
176
     1
290
     1
176
     1
290
     0
176
     1
290
     0
176
     1
290
     0
176
     1
290
     0
176
     1
290
     0
176
     1
290
     0
176
     1
 90
       50
176
     1
 40
0.0
176
     1
 40
1.0
176
     1
 90
        0
176
     1
 62
    18
420
        0
176
     1
 90
       50
176
     1
 90
        3
176
     1
 62
     5
420
      255
176
     1
290
     0
176
     1
 90
       50
176
     1
 90
       50
176
     1
 90
       50
176
     1
290
     0
176
     1
 90
       50
176
     1
 62
   256
176
     0
 40
1.0
176
     0
 90
        2
176
     1
  1
strokes_ogs.tif
176
     1
290
     0
176
     1
 40
1.0
176
     1
 40
1.0
176
     1
  0
VISUALSTYLE
  5
41
102
{ACAD_REACTORS
330
2A
102
}
330
2A
100
AcDbVisualStyle
  2
Shaded with edges
 70
    26
177
     3
291
     0
 70
    58
 90
        2
176
     1
 90
        2
176
     1
 90
        1
176
     1
 90
        2
176
     1
 40
0.6
176
     1
 40
30.0
176
     1
 62
     7
420
 16777215
176
     1
 90
        1
176
     1
 90
       10
176
     1
 62
     7
176
     1
 62
   257
176
     1
 90
        2
176
     1
 90
        1
176
     1
 40
1.0
176
     1
 90
        8
176
     1
 62
   257
176
     1
 40
1.0
176
     1
 90
        1
176
     1
 90
        6
176
     1
 90
        2
176
     1
 62
     7
176
     1
 90
        3
176
     1
 90
        0
176
     1
 90
        0
176
     1
290
     0
176
     1
 90
        5
176
     1
 40
0.0
176
     1
 90
        0
176
     1
290
     0
176
     1
290
     1
176
     1
290
     1
176
     1
290
     0
176
     1
290
     0
176
     1
290
     0
176
     1
290
     0
176
     1
290
     0
176
     1
290
     0
176
     1
 90
       50
176
     1
 40
0.0
176
     1
 40
1.0
176
     1
 90
        0
176
     1
 62
    18
420
        0
176
     1
 90
       50
176
     1
 90
        3
176
     1
 62
     5
420
      255
176
     1
290
     0
176
     1
 90
       50
176
     1
 90
       50
176
     1
 90
       50
176
     1
290
     0
176
     1
 90
       50
176
     1
 62
   256
176
     0
 40
1.0
176
     0
 90
        2
176
     1
  1
strokes_ogs.tif
176
     1
290
     0
176
     1
 40
1.0
176
     1
 40
1.0
176
     1
  0
VISUALSTYLE
  5
3E
102
{ACAD_REACTORS
330
2A
102
}
330
2A
100
AcDbVisualStyle
  2
Shades of Gray
 70
    23
177
     3
291
     0
 70
    58
 90
        2
176
     1
 90
        2
176
     1
 90
        3
176
     1
 90
        0
176
     1
 40
0.6
176
     1
 40
30.0
176
     1
 62
     7
420
 16777215
176
     1
 90
        2
176
     1
 90
        2
176
     1
 62
     7
176
     1
 62
     7
176
     1
 90
        1
176
     1
 90
        1
176
     1
 40
40.0
176
     1
 90
        8
176
     1
 62
     7
176
     1
 40
1.0
176
     1
 90
        1
176
     1
 90
        6
176
     1
 90
        2
176
     1
 62
     7
176
     1
 90
        3
176
     1
 90
        0
176
     1
 90
        0
176
     1
290
     0
176
     1
 90
        1
176
     1
 40
0.0
176
     1
 90
        0
176
     1
290
     0
176
     1
290
     1
176
     1
290
     1
176
     1
290
     0
176
     1
290
     0
176
     1
290
     0
176
     1
290
     0
176
     1
290
     0
176
     1
290
     0
176
     1
 90
       50
176
     1
 40
0.0
176
     1
 40
1.0
176
     1
 90
        0
176
     1
 62
    18
420
        0
176
     1
 90
       50
176
     1
 90
        3
176
     1
 62
     5
420
      255
176
     1
290
     0
176
     1
 90
       50
176
     1
 90
       50
176
     1
 90
       50
176
     1
290
     0
176
     1
 90
       50
176
     1
 62
   256
176
     0
 40
1.0
176
     0
 90
        2
176
     1
  1
strokes_ogs.tif
176
     1
290
     0
176
     1
 40
1.0
176
     1
 40
1.0
176
     1
  0
VISUALSTYLE
  5
3F
102
{ACAD_REACTORS
330
2A
102
}
330
2A
100
AcDbVisualStyle
  2
Sketchy
 70
    24
177
     3
291
     0
 70
    58
 90
        1
176
     1
 90
        2
176
     1
 90
        2
176
     1
 90
        0
176
     1
 40
0.6
176
     1
 40
30.0
176
     1
 62
     7
420
 16777215
176
     1
 90
        2
176
     1
 90
        2
176
     1
 62
     7
176
     1
 62
     7
176
     1
 90
        1
176
     1
 90
        1
176
     1
 40
40.0
176
     1
 90
       11
176
     1
 62
     7
176
     1
 40
1.0
176
     1
 90
        1
176
     1
 90
        6
176
     1
 90
        2
176
     1
 62
     7
176
     1
 90
        6
176
     1
 90
        0
176
     1
 90
        0
176
     1
290
     0
176
     1
 90
        1
176
     1
 40
0.0
176
     1
 90
        0
176
     1
290
     0
176
     1
290
     1
176
     1
290
     1
176
     1
290
     0
176
     1
290
     0
176
     1
290
     0
176
     1
290
     0
176
     1
290
     0
176
     1
290
     0
176
     1
 90
       50
176
     1
 40
0.0
176
     1
 40
1.0
176
     1
 90
        0
176
     1
 62
    18
420
        0
176
     1
 90
       50
176
     1
 90
        3
176
     1
 62
     5
420
      255
176
     1
290
     0
176
     1
 90
       50
176
     1
 90
       50
176
     1
 90
       50
176
     1
290
     0
176
     1
 90
       50
176
     1
 62
   256
176
     0
 40
1.0
176
     0
 90
        2
176
     1
  1
strokes_ogs.tif
176
     1
290
     0
176
     1
 40
1.0
176
     1
 40
1.0
176
     1
  0
VISUALSTYLE
  5
37
102
{ACAD_REACTORS
330
2A
102
}
330
2A
100
AcDbVisualStyle
  2
Thicken
 70
    13
177
     3
291
     1
 70
    58
 90
        2
176
     1
 90
        2
176
     1
 90
        0
176
     1
 90
        0
176
     1
 40
0.6
176
     1
 40
30.0
176
     1
 62
     7
420
 16777215
176
     1
 90
        1
176
     1
 90
        4
176
     1
 62
     7
176
     1
 62
   257
176
     1
 90
        1
176
     1
 90
        1
176
     1
 40
1.0
176
     1
 90
       12
176
     1
 62
     7
176
     1
 40
1.0
176
     1
 90
        1
176
     1
 90
        6
176
     1
 90
        2
176
     1
 62
     7
176
     1
 90
        5
176
     1
 90
        0
176
     1
 90
        0
176
     1
290
     0
176
     1
 90
        1
176
     1
 40
0.0
176
     1
 90
        0
176
     1
290
     0
176
     1
290
     1
176
     1
290
     1
176
     1
290
     0
176
     1
290
     0
176
     1
290
     0
176
     1
290
     0
176
     1
290
     0
176
     1
290
     0
176
     1
 90
       50
176
     1
 40
0.0
176
     1
 40
1.0
176
     1
 90
        0
176
     1
 62
    18
420
        0
176
     1
 90
       50
176
     1
 90
        3
176
     1
 62
     5
420
      255
176
     1
290
     0
176
     1
 90
       50
176
     1
 90
       50
176
     1
 90
       50
176
     1
290
     0
176
     1
 90
       50
176
     1
 62
   256
176
     0
 40
1.0
176
     0
 90
        2
176
     1
  1
strokes_ogs.tif
176
     1
290
     0
176
     1
 40
1.0
176
     1
 40
1.0
176
     1
  0
VISUALSTYLE
  5
30
102
{ACAD_REACTORS
330
2A
102
}
330
2A
100
AcDbVisualStyle
  2
Wireframe
 70
     5
177
     3
291
     0
 70
    58
 90
        0
176
     1
 90
        2
176
     1
 90
        0
176
     1
 90
        0
176
     1
 40
0.6
176
     1
 40
30.0
176
     1
 62
     7
420
 16777215
176
     1
 90
        1
176
     1
 90
        4
176
     1
 62
     7
176
     1
 62
   257
176
     1
 90
        1
176
     1
 90
        1
176
     1
 40
1.0
176
     1
 90
        0
176
     1
 62
   257
176
     1
 40
1.0
176
     1
 90
        1
176
     1
 90
        6
176
     1
 90
        2
176
     1
 62
     7
176
     1
 90
        3
176
     1
 90
        0
176
     1
 90
        0
176
     1
290
     0
176
     1
 90
        1
176
     1
 40
0.0
176
     1
 90
        0
176
     1
290
     0
176
     1
290
     1
176
     1
290
     1
176
     1
290
     0
176
     1
290
     0
176
     1
290
     0
176
     1
290
     0
176
     1
290
     0
176
     1
290
     0
176
     1
 90
       50
176
     1
 40
0.0
176
     1
 40
1.0
176
     1
 90
        0
176
     1
 62
    18
420
        0
176
     1
 90
       50
176
     1
 90
        3
176
     1
 62
     5
420
      255
176
     1
290
     0
176
     1
 90
       50
176
     1
 90
       50
176
     1
 90
       50
176
     1
290
     0
176
     1
 90
       50
176
     1
 62
   256
176
     0
 40
1.0
176
     0
 90
        2
176
     1
  1
strokes_ogs.tif
176
     1
290
     0
176
     1
 40
1.0
176
     1
 40
1.0
176
     1
  0
VISUALSTYLE
  5
40
102
{ACAD_REACTORS
330
2A
102
}
330
2A
100
AcDbVisualStyle
  2
X-Ray
 70
    25
177
     3
291
     0
 70
    58
 90
        2
176
     1
 90
        2
176
     1
 90
        1
176
     1
 90
        1
176
     1
 40
0.5
176
     1
 40
30.0
176
     1
 62
     7
420
 16777215
176
     1
 90
        1
176
     1
 90
        0
176
     1
 62
     7
176
     1
 62
   257
176
     1
 90
        1
176
     1
 90
        1
176
     1
 40
1.0
176
     1
 90
        8
176
     1
 62
     7
176
     1
 40
1.0
176
     1
 90
        1
176
     1
 90
        6
176
     1
 90
        2
176
     1
 62
     7
176
     1
 90
        3
176
     1
 90
        0
176
     1
 90
        0
176
     1
290
     0
176
     1
 90
       13
176
     1
 40
0.0
176
     1
 90
        0
176
     1
290
     0
176
     1
290
     1
176
     1
290
     1
176
     1
290
     0
176
     1
290
     0
176
     1
290
     0
176
     1
290
     0
176
     1
290
     0
176
     1
290
     0
176
     1
 90
       50
176
     1
 40
0.0
176
     1
 40
1.0
176
     1
 90
        0
176
     1
 62
    18
420
        0
176
     1
 90
       50
176
     1
 90
        3
176
     1
 62
     5
420
      255
176
     1
290
     0
176
     1
 90
       50
176
     1
 90
       50
176
     1
 90
       50
176
     1
290
     0
176
     1
 90
       50
176
     1
 62
   256
176
     0
 40
1.0
176
     0
 90
        2
176
     1
  1
strokes_ogs.tif
176
     1
290
     0
176
     1
 40
1.0
176
     1
 40
1.0
176
     1
  0
DICTIONARYVAR
  5
C6
102
{ACAD_REACTORS
330
C5
102
}
330
C5
100
DictionaryVariables
280
     0
  1
1:1
  0
DICTIONARYVAR
  5
CB
102
{ACAD_REACTORS
330
C5
102
}
330
C5
100
DictionaryVariables
280
     0
  1
Standard
  0
DICTIONARYVAR
  5
CA
102
{ACAD_REACTORS
330
C5
102
}
330
C5
100
DictionaryVariables
280
     0
  1
Standard
  0
DICTIONARY
  5
C7
330
5A
100
AcDbDictionary
280
     1
281
     1
  3
ACAD_ROUNDTRIP_2008_TABLESTYLE_CELLSTYLEMAP
360
C8
  0
CELLSTYLEMAP
  5
C8
102
{ACAD_REACTORS
330
C7
102
}
330
C7
100
AcDbCellStyleMap
 90
        3
300
CELLSTYLE
  1
TABLEFORMAT_BEGIN
 90
        5
170
     1
 91
        0
 92
    32768
 62
   257
 93
        1
300
CONTENTFORMAT
  1
CONTENTFORMAT_BEGIN
 90
        0
 91
        0
 92
        4
 93
        0
300

 40
0.0
140
1.0
 94
        5
 62
     0
340
11
144
0.25
309
CONTENTFORMAT_END
171
     1
301
MARGIN
  1
CELLMARGIN_BEGIN
 40
0.06
 40
0.06
 40
0.06
 40
0.06
 40
0.06
 40
0.06
309
CELLMARGIN_END
 94
        6
 95
        1
302
GRIDFORMAT
  1
GRIDFORMAT_BEGIN
 90
        0
 91
        1
 62
     0
 92
       -2
340
14
 93
        0
 40
0.045
309
GRIDFORMAT_END
 95
        2
302
GRIDFORMAT
  1
GRIDFORMAT_BEGIN
 90
        0
 91
        1
 62
     0
 92
       -2
340
14
 93
        0
 40
0.045
309
GRIDFORMAT_END
 95
        4
302
GRIDFORMAT
  1
GRIDFORMAT_BEGIN
 90
        0
 91
        1
 62
     0
 92
       -2
340
14
 93
        0
 40
0.045
309
GRIDFORMAT_END
 95
        8
302
GRIDFORMAT
  1
GRIDFORMAT_BEGIN
 90
        0
 91
        1
 62
     0
 92
       -2
340
14
 93
        0
 40
0.045
309
GRIDFORMAT_END
 95
       16
302
GRIDFORMAT
  1
GRIDFORMAT_BEGIN
 90
        0
 91
        1
 62
     0
 92
       -2
340
14
 93
        0
 40
0.045
309
GRIDFORMAT_END
 95
       32
302
GRIDFORMAT
  1
GRIDFORMAT_BEGIN
 90
        0
 91
        1
 62
     0
 92
       -2
340
14
 93
        0
 40
0.045
309
GRIDFORMAT_END
309
TABLEFORMAT_END
  1
CELLSTYLE_BEGIN
 90
        1
 91
        1
300
_TITLE
309
CELLSTYLE_END
300
CELLSTYLE
  1
TABLEFORMAT_BEGIN
 90
        5
170
     1
 91
        0
 92
        0
 62
   257
 93
        1
300
CONTENTFORMAT
  1
CONTENTFORMAT_BEGIN
 90
        0
 91
        0
 92
        4
 93
        0
300

 40
0.0
140
1.0
 94
        5
 62
     0
340
11
144
0.18
309
CONTENTFORMAT_END
171
     1
301
MARGIN
  1
CELLMARGIN_BEGIN
 40
0.06
 40
0.06
 40
0.06
 40
0.06
 40
0.06
 40
0.06
309
CELLMARGIN_END
 94
        6
 95
        1
302
GRIDFORMAT
  1
GRIDFORMAT_BEGIN
 90
        0
 91
        1
 62
     0
 92
       -2
340
14
 93
        0
 40
0.045
309
GRIDFORMAT_END
 95
        2
302
GRIDFORMAT
  1
GRIDFORMAT_BEGIN
 90
        0
 91
        1
 62
     0
 92
       -2
340
14
 93
        0
 40
0.045
309
GRIDFORMAT_END
 95
        4
302
GRIDFORMAT
  1
GRIDFORMAT_BEGIN
 90
        0
 91
        1
 62
     0
 92
       -2
340
14
 93
        0
 40
0.045
309
GRIDFORMAT_END
 95
        8
302
GRIDFORMAT
  1
GRIDFORMAT_BEGIN
 90
        0
 91
        1
 62
     0
 92
       -2
340
14
 93
        0
 40
0.045
309
GRIDFORMAT_END
 95
       16
302
GRIDFORMAT
  1
GRIDFORMAT_BEGIN
 90
        0
 91
        1
 62
     0
 92
       -2
340
14
 93
        0
 40
0.045
309
GRIDFORMAT_END
 95
       32
302
GRIDFORMAT
  1
GRIDFORMAT_BEGIN
 90
        0
 91
        1
 62
     0
 92
       -2
340
14
 93
        0
 40
0.045
309
GRIDFORMAT_END
309
TABLEFORMAT_END
  1
CELLSTYLE_BEGIN
 90
        2
 91
        1
300
_HEADER
309
CELLSTYLE_END
300
CELLSTYLE
  1
TABLEFORMAT_BEGIN
 90
        5
170
     1
 91
        0
 92
        0
 62
   257
 93
        1
300
CONTENTFORMAT
  1
CONTENTFORMAT_BEGIN
 90
        0
 91
        0
 92
        4
 93
        0
300

 40
0.0
140
1.0
 94
        2
 62
     0
340
11
144
0.18
309
CONTENTFORMAT_END
171
     1
301
MARGIN
  1
CELLMARGIN_BEGIN
 40
0.06
 40
0.06
 40
0.06
 40
0.06
 40
0.06
 40
0.06
309
CELLMARGIN_END
 94
        6
 95
        1
302
GRIDFORMAT
  1
GRIDFORMAT_BEGIN
 90
        0
 91
        1
 62
     0
 92
       -2
340
14
 93
        0
 40
0.045
309
GRIDFORMAT_END
 95
        2
302
GRIDFORMAT
  1
GRIDFORMAT_BEGIN
 90
        0
 91
        1
 62
     0
 92
       -2
340
14
 93
        0
 40
0.045
309
GRIDFORMAT_END
 95
        4
302
GRIDFORMAT
  1
GRIDFORMAT_BEGIN
 90
        0
 91
        1
 62
     0
 92
       -2
340
14
 93
        0
 40
0.045
309
GRIDFORMAT_END
 95
        8
302
GRIDFORMAT
  1
GRIDFORMAT_BEGIN
 90
        0
 91
        1
 62
     0
 92
       -2
340
14
 93
        0
 40
0.045
309
GRIDFORMAT_END
 95
       16
302
GRIDFORMAT
  1
GRIDFORMAT_BEGIN
 90
        0
 91
        1
 62
     0
 92
       -2
340
14
 93
        0
 40
0.045
309
GRIDFORMAT_END
 95
       32
302
GRIDFORMAT
  1
GRIDFORMAT_BEGIN
 90
        0
 91
        1
 62
     0
 92
       -2
340
14
 93
        0
 40
0.045
309
GRIDFORMAT_END
309
TABLEFORMAT_END
  1
CELLSTYLE_BEGIN
 90
        3
 91
        2
300
_DATA
309
CELLSTYLE_END
  0
ENDSEC
  0
EOF
