  0
SECTION
  2
HEADER
  9
$ACADVER
  1
AC1027
  9
$ACADMAINTVER
 70
   105
  9
$DWGCODEPAGE
  3
ANSI_1252
  9
$LASTSAVEDBY
  1
Office Desk
  9
$REQUIREDVERSIONS
160
                 0
  9
$INSBASE
 10
0.0
 20
0.0
 30
0.0
  9
$EXTMIN
 10
484.9806
 20
-319.5607
 30
0.0
  9
$EXTMAX
 10
2021.8418
 20
395.7053
 30
0.0
  9
$LIMMIN
 10
0.0
 20
0.0
  9
$LIMMAX
 10
12.0
 20
9.0
  9
$ORTHOMODE
 70
     0
  9
$REGENMODE
 70
     1
  9
$FILLMODE
 70
     1
  9
$QTEXTMODE
 70
     0
  9
$MIRRTEXT
 70
     1
  9
$LTSCALE
 40
1.0
  9
$ATTMODE
 70
     1
  9
$TEXTSIZE
 40
0.2
  9
$TRACEWID
 40
0.05
  9
$TEXTSTYLE
  7
Standard
  9
$CLAYER
  8
0
  9
$CELTYPE
  6
ByLayer
  9
$CECOLOR
 62
   256
  9
$CELTSCALE
 40
1.0
  9
$DISPSILH
 70
     0
  9
$DIMSCALE
 40
1.0
  9
$DIMASZ
 40
0.18
  9
$DIMEXO
 40
0.0625
  9
$DIMDLI
 40
0.38
  9
$DIMRND
 40
0.0
  9
$DIMDLE
 40
0.0
  9
$DIMEXE
 40
0.18
  9
$DIMTP
 40
0.0
  9
$DIMTM
 40
0.0
  9
$DIMTXT
 40
0.18
  9
$DIMCEN
 40
0.09
  9
$DIMTSZ
 40
0.0
  9
$DIMTOL
 70
     0
  9
$DIMLIM
 70
     0
  9
$DIMTIH
 70
     1
  9
$DIMTOH
 70
     1
  9
$DIMSE1
 70
     0
  9
$DIMSE2
 70
     0
  9
$DIMTAD
 70
     0
  9
$DIMZIN
 70
     0
  9
$DIMBLK
  1

  9
$DIMASO
 70
     1
  9
$DIMSHO
 70
     1
  9
$DIMPOST
  1

  9
$DIMAPOST
  1

  9
$DIMALT
 70
     0
  9
$DIMALTD
 70
     2
  9
$DIMALTF
 40
25.4
  9
$DIMLFAC
 40
1.0
  9
$DIMTOFL
 70
     0
  9
$DIMTVP
 40
0.0
  9
$DIMTIX
 70
     0
  9
$DIMSOXD
 70
     0
  9
$DIMSAH
 70
     0
  9
$DIMBLK1
  1

  9
$DIMBLK2
  1

  9
$DIMSTYLE
  2
Standard
  9
$DIMCLRD
 70
     0
  9
$DIMCLRE
 70
     0
  9
$DIMCLRT
 70
     0
  9
$DIMTFAC
 40
1.0
  9
$DIMGAP
 40
0.09
  9
$DIMJUST
 70
     0
  9
$DIMSD1
 70
     0
  9
$DIMSD2
 70
     0
  9
$DIMTOLJ
 70
     1
  9
$DIMTZIN
 70
     0
  9
$DIMALTZ
 70
     0
  9
$DIMALTTZ
 70
     0
  9
$DIMUPT
 70
     0
  9
$DIMDEC
 70
     4
  9
$DIMTDEC
 70
     4
  9
$DIMALTU
 70
     2
  9
$DIMALTTD
 70
     2
  9
$DIMTXSTY
  7
Standard
  9
$DIMAUNIT
 70
     0
  9
$DIMADEC
 70
     0
  9
$DIMALTRND
 40
0.0
  9
$DIMAZIN
 70
     0
  9
$DIMDSEP
 70
    46
  9
$DIMATFIT
 70
     3
  9
$DIMFRAC
 70
     0
  9
$DIMLDRBLK
  1

  9
$DIMLUNIT
 70
     2
  9
$DIMLWD
 70
    -2
  9
$DIMLWE
 70
    -2
  9
$DIMTMOVE
 70
     0
  9
$DIMFXL
 40
1.0
  9
$DIMFXLON
 70
     0
  9
$DIMJOGANG
 40
0.7853981633974483
  9
$DIMTFILL
 70
     0
  9
$DIMTFILLCLR
 70
     0
  9
$DIMARCSYM
 70
     0
  9
$DIMLTYPE
  6

  9
$DIMLTEX1
  6

  9
$DIMLTEX2
  6

  9
$DIMTXTDIRECTION
 70
     0
  9
$LUNITS
 70
     2
  9
$LUPREC
 70
     4
  9
$SKETCHINC
 40
0.1
  9
$FILLETRAD
 40
0.0
  9
$AUNITS
 70
     0
  9
$AUPREC
 70
     0
  9
$MENU
  1
.
  9
$ELEVATION
 40
0.0
  9
$PELEVATION
 40
0.0
  9
$THICKNESS
 40
0.0
  9
$LIMCHECK
 70
     0
  9
$CHAMFERA
 40
0.0
  9
$CHAMFERB
 40
0.0
  9
$CHAMFERC
 40
0.0
  9
$CHAMFERD
 40
0.0
  9
$SKPOLY
 70
     0
  9
$TDCREATE
 40
2461009.605403704
  9
$TDUCREATE
 40
2461009.376237037
  9
$TDUPDATE
 40
2461009.60540375
  9
$TDUUPDATE
 40
2461009.376237083
  9
$TDINDWG
 40
0.0000000116
  9
$TDUSRTIMER
 40
0.0000000116
  9
$USRTIMER
 70
     1
  9
$ANGBASE
 50
0.0
  9
$ANGDIR
 70
     0
  9
$PDMODE
 70
     0
  9
$PDSIZE
 40
0.0
  9
$PLINEWID
 40
0.0
  9
$SPLFRAME
 70
     0
  9
$SPLINETYPE
 70
     6
  9
$SPLINESEGS
 70
     8
  9
$HANDSEED
  5
D4
  9
$SURFTAB1
 70
     6
  9
$SURFTAB2
 70
     6
  9
$SURFTYPE
 70
     6
  9
$SURFU
 70
     6
  9
$SURFV
 70
     6
  9
$UCSBASE
  2

  9
$UCSNAME
  2

  9
$UCSORG
 10
0.0
 20
0.0
 30
0.0
  9
$UCSXDIR
 10
1.0
 20
0.0
 30
0.0
  9
$UCSYDIR
 10
0.0
 20
1.0
 30
0.0
  9
$UCSORTHOREF
  2

  9
$UCSORTHOVIEW
 70
     0
  9
$UCSORGTOP
 10
0.0
 20
0.0
 30
0.0
  9
$UCSORGBOTTOM
 10
0.0
 20
0.0
 30
0.0
  9
$UCSORGLEFT
 10
0.0
 20
0.0
 30
0.0
  9
$UCSORGRIGHT
 10
0.0
 20
0.0
 30
0.0
  9
$UCSORGFRONT
 10
0.0
 20
0.0
 30
0.0
  9
$UCSORGBACK
 10
0.0
 20
0.0
 30
0.0
  9
$PUCSBASE
  2

  9
$PUCSNAME
  2

  9
$PUCSORG
 10
0.0
 20
0.0
 30
0.0
  9
$PUCSXDIR
 10
1.0
 20
0.0
 30
0.0
  9
$PUCSYDIR
 10
0.0
 20
1.0
 30
0.0
  9
$PUCSORTHOREF
  2

  9
$PUCSORTHOVIEW
 70
     0
  9
$PUCSORGTOP
 10
0.0
 20
0.0
 30
0.0
  9
$PUCSORGBOTTOM
 10
0.0
 20
0.0
 30
0.0
  9
$PUCSORGLEFT
 10
0.0
 20
0.0
 30
0.0
  9
$PUCSORGRIGHT
 10
0.0
 20
0.0
 30
0.0
  9
$PUCSORGFRONT
 10
0.0
 20
0.0
 30
0.0
  9
$PUCSORGBACK
 10
0.0
 20
0.0
 30
0.0
  9
$USERI1
 70
     0
  9
$USERI2
 70
     0
  9
$USERI3
 70
     0
  9
$USERI4
 70
     0
  9
$USERI5
 70
     0
  9
$USERR1
 40
0.0
  9
$USERR2
 40
0.0
  9
$USERR3
 40
0.0
  9
$USERR4
 40
0.0
  9
$USERR5
 40
0.0
  9
$WORLDVIEW
 70
     1
  9
$SHADEDGE
 70
     3
  9
$SHADEDIF
 70
    70
  9
$TILEMODE
 70
     1
  9
$MAXACTVP
 70
    64
  9
$PINSBASE
 10
0.0
 20
0.0
 30
0.0
  9
$PLIMCHECK
 70
     0
  9
$PEXTMIN
 10
1.000000000000000E+20
 20
1.000000000000000E+20
 30
1.000000000000000E+20
  9
$PEXTMAX
 10
-1.000000000000000E+20
 20
-1.000000000000000E+20
 30
-1.000000000000000E+20
  9
$PLIMMIN
 10
0.0
 20
0.0
  9
$PLIMMAX
 10
12.0
 20
9.0
  9
$UNITMODE
 70
     0
  9
$VISRETAIN
 70
     1
  9
$PLINEGEN
 70
     0
  9
$PSLTSCALE
 70
     1
  9
$TREEDEPTH
 70
  3020
  9
$CMLSTYLE
  2
Standard
  9
$CMLJUST
 70
     0
  9
$CMLSCALE
 40
1.0
  9
$PROXYGRAPHICS
 70
     1
  9
$MEASUREMENT
 70
     0
  9
$CELWEIGHT
370
    -1
  9
$ENDCAPS
280
     0
  9
$JOINSTYLE
280
     0
  9
$LWDISPLAY
290
     0
  9
$INSUNITS
 70
     4
  9
$HYPERLINKBASE
  1

  9
$STYLESHEET
  1

  9
$XEDIT
290
     1
  9
$CEPSNTYPE
380
     0
  9
$PSTYLEMODE
290
     1
  9
$FINGERPRINTGUID
  2
{c8faa9b7-af51-4609-a774-896cb6fa8b30}
  9
$VERSIONGUID
  2
{FAEB1C32-E019-11D5-929B-00C0DF256EC4}
  9
$EXTNAMES
290
     1
  9
$PSVPSCALE
 40
0.0
  9
$OLESTARTUP
290
     0
  9
$SORTENTS
280
   127
  9
$INDEXCTL
280
     0
  9
$HIDETEXT
280
     1
  9
$XCLIPFRAME
280
     2
  9
$HALOGAP
280
     0
  9
$OBSCOLOR
 70
   257
  9
$OBSLTYPE
280
     0
  9
$INTERSECTIONDISPLAY
280
     0
  9
$INTERSECTIONCOLOR
 70
   257
  9
$DIMASSOC
280
     2
  9
$PROJECTNAME
  1

  9
$CAMERADISPLAY
290
     0
  9
$LENSLENGTH
 40
50.0
  9
$CAMERAHEIGHT
 40
0.0
  9
$STEPSPERSEC
 40
2.0
  9
$STEPSIZE
 40
6.0
  9
$3DDWFPREC
 40
2.0
  9
$PSOLWIDTH
 40
0.25
  9
$PSOLHEIGHT
 40
4.0
  9
$LOFTANG1
 40
1.570796326794897
  9
$LOFTANG2
 40
1.570796326794897
  9
$LOFTMAG1
 40
0.0
  9
$LOFTMAG2
 40
0.0
  9
$LOFTPARAM
 70
     7
  9
$LOFTNORMALS
280
     1
  9
$LATITUDE
 40
37.795
  9
$LONGITUDE
 40
-122.394
  9
$NORTHDIRECTION
 40
0.0
  9
$TIMEZONE
 70
 -8000
  9
$LIGHTGLYPHDISPLAY
280
     1
  9
$TILEMODELIGHTSYNCH
280
     1
  9
$CMATERIAL
347
44
  9
$SOLIDHIST
280
     0
  9
$SHOWHIST
280
     1
  9
$DWFFRAME
280
     2
  9
$DGNFRAME
280
     2
  9
$REALWORLDSCALE
290
     1
  9
$INTERFERECOLOR
 62
   256
  9
$CSHADOW
280
     0
  9
$SHADOWPLANELOCATION
 40
0.0
  0
ENDSEC
  0
SECTION
  2
CLASSES
  0
CLASS
  1
ACDBDICTIONARYWDFLT
  2
AcDbDictionaryWithDefault
  3
ObjectDBX Classes
 90
        0
 91
        3
280
     0
281
     0
  0
CLASS
  1
VISUALSTYLE
  2
AcDbVisualStyle
  3
ObjectDBX Classes
 90
     4095
 91
        3
280
     0
281
     0
  0
CLASS
  1
MATERIAL
  2
AcDbMaterial
  3
ObjectDBX Classes
 90
     1153
 91
        3
280
     0
281
     0
  0
CLASS
  1
SCALE
  2
AcDbScale
  3
ObjectDBX Classes
 90
     1153
 91
        3
280
     0
281
     0
  0
CLASS
  1
TABLESTYLE
  2
AcDbTableStyle
  3
ObjectDBX Classes
 90
     4095
 91
        3
280
     0
281
     0
  0
CLASS
  1
MLEADERSTYLE
  2
AcDbMLeaderStyle
  3
ACDB_MLEADERSTYLE_CLASS
 90
     4095
 91
        3
280
     0
281
     0
  0
CLASS
  1
SUN
  2
AcDbSun
  3
SCENEOE
 90
     1153
 91
        3
280
     0
281
     0
  0
CLASS
  1
DICTIONARYVAR
  2
AcDbDictionaryVar
  3
ObjectDBX Classes
 90
        0
 91
        3
280
     0
281
     0
  0
CLASS
  1
CELLSTYLEMAP
  2
AcDbCellStyleMap
  3
ObjectDBX Classes
 90
     1152
 91
        3
280
     0
281
     0
  0
ENDSEC
  0
SECTION
  2
TABLES
  0
TABLE
  2
VPORT
  5
8
330
0
100
AcDbSymbolTable
 70
     1
  0
VPORT
  5
29
330
8
100
AcDbSymbolTableRecord
100
AcDbViewportTableRecord
  2
*Active
 70
     0
 10
0.0
 20
0.0
 11
1.0
 21
1.0
 12
10.42990654205607
 22
4.5
 13
0.0
 23
0.0
 14
0.5
 24
0.5
 15
0.5
 25
0.5
 16
0.0
 26
0.0
 36
1.0
 17
0.0
 27
0.0
 37
0.0
 40
9.0
 41
1.972972972850329
 42
50.0
 43
0.0
 44
0.0
 50
0.0
 51
0.0
 71
     0
 72
   100
 73
     1
 74
     3
 75
     0
 76
     0
 77
     0
 78
     0
281
     0
 65
     1
110
0.0
120
0.0
130
0.0
111
1.0
121
0.0
131
0.0
112
0.0
122
1.0
132
0.0
 79
     0
146
0.0
348
2F
 60
     3
 61
     5
292
     1
282
     1
141
0.0
142
0.0
 63
   250
361
5D
  0
ENDTAB
  0
TABLE
  2
LTYPE
  5
5
330
0
100
AcDbSymbolTable
 70
     2
  0
LTYPE
  5
14
330
5
100
AcDbSymbolTableRecord
100
AcDbLinetypeTableRecord
  2
ByBlock
 70
     0
  3

 72
    65
 73
     0
 40
0.0
  0
LTYPE
  5
15
330
5
100
AcDbSymbolTableRecord
100
AcDbLinetypeTableRecord
  2
ByLayer
 70
     0
  3

 72
    65
 73
     0
 40
0.0
  0
LTYPE
  5
16
330
5
100
AcDbSymbolTableRecord
100
AcDbLinetypeTableRecord
  2
Continuous
 70
     0
  3
Solid line
 72
    65
 73
     0
 40
0.0
  0
LTYPE
  5
AA
330
5
100
AcDbSymbolTableRecord
100
AcDbLinetypeTableRecord
  2
New Line1
 70
     0
  3

 72
    65
 73
     2
 40
0.2
 49
0.1
 74
     4
 75
     0
340
0
 46
1.0
 50
0.0
 44
0.0
 45
0.0
 49
-0.1
 74
     4
 75
     0
340
0
 46
1.0
 50
0.0
 44
0.0
 45
0.0
  0
ENDTAB
  0
TABLE
  2
LAYER
  5
2
330
0
100
AcDbSymbolTable
 70
     2
  0
LAYER
  5
10
330
2
100
AcDbSymbolTableRecord
100
AcDbLayerTableRecord
  2
0
 70
     0
 62
     7
  6
Continuous
370
    -3
390
F
347
46
348
0
  0
LAYER
  5
5F
330
2
100
AcDbSymbolTableRecord
100
AcDbLayerTableRecord
  2
Layer 1
 70
     0
 62
     7
  6
Continuous
370
    -3
390
F
347
46
348
0
  0
ENDTAB
  0
TABLE
  2
STYLE
  5
3
330
0
100
AcDbSymbolTable
 70
     1
  0
STYLE
  5
11
330
3
100
AcDbSymbolTableRecord
100
AcDbTextStyleTableRecord
  2
Standard
 70
     0
 40
0.0
 41
1.0
 50
0.0
 71
     0
 42
0.2
  3
txt
  4

  0
ENDTAB
  0
TABLE
  2
VIEW
  5
6
330
0
100
AcDbSymbolTable
 70
     0
  0
ENDTAB
  0
TABLE
  2
UCS
  5
7
330
0
100
AcDbSymbolTable
 70
     0
  0
ENDTAB
  0
TABLE
  2
APPID
  5
9
330
0
100
AcDbSymbolTable
 70
     2
  0
APPID
  5
12
330
9
100
AcDbSymbolTableRecord
100
AcDbRegAppTableRecord
  2
ACAD
 70
     0
  0
APPID
  5
5E
330
9
100
AcDbSymbolTableRecord
100
AcDbRegAppTableRecord
  2
ODA
 70
     0
  0
ENDTAB
  0
TABLE
  2
DIMSTYLE
  5
A
330
0
100
AcDbSymbolTable
 70
     1
100
AcDbDimStyleTable
  0
DIMSTYLE
105
27
330
A
100
AcDbSymbolTableRecord
100
AcDbDimStyleTableRecord
  2
Standard
 70
     0
178
     0
340
11
  0
ENDTAB
  0
TABLE
  2
BLOCK_RECORD
  5
1
330
0
100
AcDbSymbolTable
 70
     1
  0
BLOCK_RECORD
  5
1F
330
1
100
AcDbSymbolTableRecord
100
AcDbBlockTableRecord
  2
*Model_Space
340
22
 70
     0
280
     1
281
     0
  0
BLOCK_RECORD
  5
1B
330
1
100
AcDbSymbolTableRecord
100
AcDbBlockTableRecord
  2
*Paper_Space
340
1E
 70
     0
280
     1
281
     0
  0
BLOCK_RECORD
  5
23
330
1
100
AcDbSymbolTableRecord
100
AcDbBlockTableRecord
  2
*Paper_Space0
340
26
 70
     0
280
     1
281
     0
  0
ENDTAB
  0
ENDSEC
  0
SECTION
  2
BLOCKS
  0
BLOCK
  5
20
330
1F
100
AcDbEntity
  8
0
100
AcDbBlockBegin
  2
*Model_Space
 70
     0
 10
0.0
 20
0.0
 30
0.0
  3
*Model_Space
  1

  0
ENDBLK
  5
21
330
1F
100
AcDbEntity
  8
0
100
AcDbBlockEnd
  0
BLOCK
  5
1C
330
1B
100
AcDbEntity
 67
     1
  8
0
100
AcDbBlockBegin
  2
*Paper_Space
 70
     0
 10
0.0
 20
0.0
 30
0.0
  3
*Paper_Space
  1

  0
ENDBLK
  5
1D
330
1B
100
AcDbEntity
 67
     1
  8
0
100
AcDbBlockEnd
  0
BLOCK
  5
24
330
23
100
AcDbEntity
  8
0
100
AcDbBlockBegin
  2
*Paper_Space0
 70
     0
 10
0.0
 20
0.0
 30
0.0
  3
*Paper_Space0
  1

  0
ENDBLK
  5
25
330
23
100
AcDbEntity
  8
0
100
AcDbBlockEnd
  0
ENDSEC
  0
SECTION
  2
ENTITIES
  0
LWPOLYLINE
  5
60
330
1F
100
AcDbEntity
  8
Layer 1
 62
   250
370
    18
100
AcDbPolyline
 90
        5
 70
     1
 43
0.0
 10
485.0688
 20
-319.4725
 10
2021.7536
 20
-319.4725
 10
2021.7536
 20
395.6171
 10
485.0688
 20
395.6171
 10
485.0688
 20
-319.4725
  0
LWPOLYLINE
  5
61
330
1F
100
AcDbEntity
  8
Layer 1
 62
     7
370
    18
100
AcDbPolyline
 90
        2
 70
     0
 43
0.0
 10
681.1571
 20
-74.0254
 10
614.026
 20
-107.5291
  0
LWPOLYLINE
  5
62
330
1F
100
AcDbEntity
  8
Layer 1
 62
     7
370
    18
100
AcDbPolyline
 90
        2
 70
     0
 43
0.0
 10
684.7719
 20
-77.8689
 10
620.1438
 20
-112.2906
  0
LWPOLYLINE
  5
63
330
1F
100
AcDbEntity
  8
Layer 1
 62
     7
370
    18
100
AcDbPolyline
 90
        2
 70
     0
 43
0.0
 10
1023.6879
 20
-73.9172
 10
1088.4541
 20
-106.0635
  0
LWPOLYLINE
  5
64
330
1F
100
AcDbEntity
  8
Layer 1
 62
     7
370
    18
100
AcDbPolyline
 90
        2
 70
     0
 43
0.0
 10
1020.8247
 20
-77.7289
 10
1082.6981
 20
-111.6681
  0
LWPOLYLINE
  5
65
330
1F
100
AcDbEntity
  8
Layer 1
 62
     7
370
    18
100
AcDbPolyline
 90
        2
 70
     0
 43
0.0
 10
680.9304
 20
76.6037
 10
613.5726
 20
103.897
  0
LWPOLYLINE
  5
66
330
1F
100
AcDbEntity
  8
Layer 1
 62
     7
370
    18
100
AcDbPolyline
 90
        2
 70
     0
 43
0.0
 10
683.716
 20
79.3269
 10
620.2183
 20
110.7009
  0
LWPOLYLINE
  5
67
330
1F
100
AcDbEntity
  8
Layer 1
 62
     7
370
    18
100
AcDbPolyline
 90
        2
 70
     0
 43
0.0
 10
1024.1956
 20
75.5235
 10
1088.6871
 20
101.3041
  0
LWPOLYLINE
  5
68
330
1F
100
AcDbEntity
  8
Layer 1
 62
     7
370
    18
100
AcDbPolyline
 90
        2
 70
     0
 43
0.0
 10
1021.469
 20
79.2437
 10
1082.341
 20
109.8357
  0
LWPOLYLINE
  5
69
330
1F
100
AcDbEntity
  8
Layer 1
 62
     9
370
    18
100
AcDbPolyline
 90
        2
 70
     0
 43
0.0
 10
1118.849
 20
235.1542
 10
579.74
 20
235.1542
  0
LWPOLYLINE
  5
6A
330
1F
100
AcDbEntity
  8
Layer 1
 62
     9
370
    18
100
AcDbPolyline
 90
        2
 70
     0
 43
0.0
 10
1210.6857
 20
180.752
 10
1091.8345
 20
180.752
  0
LWPOLYLINE
  5
6B
330
1F
100
AcDbEntity
  8
Layer 1
 62
     9
370
    18
100
AcDbPolyline
 90
        2
 70
     0
 43
0.0
 10
1210.6857
 20
-151.2048
 10
1095.693
 20
-151.2048
  0
LWPOLYLINE
  5
6C
330
1F
100
AcDbEntity
  8
Layer 1
 62
     9
370
    18
100
AcDbPolyline
 90
        2
 70
     0
 43
0.0
 10
1193.5496
 20
-151.0329
 10
1193.5496
 20
181.315
  0
LWPOLYLINE
  5
6D
330
1F
100
AcDbEntity
  8
Layer 1
 62
     9
370
    18
100
AcDbPolyline
 90
        2
 70
     0
 43
0.0
 10
580.6266
 20
164.457
 10
580.6266
 20
249.3763
  0
LWPOLYLINE
  5
6E
330
1F
100
AcDbEntity
  8
Layer 1
 62
     9
370
    18
100
AcDbPolyline
 90
        2
 70
     0
 43
0.0
 10
1119.7837
 20
166.8641
 10
1119.7837
 20
249.3763
  0
LWPOLYLINE
  5
6F
330
1F
100
AcDbEntity
  8
Layer 1
 62
     7
370
    20
100
AcDbPolyline
 90
       33
 70
     1
 43
0.0
 10
858.0403
 20
32.1321
 10
865.1282
 20
31.495
 10
871.7302
 20
29.6679
 10
877.7047
 20
26.7768
 10
882.9103
 20
22.9478
 10
887.2054
 20
18.307
 10
890.4486
 20
12.9805
 10
892.4982
 20
7.0943
 10
893.2129
 20
0.7747
 10
892.4982
 20
-5.5454
 10
890.4486
 20
-11.4318
 10
887.2054
 20
-16.7586
 10
882.9103
 20
-21.3995
 10
877.7047
 20
-25.2286
 10
871.7302
 20
-28.1198
 10
865.1282
 20
-29.9469
 10
858.0403
 20
-30.584
 10
850.9514
 20
-29.9469
 10
844.3489
 20
-28.1198
 10
838.374
 20
-25.2286
 10
833.1683
 20
-21.3995
 10
828.8733
 20
-16.7586
 10
825.6302
 20
-11.4318
 10
823.5807
 20
-5.5454
 10
822.8661
 20
0.7747
 10
823.5807
 20
7.0943
 10
825.6302
 20
12.9805
 10
828.8733
 20
18.307
 10
833.1683
 20
22.9478
 10
838.374
 20
26.7768
 10
844.3489
 20
29.6679
 10
850.9514
 20
31.495
 10
858.0403
 20
32.1321
  0
LWPOLYLINE
  5
70
330
1F
100
AcDbEntity
  8
Layer 1
 62
     7
370
    20
100
AcDbPolyline
 90
       33
 70
     1
 43
0.0
 10
858.0403
 20
23.3024
 10
863.1331
 20
22.8447
 10
867.8766
 20
21.5321
 10
872.1691
 20
19.455
 10
875.9092
 20
16.7042
 10
878.9951
 20
13.3702
 10
881.3251
 20
9.5435
 10
882.7977
 20
5.3148
 10
883.3111
 20
0.7747
 10
882.7977
 20
-3.7659
 10
881.3251
 20
-7.9949
 10
878.9951
 20
-11.8218
 10
875.9092
 20
-15.156
 10
872.1691
 20
-17.9069
 10
867.8766
 20
-19.984
 10
863.1331
 20
-21.2966
 10
858.0403
 20
-21.7543
 10
852.9471
 20
-21.2966
 10
848.2034
 20
-19.984
 10
843.9108
 20
-17.9069
 10
840.1708
 20
-15.156
 10
837.0851
 20
-11.8218
 10
834.7553
 20
-7.9949
 10
833.2829
 20
-3.7659
 10
832.7695
 20
0.7747
 10
833.2829
 20
5.3148
 10
834.7553
 20
9.5435
 10
837.0851
 20
13.3702
 10
840.1708
 20
16.7042
 10
843.9108
 20
19.455
 10
848.2034
 20
21.5321
 10
852.9471
 20
22.8447
 10
858.0403
 20
23.3024
  0
LWPOLYLINE
  5
71
330
1F
100
AcDbEntity
  8
Layer 1
 62
     7
370
    20
100
AcDbPolyline
 90
       33
 70
     1
 43
0.0
 10
858.9518
 20
165.795
 10
861.5179
 20
165.5644
 10
863.908
 20
164.903
 10
866.0708
 20
163.8564
 10
867.9551
 20
162.4704
 10
869.5098
 20
160.7904
 10
870.6837
 20
158.8621
 10
871.4255
 20
156.7311
 10
871.6842
 20
154.4432
 10
871.4255
 20
152.1548
 10
870.6837
 20
150.0235
 10
869.5098
 20
148.0949
 10
867.9551
 20
146.4147
 10
866.0708
 20
145.0285
 10
863.908
 20
143.9819
 10
861.5179
 20
143.3205
 10
858.9518
 20
143.0899
 10
856.3854
 20
143.3205
 10
853.9948
 20
143.9819
 10
851.8313
 20
145.0285
 10
849.9461
 20
146.4147
 10
848.3905
 20
148.0949
 10
847.2159
 20
150.0235
 10
846.4735
 20
152.1548
 10
846.2146
 20
154.4432
 10
846.4735
 20
156.7311
 10
847.2159
 20
158.8621
 10
848.3905
 20
160.7904
 10
849.9461
 20
162.4704
 10
851.8313
 20
163.8564
 10
853.9948
 20
164.903
 10
856.3854
 20
165.5644
 10
858.9518
 20
165.795
  0
LWPOLYLINE
  5
72
330
1F
100
AcDbEntity
  8
Layer 1
 62
     7
370
    15
100
AcDbPolyline
 90
       37
 70
     1
 43
0.0
 10
685.3231
 20
78.757
 10
1019.303
 20
78.757
 10
1020.0828
 20
78.6918
 10
1020.8105
 20
78.5049
 10
1021.47
 20
78.2095
 10
1022.0453
 20
77.8187
 10
1022.5206
 20
77.3455
 10
1022.8799
 20
76.8033
 10
1023.1071
 20
76.2049
 10
1023.1864
 20
75.5637
 10
1023.1864
 20
-74.4233
 10
1023.1071
 20
-75.0649
 10
1022.8799
 20
-75.6634
 10
1022.5206
 20
-76.2057
 10
1022.0453
 20
-76.6788
 10
1021.47
 20
-77.0694
 10
1020.8105
 20
-77.3647
 10
1020.0828
 20
-77.5514
 10
1019.303
 20
-77.6166
 10
685.3231
 20
-77.6166
 10
684.5433
 20
-77.5514
 10
683.8156
 20
-77.3647
 10
683.1561
 20
-77.0694
 10
682.5808
 20
-76.6788
 10
682.1055
 20
-76.2057
 10
681.7462
 20
-75.6634
 10
681.519
 20
-75.0649
 10
681.4397
 20
-74.4233
 10
681.4397
 20
75.5637
 10
681.519
 20
76.2049
 10
681.7462
 20
76.8033
 10
682.1055
 20
77.3455
 10
682.5808
 20
77.8187
 10
683.1561
 20
78.2095
 10
683.8156
 20
78.5049
 10
684.5433
 20
78.6918
 10
685.3231
 20
78.757
  0
LWPOLYLINE
  5
73
330
1F
100
AcDbEntity
  8
Layer 1
 62
     7
370
    20
100
AcDbPolyline
 90
       37
 70
     1
 43
0.0
 10
620.9466
 20
121.5772
 10
1080.3753
 20
121.5772
 10
1081.9962
 20
121.4304
 10
1083.5086
 20
121.0097
 10
1084.8792
 20
120.3445
 10
1086.075
 20
119.4642
 10
1087.0628
 20
118.3984
 10
1087.8093
 20
117.1765
 10
1088.2816
 20
115.828
 10
1088.4464
 20
114.3823
 10
1088.4464
 20
-116.0899
 10
1088.2816
 20
-117.5351
 10
1087.8093
 20
-118.8833
 10
1087.0628
 20
-120.105
 10
1086.075
 20
-121.1706
 10
1084.8792
 20
-122.0507
 10
1083.5086
 20
-122.7159
 10
1081.9962
 20
-123.1366
 10
1080.3753
 20
-123.2834
 10
620.9466
 20
-123.2834
 10
619.3263
 20
-123.1366
 10
617.8145
 20
-122.7159
 10
616.4443
 20
-122.0507
 10
615.249
 20
-121.1706
 10
614.2617
 20
-120.105
 10
613.5154
 20
-118.8833
 10
613.0433
 20
-117.5351
 10
612.8786
 20
-116.0899
 10
612.8786
 20
114.3823
 10
613.0433
 20
115.828
 10
613.5154
 20
117.1765
 10
614.2617
 20
118.3984
 10
615.249
 20
119.4642
 10
616.4443
 20
120.3445
 10
617.8145
 20
121.0097
 10
619.3263
 20
121.4304
 10
620.9466
 20
121.5772
  0
LWPOLYLINE
  5
74
330
1F
100
AcDbEntity
  8
Layer 1
 62
     7
370
    20
100
AcDbPolyline
 90
       37
 70
     1
 43
0.0
 10
611.5991
 20
132.258
 10
1088.8051
 20
132.258
 10
1091.0065
 20
132.0586
 10
1093.0602
 20
131.487
 10
1094.921
 20
130.5835
 10
1096.5443
 20
129.3879
 10
1097.885
 20
127.9406
 10
1098.8982
 20
126.2814
 10
1099.5391
 20
124.4506
 10
1099.7627
 20
122.4882
 10
1099.7627
 20
-124.1972
 10
1099.5391
 20
-126.1595
 10
1098.8982
 20
-127.9902
 10
1097.885
 20
-129.6491
 10
1096.5443
 20
-131.0962
 10
1094.921
 20
-132.2915
 10
1093.0602
 20
-133.1949
 10
1091.0065
 20
-133.7662
 10
1088.8051
 20
-133.9656
 10
611.5991
 20
-133.9656
 10
609.3969
 20
-133.7662
 10
607.3424
 20
-133.1949
 10
605.4805
 20
-132.2915
 10
603.8562
 20
-131.0962
 10
602.5145
 20
-129.6491
 10
601.5004
 20
-127.9902
 10
600.859
 20
-126.1595
 10
600.6352
 20
-124.1972
 10
600.6352
 20
122.4882
 10
600.859
 20
124.4506
 10
601.5004
 20
126.2814
 10
602.5145
 20
127.9406
 10
603.8562
 20
129.3879
 10
605.4805
 20
130.5835
 10
607.3424
 20
131.487
 10
609.3969
 20
132.0586
 10
611.5991
 20
132.258
  0
LWPOLYLINE
  5
75
330
1F
100
AcDbEntity
  8
Layer 1
 62
     7
370
    20
100
AcDbPolyline
 90
       37
 70
     1
 43
0.0
 10
602.4519
 20
180.7368
 10
1097.9491
 20
180.7368
 10
1102.335
 20
180.3396
 10
1106.4263
 20
179.2012
 10
1110.1336
 20
177.4014
 10
1113.3674
 20
175.02
 10
1116.0384
 20
172.1368
 10
1118.0569
 20
168.8317
 10
1119.3336
 20
165.1844
 10
1119.7791
 20
161.2748
 10
1119.7791
 20
-131.7568
 10
1119.3336
 20
-135.6672
 10
1118.0569
 20
-139.3148
 10
1116.0384
 20
-142.6199
 10
1113.3674
 20
-145.5029
 10
1110.1336
 20
-147.884
 10
1106.4263
 20
-149.6835
 10
1102.335
 20
-150.8216
 10
1097.9491
 20
-151.2187
 10
602.4519
 20
-151.2187
 10
598.0669
 20
-150.8216
 10
593.9761
 20
-149.6835
 10
590.2688
 20
-147.884
 10
587.0348
 20
-145.5029
 10
584.3636
 20
-142.6199
 10
582.3446
 20
-139.3148
 10
581.0676
 20
-135.6672
 10
580.622
 20
-131.7568
 10
580.622
 20
161.2748
 10
581.0676
 20
165.1844
 10
582.3446
 20
168.8317
 10
584.3636
 20
172.1368
 10
587.0348
 20
175.02
 10
590.2688
 20
177.4014
 10
593.9761
 20
179.2012
 10
598.0669
 20
180.3396
 10
602.4519
 20
180.7368
  0
LWPOLYLINE
  5
76
330
1F
100
AcDbEntity
  8
Layer 1
 62
     7
370
    18
100
AcDbPolyline
 90
       37
 70
     1
 43
0.0
 10
620.9512
 20
110.3099
 10
1080.3799
 20
110.3099
 10
1082.0008
 20
110.1766
 10
1083.5132
 20
109.7947
 10
1084.8838
 20
109.1907
 10
1086.0796
 20
108.3916
 10
1087.0674
 20
107.424
 10
1087.8139
 20
106.3147
 10
1088.2862
 20
105.0903
 10
1088.451
 20
103.7778
 10
1088.451
 20
-105.5048
 10
1088.2862
 20
-106.8168
 10
1087.8139
 20
-108.0406
 10
1087.0674
 20
-109.1495
 10
1086.0796
 20
-110.1167
 10
1084.8838
 20
-110.9155
 10
1083.5132
 20
-111.5191
 10
1082.0008
 20
-111.9009
 10
1080.3799
 20
-112.0341
 10
620.9512
 20
-112.0341
 10
619.3304
 20
-111.9009
 10
617.8184
 20
-111.5191
 10
616.4483
 20
-110.9155
 10
615.2531
 20
-110.1167
 10
614.2659
 20
-109.1495
 10
613.5198
 20
-108.0406
 10
613.0479
 20
-106.8168
 10
612.8832
 20
-105.5048
 10
612.8832
 20
103.7778
 10
613.0479
 20
105.0903
 10
613.5198
 20
106.3147
 10
614.2659
 20
107.424
 10
615.2531
 20
108.3916
 10
616.4483
 20
109.1907
 10
617.8184
 20
109.7947
 10
619.3304
 20
110.1766
 10
620.9512
 20
110.3099
  0
LWPOLYLINE
  5
77
330
1F
100
AcDbEntity
  8
Layer 1
 62
     7
100
AcDbPolyline
 90
        8
 70
     1
 43
0.0
 10
811.2687
 20
260.3802
 10
799.3887
 20
239.5136
 10
795.4526
 20
239.5136
 10
808.0018
 20
261.1733
 10
793.8237
 20
261.1733
 10
793.8237
 20
264.0407
 10
811.2687
 20
264.0407
 10
811.2687
 20
260.3802
  0
LWPOLYLINE
  5
78
330
1F
100
AcDbEntity
  8
Layer 1
 62
     7
100
AcDbPolyline
 90
      162
 70
     1
 43
0.0
 10
831.622
 20
239.5136
 10
814.6692
 20
239.5136
 10
814.6692
 20
242.9717
 10
818.1256
 20
245.9348
 10
818.5315
 20
246.2912
 10
818.935
 20
246.6511
 10
819.3361
 20
247.0146
 10
819.7348
 20
247.3817
 10
820.1312
 20
247.7525
 10
820.5251
 20
248.1269
 10
820.9166
 20
248.505
 10
821.3056
 20
248.8868
 10
822.0599
 20
249.6375
 10
822.7518
 20
250.3497
 10
823.3813
 20
251.0233
 10
823.9486
 20
251.6586
 10
824.4536
 20
252.2557
 10
824.8964
 20
252.8147
 10
825.2772
 20
253.3357
 10
825.5958
 20
253.8189
 10
825.864
 20
254.2827
 10
826.0967
 20
254.7507
 10
826.2939
 20
255.2229
 10
826.4555
 20
255.6993
 10
826.5812
 20
256.1799
 10
826.6712
 20
256.6647
 10
826.7253
 20
257.1538
 10
826.7433
 20
257.6472
 10
826.7376
 20
257.899
 10
826.7206
 20
258.1426
 10
826.6923
 20
258.3783
 10
826.6527
 20
258.6062
 10
826.6018
 20
258.8263
 10
826.5396
 20
259.0388
 10
826.4662
 20
259.2438
 10
826.3815
 20
259.4414
 10
826.2879
 20
259.6315
 10
826.1853
 20
259.813
 10
826.0739
 20
259.9859
 10
825.954
 20
260.1503
 10
825.8256
 20
260.3063
 10
825.6891
 20
260.4538
 10
825.5447
 20
260.593
 10
825.3924
 20
260.724
 10
825.2277
 20
260.8443
 10
825.0562
 20
260.9567
 10
824.8781
 20
261.0612
 10
824.6933
 20
261.1578
 10
824.502
 20
261.2466
 10
824.3041
 20
261.3275
 10
824.0999
 20
261.4005
 10
823.8894
 20
261.4658
 10
823.675
 20
261.5235
 10
823.4554
 20
261.5736
 10
823.2306
 20
261.6163
 10
823.0005
 20
261.6513
 10
822.7647
 20
261.6786
 10
822.5234
 20
261.6982
 10
822.2762
 20
261.71
 10
822.023
 20
261.714
 10
821.7791
 20
261.7105
 10
821.5341
 20
261.7001
 10
821.288
 20
261.6827
 10
821.0407
 20
261.6582
 10
820.7922
 20
261.6266
 10
820.5423
 20
261.5877
 10
820.2912
 20
261.5415
 10
820.0386
 20
261.488
 10
819.7868
 20
261.4312
 10
819.5379
 20
261.3708
 10
819.2919
 20
261.307
 10
819.049
 20
261.2398
 10
818.8089
 20
261.1693
 10
818.5719
 20
261.0953
 10
818.338
 20
261.0181
 10
818.107
 20
260.9376
 10
817.9124
 20
260.866
 10
817.7198
 20
260.7907
 10
817.5292
 20
260.7117
 10
817.3405
 20
260.6291
 10
817.1539
 20
260.5427
 10
816.9692
 20
260.4528
 10
816.7864
 20
260.3593
 10
816.6055
 20
260.2623
 10
815.4394
 20
259.587
 10
815.2375
 20
259.587
 10
815.2375
 20
263.0687
 10
815.5379
 20
263.1964
 10
815.8662
 20
263.3229
 10
816.2223
 20
263.4482
 10
816.6065
 20
263.5726
 10
817.0186
 20
263.696
 10
817.4589
 20
263.8188
 10
817.9272
 20
263.9411
 10
818.4238
 20
264.0629
 10
818.931
 20
264.1761
 10
819.4312
 20
264.2742
 10
819.9245
 20
264.3574
 10
820.4111
 20
264.4255
 10
820.8908
 20
264.4785
 10
821.3639
 20
264.5164
 10
821.8303
 20
264.5392
 10
822.2901
 20
264.5468
 10
823.2238
 20
264.5183
 10
824.1057
 20
264.433
 10
824.9359
 20
264.2909
 10
825.7144
 20
264.092
 10
826.4414
 20
263.8365
 10
827.1168
 20
263.5243
 10
827.7406
 20
263.1556
 10
828.3131
 20
262.7304
 10
828.8225
 20
262.2549
 10
829.2642
 20
261.7395
 10
829.638
 20
261.1838
 10
829.9441
 20
260.588
 10
830.1822
 20
259.9517
 10
830.3523
 20
259.275
 10
830.4544
 20
258.5577
 10
830.4885
 20
257.7997
 10
830.4825
 20
257.4448
 10
830.4647
 20
257.0968
 10
830.435
 20
256.7554
 10
830.3934
 20
256.421
 10
830.3401
 20
256.0933
 10
830.275
 20
255.7725
 10
830.1982
 20
255.4585
 10
830.1097
 20
255.1514
 10
830.0105
 20
254.8503
 10
829.9026
 20
254.5546
 10
829.7859
 20
254.2642
 10
829.6604
 20
253.9794
 10
829.5259
 20
253.7001
 10
829.3824
 20
253.4265
 10
829.2297
 20
253.1587
 10
829.0678
 20
252.8968
 10
828.8934
 20
252.6293
 10
828.7102
 20
252.3623
 10
828.5182
 20
252.0958
 10
828.3172
 20
251.8298
 10
828.1073
 20
251.5644
 10
827.8884
 20
251.2995
 10
827.6605
 20
251.0351
 10
827.4234
 20
250.7712
 10
827.1823
 20
250.5099
 10
826.9378
 20
250.2493
 10
826.6898
 20
249.9893
 10
826.4384
 20
249.7301
 10
826.1835
 20
249.4717
 10
825.9253
 20
249.2142
 10
825.6636
 20
248.9578
 10
825.3986
 20
248.7024
 10
824.9572
 20
248.2803
 10
824.5041
 20
247.8541
 10
824.0391
 20
247.4237
 10
823.5621
 20
246.9893
 10
823.0731
 20
246.5507
 10
822.5718
 20
246.1079
 10
822.0583
 20
245.6609
 10
821.5323
 20
245.2097
 10
818.1256
 20
242.3478
 10
831.622
 20
242.3478
 10
831.622
 20
239.5136
  0
LWPOLYLINE
  5
79
330
1F
100
AcDbEntity
  8
Layer 1
 62
     7
100
AcDbPolyline
 90
       65
 70
     1
 43
0.0
 10
852.4675
 20
251.7945
 10
852.4339
 20
250.1984
 10
852.333
 20
248.7119
 10
852.165
 20
247.335
 10
851.9297
 20
246.0678
 10
851.6273
 20
244.9101
 10
851.2576
 20
243.8622
 10
850.8209
 20
242.924
 10
850.317
 20
242.0954
 10
849.7414
 20
241.3716
 10
849.0929
 20
240.7445
 10
848.3716
 20
240.2139
 10
847.5773
 20
239.78
 10
846.7101
 20
239.4426
 10
845.7697
 20
239.2016
 10
844.7563
 20
239.0571
 10
843.6697
 20
239.0089
 10
842.5701
 20
239.0581
 10
841.5468
 20
239.2057
 10
840.5995
 20
239.4516
 10
839.7281
 20
239.7959
 10
838.9324
 20
240.2386
 10
838.2122
 20
240.7796
 10
837.5673
 20
241.4188
 10
836.9976
 20
242.1564
 10
836.4989
 20
242.9948
 10
836.067
 20
243.9366
 10
835.7018
 20
244.9818
 10
835.4034
 20
246.1305
 10
835.1714
 20
247.3827
 10
835.0058
 20
248.7386
 10
834.9066
 20
250.198
 10
834.8735
 20
251.7612
 10
834.9071
 20
253.3648
 10
835.0079
 20
254.8572
 10
835.1759
 20
256.2383
 10
835.4109
 20
257.5081
 10
835.713
 20
258.6663
 10
836.082
 20
259.713
 10
836.518
 20
260.648
 10
837.0209
 20
261.4714
 10
837.5969
 20
262.1927
 10
838.2456
 20
262.8177
 10
838.967
 20
263.3463
 10
839.7613
 20
263.7786
 10
840.6286
 20
264.1148
 10
841.569
 20
264.3548
 10
842.5826
 20
264.4988
 10
843.6697
 20
264.5468
 10
844.7689
 20
264.497
 10
845.7922
 20
264.3477
 10
846.7397
 20
264.0989
 10
847.6113
 20
263.7507
 10
848.4073
 20
263.3032
 10
849.1277
 20
262.7562
 10
849.7725
 20
262.11
 10
850.3418
 20
261.3646
 10
850.8406
 20
260.5199
 10
851.2727
 20
259.5748
 10
851.6381
 20
258.5293
 10
851.9369
 20
257.3834
 10
852.1691
 20
256.137
 10
852.3349
 20
254.79
 10
852.4344
 20
253.3426
 10
852.4675
 20
251.7945
  0
LWPOLYLINE
  5
7A
330
1F
100
AcDbEntity
  8
Layer 1
 62
     7
100
AcDbPolyline
 90
      129
 70
     1
 43
0.0
 10
847.7379
 20
244.3209
 10
847.8679
 20
244.6365
 10
847.9878
 20
244.9718
 10
848.0978
 20
245.3269
 10
848.1979
 20
245.7019
 10
848.2882
 20
246.0969
 10
848.3689
 20
246.5121
 10
848.4401
 20
246.9475
 10
848.5018
 20
247.4032
 10
848.5528
 20
247.8775
 10
848.5974
 20
248.373
 10
848.6355
 20
248.8898
 10
848.667
 20
249.4278
 10
848.6917
 20
249.9872
 10
848.7095
 20
250.5681
 10
848.7203
 20
251.1705
 10
848.7239
 20
251.7945
 10
848.7203
 20
252.4131
 10
848.7095
 20
253.0113
 10
848.6917
 20
253.5892
 10
848.667
 20
254.1467
 10
848.6355
 20
254.6835
 10
848.5974
 20
255.1995
 10
848.5528
 20
255.6948
 10
848.5018
 20
256.1691
 10
848.4397
 20
256.625
 10
848.3676
 20
257.0609
 10
848.2855
 20
257.477
 10
848.1933
 20
257.8732
 10
848.091
 20
258.2497
 10
847.9787
 20
258.6065
 10
847.8563
 20
258.9436
 10
847.7239
 20
259.2612
 10
847.5782
 20
259.566
 10
847.4195
 20
259.8513
 10
847.2479
 20
260.1173
 10
847.0634
 20
260.3641
 10
846.8662
 20
260.5918
 10
846.6564
 20
260.8006
 10
846.434
 20
260.9907
 10
846.1991
 20
261.1622
 10
845.9466
 20
261.3145
 10
845.6757
 20
261.4468
 10
845.3867
 20
261.559
 10
845.0794
 20
261.651
 10
844.754
 20
261.7227
 10
844.4106
 20
261.7741
 10
844.0491
 20
261.805
 10
843.6697
 20
261.8153
 10
843.2949
 20
261.805
 10
842.9368
 20
261.7741
 10
842.5956
 20
261.7227
 10
842.2715
 20
261.651
 10
841.9645
 20
261.559
 10
841.6748
 20
261.4468
 10
841.4027
 20
261.3145
 10
841.1481
 20
261.1622
 10
840.9055
 20
260.9902
 10
840.6762
 20
260.7984
 10
840.4603
 20
260.587
 10
840.2578
 20
260.3559
 10
840.0687
 20
260.105
 10
839.8932
 20
259.8343
 10
839.7312
 20
259.5439
 10
839.5829
 20
259.2335
 10
839.4493
 20
258.9094
 10
839.3269
 20
258.5652
 10
839.2155
 20
258.2008
 10
839.115
 20
257.8162
 10
839.0253
 20
257.4112
 10
838.9464
 20
256.9858
 10
838.8782
 20
256.54
 10
838.8205
 20
256.0735
 10
838.7739
 20
255.5872
 10
838.733
 20
255.0861
 10
838.6981
 20
254.5701
 10
838.6693
 20
254.039
 10
838.6467
 20
253.4927
 10
838.6303
 20
252.931
 10
838.6204
 20
252.3539
 10
838.6171
 20
251.7612
 10
838.6197
 20
251.1326
 10
838.6277
 20
250.5302
 10
838.6412
 20
249.9539
 10
838.6602
 20
249.4037
 10
838.6849
 20
248.8797
 10
838.7154
 20
248.3817
 10
838.7517
 20
247.9099
 10
838.7941
 20
247.4642
 10
838.8435
 20
247.0395
 10
838.9066
 20
246.6254
 10
838.9831
 20
246.2221
 10
839.073
 20
245.8298
 10
839.1761
 20
245.4485
 10
839.2922
 20
245.0784
 10
839.4211
 20
244.7196
 10
839.5627
 20
244.3722
 10
839.7033
 20
244.0646
 10
839.8582
 20
243.7752
 10
840.0276
 20
243.5041
 10
840.2114
 20
243.2511
 10
840.4096
 20
243.0163
 10
840.6222
 20
242.7998
 10
840.8492
 20
242.6014
 10
841.0906
 20
242.4213
 10
841.3466
 20
242.2611
 10
841.6218
 20
242.1225
 10
841.916
 20
242.0054
 10
842.2293
 20
241.9098
 10
842.5615
 20
241.8356
 10
842.9123
 20
241.7826
 10
843.2818
 20
241.7509
 10
843.6697
 20
241.7404
 10
844.0441
 20
241.7507
 10
844.4021
 20
241.7814
 10
844.7435
 20
241.8326
 10
845.0684
 20
241.9042
 10
845.3764
 20
241.9961
 10
845.6676
 20
242.1084
 10
845.9419
 20
242.2408
 10
846.1991
 20
242.3935
 10
846.4388
 20
242.5655
 10
846.6653
 20
242.757
 10
846.8784
 20
242.9682
 10
847.078
 20
243.1991
 10
847.2638
 20
243.4497
 10
847.4359
 20
243.7202
 10
847.594
 20
244.0106
 10
847.7379
 20
244.3209
  0
LWPOLYLINE
  5
7B
330
1F
100
AcDbEntity
  8
Layer 1
 62
     7
100
AcDbPolyline
 90
      190
 70
     1
 43
0.0
 10
879.9339
 20
239.5136
 10
879.9339
 20
250.1528
 10
879.9321
 20
250.4661
 10
879.9269
 20
250.7736
 10
879.9181
 20
251.0754
 10
879.9058
 20
251.3714
 10
879.8898
 20
251.6617
 10
879.8704
 20
251.9461
 10
879.8473
 20
252.2247
 10
879.8206
 20
252.4975
 10
879.7912
 20
252.76
 10
879.7534
 20
253.0077
 10
879.7072
 20
253.2408
 10
879.6531
 20
253.4593
 10
879.5911
 20
253.6633
 10
879.5216
 20
253.8528
 10
879.4448
 20
254.0281
 10
879.3609
 20
254.1891
 10
879.2634
 20
254.3484
 10
879.1561
 20
254.4965
 10
879.0389
 20
254.6337
 10
878.912
 20
254.7599
 10
878.7755
 20
254.8752
 10
878.6293
 20
254.9798
 10
878.4735
 20
255.0736
 10
878.3082
 20
255.1569
 10
878.1305
 20
255.2301
 10
877.9374
 20
255.2938
 10
877.729
 20
255.3479
 10
877.5054
 20
255.3923
 10
877.2667
 20
255.4269
 10
877.0129
 20
255.4518
 10
876.7441
 20
255.4667
 10
876.4604
 20
255.4717
 10
876.1891
 20
255.4625
 10
875.913
 20
255.435
 10
875.6323
 20
255.389
 10
875.3467
 20
255.3246
 10
875.0564
 20
255.2416
 10
874.7612
 20
255.14
 10
874.4612
 20
255.0198
 10
874.1562
 20
254.881
 10
873.8482
 20
254.7274
 10
873.5369
 20
254.557
 10
873.2224
 20
254.3696
 10
872.905
 20
254.1656
 10
872.5849
 20
253.9448
 10
872.2622
 20
253.7076
 10
871.937
 20
253.4539
 10
871.6097
 20
253.1838
 10
871.6594
 20
252.5197
 10
871.6858
 20
251.6031
 10
871.6858
 20
239.5136
 10
868.203
 20
239.5136
 10
868.203
 20
250.1528
 10
868.2012
 20
250.4661
 10
868.196
 20
250.7736
 10
868.1872
 20
251.0754
 10
868.1748
 20
251.3714
 10
868.1589
 20
251.6617
 10
868.1394
 20
251.9461
 10
868.1163
 20
252.2247
 10
868.0896
 20
252.4975
 10
868.0603
 20
252.76
 10
868.0226
 20
253.0077
 10
867.9767
 20
253.2408
 10
867.9227
 20
253.4593
 10
867.8609
 20
253.6633
 10
867.7914
 20
253.8528
 10
867.7143
 20
254.0281
 10
867.63
 20
254.1891
 10
867.5329
 20
254.3484
 10
867.4258
 20
254.4965
 10
867.3087
 20
254.6337
 10
867.1819
 20
254.7599
 10
867.0453
 20
254.8752
 10
866.8992
 20
254.9798
 10
866.7437
 20
255.0736
 10
866.5788
 20
255.1569
 10
866.4006
 20
255.2301
 10
866.2071
 20
255.2938
 10
865.9985
 20
255.3479
 10
865.7747
 20
255.3923
 10
865.5359
 20
255.4269
 10
865.282
 20
255.4518
 10
865.0132
 20
255.4667
 10
864.7295
 20
255.4717
 10
864.4439
 20
255.4619
 10
864.1553
 20
255.4326
 10
863.8637
 20
255.3837
 10
863.5691
 20
255.315
 10
863.2712
 20
255.2266
 10
862.9703
 20
255.1184
 10
862.666
 20
254.9903
 10
862.3585
 20
254.8422
 10
862.0498
 20
254.6785
 10
861.7434
 20
254.5043
 10
861.4392
 20
254.3196
 10
861.1374
 20
254.1243
 10
860.838
 20
253.9182
 10
860.5411
 20
253.7011
 10
860.2467
 20
253.473
 10
859.9548
 20
253.2338
 10
859.9548
 20
239.5136
 10
856.4736
 20
239.5136
 10
856.4736
 20
257.901
 10
859.9548
 20
257.901
 10
859.9548
 20
255.8544
 10
860.2972
 20
256.1496
 10
860.6385
 20
256.4278
 10
860.9787
 20
256.6891
 10
861.3179
 20
256.9333
 10
861.6562
 20
257.1604
 10
861.9936
 20
257.3704
 10
862.3301
 20
257.5632
 10
862.6659
 20
257.7387
 10
863.0065
 20
257.8948
 10
863.3551
 20
258.0303
 10
863.7119
 20
258.1452
 10
864.0768
 20
258.2393
 10
864.4499
 20
258.3126
 10
864.8313
 20
258.3651
 10
865.2211
 20
258.3966
 10
865.6192
 20
258.4071
 10
866.0691
 20
258.3955
 10
866.5067
 20
258.3608
 10
866.9319
 20
258.3028
 10
867.3447
 20
258.2217
 10
867.7447
 20
258.1172
 10
868.132
 20
257.9894
 10
868.5063
 20
257.8384
 10
868.8675
 20
257.6639
 10
869.2094
 20
257.4639
 10
869.5306
 20
257.2343
 10
869.831
 20
256.9749
 10
870.1105
 20
256.6858
 10
870.369
 20
256.3668
 10
870.6065
 20
256.018
 10
870.8229
 20
255.6392
 10
871.0181
 20
255.2304
 10
871.4115
 20
255.6088
 10
871.8021
 20
255.9639
 10
872.1901
 20
256.2956
 10
872.5753
 20
256.6037
 10
872.9578
 20
256.888
 10
873.3377
 20
257.1485
 10
873.7148
 20
257.385
 10
874.0894
 20
257.5973
 10
874.4694
 20
257.7874
 10
874.857
 20
257.952
 10
875.2523
 20
258.0912
 10
875.6556
 20
258.205
 10
876.0667
 20
258.2935
 10
876.4858
 20
258.3566
 10
876.9131
 20
258.3945
 10
877.3486
 20
258.4071
 10
877.6789
 20
258.4013
 10
878.0014
 20
258.384
 10
878.316
 20
258.355
 10
878.6228
 20
258.3145
 10
878.9219
 20
258.2625
 10
879.2131
 20
258.1988
 10
879.4966
 20
258.1236
 10
879.7724
 20
258.0368
 10
880.0397
 20
257.9369
 10
880.2989
 20
257.8232
 10
880.5499
 20
257.6956
 10
880.7926
 20
257.554
 10
881.0268
 20
257.3982
 10
881.2524
 20
257.2281
 10
881.4694
 20
257.0435
 10
881.6776
 20
256.8444
 10
881.8796
 20
256.6273
 10
882.0698
 20
256.3979
 10
882.2482
 20
256.1561
 10
882.4148
 20
255.9017
 10
882.5696
 20
255.6343
 10
882.7126
 20
255.3537
 10
882.8439
 20
255.0597
 10
882.9633
 20
254.7521
 10
883.0692
 20
254.43
 10
883.161
 20
254.0878
 10
883.2386
 20
253.7253
 10
883.3022
 20
253.3426
 10
883.3516
 20
252.9396
 10
883.3869
 20
252.5163
 10
883.408
 20
252.0727
 10
883.4151
 20
251.6087
 10
883.4151
 20
239.5136
 10
879.9339
 20
239.5136
  0
LWPOLYLINE
  5
7C
330
1F
100
AcDbEntity
  8
Layer 1
 62
     7
100
AcDbPolyline
 90
      190
 70
     1
 43
0.0
 10
911.7153
 20
239.5136
 10
911.7153
 20
250.1528
 10
911.7136
 20
250.4661
 10
911.7083
 20
250.7736
 10
911.6995
 20
251.0754
 10
911.6872
 20
251.3714
 10
911.6713
 20
251.6617
 10
911.6518
 20
251.9461
 10
911.6287
 20
252.2247
 10
911.602
 20
252.4975
 10
911.5717
 20
252.76
 10
911.5332
 20
253.0077
 10
911.4868
 20
253.2408
 10
911.4327
 20
253.4593
 10
911.371
 20
253.6633
 10
911.302
 20
253.8528
 10
911.2257
 20
254.0281
 10
911.1424
 20
254.1891
 10
911.0444
 20
254.3484
 10
910.9368
 20
254.4965
 10
910.8196
 20
254.6337
 10
910.6928
 20
254.7599
 10
910.5564
 20
254.8752
 10
910.4104
 20
254.9798
 10
910.2548
 20
255.0736
 10
910.0896
 20
255.1569
 10
909.9109
 20
255.2301
 10
909.717
 20
255.2938
 10
909.5082
 20
255.3479
 10
909.2845
 20
255.3923
 10
909.0459
 20
255.4269
 10
908.7926
 20
255.4518
 10
908.5246
 20
255.4667
 10
908.2419
 20
255.4717
 10
907.9697
 20
255.4625
 10
907.6932
 20
255.435
 10
907.4124
 20
255.389
 10
907.1272
 20
255.3246
 10
906.8374
 20
255.2416
 10
906.5429
 20
255.14
 10
906.2435
 20
255.0198
 10
905.9392
 20
254.881
 10
905.6297
 20
254.7274
 10
905.3174
 20
254.557
 10
905.0024
 20
254.3696
 10
904.6848
 20
254.1656
 10
904.3646
 20
253.9448
 10
904.0419
 20
253.7076
 10
903.7169
 20
253.4539
 10
903.3896
 20
253.1838
 10
903.4392
 20
252.5197
 10
903.4641
 20
251.6031
 10
903.4641
 20
239.5136
 10
899.9828
 20
239.5136
 10
899.9828
 20
250.1528
 10
899.9811
 20
250.4661
 10
899.9758
 20
250.7736
 10
899.967
 20
251.0754
 10
899.9547
 20
251.3714
 10
899.9388
 20
251.6617
 10
899.9193
 20
251.9461
 10
899.8962
 20
252.2247
 10
899.8695
 20
252.4975
 10
899.8397
 20
252.76
 10
899.8016
 20
253.0077
 10
899.7555
 20
253.2408
 10
899.7014
 20
253.4593
 10
899.6397
 20
253.6633
 10
899.5704
 20
253.8528
 10
899.4937
 20
254.0281
 10
899.4099
 20
254.1891
 10
899.3124
 20
254.3484
 10
899.2052
 20
254.4965
 10
899.0883
 20
254.6337
 10
898.9615
 20
254.7599
 10
898.8251
 20
254.8752
 10
898.6788
 20
254.9798
 10
898.5228
 20
255.0736
 10
898.3571
 20
255.1569
 10
898.1794
 20
255.2301
 10
897.9863
 20
255.2938
 10
897.7779
 20
255.3479
 10
897.5543
 20
255.3923
 10
897.3156
 20
255.4269
 10
897.0618
 20
255.4518
 10
896.7931
 20
255.4667
 10
896.5094
 20
255.4717
 10
896.2243
 20
255.4619
 10
895.9361
 20
255.4326
 10
895.6447
 20
255.3837
 10
895.3501
 20
255.315
 10
895.0522
 20
255.2266
 10
894.751
 20
255.1184
 10
894.4463
 20
254.9903
 10
894.1383
 20
254.8422
 10
893.8297
 20
254.6785
 10
893.5235
 20
254.5043
 10
893.2195
 20
254.3196
 10
892.9179
 20
254.1243
 10
892.6186
 20
253.9182
 10
892.3217
 20
253.7011
 10
892.027
 20
253.473
 10
891.7347
 20
253.2338
 10
891.7347
 20
239.5136
 10
888.2519
 20
239.5136
 10
888.2519
 20
257.901
 10
891.7347
 20
257.901
 10
891.7347
 20
255.8544
 10
892.0766
 20
256.1496
 10
892.4177
 20
256.4278
 10
892.758
 20
256.6891
 10
893.0974
 20
256.9333
 10
893.436
 20
257.1604
 10
893.7739
 20
257.3704
 10
894.111
 20
257.5632
 10
894.4473
 20
257.7387
 10
894.7869
 20
257.8948
 10
895.1349
 20
258.0303
 10
895.4913
 20
258.1452
 10
895.8561
 20
258.2393
 10
896.2291
 20
258.3126
 10
896.6104
 20
258.3651
 10
896.9998
 20
258.3966
 10
897.3975
 20
258.4071
 10
897.8483
 20
258.3955
 10
898.2863
 20
258.3608
 10
898.7117
 20
258.3028
 10
899.1244
 20
258.2217
 10
899.5243
 20
258.1172
 10
899.9115
 20
257.9894
 10
900.2858
 20
257.8384
 10
900.6474
 20
257.6639
 10
900.989
 20
257.4639
 10
901.3101
 20
257.2343
 10
901.6106
 20
256.9749
 10
901.8902
 20
256.6858
 10
902.1488
 20
256.3668
 10
902.3862
 20
256.018
 10
902.6021
 20
255.6392
 10
902.7964
 20
255.2304
 10
903.1898
 20
255.6088
 10
903.5805
 20
255.9639
 10
903.9684
 20
256.2956
 10
904.3536
 20
256.6037
 10
904.7361
 20
256.888
 10
905.116
 20
257.1485
 10
905.4932
 20
257.385
 10
905.8677
 20
257.5973
 10
906.2482
 20
257.7874
 10
906.6362
 20
257.952
 10
907.0318
 20
258.0912
 10
907.4352
 20
258.205
 10
907.8465
 20
258.2935
 10
908.2657
 20
258.3566
 10
908.693
 20
258.3945
 10
909.1285
 20
258.4071
 10
909.4583
 20
258.4013
 10
909.7803
 20
258.384
 10
910.0947
 20
258.355
 10
910.4013
 20
258.3145
 10
910.7002
 20
258.2625
 10
910.9914
 20
258.1988
 10
911.2749
 20
258.1236
 10
911.5507
 20
258.0368
 10
911.8185
 20
257.9369
 10
912.0779
 20
257.8232
 10
912.3289
 20
257.6956
 10
912.5715
 20
257.554
 10
912.8055
 20
257.3982
 10
913.031
 20
257.2281
 10
913.2478
 20
257.0435
 10
913.456
 20
256.8444
 10
913.658
 20
256.6273
 10
913.8484
 20
256.3979
 10
914.0269
 20
256.1561
 10
914.1937
 20
255.9017
 10
914.3486
 20
255.6343
 10
914.4916
 20
255.3537
 10
914.6226
 20
255.0597
 10
914.7416
 20
254.7521
 10
914.848
 20
254.43
 10
914.9402
 20
254.0878
 10
915.0181
 20
253.7253
 10
915.0819
 20
253.3426
 10
915.1314
 20
252.9396
 10
915.1667
 20
252.5163
 10
915.1879
 20
252.0727
 10
915.195
 20
251.6087
 10
915.195
 20
239.5136
 10
911.7153
 20
239.5136
  0
LWPOLYLINE
  5
7D
330
1F
100
AcDbEntity
  8
Layer 1
 62
     7
100
AcDbPolyline
 90
       12
 70
     1
 43
0.0
 10
1228.744
 20
-40.4911
 10
1228.744
 20
-43.3932
 10
1238.2017
 20
-43.3932
 10
1238.2017
 20
-46.5643
 10
1228.744
 20
-46.5643
 10
1228.744
 20
-57.3934
 10
1224.8621
 20
-57.3934
 10
1210.6903
 20
-46.4284
 10
1210.6903
 20
-43.3932
 10
1225.7891
 20
-43.3932
 10
1225.7891
 20
-40.4911
 10
1228.744
 20
-40.4911
  0
LWPOLYLINE
  5
7E
330
1F
100
AcDbEntity
  8
Layer 1
 62
     7
100
AcDbPolyline
 90
        4
 70
     1
 43
0.0
 10
1225.7891
 20
-46.5643
 10
1215.0644
 20
-46.5643
 10
1225.7891
 20
-54.8116
 10
1225.7891
 20
-46.5643
  0
LWPOLYLINE
  5
7F
330
1F
100
AcDbEntity
  8
Layer 1
 62
     7
100
AcDbPolyline
 90
       81
 70
     1
 43
0.0
 10
1217.0736
 20
-26.2926
 10
1216.6199
 20
-26.3098
 10
1216.1857
 20
-26.3613
 10
1215.7707
 20
-26.4472
 10
1215.3747
 20
-26.5676
 10
1214.9976
 20
-26.7226
 10
1214.6392
 20
-26.912
 10
1214.2992
 20
-27.1361
 10
1213.9775
 20
-27.3949
 10
1213.6865
 20
-27.6824
 10
1213.4342
 20
-27.9968
 10
1213.2207
 20
-28.338
 10
1213.046
 20
-28.7063
 10
1212.9101
 20
-29.1014
 10
1212.813
 20
-29.5234
 10
1212.7547
 20
-29.9723
 10
1212.7353
 20
-30.4481
 10
1212.7528
 20
-30.8864
 10
1212.8051
 20
-31.3039
 10
1212.8924
 20
-31.7009
 10
1213.0146
 20
-32.0775
 10
1213.1716
 20
-32.4339
 10
1213.3635
 20
-32.7702
 10
1213.5902
 20
-33.0867
 10
1213.8517
 20
-33.3835
 10
1214.1403
 20
-33.6503
 10
1214.454
 20
-33.8818
 10
1214.7927
 20
-34.0779
 10
1215.1564
 20
-34.2385
 10
1215.545
 20
-34.3636
 10
1215.9583
 20
-34.4531
 10
1216.3965
 20
-34.5068
 10
1216.8593
 20
-34.5247
 10
1217.196
 20
-34.5155
 10
1217.5192
 20
-34.4879
 10
1217.8289
 20
-34.442
 10
1218.1252
 20
-34.3779
 10
1218.4083
 20
-34.2956
 10
1218.6782
 20
-34.1953
 10
1218.9351
 20
-34.0771
 10
1219.1791
 20
-33.9409
 10
1219.4135
 20
-33.7857
 10
1219.6418
 20
-33.6122
 10
1219.864
 20
-33.4205
 10
1220.0801
 20
-33.2104
 10
1220.2902
 20
-32.9818
 10
1220.4945
 20
-32.7349
 10
1220.6929
 20
-32.4695
 10
1220.8856
 20
-32.1855
 10
1220.9695
 20
-32.0507
 10
1221.0605
 20
-31.8988
 10
1221.1586
 20
-31.7301
 10
1221.2637
 20
-31.5444
 10
1221.3758
 20
-31.3419
 10
1221.4948
 20
-31.1226
 10
1221.6208
 20
-30.8866
 10
1221.7536
 20
-30.6339
 10
1221.8895
 20
-30.3753
 10
1222.0176
 20
-30.1226
 10
1222.138
 20
-29.8758
 10
1222.2506
 20
-29.6351
 10
1222.3555
 20
-29.4003
 10
1222.4525
 20
-29.1717
 10
1222.5417
 20
-28.9492
 10
1222.6231
 20
-28.7329
 10
1222.3122
 20
-28.3909
 10
1221.999
 20
-28.0774
 10
1221.6836
 20
-27.7923
 10
1221.3661
 20
-27.536
 10
1221.0466
 20
-27.3083
 10
1220.7251
 20
-27.1095
 10
1220.4018
 20
-26.9396
 10
1220.0766
 20
-26.7987
 10
1219.742
 20
-26.6802
 10
1219.396
 20
-26.5775
 10
1219.0386
 20
-26.4905
 10
1218.6695
 20
-26.4193
 10
1218.2885
 20
-26.3639
 10
1217.8957
 20
-26.3243
 10
1217.4908
 20
-26.3005
 10
1217.0736
 20
-26.2926
  0
LWPOLYLINE
  5
80
330
1F
100
AcDbEntity
  8
Layer 1
 62
     7
100
AcDbPolyline
 90
       70
 70
     1
 43
0.0
 10
1230.8868
 20
-25.7879
 10
1230.4742
 20
-25.7971
 10
1230.0831
 20
-25.8247
 10
1229.7135
 20
-25.8708
 10
1229.3657
 20
-25.9356
 10
1229.0396
 20
-26.019
 10
1228.7353
 20
-26.1213
 10
1228.453
 20
-26.2425
 10
1228.1928
 20
-26.3827
 10
1227.942
 20
-26.5478
 10
1227.6904
 20
-26.7477
 10
1227.4378
 20
-26.9823
 10
1227.1841
 20
-27.2518
 10
1226.9292
 20
-27.5559
 10
1226.6728
 20
-27.8946
 10
1226.415
 20
-28.2681
 10
1226.1556
 20
-28.6761
 10
1225.9772
 20
-28.9812
 10
1225.7917
 20
-29.3316
 10
1225.5994
 20
-29.7282
 10
1225.4009
 20
-30.1722
 10
1224.4351
 20
-32.2812
 10
1224.6973
 20
-32.6128
 10
1224.9739
 20
-32.9244
 10
1225.265
 20
-33.216
 10
1225.5708
 20
-33.4875
 10
1225.8913
 20
-33.739
 10
1226.2267
 20
-33.9705
 10
1226.5772
 20
-34.182
 10
1226.9428
 20
-34.3735
 10
1227.3213
 20
-34.5431
 10
1227.7126
 20
-34.6901
 10
1228.1168
 20
-34.8146
 10
1228.534
 20
-34.9163
 10
1228.9641
 20
-34.9955
 10
1229.4072
 20
-35.0521
 10
1229.8633
 20
-35.086
 10
1230.3324
 20
-35.0973
 10
1230.9426
 20
-35.0763
 10
1231.5259
 20
-35.0131
 10
1232.0823
 20
-34.908
 10
1232.6115
 20
-34.7609
 10
1233.1134
 20
-34.5719
 10
1233.5881
 20
-34.341
 10
1234.0353
 20
-34.0682
 10
1234.455
 20
-33.7537
 10
1234.837
 20
-33.4061
 10
1235.1678
 20
-33.0372
 10
1235.4475
 20
-32.6469
 10
1235.6762
 20
-32.2352
 10
1235.8539
 20
-31.8022
 10
1235.9808
 20
-31.3477
 10
1236.0569
 20
-30.8719
 10
1236.0822
 20
-30.3746
 10
1236.0604
 20
-29.8684
 10
1235.9952
 20
-29.3878
 10
1235.8864
 20
-28.9326
 10
1235.734
 20
-28.5031
 10
1235.5382
 20
-28.0991
 10
1235.2988
 20
-27.7209
 10
1235.0159
 20
-27.3682
 10
1234.6894
 20
-27.0413
 10
1234.3234
 20
-26.747
 10
1233.9263
 20
-26.4921
 10
1233.498
 20
-26.2767
 10
1233.0385
 20
-26.1005
 10
1232.5477
 20
-25.9637
 10
1232.0255
 20
-25.866
 10
1231.4719
 20
-25.8074
 10
1230.8868
 20
-25.7879
  0
LWPOLYLINE
  5
81
330
1F
100
AcDbEntity
  8
Layer 1
 62
     7
100
AcDbPolyline
 90
      147
 70
     1
 43
0.0
 10
1238.8445
 20
-30.4426
 10
1238.8351
 20
-30.8949
 10
1238.8068
 20
-31.3368
 10
1238.7596
 20
-31.7682
 10
1238.6933
 20
-32.1893
 10
1238.6079
 20
-32.6001
 10
1238.5032
 20
-33.0008
 10
1238.3793
 20
-33.3913
 10
1238.2359
 20
-33.7717
 10
1238.0759
 20
-34.1402
 10
1237.8987
 20
-34.4949
 10
1237.7044
 20
-34.8357
 10
1237.4933
 20
-35.1625
 10
1237.2654
 20
-35.4752
 10
1237.021
 20
-35.7739
 10
1236.76
 20
-36.0584
 10
1236.4828
 20
-36.3286
 10
1236.1966
 20
-36.5801
 10
1235.8981
 20
-36.8159
 10
1235.5873
 20
-37.036
 10
1235.264
 20
-37.2404
 10
1234.9281
 20
-37.4293
 10
1234.5797
 20
-37.6028
 10
1234.2186
 20
-37.7609
 10
1233.8447
 20
-37.9037
 10
1233.4588
 20
-38.0286
 10
1233.0682
 20
-38.1369
 10
1232.6728
 20
-38.2286
 10
1232.2724
 20
-38.3038
 10
1231.8666
 20
-38.3623
 10
1231.4553
 20
-38.4041
 10
1231.0381
 20
-38.4292
 10
1230.615
 20
-38.4376
 10
1230.0607
 20
-38.421
 10
1229.5178
 20
-38.3712
 10
1228.9864
 20
-38.2881
 10
1228.4662
 20
-38.1715
 10
1227.9572
 20
-38.0215
 10
1227.4592
 20
-37.838
 10
1226.972
 20
-37.6208
 10
1226.4956
 20
-37.3699
 10
1226.0393
 20
-37.0871
 10
1225.6066
 20
-36.7742
 10
1225.1978
 20
-36.431
 10
1224.8129
 20
-36.0577
 10
1224.4519
 20
-35.6539
 10
1224.1152
 20
-35.2198
 10
1223.8026
 20
-34.7551
 10
1223.5144
 20
-34.2598
 10
1223.401
 20
-34.2598
 10
1223.1022
 20
-34.7003
 10
1222.7961
 20
-35.1109
 10
1222.483
 20
-35.4917
 10
1222.1627
 20
-35.8428
 10
1221.8355
 20
-36.1643
 10
1221.5013
 20
-36.4563
 10
1221.1604
 20
-36.719
 10
1220.8126
 20
-36.9525
 10
1220.4494
 20
-37.1587
 10
1220.0645
 20
-37.3373
 10
1219.6578
 20
-37.4884
 10
1219.2296
 20
-37.612
 10
1218.7798
 20
-37.7081
 10
1218.3085
 20
-37.7767
 10
1217.8159
 20
-37.8179
 10
1217.3019
 20
-37.8316
 10
1216.5397
 20
-37.7989
 10
1215.8101
 20
-37.7008
 10
1215.113
 20
-37.5374
 10
1214.4486
 20
-37.3085
 10
1213.8166
 20
-37.0143
 10
1213.2171
 20
-36.6547
 10
1212.6502
 20
-36.2297
 10
1212.1157
 20
-35.7393
 10
1211.6306
 20
-35.1986
 10
1211.2104
 20
-34.6227
 10
1210.8552
 20
-34.0116
 10
1210.5647
 20
-33.3655
 10
1210.3389
 20
-32.6842
 10
1210.1778
 20
-31.9678
 10
1210.0812
 20
-31.2165
 10
1210.049
 20
-30.4301
 10
1210.0798
 20
-29.6161
 10
1210.1721
 20
-28.8431
 10
1210.3258
 20
-28.1112
 10
1210.541
 20
-27.4206
 10
1210.8176
 20
-26.7713
 10
1211.1554
 20
-26.1634
 10
1211.5545
 20
-25.5971
 10
1212.0148
 20
-25.0724
 10
1212.5269
 20
-24.5999
 10
1213.0724
 20
-24.1901
 10
1213.6515
 20
-23.8432
 10
1214.2642
 20
-23.5591
 10
1214.9107
 20
-23.338
 10
1215.5912
 20
-23.18
 10
1216.3059
 20
-23.0851
 10
1217.055
 20
-23.0535
 10
1217.5183
 20
-23.0686
 10
1217.9802
 20
-23.1138
 10
1218.4405
 20
-23.189
 10
1218.8992
 20
-23.2943
 10
1219.3564
 20
-23.4295
 10
1219.8119
 20
-23.5946
 10
1220.2658
 20
-23.7896
 10
1220.7179
 20
-24.0144
 10
1221.1599
 20
-24.2685
 10
1221.5764
 20
-24.5494
 10
1221.9678
 20
-24.8569
 10
1222.3341
 20
-25.1911
 10
1222.6756
 20
-25.5518
 10
1222.9925
 20
-25.9391
 10
1223.285
 20
-26.3529
 10
1223.5532
 20
-26.7931
 10
1223.6572
 20
-26.7931
 10
1223.949
 20
-26.2739
 10
1224.2548
 20
-25.7872
 10
1224.575
 20
-25.3331
 10
1224.9097
 20
-24.9116
 10
1225.259
 20
-24.5225
 10
1225.6231
 20
-24.1659
 10
1226.0021
 20
-23.8417
 10
1226.3963
 20
-23.5499
 10
1226.8148
 20
-23.2907
 10
1227.2613
 20
-23.0663
 10
1227.7358
 20
-22.8765
 10
1228.2388
 20
-22.7215
 10
1228.7703
 20
-22.6009
 10
1229.3307
 20
-22.5149
 10
1229.9202
 20
-22.4634
 10
1230.539
 20
-22.4462
 10
1231.4056
 20
-22.4818
 10
1232.2362
 20
-22.5887
 10
1233.0309
 20
-22.767
 10
1233.7896
 20
-23.0166
 10
1234.5122
 20
-23.3377
 10
1235.1986
 20
-23.7302
 10
1235.8488
 20
-24.1943
 10
1236.4626
 20
-24.7299
 10
1237.021
 20
-25.319
 10
1237.5049
 20
-25.9434
 10
1237.9143
 20
-26.6034
 10
1238.2492
 20
-27.2992
 10
1238.5097
 20
-28.0308
 10
1238.6957
 20
-28.7985
 10
1238.8073
 20
-29.6024
 10
1238.8445
 20
-30.4426
  0
LWPOLYLINE
  5
82
330
1F
100
AcDbEntity
  8
Layer 1
 62
     7
100
AcDbPolyline
 90
       65
 70
     1
 43
0.0
 10
1224.4274
 20
-4.167
 10
1226.218
 20
-4.197
 10
1227.8856
 20
-4.287
 10
1229.4301
 20
-4.437
 10
1230.8516
 20
-4.6468
 10
1232.1502
 20
-4.9164
 10
1233.326
 20
-5.2457
 10
1234.3789
 20
-5.6347
 10
1235.309
 20
-6.0833
 10
1236.1201
 20
-6.5966
 10
1236.8229
 20
-7.1748
 10
1237.4176
 20
-7.8178
 10
1237.904
 20
-8.5259
 10
1238.2823
 20
-9.299
 10
1238.5524
 20
-10.1372
 10
1238.7145
 20
-11.0407
 10
1238.7685
 20
-12.0095
 10
1238.7133
 20
-12.9899
 10
1238.5478
 20
-13.9024
 10
1238.272
 20
-14.7471
 10
1237.8858
 20
-15.5241
 10
1237.3892
 20
-16.2337
 10
1236.7823
 20
-16.876
 10
1236.0651
 20
-17.4511
 10
1235.2375
 20
-17.9593
 10
1234.2979
 20
-18.4037
 10
1233.2423
 20
-18.7887
 10
1232.0704
 20
-19.1143
 10
1230.7823
 20
-19.3805
 10
1229.3779
 20
-19.5874
 10
1227.8572
 20
-19.7352
 10
1226.22
 20
-19.8238
 10
1224.4662
 20
-19.8533
 10
1222.6675
 20
-19.8233
 10
1220.9936
 20
-19.7333
 10
1219.4444
 20
-19.5833
 10
1218.0202
 20
-19.3736
 10
1216.7209
 20
-19.104
 10
1215.5466
 20
-18.7747
 10
1214.4975
 20
-18.3857
 10
1213.5737
 20
-17.9371
 10
1212.7644
 20
-17.4237
 10
1212.0634
 20
-16.8456
 10
1211.4706
 20
-16.2024
 10
1210.9859
 20
-15.4943
 10
1210.6091
 20
-14.721
 10
1210.3401
 20
-13.8825
 10
1210.1788
 20
-12.9787
 10
1210.1251
 20
-12.0095
 10
1210.181
 20
-11.0295
 10
1210.3485
 20
-10.1174
 10
1210.6277
 20
-9.273
 10
1211.0183
 20
-8.4961
 10
1211.5203
 20
-7.7866
 10
1212.1335
 20
-7.1444
 10
1212.8579
 20
-6.5692
 10
1213.6933
 20
-6.0611
 10
1214.641
 20
-5.6166
 10
1215.7011
 20
-5.2316
 10
1216.8737
 20
-4.9061
 10
1218.159
 20
-4.6398
 10
1219.5569
 20
-4.4329
 10
1221.0675
 20
-4.2851
 10
1222.691
 20
-4.1965
 10
1224.4274
 20
-4.167
  0
LWPOLYLINE
  5
83
330
1F
100
AcDbEntity
  8
Layer 1
 62
     7
100
AcDbPolyline
 90
      129
 70
     1
 43
0.0
 10
1232.8106
 20
-8.3836
 10
1232.4562
 20
-8.2676
 10
1232.0799
 20
-8.1606
 10
1231.6816
 20
-8.0627
 10
1231.2612
 20
-7.9735
 10
1230.8183
 20
-7.8931
 10
1230.353
 20
-7.8213
 10
1229.865
 20
-7.7579
 10
1229.3542
 20
-7.7028
 10
1228.8219
 20
-7.6573
 10
1228.2658
 20
-7.6176
 10
1227.686
 20
-7.5838
 10
1227.0824
 20
-7.556
 10
1226.4548
 20
-7.5342
 10
1225.8032
 20
-7.5185
 10
1225.1274
 20
-7.5091
 10
1224.4274
 20
-7.5059
 10
1223.734
 20
-7.5091
 10
1223.0631
 20
-7.5185
 10
1222.4149
 20
-7.5342
 10
1221.7897
 20
-7.556
 10
1221.1876
 20
-7.5838
 10
1220.6088
 20
-7.6176
 10
1220.0537
 20
-7.6573
 10
1219.5223
 20
-7.7028
 10
1219.0102
 20
-7.7582
 10
1218.5206
 20
-7.8224
 10
1218.0536
 20
-7.8955
 10
1217.6089
 20
-7.9775
 10
1217.1865
 20
-8.0684
 10
1216.7863
 20
-8.1682
 10
1216.4081
 20
-8.277
 10
1216.0519
 20
-8.3947
 10
1215.7106
 20
-8.5252
 10
1215.3911
 20
-8.6671
 10
1215.0931
 20
-8.8203
 10
1214.8165
 20
-8.9848
 10
1214.5611
 20
-9.1606
 10
1214.3267
 20
-9.3476
 10
1214.1131
 20
-9.5457
 10
1213.92
 20
-9.7549
 10
1213.749
 20
-9.9804
 10
1213.6007
 20
-10.2222
 10
1213.475
 20
-10.4802
 10
1213.3721
 20
-10.7543
 10
1213.2919
 20
-11.0444
 10
1213.2346
 20
-11.3503
 10
1213.2002
 20
-11.6721
 10
1213.1887
 20
-12.0095
 10
1213.2002
 20
-12.3441
 10
1213.2346
 20
-12.6637
 10
1213.2919
 20
-12.9682
 10
1213.3721
 20
-13.2574
 10
1213.475
 20
-13.5312
 10
1213.6007
 20
-13.7897
 10
1213.749
 20
-14.0326
 10
1213.92
 20
-14.2599
 10
1214.1137
 20
-14.4756
 10
1214.3292
 20
-14.6795
 10
1214.5665
 20
-14.8716
 10
1214.8259
 20
-15.0518
 10
1215.1072
 20
-15.2202
 10
1215.4107
 20
-15.3766
 10
1215.7364
 20
-15.521
 10
1216.0845
 20
-15.6534
 10
1216.448
 20
-15.7727
 10
1216.834
 20
-15.8822
 10
1217.2426
 20
-15.9819
 10
1217.674
 20
-16.0718
 10
1218.128
 20
-16.1519
 10
1218.605
 20
-16.2224
 10
1219.1049
 20
-16.2831
 10
1219.6279
 20
-16.3342
 10
1220.1736
 20
-16.3758
 10
1220.7358
 20
-16.4121
 10
1221.3149
 20
-16.4431
 10
1221.9108
 20
-16.4686
 10
1222.5237
 20
-16.4885
 10
1223.1538
 20
-16.5029
 10
1223.8013
 20
-16.5116
 10
1224.4662
 20
-16.5145
 10
1225.1713
 20
-16.5121
 10
1225.847
 20
-16.5048
 10
1226.4935
 20
-16.4927
 10
1227.1105
 20
-16.4756
 10
1227.6982
 20
-16.4537
 10
1228.2564
 20
-16.4267
 10
1228.7851
 20
-16.3948
 10
1229.2843
 20
-16.3578
 10
1229.761
 20
-16.3133
 10
1230.2257
 20
-16.2568
 10
1230.6783
 20
-16.1883
 10
1231.1185
 20
-16.108
 10
1231.5464
 20
-16.016
 10
1231.9618
 20
-15.9122
 10
1232.3646
 20
-15.7969
 10
1232.7547
 20
-15.67
 10
1233.0992
 20
-15.5454
 10
1233.4234
 20
-15.4078
 10
1233.7274
 20
-15.2571
 10
1234.0111
 20
-15.0934
 10
1234.2744
 20
-14.9168
 10
1234.5175
 20
-14.7273
 10
1234.7402
 20
-14.5249
 10
1234.9425
 20
-14.3098
 10
1235.1215
 20
-14.0818
 10
1235.2765
 20
-13.8365
 10
1235.4075
 20
-13.5742
 10
1235.5147
 20
-13.2948
 10
1235.598
 20
-12.9986
 10
1235.6574
 20
-12.6856
 10
1235.693
 20
-12.3558
 10
1235.7049
 20
-12.0095
 10
1235.6934
 20
-11.6757
 10
1235.659
 20
-11.3565
 10
1235.6016
 20
-11.0522
 10
1235.5213
 20
-10.7626
 10
1235.4182
 20
-10.488
 10
1235.2922
 20
-10.2285
 10
1235.1435
 20
-9.9841
 10
1234.972
 20
-9.7549
 10
1234.7798
 20
-9.5414
 10
1234.5655
 20
-9.3396
 10
1234.3289
 20
-9.1498
 10
1234.0701
 20
-8.972
 10
1233.7889
 20
-8.8064
 10
1233.4852
 20
-8.653
 10
1233.1592
 20
-8.5121
 10
1232.8106
 20
-8.3836
  0
LWPOLYLINE
  5
84
330
1F
100
AcDbEntity
  8
Layer 1
 62
     7
100
AcDbPolyline
 90
      190
 70
     1
 43
0.0
 10
1238.2017
 20
20.3213
 10
1226.2689
 20
20.3213
 10
1225.918
 20
20.3197
 10
1225.5732
 20
20.315
 10
1225.2347
 20
20.3072
 10
1224.9025
 20
20.2962
 10
1224.5768
 20
20.2819
 10
1224.2575
 20
20.2645
 10
1223.9447
 20
20.2439
 10
1223.6386
 20
20.22
 10
1223.3442
 20
20.1934
 10
1223.0664
 20
20.1596
 10
1222.805
 20
20.1186
 10
1222.56
 20
20.0706
 10
1222.3313
 20
20.0157
 10
1222.1186
 20
19.9541
 10
1221.9219
 20
19.8858
 10
1221.7411
 20
19.811
 10
1221.5632
 20
19.7239
 10
1221.3973
 20
19.628
 10
1221.2436
 20
19.5234
 10
1221.102
 20
19.4101
 10
1220.9726
 20
19.2881
 10
1220.8553
 20
19.1576
 10
1220.7502
 20
19.0185
 10
1220.6573
 20
18.8709
 10
1220.5753
 20
18.7123
 10
1220.504
 20
18.54
 10
1220.4434
 20
18.3542
 10
1220.3938
 20
18.1549
 10
1220.355
 20
17.9422
 10
1220.3272
 20
17.716
 10
1220.3105
 20
17.4765
 10
1220.3049
 20
17.2237
 10
1220.3151
 20
16.9816
 10
1220.3458
 20
16.7355
 10
1220.397
 20
16.4855
 10
1220.4689
 20
16.2313
 10
1220.5615
 20
15.9727
 10
1220.675
 20
15.7098
 10
1220.8094
 20
15.4423
 10
1220.9648
 20
15.1701
 10
1221.1379
 20
14.8948
 10
1221.3297
 20
14.6169
 10
1221.5403
 20
14.3366
 10
1221.7695
 20
14.0538
 10
1222.0172
 20
13.7686
 10
1222.2832
 20
13.481
 10
1222.5675
 20
13.1911
 10
1222.87
 20
12.8989
 10
1223.6153
 20
12.9447
 10
1224.6432
 20
12.9669
 10
1238.2017
 20
12.9669
 10
1238.2017
 20
9.8623
 10
1226.2689
 20
9.8623
 10
1225.918
 20
9.8607
 10
1225.5732
 20
9.8561
 10
1225.2347
 20
9.8482
 10
1224.9025
 20
9.8372
 10
1224.5768
 20
9.823
 10
1224.2575
 20
9.8056
 10
1223.9447
 20
9.785
 10
1223.6386
 20
9.7611
 10
1223.3442
 20
9.7345
 10
1223.0664
 20
9.7007
 10
1222.805
 20
9.6597
 10
1222.56
 20
9.6117
 10
1222.3313
 20
9.5568
 10
1222.1186
 20
9.4952
 10
1221.9219
 20
9.4269
 10
1221.7411
 20
9.3521
 10
1221.5632
 20
9.265
 10
1221.3973
 20
9.1691
 10
1221.2436
 20
9.0646
 10
1221.102
 20
8.9514
 10
1220.9726
 20
8.8296
 10
1220.8553
 20
8.6993
 10
1220.7502
 20
8.5605
 10
1220.6573
 20
8.4134
 10
1220.5753
 20
8.2543
 10
1220.504
 20
8.0817
 10
1220.4434
 20
7.8956
 10
1220.3938
 20
7.6962
 10
1220.355
 20
7.4833
 10
1220.3272
 20
7.2571
 10
1220.3105
 20
7.0175
 10
1220.3049
 20
6.7647
 10
1220.3158
 20
6.5106
 10
1220.3486
 20
6.2536
 10
1220.4034
 20
5.9938
 10
1220.4802
 20
5.7311
 10
1220.579
 20
5.4655
 10
1220.6999
 20
5.1971
 10
1220.843
 20
4.9258
 10
1221.0083
 20
4.6516
 10
1221.1927
 20
4.3761
 10
1221.3884
 20
4.1027
 10
1221.5958
 20
3.8316
 10
1221.8149
 20
3.5626
 10
1222.0459
 20
3.2958
 10
1222.2891
 20
3.0311
 10
1222.5446
 20
2.7685
 10
1222.8125
 20
2.508
 10
1238.2017
 20
2.508
 10
1238.2017
 20
-0.5952
 10
1217.5798
 20
-0.5952
 10
1217.5798
 20
2.508
 10
1219.8732
 20
2.508
 10
1219.5421
 20
2.8133
 10
1219.2301
 20
3.1177
 10
1218.9372
 20
3.4212
 10
1218.6634
 20
3.7238
 10
1218.4088
 20
4.0256
 10
1218.1733
 20
4.3266
 10
1217.957
 20
4.6268
 10
1217.7599
 20
4.9261
 10
1217.5851
 20
5.2293
 10
1217.4333
 20
5.5397
 10
1217.3047
 20
5.8575
 10
1217.1994
 20
6.1827
 10
1217.1173
 20
6.5153
 10
1217.0586
 20
6.8553
 10
1217.0233
 20
7.2029
 10
1217.0115
 20
7.5579
 10
1217.0245
 20
7.9594
 10
1217.0636
 20
8.3497
 10
1217.1287
 20
8.7287
 10
1217.2198
 20
9.0964
 10
1217.3368
 20
9.4528
 10
1217.4799
 20
9.7977
 10
1217.6489
 20
10.1311
 10
1217.8438
 20
10.453
 10
1218.0683
 20
10.7583
 10
1218.3262
 20
11.0449
 10
1218.6175
 20
11.3129
 10
1218.9421
 20
11.5621
 10
1219.3002
 20
11.7926
 10
1219.6917
 20
12.0042
 10
1220.1166
 20
12.1969
 10
1220.575
 20
12.3707
 10
1220.1507
 20
12.7215
 10
1219.7524
 20
13.0698
 10
1219.3804
 20
13.4157
 10
1219.0347
 20
13.7591
 10
1218.7155
 20
14.1002
 10
1218.4229
 20
14.4389
 10
1218.1572
 20
14.7752
 10
1217.9183
 20
15.1091
 10
1217.7059
 20
15.4479
 10
1217.5218
 20
15.7935
 10
1217.366
 20
16.146
 10
1217.2384
 20
16.5056
 10
1217.1392
 20
16.8722
 10
1217.0683
 20
17.246
 10
1217.0257
 20
17.627
 10
1217.0115
 20
18.0154
 10
1217.018
 20
18.3094
 10
1217.0374
 20
18.5967
 10
1217.0699
 20
18.8771
 10
1217.1153
 20
19.1506
 10
1217.1738
 20
19.4173
 10
1217.2453
 20
19.6771
 10
1217.3299
 20
19.9299
 10
1217.4276
 20
20.1757
 10
1217.539
 20
20.4143
 10
1217.666
 20
20.6456
 10
1217.8087
 20
20.8695
 10
1217.9674
 20
21.0858
 10
1218.1421
 20
21.2945
 10
1218.3331
 20
21.4955
 10
1218.5405
 20
21.6888
 10
1218.7645
 20
21.8742
 10
1219.0073
 20
22.0541
 10
1219.2643
 20
22.2236
 10
1219.5356
 20
22.3826
 10
1219.8214
 20
22.5313
 10
1220.1217
 20
22.6694
 10
1220.4369
 20
22.7971
 10
1220.767
 20
22.9142
 10
1221.1123
 20
23.0209
 10
1221.4725
 20
23.1155
 10
1221.8556
 20
23.1977
 10
1222.2616
 20
23.2672
 10
1222.6904
 20
23.3242
 10
1223.1422
 20
23.3686
 10
1223.617
 20
23.4004
 10
1224.1147
 20
23.4194
 10
1224.6354
 20
23.4258
 10
1238.2017
 20
23.4258
 10
1238.2017
 20
20.3213
  0
LWPOLYLINE
  5
85
330
1F
100
AcDbEntity
  8
Layer 1
 62
     7
100
AcDbPolyline
 90
      190
 70
     1
 43
0.0
 10
1238.2017
 20
48.6545
 10
1226.2689
 20
48.6545
 10
1225.918
 20
48.6529
 10
1225.5732
 20
48.6482
 10
1225.2347
 20
48.6404
 10
1224.9025
 20
48.6294
 10
1224.5768
 20
48.6152
 10
1224.2575
 20
48.5978
 10
1223.9447
 20
48.5771
 10
1223.6386
 20
48.5533
 10
1223.3442
 20
48.5267
 10
1223.0664
 20
48.4927
 10
1222.805
 20
48.4515
 10
1222.56
 20
48.4032
 10
1222.3313
 20
48.3481
 10
1222.1186
 20
48.2862
 10
1221.9219
 20
48.2178
 10
1221.7411
 20
48.1429
 10
1221.5632
 20
48.0563
 10
1221.3973
 20
47.9607
 10
1221.2436
 20
47.8563
 10
1221.102
 20
47.7432
 10
1220.9726
 20
47.6213
 10
1220.8553
 20
47.4908
 10
1220.7502
 20
47.3518
 10
1220.6573
 20
47.2042
 10
1220.5753
 20
47.0455
 10
1220.504
 20
46.8733
 10
1220.4434
 20
46.6875
 10
1220.3938
 20
46.4882
 10
1220.355
 20
46.2754
 10
1220.3272
 20
46.0492
 10
1220.3105
 20
45.8097
 10
1220.3049
 20
45.5569
 10
1220.3151
 20
45.3147
 10
1220.3458
 20
45.0685
 10
1220.397
 20
44.8183
 10
1220.4689
 20
44.5639
 10
1220.5615
 20
44.3053
 10
1220.675
 20
44.0424
 10
1220.8094
 20
43.7752
 10
1220.9648
 20
43.5034
 10
1221.1379
 20
43.2281
 10
1221.3297
 20
42.9502
 10
1221.5403
 20
42.6699
 10
1221.7695
 20
42.387
 10
1222.0172
 20
42.1018
 10
1222.2832
 20
41.8142
 10
1222.5675
 20
41.5243
 10
1222.87
 20
41.2322
 10
1223.6153
 20
41.2779
 10
1224.6432
 20
41.3001
 10
1238.2017
 20
41.3001
 10
1238.2017
 20
38.1956
 10
1226.2689
 20
38.1956
 10
1225.918
 20
38.194
 10
1225.5732
 20
38.1893
 10
1225.2347
 20
38.1815
 10
1224.9025
 20
38.1705
 10
1224.5768
 20
38.1563
 10
1224.2575
 20
38.1389
 10
1223.9447
 20
38.1182
 10
1223.6386
 20
38.0944
 10
1223.3442
 20
38.0678
 10
1223.0664
 20
38.034
 10
1222.805
 20
37.993
 10
1222.56
 20
37.945
 10
1222.3313
 20
37.8901
 10
1222.1186
 20
37.8284
 10
1221.9219
 20
37.7601
 10
1221.7411
 20
37.6853
 10
1221.5632
 20
37.5982
 10
1221.3973
 20
37.5024
 10
1221.2436
 20
37.3978
 10
1221.102
 20
37.2846
 10
1220.9726
 20
37.1628
 10
1220.8553
 20
37.0325
 10
1220.7502
 20
36.8937
 10
1220.6573
 20
36.7466
 10
1220.5753
 20
36.5875
 10
1220.504
 20
36.4149
 10
1220.4434
 20
36.2289
 10
1220.3938
 20
36.0294
 10
1220.355
 20
35.8166
 10
1220.3272
 20
35.5904
 10
1220.3105
 20
35.3508
 10
1220.3049
 20
35.098
 10
1220.3158
 20
34.8439
 10
1220.3486
 20
34.5868
 10
1220.4034
 20
34.3269
 10
1220.4802
 20
34.0641
 10
1220.579
 20
33.7984
 10
1220.6999
 20
33.5297
 10
1220.843
 20
33.2581
 10
1221.0083
 20
32.9835
 10
1221.1927
 20
32.7084
 10
1221.3884
 20
32.4354
 10
1221.5958
 20
32.1645
 10
1221.8149
 20
31.8957
 10
1222.0459
 20
31.629
 10
1222.2891
 20
31.3643
 10
1222.5446
 20
31.1017
 10
1222.8125
 20
30.8412
 10
1238.2017
 20
30.8412
 10
1238.2017
 20
27.7367
 10
1217.5798
 20
27.7367
 10
1217.5798
 20
30.8412
 10
1219.8732
 20
30.8412
 10
1219.5421
 20
31.1464
 10
1219.2301
 20
31.4507
 10
1218.9372
 20
31.754
 10
1218.6634
 20
32.0565
 10
1218.4088
 20
32.3582
 10
1218.1733
 20
32.6593
 10
1217.957
 20
32.9596
 10
1217.7599
 20
33.2594
 10
1217.5851
 20
33.5626
 10
1217.4333
 20
33.873
 10
1217.3047
 20
34.1907
 10
1217.1994
 20
34.5158
 10
1217.1173
 20
34.8482
 10
1217.0586
 20
35.188
 10
1217.0233
 20
35.5352
 10
1217.0115
 20
35.8897
 10
1217.0245
 20
36.2917
 10
1217.0636
 20
36.6824
 10
1217.1287
 20
37.0616
 10
1217.2198
 20
37.4295
 10
1217.3368
 20
37.7859
 10
1217.4799
 20
38.1309
 10
1217.6489
 20
38.4644
 10
1217.8438
 20
38.7863
 10
1218.0683
 20
39.0916
 10
1218.3262
 20
39.3782
 10
1218.6175
 20
39.6461
 10
1218.9421
 20
39.8953
 10
1219.3002
 20
40.1258
 10
1219.6917
 20
40.3374
 10
1220.1166
 20
40.5301
 10
1220.575
 20
40.7039
 10
1220.1507
 20
41.0547
 10
1219.7524
 20
41.403
 10
1219.3804
 20
41.7489
 10
1219.0347
 20
42.0924
 10
1218.7155
 20
42.4335
 10
1218.4229
 20
42.7721
 10
1218.1572
 20
43.1085
 10
1217.9183
 20
43.4424
 10
1217.7059
 20
43.7812
 10
1217.5218
 20
44.1268
 10
1217.366
 20
44.4793
 10
1217.2384
 20
44.8388
 10
1217.1392
 20
45.2055
 10
1217.0683
 20
45.5792
 10
1217.0257
 20
45.9603
 10
1217.0115
 20
46.3486
 10
1217.018
 20
46.6427
 10
1217.0374
 20
46.9299
 10
1217.0699
 20
47.2103
 10
1217.1153
 20
47.4839
 10
1217.1738
 20
47.7506
 10
1217.2453
 20
48.0103
 10
1217.3299
 20
48.2631
 10
1217.4276
 20
48.5089
 10
1217.539
 20
48.7476
 10
1217.666
 20
48.9789
 10
1217.8087
 20
49.2027
 10
1217.9674
 20
49.4191
 10
1218.1421
 20
49.6278
 10
1218.3331
 20
49.8288
 10
1218.5405
 20
50.0221
 10
1218.7645
 20
50.2075
 10
1219.0073
 20
50.3874
 10
1219.2643
 20
50.5569
 10
1219.5356
 20
50.7159
 10
1219.8214
 20
50.8646
 10
1220.1217
 20
51.0027
 10
1220.4369
 20
51.1304
 10
1220.767
 20
51.2475
 10
1221.1123
 20
51.3542
 10
1221.4725
 20
51.4488
 10
1221.8556
 20
51.531
 10
1222.2616
 20
51.6005
 10
1222.6904
 20
51.6575
 10
1223.1422
 20
51.7019
 10
1223.617
 20
51.7337
 10
1224.1147
 20
51.7527
 10
1224.6354
 20
51.7591
 10
1238.2017
 20
51.7591
 10
1238.2017
 20
48.6545
  0
LWPOLYLINE
  5
86
330
1F
100
AcDbEntity
  8
Layer 1
 62
     9
370
    18
100
AcDbPolyline
 90
        2
 70
     0
 43
0.0
 10
1097.4398
 20
-175.7361
 10
601.7516
 20
-175.7361
  0
LWPOLYLINE
  5
87
330
1F
100
AcDbEntity
  8
Layer 1
 62
     9
370
    18
100
AcDbPolyline
 90
        2
 70
     0
 43
0.0
 10
598.6244
 20
-197.7507
 10
598.6244
 20
-104.8697
  0
LWPOLYLINE
  5
88
330
1F
100
AcDbEntity
  8
Layer 1
 62
     9
370
    18
100
AcDbPolyline
 90
        2
 70
     0
 43
0.0
 10
1100.3978
 20
-197.7507
 10
1100.3978
 20
-104.8697
  0
LWPOLYLINE
  5
89
330
1F
100
AcDbEntity
  8
Layer 1
 62
     7
100
AcDbPolyline
 90
      292
 70
     1
 43
0.0
 10
521.5481
 20
-42.7096
 10
521.5512
 20
-42.8941
 10
521.5606
 20
-43.0784
 10
521.5762
 20
-43.2626
 10
521.598
 20
-43.4469
 10
521.6259
 20
-43.6313
 10
521.6601
 20
-43.816
 10
521.7004
 20
-44.0009
 10
521.7468
 20
-44.1863
 10
521.8569
 20
-44.5532
 10
521.9809
 20
-44.9173
 10
522.1207
 20
-45.2778
 10
522.2779
 20
-45.6339
 10
522.4328
 20
-45.952
 10
522.5937
 20
-46.249
 10
522.7589
 20
-46.5244
 10
522.9269
 20
-46.7778
 10
523.5589
 20
-47.6458
 10
523.5589
 20
-47.8094
 10
520.3245
 20
-47.8094
 10
520.1901
 20
-47.5773
 10
520.0595
 20
-47.325
 10
519.9326
 20
-47.0527
 10
519.8092
 20
-46.7605
 10
519.6894
 20
-46.4485
 10
519.5732
 20
-46.117
 10
519.4604
 20
-45.7659
 10
519.351
 20
-45.3954
 10
519.2473
 20
-45.0155
 10
519.1576
 20
-44.6402
 10
519.0818
 20
-44.2695
 10
519.0198
 20
-43.9035
 10
518.9717
 20
-43.5421
 10
518.9374
 20
-43.1855
 10
518.9168
 20
-42.8335
 10
518.91
 20
-42.4864
 10
518.9148
 20
-42.1456
 10
518.9293
 20
-41.8158
 10
518.9536
 20
-41.4971
 10
518.9878
 20
-41.1892
 10
519.032
 20
-40.8923
 10
519.0862
 20
-40.6063
 10
519.1506
 20
-40.3311
 10
519.2252
 20
-40.0668
 10
519.3086
 20
-39.8127
 10
519.4028
 20
-39.5642
 10
519.5079
 20
-39.3214
 10
519.6238
 20
-39.0846
 10
519.7507
 20
-38.8538
 10
519.8885
 20
-38.6292
 10
520.0374
 20
-38.4109
 10
520.1972
 20
-38.1991
 10
520.3849
 20
-37.9804
 10
520.5824
 20
-37.7755
 10
520.7896
 20
-37.5845
 10
521.0066
 20
-37.4074
 10
521.2333
 20
-37.2439
 10
521.4698
 20
-37.0943
 10
521.716
 20
-36.9584
 10
521.972
 20
-36.8361
 10
522.2384
 20
-36.7292
 10
522.516
 20
-36.6365
 10
522.8046
 20
-36.5579
 10
523.1041
 20
-36.4934
 10
523.4145
 20
-36.4432
 10
523.7356
 20
-36.4073
 10
524.0674
 20
-36.3857
 10
524.4098
 20
-36.3785
 10
524.8733
 20
-36.3958
 10
525.3227
 20
-36.4477
 10
525.7578
 20
-36.5343
 10
526.1787
 20
-36.6556
 10
526.5852
 20
-36.8117
 10
526.9772
 20
-37.0027
 10
527.3545
 20
-37.2285
 10
527.7171
 20
-37.4892
 10
528.0587
 20
-37.7729
 10
528.3675
 20
-38.0706
 10
528.6434
 20
-38.3823
 10
528.8865
 20
-38.708
 10
529.0968
 20
-39.0473
 10
529.2742
 20
-39.4004
 10
529.4188
 20
-39.7671
 10
529.5307
 20
-40.1472
 10
529.745
 20
-40.1472
 10
529.7817
 20
-39.9847
 10
529.8254
 20
-39.8194
 10
529.8759
 20
-39.6513
 10
529.9331
 20
-39.4805
 10
530.0666
 20
-39.1304
 10
530.2248
 20
-38.769
 10
530.3132
 20
-38.5881
 10
530.4117
 20
-38.4104
 10
530.5205
 20
-38.236
 10
530.6396
 20
-38.0648
 10
530.7689
 20
-37.8967
 10
530.9084
 20
-37.7318
 10
531.0583
 20
-37.5701
 10
531.2185
 20
-37.4115
 10
531.3896
 20
-37.2572
 10
531.5723
 20
-37.1104
 10
531.7665
 20
-36.9709
 10
531.9724
 20
-36.8389
 10
532.1899
 20
-36.7141
 10
532.419
 20
-36.5965
 10
532.6599
 20
-36.486
 10
532.9126
 20
-36.3827
 10
533.1791
 20
-36.2892
 10
533.4593
 20
-36.2084
 10
533.7534
 20
-36.1402
 10
534.0616
 20
-36.0845
 10
534.3841
 20
-36.0414
 10
534.721
 20
-36.0106
 10
535.0725
 20
-35.9922
 10
535.4389
 20
-35.9861
 10
535.8221
 20
-35.9935
 10
536.1974
 20
-36.0157
 10
536.565
 20
-36.0526
 10
536.9248
 20
-36.1043
 10
537.2771
 20
-36.1707
 10
537.622
 20
-36.2517
 10
537.9595
 20
-36.3473
 10
538.2897
 20
-36.4575
 10
538.6087
 20
-36.5829
 10
538.9184
 20
-36.72
 10
539.2187
 20
-36.8688
 10
539.5098
 20
-37.0295
 10
539.7917
 20
-37.2022
 10
540.0645
 20
-37.3869
 10
540.3283
 20
-37.5837
 10
540.5831
 20
-37.7928
 10
540.8351
 20
-38.021
 10
541.0715
 20
-38.2606
 10
541.2923
 20
-38.5117
 10
541.4974
 20
-38.7743
 10
541.6868
 20
-39.0486
 10
541.8602
 20
-39.3346
 10
542.0177
 20
-39.6323
 10
542.1591
 20
-39.942
 10
542.2857
 20
-40.2623
 10
542.3953
 20
-40.5931
 10
542.4879
 20
-40.9343
 10
542.5636
 20
-41.2861
 10
542.6224
 20
-41.6485
 10
542.6644
 20
-42.0215
 10
542.6895
 20
-42.4053
 10
542.6979
 20
-42.7997
 10
542.6916
 20
-43.1825
 10
542.6724
 20
-43.5645
 10
542.6405
 20
-43.9458
 10
542.5956
 20
-44.3262
 10
542.5377
 20
-44.7057
 10
542.4667
 20
-45.0844
 10
542.3824
 20
-45.4622
 10
542.2849
 20
-45.8391
 10
542.1788
 20
-46.2079
 10
542.0675
 20
-46.5615
 10
541.9511
 20
-46.8999
 10
541.8294
 20
-47.2234
 10
541.7021
 20
-47.532
 10
541.5693
 20
-47.8258
 10
541.4308
 20
-48.105
 10
541.2865
 20
-48.3696
 10
538.0475
 20
-48.3696
 10
538.0475
 20
-48.1782
 10
538.2251
 20
-47.9537
 10
538.4005
 20
-47.7108
 10
538.5736
 20
-47.4495
 10
538.7447
 20
-47.1697
 10
538.9137
 20
-46.8715
 10
539.0807
 20
-46.555
 10
539.2459
 20
-46.2201
 10
539.4092
 20
-45.8668
 10
539.5615
 20
-45.503
 10
539.6934
 20
-45.1396
 10
539.805
 20
-44.7764
 10
539.8962
 20
-44.4135
 10
539.9671
 20
-44.0508
 10
540.0178
 20
-43.6882
 10
540.0482
 20
-43.3257
 10
540.0583
 20
-42.9633
 10
540.0536
 20
-42.7542
 10
540.0396
 20
-42.5448
 10
540.0163
 20
-42.3353
 10
539.9836
 20
-42.1257
 10
539.9414
 20
-41.916
 10
539.8899
 20
-41.7063
 10
539.829
 20
-41.4966
 10
539.7586
 20
-41.287
 10
539.6784
 20
-41.0811
 10
539.5859
 20
-40.8836
 10
539.4812
 20
-40.6947
 10
539.3644
 20
-40.5143
 10
539.2358
 20
-40.3427
 10
539.0955
 20
-40.1799
 10
538.9436
 20
-40.0259
 10
538.7804
 20
-39.881
 10
538.6093
 20
-39.748
 10
538.4337
 20
-39.6235
 10
538.2537
 20
-39.5074
 10
538.0692
 20
-39.3997
 10
537.8804
 20
-39.3002
 10
537.6873
 20
-39.2089
 10
537.4899
 20
-39.1256
 10
537.2882
 20
-39.0504
 10
537.0772
 20
-38.9826
 10
536.8529
 20
-38.9236
 10
536.6151
 20
-38.8736
 10
536.3639
 20
-38.8326
 10
536.0992
 20
-38.8006
 10
535.8208
 20
-38.7777
 10
535.5288
 20
-38.7639
 10
535.223
 20
-38.7593
 10
534.9201
 20
-38.7644
 10
534.6309
 20
-38.7795
 10
534.3553
 20
-38.8048
 10
534.0934
 20
-38.84
 10
533.8452
 20
-38.8853
 10
533.6107
 20
-38.9406
 10
533.3899
 20
-39.0058
 10
533.1827
 20
-39.0809
 10
532.9871
 20
-39.1659
 10
532.802
 20
-39.2586
 10
532.6276
 20
-39.3592
 10
532.464
 20
-39.4678
 10
532.3112
 20
-39.5844
 10
532.1693
 20
-39.7092
 10
532.0385
 20
-39.8422
 10
531.9188
 20
-39.9836
 10
531.8078
 20
-40.1304
 10
531.7055
 20
-40.2839
 10
531.612
 20
-40.4441
 10
531.5273
 20
-40.611
 10
531.4516
 20
-40.7847
 10
531.3849
 20
-40.9652
 10
531.3274
 20
-41.1525
 10
531.2791
 20
-41.3466
 10
531.2367
 20
-41.5466
 10
531.2004
 20
-41.7504
 10
531.1699
 20
-41.9581
 10
531.1452
 20
-42.1697
 10
531.1262
 20
-42.3853
 10
531.1127
 20
-42.6048
 10
531.1047
 20
-42.8285
 10
531.1021
 20
-43.0562
 10
531.1021
 20
-44.2237
 10
528.5556
 20
-44.2237
 10
528.5556
 20
-43.3169
 10
528.5404
 20
-42.8654
 10
528.4949
 20
-42.4354
 10
528.4188
 20
-42.027
 10
528.3122
 20
-41.6402
 10
528.1748
 20
-41.2752
 10
528.0067
 20
-40.9318
 10
527.8075
 20
-40.6104
 10
527.5774
 20
-40.3108
 10
527.3178
 20
-40.0397
 10
527.0303
 20
-39.8047
 10
526.7151
 20
-39.6057
 10
526.3721
 20
-39.4428
 10
526.0012
 20
-39.3161
 10
525.6026
 20
-39.2255
 10
525.1761
 20
-39.1711
 10
524.7219
 20
-39.153
 10
524.5118
 20
-39.1575
 10
524.3091
 20
-39.1711
 10
524.1136
 20
-39.1939
 10
523.9255
 20
-39.226
 10
523.7448
 20
-39.2675
 10
523.5714
 20
-39.3186
 10
523.4054
 20
-39.3793
 10
523.2468
 20
-39.4498
 10
523.0935
 20
-39.5282
 10
522.9492
 20
-39.6117
 10
522.8134
 20
-39.7002
 10
522.6861
 20
-39.7936
 10
522.5667
 20
-39.892
 10
522.4553
 20
-39.9953
 10
522.3513
 20
-40.1035
 10
522.2546
 20
-40.2165
 10
522.1589
 20
-40.3495
 10
522.071
 20
-40.4856
 10
521.9907
 20
-40.6246
 10
521.9179
 20
-40.7666
 10
521.8524
 20
-40.9116
 10
521.7941
 20
-41.0596
 10
521.7429
 20
-41.2106
 10
521.6987
 20
-41.3646
 10
521.6345
 20
-41.6859
 10
521.5873
 20
-42.0173
 10
521.5581
 20
-42.3587
 10
521.5481
 20
-42.7096
  0
LWPOLYLINE
  5
8A
330
1F
100
AcDbEntity
  8
Layer 1
 62
     7
100
AcDbPolyline
 90
       77
 70
     1
 43
0.0
 10
524.6815
 20
-21.5477
 10
524.3042
 20
-21.5619
 10
523.943
 20
-21.6047
 10
523.598
 20
-21.676
 10
523.2689
 20
-21.776
 10
522.9557
 20
-21.9046
 10
522.6583
 20
-22.0619
 10
522.3765
 20
-22.248
 10
522.1102
 20
-22.4629
 10
521.8692
 20
-22.7018
 10
521.66
 20
-22.9629
 10
521.4825
 20
-23.2463
 10
521.3371
 20
-23.552
 10
521.2238
 20
-23.8801
 10
521.1426
 20
-24.2306
 10
521.0939
 20
-24.6035
 10
521.0776
 20
-24.9989
 10
521.0921
 20
-25.363
 10
521.1356
 20
-25.7099
 10
521.208
 20
-26.0396
 10
521.3095
 20
-26.3524
 10
521.4401
 20
-26.6483
 10
521.5997
 20
-26.9275
 10
521.7883
 20
-27.1902
 10
522.0061
 20
-27.4365
 10
522.2459
 20
-27.6579
 10
522.5065
 20
-27.85
 10
522.7879
 20
-28.0128
 10
523.0899
 20
-28.1461
 10
523.4126
 20
-28.2498
 10
523.756
 20
-28.3241
 10
524.12
 20
-28.3686
 10
524.5045
 20
-28.3835
 10
524.7827
 20
-28.3759
 10
525.0501
 20
-28.3531
 10
525.3068
 20
-28.3152
 10
525.5528
 20
-28.2622
 10
525.7881
 20
-28.1941
 10
526.0127
 20
-28.1109
 10
526.2266
 20
-28.0128
 10
526.4299
 20
-27.8996
 10
526.6242
 20
-27.7708
 10
526.8136
 20
-27.6268
 10
526.9979
 20
-27.4675
 10
527.1771
 20
-27.293
 10
527.3513
 20
-27.103
 10
527.5203
 20
-26.8977
 10
527.6842
 20
-26.677
 10
527.8429
 20
-26.4409
 10
527.99
 20
-26.2028
 10
528.1593
 20
-25.9088
 10
528.3512
 20
-25.5592
 10
528.5665
 20
-25.1542
 10
528.6792
 20
-24.9392
 10
528.7856
 20
-24.729
 10
528.8857
 20
-24.5237
 10
528.9793
 20
-24.3235
 10
529.0664
 20
-24.1283
 10
529.1471
 20
-23.9384
 10
529.2211
 20
-23.7539
 10
529.2885
 20
-23.5749
 10
529.0306
 20
-23.2904
 10
528.7707
 20
-23.0298
 10
528.5088
 20
-22.793
 10
528.245
 20
-22.5802
 10
527.9795
 20
-22.3913
 10
527.7124
 20
-22.2265
 10
527.4437
 20
-22.0858
 10
527.1736
 20
-21.9692
 10
526.8963
 20
-21.8703
 10
526.6093
 20
-21.7846
 10
526.3127
 20
-21.7122
 10
526.0062
 20
-21.6529
 10
525.6899
 20
-21.6069
 10
525.3637
 20
-21.574
 10
525.0276
 20
-21.5543
 10
524.6815
 20
-21.5477
  0
LWPOLYLINE
  5
8B
330
1F
100
AcDbEntity
  8
Layer 1
 62
     7
100
AcDbPolyline
 90
       70
 70
     1
 43
0.0
 10
536.1516
 20
-21.1276
 10
535.8087
 20
-21.1353
 10
535.4836
 20
-21.1583
 10
535.1765
 20
-21.1968
 10
534.8874
 20
-21.2508
 10
534.6167
 20
-21.3203
 10
534.3643
 20
-21.4054
 10
534.1306
 20
-21.5062
 10
533.9156
 20
-21.6226
 10
533.7069
 20
-21.7597
 10
533.4975
 20
-21.9257
 10
533.2873
 20
-22.1206
 10
533.0764
 20
-22.3443
 10
532.8646
 20
-22.5969
 10
532.6518
 20
-22.8783
 10
532.438
 20
-23.1886
 10
532.2231
 20
-23.5277
 10
532.0747
 20
-23.7813
 10
531.9204
 20
-24.0725
 10
531.7602
 20
-24.4019
 10
531.5943
 20
-24.7701
 10
530.7946
 20
-26.5214
 10
531.0125
 20
-26.7965
 10
531.2425
 20
-27.0551
 10
531.4846
 20
-27.2971
 10
531.7389
 20
-27.5226
 10
532.0055
 20
-27.7315
 10
532.2845
 20
-27.9239
 10
532.5759
 20
-28.0996
 10
532.88
 20
-28.2587
 10
533.193
 20
-28.3996
 10
533.5169
 20
-28.5218
 10
533.8519
 20
-28.6252
 10
534.1979
 20
-28.7099
 10
534.5547
 20
-28.7757
 10
534.9225
 20
-28.8228
 10
535.301
 20
-28.8511
 10
535.6904
 20
-28.8605
 10
536.1975
 20
-28.843
 10
536.6822
 20
-28.7906
 10
537.1445
 20
-28.7033
 10
537.5843
 20
-28.5811
 10
538.0016
 20
-28.4241
 10
538.3962
 20
-28.2322
 10
538.7682
 20
-28.0056
 10
539.1173
 20
-27.7443
 10
539.434
 20
-27.4552
 10
539.7086
 20
-27.1486
 10
539.941
 20
-26.8244
 10
540.1312
 20
-26.4825
 10
540.2793
 20
-26.123
 10
540.385
 20
-25.7457
 10
540.4485
 20
-25.3507
 10
540.4697
 20
-24.9379
 10
540.4514
 20
-24.5174
 10
540.3966
 20
-24.1182
 10
540.3054
 20
-23.7401
 10
540.1782
 20
-23.3832
 10
540.015
 20
-23.0475
 10
539.816
 20
-22.733
 10
539.5814
 20
-22.4397
 10
539.3114
 20
-22.1675
 10
539.0074
 20
-21.9234
 10
538.6775
 20
-21.7119
 10
538.3217
 20
-21.5332
 10
537.9399
 20
-21.387
 10
537.5321
 20
-21.2735
 10
537.0982
 20
-21.1924
 10
536.638
 20
-21.1438
 10
536.1516
 20
-21.1276
  0
LWPOLYLINE
  5
8C
330
1F
100
AcDbEntity
  8
Layer 1
 62
     7
100
AcDbPolyline
 90
      147
 70
     1
 43
0.0
 10
542.7616
 20
-24.9933
 10
542.7537
 20
-25.369
 10
542.7301
 20
-25.736
 10
542.6906
 20
-26.0943
 10
542.6352
 20
-26.444
 10
542.5639
 20
-26.7853
 10
542.4766
 20
-27.1183
 10
542.3733
 20
-27.443
 10
542.2538
 20
-27.7596
 10
542.1205
 20
-28.0654
 10
541.9732
 20
-28.3598
 10
541.812
 20
-28.6427
 10
541.637
 20
-28.914
 10
541.4481
 20
-29.1738
 10
541.2455
 20
-29.4218
 10
541.0291
 20
-29.658
 10
540.7989
 20
-29.8824
 10
540.5614
 20
-30.0916
 10
540.3136
 20
-30.2875
 10
540.0554
 20
-30.4704
 10
539.7869
 20
-30.6401
 10
539.5081
 20
-30.7969
 10
539.2189
 20
-30.9408
 10
538.9194
 20
-31.0717
 10
538.6096
 20
-31.1899
 10
538.2881
 20
-31.2934
 10
537.963
 20
-31.3833
 10
537.6341
 20
-31.4595
 10
537.3012
 20
-31.522
 10
536.9641
 20
-31.5707
 10
536.6228
 20
-31.6056
 10
536.2769
 20
-31.6266
 10
535.9264
 20
-31.6336
 10
535.466
 20
-31.6199
 10
535.0153
 20
-31.5786
 10
534.5741
 20
-31.5097
 10
534.1423
 20
-31.413
 10
533.7199
 20
-31.2884
 10
533.3066
 20
-31.1358
 10
532.9025
 20
-30.9551
 10
532.5073
 20
-30.7462
 10
532.1272
 20
-30.5116
 10
531.7672
 20
-30.252
 10
531.4273
 20
-29.9672
 10
531.1073
 20
-29.6573
 10
530.8074
 20
-29.3222
 10
530.5275
 20
-28.9619
 10
530.2676
 20
-28.5765
 10
530.0276
 20
-28.1658
 10
529.9344
 20
-28.1658
 10
529.6854
 20
-28.531
 10
529.4309
 20
-28.8715
 10
529.171
 20
-29.1875
 10
528.9055
 20
-29.4791
 10
528.6344
 20
-29.7463
 10
528.3577
 20
-29.9892
 10
528.0752
 20
-30.2079
 10
527.787
 20
-30.4024
 10
527.4852
 20
-30.5726
 10
527.1654
 20
-30.7203
 10
526.8277
 20
-30.8454
 10
526.472
 20
-30.9478
 10
526.0984
 20
-31.0276
 10
525.7067
 20
-31.0846
 10
525.2971
 20
-31.1189
 10
524.8694
 20
-31.1303
 10
524.2361
 20
-31.1031
 10
523.63
 20
-31.0216
 10
523.051
 20
-30.8859
 10
522.4992
 20
-30.6958
 10
521.9744
 20
-30.4514
 10
521.4766
 20
-30.1528
 10
521.0059
 20
-29.8
 10
520.5621
 20
-29.3929
 10
520.1593
 20
-28.9436
 10
519.8103
 20
-28.4651
 10
519.5152
 20
-27.9575
 10
519.2737
 20
-27.4207
 10
519.086
 20
-26.8549
 10
518.952
 20
-26.2601
 10
518.8716
 20
-25.6363
 10
518.8448
 20
-24.9836
 10
518.8703
 20
-24.3075
 10
518.947
 20
-23.6656
 10
519.0746
 20
-23.0578
 10
519.2534
 20
-22.4843
 10
519.4831
 20
-21.9451
 10
519.7638
 20
-21.4403
 10
520.0955
 20
-20.97
 10
520.4782
 20
-20.5341
 10
520.9032
 20
-20.142
 10
521.3561
 20
-19.8019
 10
521.837
 20
-19.5138
 10
522.346
 20
-19.2779
 10
522.8831
 20
-19.0943
 10
523.4485
 20
-18.963
 10
524.0422
 20
-18.8841
 10
524.6644
 20
-18.8578
 10
525.0488
 20
-18.8703
 10
525.4321
 20
-18.9079
 10
525.8143
 20
-18.9705
 10
526.1954
 20
-19.0582
 10
526.5754
 20
-19.1707
 10
526.9541
 20
-19.3082
 10
527.3316
 20
-19.4706
 10
527.7078
 20
-19.6578
 10
528.0745
 20
-19.8682
 10
528.4202
 20
-20.101
 10
528.7449
 20
-20.3561
 10
529.049
 20
-20.6335
 10
529.3325
 20
-20.933
 10
529.5956
 20
-21.2546
 10
529.8387
 20
-21.5982
 10
530.0617
 20
-21.9637
 10
530.1487
 20
-21.9637
 10
530.3904
 20
-21.5322
 10
530.6439
 20
-21.128
 10
530.9093
 20
-20.7508
 10
531.1869
 20
-20.4007
 10
531.4768
 20
-20.0775
 10
531.7791
 20
-19.781
 10
532.0941
 20
-19.5113
 10
532.4219
 20
-19.2682
 10
532.769
 20
-19.0533
 10
533.1397
 20
-18.8672
 10
533.5339
 20
-18.7099
 10
533.9519
 20
-18.5813
 10
534.3937
 20
-18.4813
 10
534.8594
 20
-18.41
 10
535.349
 20
-18.3672
 10
535.8628
 20
-18.353
 10
536.5826
 20
-18.3826
 10
537.2724
 20
-18.4716
 10
537.9322
 20
-18.6198
 10
538.562
 20
-18.8272
 10
539.1617
 20
-19.094
 10
539.7313
 20
-19.42
 10
540.2709
 20
-19.8053
 10
540.7803
 20
-20.2499
 10
541.2453
 20
-20.7389
 10
541.648
 20
-21.2574
 10
541.9885
 20
-21.8056
 10
542.267
 20
-22.3834
 10
542.4835
 20
-22.9911
 10
542.6381
 20
-23.6286
 10
542.7307
 20
-24.296
 10
542.7616
 20
-24.9933
  0
LWPOLYLINE
  5
8D
330
1F
100
AcDbEntity
  8
Layer 1
 62
     7
100
AcDbPolyline
 90
       65
 70
     1
 43
0.0
 10
530.7884
 20
-1.4216
 10
532.2751
 20
-1.4465
 10
533.6596
 20
-1.5213
 10
534.942
 20
-1.6459
 10
536.1223
 20
-1.8202
 10
537.2004
 20
-2.0442
 10
538.1764
 20
-2.3177
 10
539.0503
 20
-2.6408
 10
539.8222
 20
-3.0134
 10
540.4964
 20
-3.4401
 10
541.0806
 20
-3.9206
 10
541.5748
 20
-4.4549
 10
541.9792
 20
-5.0432
 10
542.2937
 20
-5.6854
 10
542.5182
 20
-6.3818
 10
542.653
 20
-7.1323
 10
542.6979
 20
-7.9371
 10
542.652
 20
-8.7511
 10
542.5143
 20
-9.5087
 10
542.285
 20
-10.2099
 10
541.964
 20
-10.8548
 10
541.5516
 20
-11.4438
 10
541.0478
 20
-11.9769
 10
540.4526
 20
-12.4543
 10
539.7663
 20
-12.8761
 10
538.9853
 20
-13.2455
 10
538.1081
 20
-13.5654
 10
537.1347
 20
-13.8359
 10
536.0648
 20
-14.0571
 10
534.8984
 20
-14.229
 10
533.6352
 20
-14.3517
 10
532.2751
 20
-14.4253
 10
530.8179
 20
-14.4498
 10
529.3239
 20
-14.4249
 10
527.9337
 20
-14.35
 10
526.6473
 20
-14.2254
 10
525.4649
 20
-14.051
 10
524.3864
 20
-13.8269
 10
523.4118
 20
-13.5531
 10
522.5413
 20
-13.2297
 10
521.7748
 20
-12.8567
 10
521.102
 20
-12.4313
 10
520.5195
 20
-11.9517
 10
520.027
 20
-11.418
 10
519.6245
 20
-10.83
 10
519.3116
 20
-10.188
 10
519.0884
 20
-9.4918
 10
518.9546
 20
-8.7415
 10
518.91
 20
-7.9371
 10
518.9563
 20
-7.123
 10
519.0952
 20
-6.3651
 10
519.3267
 20
-5.6635
 10
519.6508
 20
-5.0181
 10
520.0676
 20
-4.4286
 10
520.5771
 20
-3.8951
 10
521.1793
 20
-3.4174
 10
521.8742
 20
-2.9954
 10
522.6609
 20
-2.626
 10
523.5411
 20
-2.3061
 10
524.5147
 20
-2.0355
 10
525.5819
 20
-1.8143
 10
526.7428
 20
-1.6424
 10
527.9974
 20
-1.5197
 10
529.3459
 20
-1.4461
 10
530.7884
 20
-1.4216
  0
LWPOLYLINE
  5
8E
330
1F
100
AcDbEntity
  8
Layer 1
 62
     7
100
AcDbPolyline
 90
      129
 70
     1
 43
0.0
 10
537.7478
 20
-4.9255
 10
537.4541
 20
-4.8293
 10
537.1422
 20
-4.7403
 10
536.8119
 20
-4.6587
 10
536.4631
 20
-4.5842
 10
536.0954
 20
-4.517
 10
535.7086
 20
-4.4569
 10
535.3025
 20
-4.4041
 10
534.8768
 20
-4.3584
 10
534.4359
 20
-4.3211
 10
533.9751
 20
-4.2884
 10
533.4942
 20
-4.2603
 10
532.9933
 20
-4.237
 10
532.4723
 20
-4.2187
 10
531.9312
 20
-4.2055
 10
531.3699
 20
-4.1974
 10
530.7884
 20
-4.1947
 10
530.2125
 20
-4.1974
 10
529.6554
 20
-4.2055
 10
529.1172
 20
-4.2187
 10
528.5979
 20
-4.237
 10
528.0977
 20
-4.2603
 10
527.6166
 20
-4.2884
 10
527.1549
 20
-4.3211
 10
526.7125
 20
-4.3584
 10
526.2884
 20
-4.4042
 10
525.8827
 20
-4.4575
 10
525.4953
 20
-4.5181
 10
525.1262
 20
-4.5863
 10
524.7753
 20
-4.6619
 10
524.4427
 20
-4.745
 10
524.1284
 20
-4.8356
 10
523.8322
 20
-4.9338
 10
523.5484
 20
-5.0421
 10
523.2829
 20
-5.1599
 10
523.0353
 20
-5.2871
 10
522.8056
 20
-5.4238
 10
522.5936
 20
-5.5697
 10
522.3991
 20
-5.7248
 10
522.2219
 20
-5.8891
 10
522.062
 20
-6.0625
 10
521.92
 20
-6.2502
 10
521.7968
 20
-6.4513
 10
521.6925
 20
-6.6659
 10
521.6071
 20
-6.8937
 10
521.5405
 20
-7.1348
 10
521.493
 20
-7.3891
 10
521.4644
 20
-7.6566
 10
521.4549
 20
-7.9371
 10
521.4644
 20
-8.2144
 10
521.493
 20
-8.4793
 10
521.5405
 20
-8.7318
 10
521.6071
 20
-8.9718
 10
521.6925
 20
-9.1992
 10
521.7968
 20
-9.4139
 10
521.92
 20
-9.6158
 10
522.062
 20
-9.8048
 10
522.2224
 20
-9.9836
 10
522.4008
 20
-10.1528
 10
522.5974
 20
-10.3123
 10
522.8124
 20
-10.4621
 10
523.0458
 20
-10.6019
 10
523.2979
 20
-10.7318
 10
523.5688
 20
-10.8516
 10
523.8586
 20
-10.9612
 10
524.1603
 20
-11.0606
 10
524.4808
 20
-11.1518
 10
524.8201
 20
-11.2348
 10
525.1784
 20
-11.3096
 10
525.5556
 20
-11.3762
 10
525.9517
 20
-11.4346
 10
526.3668
 20
-11.4849
 10
526.801
 20
-11.5269
 10
527.2543
 20
-11.5612
 10
527.7212
 20
-11.5913
 10
528.2019
 20
-11.617
 10
528.6965
 20
-11.6382
 10
529.2052
 20
-11.6549
 10
529.7282
 20
-11.6669
 10
530.2657
 20
-11.6742
 10
530.8179
 20
-11.6767
 10
531.4037
 20
-11.6747
 10
531.9651
 20
-11.6686
 10
532.502
 20
-11.6585
 10
533.0147
 20
-11.6443
 10
533.503
 20
-11.626
 10
533.967
 20
-11.6036
 10
534.4068
 20
-11.5771
 10
534.8224
 20
-11.5464
 10
535.2172
 20
-11.5097
 10
535.6026
 20
-11.463
 10
535.9783
 20
-11.4064
 10
536.3439
 20
-11.3399
 10
536.6993
 20
-11.2637
 10
537.0442
 20
-11.1776
 10
537.3782
 20
-11.0819
 10
537.7012
 20
-10.9765
 10
537.988
 20
-10.8732
 10
538.258
 20
-10.7588
 10
538.5112
 20
-10.6334
 10
538.7473
 20
-10.4971
 10
538.9665
 20
-10.35
 10
539.1685
 20
-10.1922
 10
539.3534
 20
-10.0239
 10
539.521
 20
-9.845
 10
539.6694
 20
-9.6558
 10
539.7977
 20
-9.4523
 10
539.9061
 20
-9.2346
 10
539.9946
 20
-9.0028
 10
540.0633
 20
-8.7571
 10
540.1123
 20
-8.4975
 10
540.1416
 20
-8.2241
 10
540.1514
 20
-7.9371
 10
540.1419
 20
-7.6594
 10
540.1136
 20
-7.394
 10
540.0663
 20
-7.141
 10
540.0
 20
-6.9005
 10
539.9149
 20
-6.6723
 10
539.8108
 20
-6.4566
 10
539.6878
 20
-6.2533
 10
539.5459
 20
-6.0625
 10
539.3854
 20
-5.8857
 10
539.2066
 20
-5.7185
 10
539.0095
 20
-5.561
 10
538.7941
 20
-5.4134
 10
538.5603
 20
-5.2758
 10
538.308
 20
-5.1486
 10
538.0372
 20
-5.0317
 10
537.7478
 20
-4.9255
  0
LWPOLYLINE
  5
8F
330
1F
100
AcDbEntity
  8
Layer 1
 62
     7
100
AcDbPolyline
 90
      190
 70
     1
 43
0.0
 10
542.2259
 20
20.6638
 10
532.3179
 20
20.6638
 10
532.0256
 20
20.6625
 10
531.7389
 20
20.6586
 10
531.4579
 20
20.6521
 10
531.1824
 20
20.643
 10
530.9123
 20
20.6313
 10
530.6475
 20
20.617
 10
530.3878
 20
20.6001
 10
530.1332
 20
20.5806
 10
529.889
 20
20.5587
 10
529.6583
 20
20.5306
 10
529.441
 20
20.4964
 10
529.2372
 20
20.4563
 10
529.0468
 20
20.4104
 10
528.8698
 20
20.3589
 10
528.706
 20
20.3019
 10
528.5556
 20
20.2395
 10
528.4085
 20
20.168
 10
528.2712
 20
20.0889
 10
528.1437
 20
20.0023
 10
528.0261
 20
19.9083
 10
527.9184
 20
19.8071
 10
527.8206
 20
19.6988
 10
527.7328
 20
19.5836
 10
527.655
 20
19.4616
 10
527.5872
 20
19.3292
 10
527.5282
 20
19.1856
 10
527.478
 20
19.0308
 10
527.4369
 20
18.865
 10
527.4047
 20
18.6882
 10
527.3816
 20
18.5003
 10
527.3677
 20
18.3015
 10
527.3631
 20
18.0917
 10
527.3717
 20
17.8905
 10
527.3975
 20
17.6862
 10
527.4404
 20
17.4786
 10
527.5005
 20
17.2677
 10
527.5778
 20
17.0533
 10
527.6723
 20
16.8352
 10
527.7839
 20
16.6133
 10
527.9127
 20
16.3876
 10
528.0558
 20
16.1588
 10
528.2147
 20
15.9279
 10
528.3894
 20
15.6951
 10
528.5796
 20
15.4603
 10
528.7853
 20
15.2235
 10
529.0062
 20
14.9848
 10
529.2423
 20
14.7442
 10
529.4934
 20
14.5018
 10
530.113
 20
14.5379
 10
530.967
 20
14.5573
 10
542.2259
 20
14.5573
 10
542.2259
 20
11.9796
 10
532.3179
 20
11.9796
 10
532.0256
 20
11.9783
 10
531.7389
 20
11.9744
 10
531.4579
 20
11.9678
 10
531.1824
 20
11.9587
 10
530.9123
 20
11.9468
 10
530.6475
 20
11.9323
 10
530.3878
 20
11.915
 10
530.1332
 20
11.8951
 10
529.889
 20
11.8728
 10
529.6583
 20
11.8445
 10
529.441
 20
11.8103
 10
529.2372
 20
11.7703
 10
529.0468
 20
11.7246
 10
528.8698
 20
11.6732
 10
528.706
 20
11.6163
 10
528.5556
 20
11.554
 10
528.4085
 20
11.4822
 10
528.2712
 20
11.403
 10
528.1437
 20
11.3164
 10
528.0261
 20
11.2226
 10
527.9184
 20
11.1214
 10
527.8206
 20
11.013
 10
527.7328
 20
10.8975
 10
527.655
 20
10.7747
 10
527.5872
 20
10.6431
 10
527.5282
 20
10.5001
 10
527.478
 20
10.3457
 10
527.4369
 20
10.1801
 10
527.4047
 20
10.0033
 10
527.3816
 20
9.8156
 10
527.3677
 20
9.6169
 10
527.3631
 20
9.4075
 10
527.3721
 20
9.1959
 10
527.3993
 20
8.9821
 10
527.4446
 20
8.7661
 10
527.5083
 20
8.5479
 10
527.5902
 20
8.3273
 10
527.6906
 20
8.1043
 10
527.8095
 20
7.8788
 10
527.9469
 20
7.6508
 10
528.1006
 20
7.4223
 10
528.2638
 20
7.1956
 10
528.4365
 20
6.9705
 10
528.6189
 20
6.7472
 10
528.811
 20
6.5257
 10
529.0129
 20
6.3059
 10
529.2249
 20
6.088
 10
529.4469
 20
5.8718
 10
542.2259
 20
5.8718
 10
542.2259
 20
3.2941
 10
525.1007
 20
3.2941
 10
525.1007
 20
5.8718
 10
527.006
 20
5.8718
 10
526.7313
 20
6.1251
 10
526.4722
 20
6.3778
 10
526.2287
 20
6.6296
 10
526.001
 20
6.8809
 10
525.7891
 20
7.1314
 10
525.5932
 20
7.3814
 10
525.4134
 20
7.6307
 10
525.2498
 20
7.8795
 10
525.1045
 20
8.1312
 10
524.9785
 20
8.389
 10
524.8718
 20
8.6531
 10
524.7844
 20
8.9233
 10
524.7163
 20
9.1996
 10
524.6677
 20
9.482
 10
524.6384
 20
9.7704
 10
524.6287
 20
10.0648
 10
524.6394
 20
10.3982
 10
524.6716
 20
10.7222
 10
524.7254
 20
11.037
 10
524.8009
 20
11.3424
 10
524.8981
 20
11.6383
 10
525.0172
 20
11.9248
 10
525.1582
 20
12.2017
 10
525.3212
 20
12.4691
 10
525.5074
 20
12.7225
 10
525.7213
 20
12.9606
 10
525.9628
 20
13.1833
 10
526.2321
 20
13.3905
 10
526.5291
 20
13.5821
 10
526.8539
 20
13.758
 10
527.2064
 20
13.9181
 10
527.5867
 20
14.0623
 10
527.2346
 20
14.3535
 10
526.9039
 20
14.6426
 10
526.5949
 20
14.9297
 10
526.3078
 20
15.2149
 10
526.0427
 20
15.4981
 10
525.7999
 20
15.7793
 10
525.5795
 20
16.0587
 10
525.3818
 20
16.3363
 10
525.2055
 20
16.6178
 10
525.0526
 20
16.905
 10
524.9231
 20
17.1979
 10
524.8172
 20
17.4967
 10
524.7348
 20
17.8014
 10
524.6758
 20
18.112
 10
524.6405
 20
18.4288
 10
524.6287
 20
18.7517
 10
524.634
 20
18.9954
 10
524.65
 20
19.2334
 10
524.6768
 20
19.4658
 10
524.7143
 20
19.6926
 10
524.7627
 20
19.9138
 10
524.822
 20
20.1292
 10
524.8922
 20
20.339
 10
524.9734
 20
20.5431
 10
525.0665
 20
20.7417
 10
525.1722
 20
20.9341
 10
525.2909
 20
21.12
 10
525.4226
 20
21.2997
 10
525.5675
 20
21.4728
 10
525.7259
 20
21.6395
 10
525.8978
 20
21.7997
 10
526.0836
 20
21.9533
 10
526.2864
 20
22.1033
 10
526.5004
 20
22.2445
 10
526.7257
 20
22.3769
 10
526.9629
 20
22.5005
 10
527.2121
 20
22.6153
 10
527.4737
 20
22.7213
 10
527.748
 20
22.8186
 10
528.0354
 20
22.9072
 10
528.3348
 20
22.9857
 10
528.6532
 20
23.0536
 10
528.9904
 20
23.1111
 10
529.3465
 20
23.158
 10
529.7215
 20
23.1945
 10
530.1152
 20
23.2206
 10
530.5278
 20
23.2362
 10
530.9592
 20
23.2414
 10
542.2259
 20
23.2414
 10
542.2259
 20
20.6638
  0
LWPOLYLINE
  5
90
330
1F
100
AcDbEntity
  8
Layer 1
 62
     7
100
AcDbPolyline
 90
      190
 70
     1
 43
0.0
 10
542.2259
 20
45.9465
 10
532.3179
 20
45.9465
 10
532.0256
 20
45.9451
 10
531.7389
 20
45.9411
 10
531.4579
 20
45.9344
 10
531.1824
 20
45.925
 10
530.9123
 20
45.9131
 10
530.6475
 20
45.8986
 10
530.3878
 20
45.8815
 10
530.1332
 20
45.862
 10
529.889
 20
45.8401
 10
529.6583
 20
45.812
 10
529.441
 20
45.7778
 10
529.2372
 20
45.7377
 10
529.0468
 20
45.6918
 10
528.8698
 20
45.6403
 10
528.706
 20
45.5833
 10
528.5556
 20
45.5209
 10
528.4085
 20
45.4495
 10
528.2712
 20
45.3705
 10
528.1437
 20
45.284
 10
528.0261
 20
45.1902
 10
527.9184
 20
45.089
 10
527.8206
 20
44.9807
 10
527.7328
 20
44.8654
 10
527.655
 20
44.743
 10
527.5872
 20
44.611
 10
527.5282
 20
44.4676
 10
527.478
 20
44.3129
 10
527.4369
 20
44.1471
 10
527.4047
 20
43.9703
 10
527.3816
 20
43.7825
 10
527.3677
 20
43.5838
 10
527.3631
 20
43.3744
 10
527.3717
 20
43.1728
 10
527.3975
 20
42.9682
 10
527.4404
 20
42.7604
 10
527.5005
 20
42.5494
 10
527.5778
 20
42.335
 10
527.6723
 20
42.1172
 10
527.7839
 20
41.8956
 10
527.9127
 20
41.6703
 10
528.0558
 20
41.4415
 10
528.2147
 20
41.2107
 10
528.3894
 20
40.9778
 10
528.5796
 20
40.7429
 10
528.7853
 20
40.5059
 10
529.0062
 20
40.267
 10
529.2423
 20
40.0261
 10
529.4934
 20
39.7832
 10
530.113
 20
39.8207
 10
530.967
 20
39.8387
 10
542.2259
 20
39.8387
 10
542.2259
 20
37.261
 10
532.3179
 20
37.261
 10
532.0256
 20
37.2597
 10
531.7389
 20
37.2558
 10
531.4579
 20
37.2493
 10
531.1824
 20
37.2402
 10
530.9123
 20
37.2285
 10
530.6475
 20
37.2142
 10
530.3878
 20
37.1973
 10
530.1332
 20
37.1778
 10
529.889
 20
37.1552
 10
529.6583
 20
37.1267
 10
529.441
 20
37.0925
 10
529.2372
 20
37.0526
 10
529.0468
 20
37.007
 10
528.8698
 20
36.9558
 10
528.706
 20
36.899
 10
528.5556
 20
36.8367
 10
528.4085
 20
36.7644
 10
528.2712
 20
36.6849
 10
528.1437
 20
36.5981
 10
528.0261
 20
36.5041
 10
527.9184
 20
36.4029
 10
527.8206
 20
36.2945
 10
527.7328
 20
36.1789
 10
527.655
 20
36.0561
 10
527.5872
 20
35.9246
 10
527.5282
 20
35.7817
 10
527.478
 20
35.6274
 10
527.4369
 20
35.462
 10
527.4047
 20
35.2853
 10
527.3816
 20
35.0975
 10
527.3677
 20
34.8987
 10
527.3631
 20
34.6889
 10
527.3721
 20
34.4777
 10
527.3993
 20
34.2641
 10
527.4446
 20
34.0481
 10
527.5083
 20
33.8298
 10
527.5902
 20
33.609
 10
527.6906
 20
33.3859
 10
527.8095
 20
33.1602
 10
527.9469
 20
32.9322
 10
528.1006
 20
32.7041
 10
528.2638
 20
32.4776
 10
528.4365
 20
32.2526
 10
528.6189
 20
32.0293
 10
528.811
 20
31.8078
 10
529.0129
 20
31.5881
 10
529.2249
 20
31.3704
 10
529.4469
 20
31.1546
 10
542.2259
 20
31.1546
 10
542.2259
 20
28.5755
 10
525.1007
 20
28.5755
 10
525.1007
 20
31.1546
 10
527.006
 20
31.1546
 10
526.7313
 20
31.4075
 10
526.4722
 20
31.6598
 10
526.2287
 20
31.9115
 10
526.001
 20
32.1626
 10
525.7891
 20
32.4132
 10
525.5932
 20
32.6634
 10
525.4134
 20
32.9131
 10
525.2498
 20
33.1623
 10
525.1045
 20
33.4139
 10
524.9785
 20
33.6716
 10
524.8718
 20
33.9355
 10
524.7844
 20
34.2054
 10
524.7163
 20
34.4814
 10
524.6677
 20
34.7636
 10
524.6384
 20
35.0518
 10
524.6287
 20
35.3462
 10
524.6394
 20
35.6796
 10
524.6716
 20
36.0036
 10
524.7254
 20
36.3184
 10
524.8009
 20
36.6238
 10
524.8981
 20
36.9197
 10
525.0172
 20
37.2062
 10
525.1582
 20
37.4831
 10
525.3212
 20
37.7505
 10
525.5074
 20
38.0043
 10
525.7213
 20
38.2426
 10
525.9628
 20
38.4653
 10
526.2321
 20
38.6724
 10
526.5291
 20
38.8638
 10
526.8539
 20
39.0396
 10
527.2064
 20
39.1995
 10
527.5867
 20
39.3437
 10
527.2346
 20
39.6353
 10
526.9039
 20
39.9246
 10
526.5949
 20
40.2117
 10
526.3078
 20
40.4968
 10
526.0427
 20
40.7798
 10
525.7999
 20
41.0609
 10
525.5795
 20
41.3402
 10
525.3818
 20
41.6177
 10
525.2055
 20
41.8992
 10
525.0526
 20
42.1864
 10
524.9231
 20
42.4793
 10
524.8172
 20
42.7781
 10
524.7348
 20
43.0828
 10
524.6758
 20
43.3934
 10
524.6405
 20
43.7102
 10
524.6287
 20
44.0331
 10
524.634
 20
44.2768
 10
524.65
 20
44.5148
 10
524.6768
 20
44.7472
 10
524.7143
 20
44.974
 10
524.7627
 20
45.1952
 10
524.822
 20
45.4106
 10
524.8922
 20
45.6204
 10
524.9734
 20
45.8245
 10
525.0665
 20
46.0235
 10
525.1722
 20
46.216
 10
525.2909
 20
46.4021
 10
525.4226
 20
46.5816
 10
525.5675
 20
46.7546
 10
525.7259
 20
46.9211
 10
525.8978
 20
47.0812
 10
526.0836
 20
47.2347
 10
526.2864
 20
47.3848
 10
526.5004
 20
47.5261
 10
526.7257
 20
47.6586
 10
526.9629
 20
47.7824
 10
527.2121
 20
47.8973
 10
527.4737
 20
48.0033
 10
527.748
 20
48.1004
 10
528.0354
 20
48.1886
 10
528.3348
 20
48.2671
 10
528.6532
 20
48.3352
 10
528.9904
 20
48.3929
 10
529.3465
 20
48.4401
 10
529.7215
 20
48.4769
 10
530.1152
 20
48.5032
 10
530.5278
 20
48.5189
 10
530.9592
 20
48.5242
 10
542.2259
 20
48.5242
 10
542.2259
 20
45.9465
  0
LWPOLYLINE
  5
91
330
1F
100
AcDbEntity
  8
Layer 1
 62
     9
370
    18
100
AcDbPolyline
 90
        2
 70
     0
 43
0.0
 10
690.3803
 20
130.9477
 10
540.1887
 20
130.9477
  0
LWPOLYLINE
  5
92
330
1F
100
AcDbEntity
  8
Layer 1
 62
     9
370
    18
100
AcDbPolyline
 90
        2
 70
     0
 43
0.0
 10
690.3803
 20
-133.4595
 10
540.1887
 20
-133.4595
  0
LWPOLYLINE
  5
93
330
1F
100
AcDbEntity
  8
Layer 1
 62
     9
370
    18
100
AcDbPolyline
 90
        2
 70
     0
 43
0.0
 10
549.8964
 20
-130.3424
 10
549.8964
 20
129.9063
  0
LWPOLYLINE
  5
94
330
1F
100
AcDbEntity
  8
Layer 1
 62
     7
100
AcDbPolyline
 90
      189
 70
     1
 43
0.0
 10
817.3166
 20
-207.9407
 10
817.3069
 20
-208.3573
 10
817.2779
 20
-208.7657
 10
817.2295
 20
-209.1659
 10
817.1617
 20
-209.5578
 10
817.0746
 20
-209.9411
 10
816.9681
 20
-210.316
 10
816.8423
 20
-210.6822
 10
816.6971
 20
-211.0396
 10
816.5327
 20
-211.3872
 10
816.3559
 20
-211.7199
 10
816.1666
 20
-212.0376
 10
815.9646
 20
-212.3404
 10
815.7496
 20
-212.6285
 10
815.5215
 20
-212.902
 10
815.2799
 20
-213.1608
 10
815.0248
 20
-213.4051
 10
814.7464
 20
-213.65
 10
814.4597
 20
-213.8794
 10
814.1647
 20
-214.0934
 10
813.8614
 20
-214.292
 10
813.5498
 20
-214.4753
 10
813.2299
 20
-214.6435
 10
812.9018
 20
-214.7965
 10
812.5653
 20
-214.9345
 10
812.2219
 20
-215.0555
 10
811.8695
 20
-215.1606
 10
811.5081
 20
-215.2497
 10
811.1377
 20
-215.3228
 10
810.7584
 20
-215.3797
 10
810.3701
 20
-215.4204
 10
809.973
 20
-215.4449
 10
809.5669
 20
-215.4531
 10
809.1584
 20
-215.4454
 10
808.7594
 20
-215.4223
 10
808.37
 20
-215.3837
 10
807.9899
 20
-215.3295
 10
807.6191
 20
-215.2597
 10
807.2574
 20
-215.1741
 10
806.9047
 20
-215.0726
 10
806.5608
 20
-214.9553
 10
806.2285
 20
-214.8239
 10
805.9059
 20
-214.6772
 10
805.5931
 20
-214.5153
 10
805.2903
 20
-214.3383
 10
804.9975
 20
-214.1462
 10
804.7149
 20
-213.939
 10
804.4425
 20
-213.717
 10
804.1805
 20
-213.48
 10
803.8727
 20
-213.1728
 10
803.5828
 20
-212.8406
 10
803.3106
 20
-212.4835
 10
803.0559
 20
-212.1014
 10
802.8186
 20
-211.6942
 10
802.5983
 20
-211.2618
 10
802.395
 20
-210.8043
 10
802.2085
 20
-210.3214
 10
802.0409
 20
-209.8128
 10
801.8958
 20
-209.2759
 10
801.773
 20
-208.7107
 10
801.6726
 20
-208.117
 10
801.5946
 20
-207.4947
 10
801.5389
 20
-206.8438
 10
801.5054
 20
-206.1643
 10
801.4943
 20
-205.4559
 10
801.5044
 20
-204.7562
 10
801.5349
 20
-204.0735
 10
801.5857
 20
-203.4079
 10
801.6569
 20
-202.7595
 10
801.7487
 20
-202.1285
 10
801.8611
 20
-201.515
 10
801.9942
 20
-200.919
 10
802.148
 20
-200.3408
 10
802.3223
 20
-199.7787
 10
802.5192
 20
-199.2351
 10
802.7384
 20
-198.7099
 10
802.9798
 20
-198.2033
 10
803.2432
 20
-197.715
 10
803.5284
 20
-197.245
 10
803.8352
 20
-196.7934
 10
804.1634
 20
-196.36
 10
804.507
 20
-195.959
 10
804.875
 20
-195.5805
 10
805.2674
 20
-195.2247
 10
805.6839
 20
-194.8916
 10
806.1244
 20
-194.581
 10
806.5888
 20
-194.2931
 10
807.077
 20
-194.0278
 10
807.5887
 20
-193.7851
 10
808.123
 20
-193.5678
 10
808.6777
 20
-193.3795
 10
809.2529
 20
-193.2203
 10
809.8488
 20
-193.0901
 10
810.4653
 20
-192.9889
 10
811.1025
 20
-192.9167
 10
811.7606
 20
-192.8733
 10
812.4395
 20
-192.8589
 10
812.6406
 20
-192.8601
 10
812.8386
 20
-192.8636
 10
813.0334
 20
-192.8694
 10
813.225
 20
-192.8776
 10
813.4133
 20
-192.8882
 10
813.5983
 20
-192.901
 10
813.7799
 20
-192.9163
 10
813.9581
 20
-192.9338
 10
814.3003
 20
-192.9755
 10
814.6228
 20
-193.0279
 10
814.9247
 20
-193.0915
 10
815.2049
 20
-193.1667
 10
815.2049
 20
-195.9676
 10
815.0574
 20
-195.9676
 10
814.9408
 20
-195.9119
 10
814.8122
 20
-195.8572
 10
814.6716
 20
-195.8035
 10
814.5188
 20
-195.7509
 10
814.1768
 20
-195.6494
 10
813.7857
 20
-195.553
 10
813.5749
 20
-195.5092
 10
813.3604
 20
-195.4715
 10
813.1425
 20
-195.4398
 10
812.921
 20
-195.414
 10
812.6962
 20
-195.394
 10
812.4679
 20
-195.3799
 10
812.2364
 20
-195.3714
 10
812.0016
 20
-195.3686
 10
811.2599
 20
-195.3971
 10
810.5547
 20
-195.4828
 10
809.886
 20
-195.6255
 10
809.2539
 20
-195.8253
 10
808.6583
 20
-196.0823
 10
808.0995
 20
-196.3964
 10
807.5773
 20
-196.7676
 10
807.0919
 20
-197.1961
 10
806.6482
 20
-197.6817
 10
806.2524
 20
-198.2224
 10
805.9043
 20
-198.8182
 10
805.604
 20
-199.4692
 10
805.3512
 20
-200.1756
 10
805.1459
 20
-200.9373
 10
804.9881
 20
-201.7545
 10
804.8777
 20
-202.6273
 10
805.1688
 20
-202.4492
 10
805.4622
 20
-202.2819
 10
805.7577
 20
-202.1253
 10
806.0554
 20
-201.9794
 10
806.3551
 20
-201.844
 10
806.6568
 20
-201.7191
 10
806.9604
 20
-201.6044
 10
807.2658
 20
-201.5
 10
807.5748
 20
-201.4075
 10
807.8916
 20
-201.3276
 10
808.2159
 20
-201.2601
 10
808.5478
 20
-201.205
 10
808.887
 20
-201.1623
 10
809.2334
 20
-201.1319
 10
809.5869
 20
-201.1137
 10
809.9474
 20
-201.1076
 10
810.2961
 20
-201.1115
 10
810.6342
 20
-201.1233
 10
810.9616
 20
-201.1429
 10
811.2784
 20
-201.1705
 10
811.5846
 20
-201.2061
 10
811.8802
 20
-201.2498
 10
812.1652
 20
-201.3015
 10
812.4395
 20
-201.3614
 10
812.7069
 20
-201.4342
 10
812.978
 20
-201.5227
 10
813.2526
 20
-201.6271
 10
813.5303
 20
-201.7475
 10
813.8109
 20
-201.884
 10
814.0942
 20
-202.0368
 10
814.3799
 20
-202.2059
 10
814.6677
 20
-202.3916
 10
814.9919
 20
-202.6258
 10
815.2947
 20
-202.8751
 10
815.5762
 20
-203.1393
 10
815.8363
 20
-203.4185
 10
816.0749
 20
-203.7126
 10
816.292
 20
-204.0215
 10
816.4875
 20
-204.3452
 10
816.6614
 20
-204.6836
 10
816.8153
 20
-205.0384
 10
816.9485
 20
-205.4082
 10
817.0611
 20
-205.7929
 10
817.1532
 20
-206.1925
 10
817.2248
 20
-206.6071
 10
817.2758
 20
-207.0367
 10
817.3064
 20
-207.4812
 10
817.3166
 20
-207.9407
  0
LWPOLYLINE
  5
95
330
1F
100
AcDbEntity
  8
Layer 1
 62
     7
100
AcDbPolyline
 90
       99
 70
     1
 43
0.0
 10
813.9984
 20
-208.0557
 10
813.9924
 20
-207.7284
 10
813.9742
 20
-207.415
 10
813.9437
 20
-207.1153
 10
813.901
 20
-206.8293
 10
813.8459
 20
-206.5569
 10
813.7784
 20
-206.2978
 10
813.6983
 20
-206.0519
 10
813.6056
 20
-205.8192
 10
813.5001
 20
-205.5995
 10
813.3793
 20
-205.3875
 10
813.2432
 20
-205.1832
 10
813.0918
 20
-204.9868
 10
812.925
 20
-204.7982
 10
812.7429
 20
-204.6175
 10
812.5453
 20
-204.4448
 10
812.3324
 20
-204.2801
 10
812.1705
 20
-204.1693
 10
812.0028
 20
-204.0688
 10
811.8294
 20
-203.9783
 10
811.6505
 20
-203.8978
 10
811.4664
 20
-203.8269
 10
811.2771
 20
-203.7657
 10
811.0828
 20
-203.7139
 10
810.8837
 20
-203.6714
 10
810.68
 20
-203.6382
 10
810.4752
 20
-203.6093
 10
810.2695
 20
-203.5848
 10
810.0627
 20
-203.5646
 10
809.8549
 20
-203.5489
 10
809.646
 20
-203.5377
 10
809.4362
 20
-203.5309
 10
809.2253
 20
-203.5286
 10
808.94
 20
-203.5332
 10
808.657
 20
-203.5472
 10
808.3761
 20
-203.5706
 10
808.0975
 20
-203.6035
 10
807.8209
 20
-203.646
 10
807.5464
 20
-203.6982
 10
807.2739
 20
-203.7602
 10
807.0034
 20
-203.8322
 10
806.7339
 20
-203.9129
 10
806.4658
 20
-204.0021
 10
806.1988
 20
-204.0998
 10
805.933
 20
-204.2061
 10
805.6681
 20
-204.3211
 10
805.404
 20
-204.4447
 10
805.1405
 20
-204.5771
 10
804.8777
 20
-204.7183
 10
804.828
 20
-205.3353
 10
804.8109
 20
-206.0826
 10
804.8188
 20
-206.6314
 10
804.8425
 20
-207.1526
 10
804.8817
 20
-207.6464
 10
804.9365
 20
-208.1129
 10
805.0066
 20
-208.5523
 10
805.0919
 20
-208.9646
 10
805.1924
 20
-209.3499
 10
805.3078
 20
-209.7085
 10
805.4376
 20
-210.0424
 10
805.5743
 20
-210.3555
 10
805.718
 20
-210.6479
 10
805.8689
 20
-210.9195
 10
806.0269
 20
-211.1702
 10
806.1923
 20
-211.4
 10
806.3651
 20
-211.6089
 10
806.5453
 20
-211.7967
 10
806.7217
 20
-211.9622
 10
806.8991
 20
-212.1146
 10
807.0778
 20
-212.2538
 10
807.2578
 20
-212.3801
 10
807.4392
 20
-212.4936
 10
807.622
 20
-212.5942
 10
807.8064
 20
-212.6822
 10
807.9925
 20
-212.7576
 10
808.1806
 20
-212.8223
 10
808.3724
 20
-212.8783
 10
808.5678
 20
-212.9255
 10
808.7669
 20
-212.9641
 10
808.9696
 20
-212.9939
 10
809.1759
 20
-213.0152
 10
809.3859
 20
-213.028
 10
809.5995
 20
-213.0322
 10
810.0792
 20
-213.0126
 10
810.5355
 20
-212.9538
 10
810.9683
 20
-212.8558
 10
811.3777
 20
-212.7188
 10
811.7634
 20
-212.5428
 10
812.1257
 20
-212.3279
 10
812.4644
 20
-212.0741
 10
812.7796
 20
-211.7815
 10
813.0642
 20
-211.4507
 10
813.3113
 20
-211.0814
 10
813.5207
 20
-210.6734
 10
813.6923
 20
-210.2269
 10
813.826
 20
-209.7419
 10
813.9217
 20
-209.2183
 10
813.9792
 20
-208.6563
 10
813.9984
 20
-208.0557
  0
LWPOLYLINE
  5
96
330
1F
100
AcDbEntity
  8
Layer 1
 62
     7
100
AcDbPolyline
 90
       12
 70
     1
 43
0.0
 10
835.847
 20
-207.533
 10
832.9636
 20
-207.533
 10
832.9636
 20
-215.0052
 10
829.8146
 20
-215.0052
 10
829.8146
 20
-207.533
 10
819.0542
 20
-207.533
 10
819.0542
 20
-204.4687
 10
829.9466
 20
-193.2776
 10
832.9636
 20
-193.2776
 10
832.9636
 20
-205.2022
 10
835.847
 20
-205.2022
 10
835.847
 20
-207.533
  0
LWPOLYLINE
  5
97
330
1F
100
AcDbEntity
  8
Layer 1
 62
     7
100
AcDbPolyline
 90
        4
 70
     1
 43
0.0
 10
829.8146
 20
-205.2022
 10
829.8146
 20
-196.7288
 10
821.6177
 20
-205.2022
 10
829.8146
 20
-205.2022
  0
LWPOLYLINE
  5
98
330
1F
100
AcDbEntity
  8
Layer 1
 62
     7
100
AcDbPolyline
 90
      198
 70
     1
 43
0.0
 10
853.2423
 20
-208.0862
 10
853.2333
 20
-208.4766
 10
853.2064
 20
-208.8595
 10
853.1616
 20
-209.2351
 10
853.0991
 20
-209.6034
 10
853.019
 20
-209.9644
 10
852.9213
 20
-210.3183
 10
852.8063
 20
-210.6651
 10
852.674
 20
-211.005
 10
852.5273
 20
-211.3351
 10
852.3657
 20
-211.6536
 10
852.1894
 20
-211.9605
 10
851.9986
 20
-212.2558
 10
851.7935
 20
-212.5395
 10
851.5744
 20
-212.8115
 10
851.3414
 20
-213.0719
 10
851.0949
 20
-213.3206
 10
850.8299
 20
-213.563
 10
850.5497
 20
-213.7919
 10
850.2539
 20
-214.0076
 10
849.9426
 20
-214.2099
 10
849.6154
 20
-214.3989
 10
849.2723
 20
-214.5745
 10
848.913
 20
-214.7369
 10
848.5375
 20
-214.886
 10
848.1488
 20
-215.0187
 10
847.7489
 20
-215.1337
 10
847.3377
 20
-215.2312
 10
846.9149
 20
-215.311
 10
846.4805
 20
-215.3731
 10
846.0343
 20
-215.4175
 10
845.5762
 20
-215.4442
 10
845.106
 20
-215.4531
 10
844.6691
 20
-215.4477
 10
844.2343
 20
-215.4315
 10
843.8014
 20
-215.4046
 10
843.3704
 20
-215.367
 10
842.9413
 20
-215.3186
 10
842.5141
 20
-215.2595
 10
842.0887
 20
-215.1897
 10
841.6651
 20
-215.1092
 10
841.2487
 20
-215.0197
 10
840.846
 20
-214.9238
 10
840.4572
 20
-214.8213
 10
840.0825
 20
-214.7122
 10
839.7219
 20
-214.5964
 10
839.3755
 20
-214.4738
 10
839.0434
 20
-214.3444
 10
838.7258
 20
-214.208
 10
838.7258
 20
-211.1187
 10
838.954
 20
-211.1187
 10
839.1626
 20
-211.2495
 10
839.4115
 20
-211.3885
 10
839.7015
 20
-211.5361
 10
840.0332
 20
-211.6927
 10
840.2114
 20
-211.7703
 10
840.3942
 20
-211.8471
 10
840.5818
 20
-211.9231
 10
840.774
 20
-211.9983
 10
840.971
 20
-212.0726
 10
841.1728
 20
-212.1461
 10
841.3793
 20
-212.2186
 10
841.5906
 20
-212.2903
 10
841.8295
 20
-212.3665
 10
842.063
 20
-212.4381
 10
842.2912
 20
-212.505
 10
842.5143
 20
-212.5675
 10
842.7323
 20
-212.6254
 10
842.9455
 20
-212.679
 10
843.1539
 20
-212.7281
 10
843.3576
 20
-212.7729
 10
843.561
 20
-212.8132
 10
843.7705
 20
-212.8479
 10
843.9862
 20
-212.877
 10
844.2081
 20
-212.9006
 10
844.4363
 20
-212.9188
 10
844.6708
 20
-212.9318
 10
844.9116
 20
-212.9395
 10
845.1588
 20
-212.942
 10
845.4047
 20
-212.9371
 10
845.6486
 20
-212.9225
 10
845.8906
 20
-212.8981
 10
846.1308
 20
-212.8638
 10
846.3693
 20
-212.8198
 10
846.6061
 20
-212.766
 10
846.8412
 20
-212.7023
 10
847.0749
 20
-212.6287
 10
847.3042
 20
-212.5441
 10
847.525
 20
-212.4475
 10
847.7374
 20
-212.3387
 10
847.9415
 20
-212.2177
 10
848.1372
 20
-212.0847
 10
848.3245
 20
-211.9394
 10
848.5035
 20
-211.782
 10
848.6742
 20
-211.6123
 10
848.8232
 20
-211.4484
 10
848.9627
 20
-211.2778
 10
849.0928
 20
-211.1005
 10
849.2136
 20
-210.9163
 10
849.3249
 20
-210.725
 10
849.4268
 20
-210.5266
 10
849.5194
 20
-210.321
 10
849.6027
 20
-210.1079
 10
849.6774
 20
-209.8883
 10
849.7422
 20
-209.6589
 10
849.7969
 20
-209.4199
 10
849.8416
 20
-209.1713
 10
849.8764
 20
-208.913
 10
849.9012
 20
-208.6451
 10
849.916
 20
-208.3677
 10
849.921
 20
-208.0807
 10
849.9156
 20
-207.7977
 10
849.8994
 20
-207.5279
 10
849.8722
 20
-207.2713
 10
849.8341
 20
-207.0278
 10
849.7848
 20
-206.7973
 10
849.7245
 20
-206.5799
 10
849.6529
 20
-206.3754
 10
849.5701
 20
-206.1839
 10
849.4771
 20
-206.0009
 10
849.374
 20
-205.8263
 10
849.2609
 20
-205.6601
 10
849.1379
 20
-205.5022
 10
849.005
 20
-205.3526
 10
848.8624
 20
-205.2111
 10
848.7102
 20
-205.0778
 10
848.5484
 20
-204.9526
 10
848.3675
 20
-204.8195
 10
848.1767
 20
-204.6967
 10
847.9758
 20
-204.584
 10
847.7649
 20
-204.4815
 10
847.544
 20
-204.389
 10
847.3132
 20
-204.3064
 10
847.0725
 20
-204.2337
 10
846.8218
 20
-204.1706
 10
846.563
 20
-204.1183
 10
846.2966
 20
-204.0729
 10
846.0227
 20
-204.0343
 10
845.7413
 20
-204.0026
 10
845.4523
 20
-203.9779
 10
845.1559
 20
-203.9601
 10
844.8521
 20
-203.9495
 10
844.5408
 20
-203.9459
 10
844.2093
 20
-203.9487
 10
843.8775
 20
-203.9572
 10
843.5452
 20
-203.9714
 10
843.2124
 20
-203.9914
 10
842.8791
 20
-204.0172
 10
842.545
 20
-204.0489
 10
842.2103
 20
-204.0866
 10
841.8747
 20
-204.1304
 10
841.547
 20
-204.1769
 10
841.2366
 20
-204.2229
 10
840.9436
 20
-204.2683
 10
840.6677
 20
-204.313
 10
840.4088
 20
-204.3572
 10
840.1666
 20
-204.4006
 10
839.9411
 20
-204.4433
 10
839.732
 20
-204.4853
 10
839.732
 20
-193.2776
 10
853.1088
 20
-193.2776
 10
853.1088
 20
-195.8178
 10
842.8809
 20
-195.8178
 10
842.8809
 20
-201.6109
 10
844.0439
 20
-201.525
 10
845.0905
 20
-201.4959
 10
845.5483
 20
-201.5003
 10
845.988
 20
-201.5135
 10
846.4096
 20
-201.5354
 10
846.8132
 20
-201.5661
 10
847.1992
 20
-201.6053
 10
847.5675
 20
-201.6532
 10
847.9183
 20
-201.7097
 10
848.2518
 20
-201.7746
 10
848.5728
 20
-201.8519
 10
848.8907
 20
-201.9456
 10
849.2056
 20
-202.0557
 10
849.5175
 20
-202.1821
 10
849.8266
 20
-202.3247
 10
850.133
 20
-202.4837
 10
850.4367
 20
-202.659
 10
850.7378
 20
-202.8505
 10
851.0313
 20
-203.0624
 10
851.3074
 20
-203.2862
 10
851.566
 20
-203.5224
 10
851.807
 20
-203.7709
 10
852.0303
 20
-204.032
 10
852.2359
 20
-204.3059
 10
852.4236
 20
-204.5929
 10
852.5933
 20
-204.893
 10
852.7438
 20
-205.2109
 10
852.8748
 20
-205.5522
 10
852.9863
 20
-205.9168
 10
853.0779
 20
-206.3045
 10
853.1495
 20
-206.7154
 10
853.2009
 20
-207.1493
 10
853.2319
 20
-207.6063
 10
853.2423
 20
-208.0862
  0
LWPOLYLINE
  5
99
330
1F
100
AcDbEntity
  8
Layer 1
 62
     7
100
AcDbPolyline
 90
      190
 70
     1
 43
0.0
 10
877.9728
 20
-215.0052
 10
877.9728
 20
-205.5807
 10
877.9713
 20
-205.303
 10
877.9667
 20
-205.0305
 10
877.959
 20
-204.7632
 10
877.9482
 20
-204.5011
 10
877.9342
 20
-204.244
 10
877.9171
 20
-203.9921
 10
877.8969
 20
-203.7453
 10
877.8734
 20
-203.5036
 10
877.847
 20
-203.2705
 10
877.8132
 20
-203.0506
 10
877.7722
 20
-202.8439
 10
877.7244
 20
-202.6502
 10
877.6698
 20
-202.4695
 10
877.6088
 20
-202.3017
 10
877.5415
 20
-202.1468
 10
877.4682
 20
-202.0047
 10
877.3812
 20
-201.8636
 10
877.2857
 20
-201.7324
 10
877.1816
 20
-201.611
 10
877.0689
 20
-201.4993
 10
876.9478
 20
-201.3972
 10
876.8181
 20
-201.3047
 10
876.68
 20
-201.2216
 10
876.5334
 20
-201.1478
 10
876.3757
 20
-201.0828
 10
876.2045
 20
-201.0262
 10
876.0197
 20
-200.9781
 10
875.8215
 20
-200.9386
 10
875.6098
 20
-200.9077
 10
875.3849
 20
-200.8855
 10
875.1467
 20
-200.8722
 10
874.8953
 20
-200.8677
 10
874.6552
 20
-200.8759
 10
874.411
 20
-200.9007
 10
874.1628
 20
-200.9418
 10
873.9105
 20
-200.9993
 10
873.6539
 20
-201.0731
 10
873.393
 20
-201.1631
 10
873.1278
 20
-201.2694
 10
872.8581
 20
-201.3919
 10
872.5843
 20
-201.5279
 10
872.3079
 20
-201.6788
 10
872.029
 20
-201.8447
 10
871.7475
 20
-202.0254
 10
871.4636
 20
-202.2208
 10
871.1772
 20
-202.431
 10
870.8884
 20
-202.6557
 10
870.5973
 20
-202.8949
 10
870.6439
 20
-203.4828
 10
870.6656
 20
-204.2954
 10
870.6656
 20
-215.0052
 10
867.5819
 20
-215.0052
 10
867.5819
 20
-205.5807
 10
867.5803
 20
-205.303
 10
867.5755
 20
-205.0305
 10
867.5676
 20
-204.7632
 10
867.5567
 20
-204.5011
 10
867.5426
 20
-204.244
 10
867.5255
 20
-203.9921
 10
867.5055
 20
-203.7453
 10
867.4825
 20
-203.5036
 10
867.4561
 20
-203.2705
 10
867.4224
 20
-203.0506
 10
867.3815
 20
-202.8439
 10
867.3336
 20
-202.6502
 10
867.2788
 20
-202.4695
 10
867.2172
 20
-202.3017
 10
867.1489
 20
-202.1468
 10
867.0741
 20
-202.0047
 10
866.9871
 20
-201.8636
 10
866.8916
 20
-201.7324
 10
866.7876
 20
-201.611
 10
866.675
 20
-201.4993
 10
866.5541
 20
-201.3972
 10
866.4247
 20
-201.3047
 10
866.287
 20
-201.2216
 10
866.1409
 20
-201.1478
 10
865.9828
 20
-201.0828
 10
865.8114
 20
-201.0262
 10
865.6266
 20
-200.9781
 10
865.4286
 20
-200.9386
 10
865.2173
 20
-200.9077
 10
864.9928
 20
-200.8855
 10
864.7551
 20
-200.8722
 10
864.5043
 20
-200.8677
 10
864.2515
 20
-200.8764
 10
863.9959
 20
-200.9024
 10
863.7376
 20
-200.9458
 10
863.4764
 20
-201.0067
 10
863.2123
 20
-201.0852
 10
862.9453
 20
-201.1813
 10
862.6752
 20
-201.295
 10
862.4019
 20
-201.4265
 10
862.1287
 20
-201.5711
 10
861.8575
 20
-201.7251
 10
861.5885
 20
-201.8885
 10
861.3216
 20
-202.0616
 10
861.0569
 20
-202.2442
 10
860.7944
 20
-202.4365
 10
860.5342
 20
-202.6386
 10
860.2762
 20
-202.8505
 10
860.2762
 20
-215.0052
 10
857.191
 20
-215.0052
 10
857.191
 20
-198.7158
 10
860.2762
 20
-198.7158
 10
860.2762
 20
-200.5294
 10
860.5791
 20
-200.2681
 10
860.881
 20
-200.0218
 10
861.1821
 20
-199.7905
 10
861.4825
 20
-199.5743
 10
861.7822
 20
-199.3732
 10
862.0813
 20
-199.1874
 10
862.38
 20
-199.0167
 10
862.6783
 20
-198.8614
 10
862.979
 20
-198.7224
 10
863.2873
 20
-198.6019
 10
863.603
 20
-198.4999
 10
863.9262
 20
-198.4165
 10
864.2566
 20
-198.3515
 10
864.5944
 20
-198.3051
 10
864.9394
 20
-198.2772
 10
865.2916
 20
-198.2679
 10
865.6907
 20
-198.2782
 10
866.0785
 20
-198.309
 10
866.4551
 20
-198.3603
 10
866.8204
 20
-198.4322
 10
867.1745
 20
-198.5247
 10
867.5172
 20
-198.6376
 10
867.8487
 20
-198.7711
 10
868.1688
 20
-198.9252
 10
868.4718
 20
-199.1026
 10
868.7564
 20
-199.3062
 10
869.0227
 20
-199.536
 10
869.2703
 20
-199.7923
 10
869.4992
 20
-200.075
 10
869.7093
 20
-200.3843
 10
869.9004
 20
-200.7201
 10
870.0725
 20
-201.0827
 10
870.4216
 20
-200.7472
 10
870.7681
 20
-200.4324
 10
871.112
 20
-200.1384
 10
871.4533
 20
-199.8653
 10
871.7921
 20
-199.6132
 10
872.1285
 20
-199.3824
 10
872.4626
 20
-199.1729
 10
872.7944
 20
-198.9848
 10
873.1314
 20
-198.817
 10
873.4752
 20
-198.6716
 10
873.8258
 20
-198.5483
 10
874.1833
 20
-198.4475
 10
874.5479
 20
-198.369
 10
874.9195
 20
-198.3128
 10
875.2982
 20
-198.2791
 10
875.6841
 20
-198.2679
 10
875.9764
 20
-198.273
 10
876.2617
 20
-198.2885
 10
876.5401
 20
-198.3142
 10
876.8115
 20
-198.3503
 10
877.0761
 20
-198.3966
 10
877.3337
 20
-198.4534
 10
877.5845
 20
-198.5204
 10
877.8284
 20
-198.5979
 10
878.0663
 20
-198.6861
 10
878.2965
 20
-198.7866
 10
878.5192
 20
-198.8994
 10
878.7342
 20
-199.0246
 10
878.9416
 20
-199.1625
 10
879.1414
 20
-199.3131
 10
879.3334
 20
-199.4766
 10
879.5178
 20
-199.6531
 10
879.6962
 20
-199.8451
 10
879.8644
 20
-200.0481
 10
880.0224
 20
-200.262
 10
880.1701
 20
-200.4873
 10
880.3074
 20
-200.7241
 10
880.4342
 20
-200.9726
 10
880.5504
 20
-201.233
 10
880.6559
 20
-201.5056
 10
880.7503
 20
-201.7907
 10
880.8321
 20
-202.0937
 10
880.9012
 20
-202.4147
 10
880.9577
 20
-202.7537
 10
881.0017
 20
-203.1107
 10
881.033
 20
-203.4857
 10
881.0518
 20
-203.8787
 10
881.0581
 20
-204.2898
 10
881.0581
 20
-215.0052
 10
877.9728
 20
-215.0052
  0
LWPOLYLINE
  5
9A
330
1F
100
AcDbEntity
  8
Layer 1
 62
     7
100
AcDbPolyline
 90
      190
 70
     1
 43
0.0
 10
906.127
 20
-215.0052
 10
906.127
 20
-205.5807
 10
906.1254
 20
-205.303
 10
906.1206
 20
-205.0305
 10
906.1127
 20
-204.7632
 10
906.1016
 20
-204.5011
 10
906.0874
 20
-204.244
 10
906.07
 20
-203.9921
 10
906.0496
 20
-203.7453
 10
906.0261
 20
-203.5036
 10
905.9998
 20
-203.2705
 10
905.9663
 20
-203.0506
 10
905.9257
 20
-202.8439
 10
905.8782
 20
-202.6502
 10
905.8239
 20
-202.4695
 10
905.7628
 20
-202.3017
 10
905.695
 20
-202.1468
 10
905.6208
 20
-202.0047
 10
905.5339
 20
-201.8636
 10
905.4383
 20
-201.7324
 10
905.3342
 20
-201.611
 10
905.2216
 20
-201.4993
 10
905.1005
 20
-201.3972
 10
904.9708
 20
-201.3047
 10
904.8327
 20
-201.2216
 10
904.6861
 20
-201.1478
 10
904.5284
 20
-201.0828
 10
904.3572
 20
-201.0262
 10
904.1724
 20
-200.9781
 10
903.9742
 20
-200.9386
 10
903.7625
 20
-200.9077
 10
903.5376
 20
-200.8855
 10
903.2994
 20
-200.8722
 10
903.048
 20
-200.8677
 10
902.8079
 20
-200.8759
 10
902.5637
 20
-200.9007
 10
902.3155
 20
-200.9418
 10
902.0632
 20
-200.9993
 10
901.8066
 20
-201.0731
 10
901.5457
 20
-201.1631
 10
901.2805
 20
-201.2694
 10
901.0108
 20
-201.3919
 10
900.737
 20
-201.5279
 10
900.4606
 20
-201.6788
 10
900.1817
 20
-201.8447
 10
899.9004
 20
-202.0254
 10
899.6166
 20
-202.2208
 10
899.3305
 20
-202.431
 10
899.0421
 20
-202.6557
 10
898.7515
 20
-202.8949
 10
898.7966
 20
-203.4828
 10
898.8183
 20
-204.2954
 10
898.8183
 20
-215.0052
 10
895.7346
 20
-215.0052
 10
895.7346
 20
-205.5807
 10
895.7331
 20
-205.303
 10
895.7285
 20
-205.0305
 10
895.7208
 20
-204.7632
 10
895.71
 20
-204.5011
 10
895.696
 20
-204.244
 10
895.6789
 20
-203.9921
 10
895.6587
 20
-203.7453
 10
895.6352
 20
-203.5036
 10
895.6088
 20
-203.2705
 10
895.5751
 20
-203.0506
 10
895.5343
 20
-202.8439
 10
895.4865
 20
-202.6502
 10
895.4319
 20
-202.4695
 10
895.3706
 20
-202.3017
 10
895.3027
 20
-202.1468
 10
895.2284
 20
-202.0047
 10
895.1419
 20
-201.8636
 10
895.0465
 20
-201.7324
 10
894.9425
 20
-201.611
 10
894.8299
 20
-201.4993
 10
894.7088
 20
-201.3972
 10
894.5792
 20
-201.3047
 10
894.4413
 20
-201.2216
 10
894.2952
 20
-201.1478
 10
894.1371
 20
-201.0828
 10
893.9657
 20
-201.0262
 10
893.7808
 20
-200.9781
 10
893.5827
 20
-200.9386
 10
893.3712
 20
-200.9077
 10
893.1464
 20
-200.8855
 10
892.9083
 20
-200.8722
 10
892.657
 20
-200.8677
 10
892.4042
 20
-200.8764
 10
892.1486
 20
-200.9024
 10
891.8903
 20
-200.9458
 10
891.6291
 20
-201.0067
 10
891.365
 20
-201.0852
 10
891.098
 20
-201.1813
 10
890.8279
 20
-201.295
 10
890.5546
 20
-201.4265
 10
890.2814
 20
-201.5711
 10
890.0105
 20
-201.7251
 10
889.7416
 20
-201.8885
 10
889.4749
 20
-202.0616
 10
889.2103
 20
-202.2442
 10
888.9477
 20
-202.4365
 10
888.6873
 20
-202.6386
 10
888.4289
 20
-202.8505
 10
888.4289
 20
-215.0052
 10
885.3436
 20
-215.0052
 10
885.3436
 20
-198.7158
 10
888.4289
 20
-198.7158
 10
888.4289
 20
-200.5294
 10
888.7318
 20
-200.2681
 10
889.0337
 20
-200.0218
 10
889.3348
 20
-199.7905
 10
889.6352
 20
-199.5743
 10
889.9349
 20
-199.3732
 10
890.234
 20
-199.1874
 10
890.5327
 20
-199.0167
 10
890.831
 20
-198.8614
 10
891.1317
 20
-198.7224
 10
891.44
 20
-198.6019
 10
891.7557
 20
-198.4999
 10
892.0788
 20
-198.4165
 10
892.4093
 20
-198.3515
 10
892.7471
 20
-198.3051
 10
893.0921
 20
-198.2772
 10
893.4443
 20
-198.2679
 10
893.8438
 20
-198.2782
 10
894.2319
 20
-198.309
 10
894.6085
 20
-198.3603
 10
894.9737
 20
-198.4322
 10
895.3276
 20
-198.5247
 10
895.6702
 20
-198.6376
 10
896.0015
 20
-198.7711
 10
896.3215
 20
-198.9252
 10
896.6245
 20
-199.1026
 10
896.9092
 20
-199.3062
 10
897.1754
 20
-199.536
 10
897.4232
 20
-199.7923
 10
897.6523
 20
-200.075
 10
897.8626
 20
-200.3843
 10
898.0541
 20
-200.7201
 10
898.2267
 20
-201.0827
 10
898.5753
 20
-200.7472
 10
898.9214
 20
-200.4324
 10
899.265
 20
-200.1384
 10
899.6061
 20
-199.8653
 10
899.9448
 20
-199.6132
 10
900.2812
 20
-199.3824
 10
900.6153
 20
-199.1729
 10
900.9471
 20
-198.9848
 10
901.2845
 20
-198.817
 10
901.6283
 20
-198.6716
 10
901.9788
 20
-198.5483
 10
902.336
 20
-198.4475
 10
902.7003
 20
-198.369
 10
903.0717
 20
-198.3128
 10
903.4504
 20
-198.2791
 10
903.8367
 20
-198.2679
 10
904.1291
 20
-198.273
 10
904.4146
 20
-198.2885
 10
904.6931
 20
-198.3142
 10
904.9648
 20
-198.3503
 10
905.2294
 20
-198.3966
 10
905.487
 20
-198.4534
 10
905.7376
 20
-198.5204
 10
905.9811
 20
-198.5979
 10
906.219
 20
-198.6861
 10
906.4492
 20
-198.7866
 10
906.6719
 20
-198.8994
 10
906.8869
 20
-199.0246
 10
907.0943
 20
-199.1625
 10
907.2941
 20
-199.3131
 10
907.4861
 20
-199.4766
 10
907.6705
 20
-199.6531
 10
907.8489
 20
-199.8451
 10
908.0171
 20
-200.0481
 10
908.1751
 20
-200.262
 10
908.3228
 20
-200.4873
 10
908.4601
 20
-200.7241
 10
908.5869
 20
-200.9726
 10
908.7031
 20
-201.233
 10
908.8086
 20
-201.5056
 10
908.903
 20
-201.7907
 10
908.9848
 20
-202.0937
 10
909.0539
 20
-202.4147
 10
909.1104
 20
-202.7537
 10
909.1544
 20
-203.1107
 10
909.1857
 20
-203.4857
 10
909.2045
 20
-203.8787
 10
909.2108
 20
-204.2898
 10
909.2108
 20
-215.0052
 10
906.127
 20
-215.0052
  0
LWPOLYLINE
  5
9B
330
1F
100
AcDbEntity
  8
Layer 1
 62
     7
370
    25
100
AcDbPolyline
 90
       78
 70
     1
 43
0.0
 10
1348.6029
 20
62.1577
 10
1348.6029
 20
70.9258
 10
1386.8154
 20
70.9798
 10
1389.8383
 20
70.8553
 10
1392.774
 20
70.4166
 10
1395.5305
 20
69.6647
 10
1398.0162
 20
68.6008
 10
1400.1392
 20
67.226
 10
1401.8076
 20
65.5416
 10
1402.9296
 20
63.5486
 10
1403.4135
 20
61.2483
 10
1404.4238
 20
52.1891
 10
1405.4145
 20
43.1804
 10
1406.3919
 20
34.2052
 10
1407.3629
 20
25.2468
 10
1408.3339
 20
16.2884
 10
1409.3115
 20
7.3132
 10
1410.3024
 20
-1.6955
 10
1411.3131
 20
-10.7547
 10
1412.0401
 20
-13.7909
 10
1413.3834
 20
-16.4823
 10
1415.3508
 20
-18.8257
 10
1417.9498
 20
-20.8181
 10
1421.1882
 20
-22.4563
 10
1425.0735
 20
-23.7371
 10
1429.6134
 20
-24.6573
 10
1434.8156
 20
-25.2138
 10
1450.0034
 20
-25.7666
 10
1465.5666
 20
-26.2463
 10
1481.3772
 20
-26.6507
 10
1497.307
 20
-26.9774
 10
1513.2282
 20
-27.2239
 10
1529.0126
 20
-27.388
 10
1544.5323
 20
-27.4672
 10
1559.6593
 20
-27.4593
 10
1572.1186
 20
-28.9568
 10
1575.7618
 20
-29.2924
 10
1579.3568
 20
-29.6085
 10
1582.9197
 20
-29.9118
 10
1586.4666
 20
-30.2085
 10
1590.0134
 20
-30.5053
 10
1593.5763
 20
-30.8087
 10
1597.1713
 20
-31.125
 10
1600.8145
 20
-31.4608
 10
1600.9406
 20
-36.9768
 10
1580.6123
 20
-36.8806
 10
1560.2629
 20
-36.7146
 10
1539.8995
 20
-36.5021
 10
1519.5292
 20
-36.2664
 10
1499.1588
 20
-36.0306
 10
1478.7956
 20
-35.8181
 10
1458.4465
 20
-35.6521
 10
1438.1186
 20
-35.5559
 10
1427.2696
 20
-34.7407
 10
1418.1829
 20
-33.3443
 10
1410.7371
 20
-31.4001
 10
1404.8112
 20
-28.9414
 10
1400.2839
 20
-26.0014
 10
1397.0342
 20
-22.6133
 10
1394.9409
 20
-18.8105
 10
1393.8827
 20
-14.6262
 10
1392.9838
 20
-5.5898
 10
1392.0585
 20
3.4466
 10
1391.1157
 20
12.483
 10
1390.1642
 20
21.5195
 10
1389.2126
 20
30.556
 10
1388.2698
 20
39.5925
 10
1387.3446
 20
48.6289
 10
1386.4457
 20
57.6653
 10
1386.3125
 20
58.5244
 10
1386.0567
 20
59.3426
 10
1385.6008
 20
60.0963
 10
1384.8675
 20
60.7621
 10
1383.7793
 20
61.3165
 10
1382.2588
 20
61.7359
 10
1380.2287
 20
61.997
 10
1377.6116
 20
62.0763
 10
1348.6029
 20
62.1577
  0
LWPOLYLINE
  5
9C
330
1F
100
AcDbEntity
  8
Layer 1
 62
     7
370
    25
100
AcDbPolyline
 90
       78
 70
     1
 43
0.0
 10
1915.5723
 20
62.1577
 10
1915.5723
 20
70.9258
 10
1877.3598
 20
70.9798
 10
1874.3368
 20
70.8553
 10
1871.4011
 20
70.4166
 10
1868.6444
 20
69.6647
 10
1866.1585
 20
68.6008
 10
1864.0355
 20
67.226
 10
1862.3671
 20
65.5416
 10
1861.2452
 20
63.5486
 10
1860.7616
 20
61.2483
 10
1859.7512
 20
52.1891
 10
1858.7605
 20
43.1804
 10
1857.7829
 20
34.2052
 10
1856.8119
 20
25.2468
 10
1855.8408
 20
16.2884
 10
1854.8632
 20
7.3132
 10
1853.8725
 20
-1.6955
 10
1852.8621
 20
-10.7547
 10
1852.1355
 20
-13.7909
 10
1850.7923
 20
-16.4823
 10
1848.8249
 20
-18.8257
 10
1846.2258
 20
-20.8181
 10
1842.9873
 20
-22.4563
 10
1839.1019
 20
-23.7371
 10
1834.5618
 20
-24.6573
 10
1829.3596
 20
-25.2138
 10
1814.1714
 20
-25.7666
 10
1798.6081
 20
-26.2463
 10
1782.7975
 20
-26.6507
 10
1766.8677
 20
-26.9774
 10
1750.9467
 20
-27.2239
 10
1735.1624
 20
-27.388
 10
1719.6428
 20
-27.4672
 10
1704.5159
 20
-27.4593
 10
1692.0554
 20
-28.9568
 10
1688.4126
 20
-29.2924
 10
1684.8179
 20
-29.6085
 10
1681.2552
 20
-29.9118
 10
1677.7085
 20
-30.2085
 10
1674.1617
 20
-30.5053
 10
1670.5988
 20
-30.8087
 10
1667.0038
 20
-31.125
 10
1663.3606
 20
-31.4608
 10
1663.2346
 20
-36.9768
 10
1683.5629
 20
-36.8806
 10
1703.9123
 20
-36.7146
 10
1724.2757
 20
-36.5021
 10
1744.6461
 20
-36.2664
 10
1765.0164
 20
-36.0306
 10
1785.3796
 20
-35.8181
 10
1805.7287
 20
-35.6521
 10
1826.0566
 20
-35.5559
 10
1836.9056
 20
-34.7407
 10
1845.9925
 20
-33.3443
 10
1853.4384
 20
-31.4001
 10
1859.3644
 20
-28.9414
 10
1863.8917
 20
-26.0014
 10
1867.1414
 20
-22.6133
 10
1869.2347
 20
-18.8105
 10
1870.2925
 20
-14.6262
 10
1871.1914
 20
-5.5898
 10
1872.1167
 20
3.4466
 10
1873.0595
 20
12.483
 10
1874.011
 20
21.5195
 10
1874.9626
 20
30.556
 10
1875.9054
 20
39.5925
 10
1876.8306
 20
48.6289
 10
1877.7295
 20
57.6653
 10
1877.8627
 20
58.5244
 10
1878.1185
 20
59.3426
 10
1878.5744
 20
60.0963
 10
1879.3077
 20
60.7621
 10
1880.3959
 20
61.3165
 10
1881.9164
 20
61.7359
 10
1883.9465
 20
61.997
 10
1886.5636
 20
62.0763
 10
1915.5723
 20
62.1577
  0
LWPOLYLINE
  5
9D
330
1F
100
AcDbEntity
  8
Layer 1
 62
     7
370
    25
100
AcDbPolyline
 90
        5
 70
     1
 43
0.0
 10
1587.0878
 20
-38.4449
 10
1600.9406
 20
-38.4449
 10
1600.9406
 20
-47.0536
 10
1587.0878
 20
-47.0536
 10
1587.0878
 20
-38.4449
  0
LWPOLYLINE
  5
9E
330
1F
100
AcDbEntity
  8
Layer 1
 62
     7
370
    25
100
AcDbPolyline
 90
        5
 70
     1
 43
0.0
 10
1663.2346
 20
-38.4449
 10
1677.0874
 20
-38.4449
 10
1677.0874
 20
-47.0536
 10
1663.2346
 20
-47.0536
 10
1663.2346
 20
-38.4449
  0
LWPOLYLINE
  5
9F
330
1F
100
AcDbEntity
  8
Layer 1
 62
     9
370
    20
100
AcDbPolyline
 90
        2
 70
     0
 43
0.0
 10
1859.0685
 20
107.0216
 10
1859.0685
 20
77.1659
  0
LWPOLYLINE
  5
A0
330
1F
100
AcDbEntity
  8
Layer 1
 62
     9
370
    20
100
AcDbPolyline
 90
        2
 70
     0
 43
0.0
 10
1402.2805
 20
107.0216
 10
1402.2805
 20
77.1659
  0
LWPOLYLINE
  5
A1
330
1F
100
AcDbEntity
  8
Layer 1
 62
     9
370
    20
100
AcDbPolyline
 90
        2
 70
     0
 43
0.0
 10
1402.2805
 20
93.3331
 10
1859.0685
 20
93.3331
  0
LWPOLYLINE
  5
A2
330
1F
100
AcDbEntity
  8
Layer 1
 62
     7
100
AcDbPolyline
 90
      176
 70
     1
 43
0.0
 10
1597.5924
 20
104.9573
 10
1597.585
 20
104.7521
 10
1597.5628
 20
104.5508
 10
1597.5257
 20
104.3535
 10
1597.4738
 20
104.1603
 10
1597.4071
 20
103.9712
 10
1597.3256
 20
103.7863
 10
1597.2292
 20
103.6055
 10
1597.118
 20
103.429
 10
1596.9928
 20
103.2578
 10
1596.8579
 20
103.0939
 10
1596.7133
 20
102.9372
 10
1596.5588
 20
102.7878
 10
1596.3942
 20
102.6457
 10
1596.2197
 20
102.5107
 10
1596.0349
 20
102.383
 10
1595.8399
 20
102.2625
 10
1595.6271
 20
102.142
 10
1595.4079
 20
102.029
 10
1595.1825
 20
101.9236
 10
1594.9508
 20
101.8257
 10
1594.713
 20
101.7352
 10
1594.4692
 20
101.6522
 10
1594.2194
 20
101.5766
 10
1593.9637
 20
101.5083
 10
1593.7007
 20
101.4486
 10
1593.4309
 20
101.3969
 10
1593.1542
 20
101.3531
 10
1592.8707
 20
101.3172
 10
1592.5804
 20
101.2893
 10
1592.2833
 20
101.2693
 10
1591.9795
 20
101.2573
 10
1591.6689
 20
101.2533
 10
1591.3569
 20
101.2571
 10
1591.0521
 20
101.2685
 10
1590.7545
 20
101.2875
 10
1590.464
 20
101.3142
 10
1590.1805
 20
101.3486
 10
1589.9038
 20
101.3908
 10
1589.6339
 20
101.4408
 10
1589.3706
 20
101.4987
 10
1589.1166
 20
101.5633
 10
1588.8702
 20
101.6354
 10
1588.6312
 20
101.715
 10
1588.3999
 20
101.8022
 10
1588.176
 20
101.8968
 10
1587.9598
 20
101.9989
 10
1587.7512
 20
102.1085
 10
1587.5503
 20
102.2256
 10
1587.3158
 20
102.3773
 10
1587.0946
 20
102.5413
 10
1586.8866
 20
102.7175
 10
1586.6919
 20
102.9059
 10
1586.5103
 20
103.1066
 10
1586.3418
 20
103.3196
 10
1586.1864
 20
103.5449
 10
1586.0439
 20
103.7825
 10
1585.916
 20
104.0338
 10
1585.8052
 20
104.2988
 10
1585.7114
 20
104.5777
 10
1585.6346
 20
104.8706
 10
1585.5749
 20
105.1775
 10
1585.5323
 20
105.4985
 10
1585.5067
 20
105.8338
 10
1585.4982
 20
106.1833
 10
1585.506
 20
106.5281
 10
1585.5294
 20
106.8646
 10
1585.5683
 20
107.1928
 10
1585.6229
 20
107.5125
 10
1585.6929
 20
107.8236
 10
1585.7785
 20
108.1263
 10
1585.8797
 20
108.4203
 10
1585.9963
 20
108.7057
 10
1586.1298
 20
108.9829
 10
1586.2804
 20
109.251
 10
1586.4481
 20
109.5099
 10
1586.6328
 20
109.7597
 10
1586.8344
 20
110.0003
 10
1587.0528
 20
110.2318
 10
1587.2879
 20
110.4542
 10
1587.5396
 20
110.6675
 10
1587.8014
 20
110.8657
 10
1588.0821
 20
111.0526
 10
1588.3815
 20
111.2281
 10
1588.6996
 20
111.3925
 10
1589.0363
 20
111.5456
 10
1589.3914
 20
111.6875
 10
1589.7649
 20
111.8183
 10
1590.1566
 20
111.9379
 10
1590.5648
 20
112.0451
 10
1590.9888
 20
112.1381
 10
1591.4285
 20
112.2167
 10
1591.884
 20
112.281
 10
1592.3553
 20
112.3311
 10
1592.8423
 20
112.3668
 10
1593.3451
 20
112.3883
 10
1593.8638
 20
112.3954
 10
1595.0266
 20
112.3578
 10
1595.2878
 20
112.3372
 10
1595.5339
 20
112.3113
 10
1595.7641
 20
112.28
 10
1595.9778
 20
112.2429
 10
1595.9778
 20
110.8624
 10
1595.8672
 20
110.8624
 10
1595.6786
 20
110.9164
 10
1595.4534
 20
110.9685
 10
1595.1917
 20
111.0183
 10
1594.8934
 20
111.0654
 10
1594.5683
 20
111.1059
 10
1594.2331
 20
111.1343
 10
1593.8874
 20
111.1509
 10
1593.5309
 20
111.1564
 10
1592.9631
 20
111.1424
 10
1592.4236
 20
111.1003
 10
1591.9122
 20
111.0301
 10
1591.429
 20
110.9317
 10
1590.9739
 20
110.8051
 10
1590.5469
 20
110.6502
 10
1590.148
 20
110.4669
 10
1589.7773
 20
110.2552
 10
1589.438
 20
110.016
 10
1589.1354
 20
109.7496
 10
1588.8692
 20
109.456
 10
1588.6396
 20
109.1351
 10
1588.4463
 20
108.787
 10
1588.2894
 20
108.4115
 10
1588.1687
 20
108.0086
 10
1588.0842
 20
107.5782
 10
1588.3063
 20
107.6658
 10
1588.5302
 20
107.7481
 10
1588.7559
 20
107.8252
 10
1588.9832
 20
107.897
 10
1589.2122
 20
107.9636
 10
1589.4427
 20
108.0251
 10
1589.6747
 20
108.0815
 10
1589.9081
 20
108.1327
 10
1590.145
 20
108.1785
 10
1590.3874
 20
108.2181
 10
1590.6353
 20
108.2515
 10
1590.8888
 20
108.2788
 10
1591.1478
 20
108.2999
 10
1591.4124
 20
108.3149
 10
1591.6824
 20
108.3239
 10
1591.9579
 20
108.3269
 10
1592.2249
 20
108.3249
 10
1592.4836
 20
108.3191
 10
1592.7341
 20
108.3093
 10
1592.9764
 20
108.2956
 10
1593.2105
 20
108.278
 10
1593.4364
 20
108.2565
 10
1593.6542
 20
108.2311
 10
1593.8638
 20
108.2018
 10
1594.0681
 20
108.1657
 10
1594.2753
 20
108.1219
 10
1594.4851
 20
108.0704
 10
1594.6974
 20
108.0111
 10
1594.912
 20
107.9438
 10
1595.1287
 20
107.8686
 10
1595.3473
 20
107.7852
 10
1595.5676
 20
107.6937
 10
1595.8158
 20
107.5784
 10
1596.0476
 20
107.4556
 10
1596.2629
 20
107.3253
 10
1596.4619
 20
107.1877
 10
1596.6443
 20
107.0427
 10
1596.8104
 20
106.8904
 10
1596.9599
 20
106.7308
 10
1597.093
 20
106.5641
 10
1597.2097
 20
106.3889
 10
1597.311
 20
106.2064
 10
1597.3968
 20
106.0166
 10
1597.4671
 20
105.8194
 10
1597.5219
 20
105.6149
 10
1597.561
 20
105.4031
 10
1597.5846
 20
105.1839
 10
1597.5924
 20
104.9573
  0
LWPOLYLINE
  5
A3
330
1F
100
AcDbEntity
  8
Layer 1
 62
     7
100
AcDbPolyline
 90
       91
 70
     1
 43
0.0
 10
1595.0563
 20
104.9012
 10
1595.0516
 20
105.0624
 10
1595.0376
 20
105.2168
 10
1595.0142
 20
105.3644
 10
1594.9814
 20
105.5054
 10
1594.9393
 20
105.6397
 10
1594.8878
 20
105.7675
 10
1594.8269
 20
105.8887
 10
1594.7567
 20
106.0034
 10
1594.6756
 20
106.112
 10
1594.5828
 20
106.2168
 10
1594.4785
 20
106.3176
 10
1594.3626
 20
106.4146
 10
1594.2351
 20
106.5076
 10
1594.0959
 20
106.5967
 10
1593.9452
 20
106.6819
 10
1593.7829
 20
106.7631
 10
1593.6593
 20
106.8175
 10
1593.5312
 20
106.867
 10
1593.3987
 20
106.9116
 10
1593.262
 20
106.9512
 10
1593.1212
 20
106.9861
 10
1592.9765
 20
107.0161
 10
1592.8281
 20
107.0414
 10
1592.676
 20
107.0619
 10
1592.3646
 20
107.0927
 10
1592.0494
 20
107.1152
 10
1591.7307
 20
107.129
 10
1591.4086
 20
107.1337
 10
1591.1899
 20
107.1314
 10
1590.9732
 20
107.1244
 10
1590.7584
 20
107.1128
 10
1590.5454
 20
107.0965
 10
1590.3339
 20
107.0754
 10
1590.1238
 20
107.0495
 10
1589.9149
 20
107.0188
 10
1589.7071
 20
106.9833
 10
1589.5016
 20
106.9437
 10
1589.297
 20
106.8998
 10
1589.0933
 20
106.8517
 10
1588.8903
 20
106.7992
 10
1588.688
 20
106.7424
 10
1588.4862
 20
106.6814
 10
1588.285
 20
106.616
 10
1588.0842
 20
106.5464
 10
1588.0461
 20
106.2414
 10
1588.033
 20
105.8735
 10
1588.039
 20
105.6031
 10
1588.057
 20
105.3462
 10
1588.0869
 20
105.1027
 10
1588.1288
 20
104.8726
 10
1588.1824
 20
104.6559
 10
1588.2477
 20
104.4525
 10
1588.3248
 20
104.2624
 10
1588.4135
 20
104.0855
 10
1588.5124
 20
103.9211
 10
1588.6165
 20
103.7668
 10
1588.7261
 20
103.6227
 10
1588.8411
 20
103.4889
 10
1588.9618
 20
103.3653
 10
1589.0882
 20
103.252
 10
1589.2205
 20
103.149
 10
1589.3588
 20
103.0564
 10
1589.4935
 20
102.9747
 10
1589.6292
 20
102.8995
 10
1589.7658
 20
102.8308
 10
1589.9034
 20
102.7684
 10
1590.042
 20
102.7124
 10
1590.1815
 20
102.6628
 10
1590.322
 20
102.6195
 10
1590.4633
 20
102.5825
 10
1590.7542
 20
102.523
 10
1591.0563
 20
102.4807
 10
1591.3695
 20
102.4555
 10
1591.6939
 20
102.4471
 10
1592.0596
 20
102.4567
 10
1592.4077
 20
102.4857
 10
1592.7381
 20
102.5339
 10
1593.0508
 20
102.6013
 10
1593.3458
 20
102.688
 10
1593.6231
 20
102.7938
 10
1593.8825
 20
102.9189
 10
1594.1242
 20
103.0632
 10
1594.3424
 20
103.2265
 10
1594.5317
 20
103.4088
 10
1594.6918
 20
103.61
 10
1594.823
 20
103.8302
 10
1594.925
 20
104.0694
 10
1594.9979
 20
104.3276
 10
1595.0417
 20
104.6049
 10
1595.0563
 20
104.9012
  0
LWPOLYLINE
  5
A4
330
1F
100
AcDbEntity
  8
Layer 1
 62
     7
100
AcDbPolyline
 90
       12
 70
     1
 43
0.0
 10
1611.7603
 20
105.159
 10
1609.5571
 20
105.159
 10
1609.5571
 20
101.4741
 10
1607.1482
 20
101.4741
 10
1607.1482
 20
105.159
 10
1598.9217
 20
105.159
 10
1598.9217
 20
106.6688
 10
1607.2505
 20
112.1882
 10
1609.5571
 20
112.1882
 10
1609.5571
 20
106.3084
 10
1611.7603
 20
106.3084
 10
1611.7603
 20
105.159
  0
LWPOLYLINE
  5
A5
330
1F
100
AcDbEntity
  8
Layer 1
 62
     7
100
AcDbPolyline
 90
        4
 70
     1
 43
0.0
 10
1607.1482
 20
106.3084
 10
1607.1482
 20
110.487
 10
1600.8811
 20
106.3084
 10
1607.1482
 20
106.3084
  0
LWPOLYLINE
  5
A6
330
1F
100
AcDbEntity
  8
Layer 1
 62
     7
100
AcDbPolyline
 90
      166
 70
     1
 43
0.0
 10
1625.0554
 20
104.8862
 10
1625.0487
 20
104.6937
 10
1625.0284
 20
104.5047
 10
1624.9948
 20
104.3194
 10
1624.9476
 20
104.1377
 10
1624.8871
 20
103.9595
 10
1624.8131
 20
103.7849
 10
1624.7258
 20
103.6137
 10
1624.625
 20
103.4461
 10
1624.512
 20
103.2833
 10
1624.3879
 20
103.1263
 10
1624.2528
 20
102.9751
 10
1624.1069
 20
102.8296
 10
1623.9501
 20
102.6898
 10
1623.7826
 20
102.5558
 10
1623.6045
 20
102.4275
 10
1623.4158
 20
102.3049
 10
1623.213
 20
102.1854
 10
1622.9985
 20
102.0724
 10
1622.7723
 20
101.9659
 10
1622.5342
 20
101.8661
 10
1622.284
 20
101.7729
 10
1622.0217
 20
101.6862
 10
1621.747
 20
101.6062
 10
1621.4599
 20
101.5329
 10
1621.1623
 20
101.4675
 10
1620.8563
 20
101.4107
 10
1620.5417
 20
101.3627
 10
1620.2185
 20
101.3234
 10
1619.8865
 20
101.2927
 10
1619.5457
 20
101.2708
 10
1619.1959
 20
101.2577
 10
1618.837
 20
101.2533
 10
1618.503
 20
101.2559
 10
1618.1706
 20
101.2638
 10
1617.8398
 20
101.277
 10
1617.5106
 20
101.2955
 10
1617.1828
 20
101.3193
 10
1616.8565
 20
101.3484
 10
1616.5317
 20
101.3829
 10
1616.2082
 20
101.4228
 10
1615.8897
 20
101.4668
 10
1615.5817
 20
101.514
 10
1615.2843
 20
101.5646
 10
1614.9975
 20
101.6184
 10
1614.7216
 20
101.6756
 10
1614.4566
 20
101.7361
 10
1614.2027
 20
101.8
 10
1613.9599
 20
101.8673
 10
1613.9599
 20
103.3901
 10
1614.137
 20
103.3901
 10
1614.9598
 20
103.1077
 10
1616.1512
 20
102.8129
 10
1617.4995
 20
102.5743
 10
1617.8171
 20
102.5377
 10
1618.1518
 20
102.5119
 10
1618.5045
 20
102.4966
 10
1618.8763
 20
102.4916
 10
1619.2509
 20
102.5012
 10
1619.6192
 20
102.5302
 10
1619.982
 20
102.5784
 10
1620.3399
 20
102.6461
 10
1620.5166
 20
102.6878
 10
1620.6865
 20
102.7355
 10
1620.8496
 20
102.7891
 10
1621.0061
 20
102.8488
 10
1621.1559
 20
102.9144
 10
1621.2993
 20
102.986
 10
1621.4363
 20
103.0637
 10
1621.5669
 20
103.1473
 10
1621.6802
 20
103.2281
 10
1621.7864
 20
103.3123
 10
1621.8855
 20
103.3997
 10
1621.9776
 20
103.4905
 10
1622.0628
 20
103.5847
 10
1622.141
 20
103.6824
 10
1622.2123
 20
103.7837
 10
1622.2768
 20
103.8885
 10
1622.3332
 20
103.997
 10
1622.3822
 20
104.1103
 10
1622.4237
 20
104.2283
 10
1622.4576
 20
104.351
 10
1622.4841
 20
104.4784
 10
1622.503
 20
104.6106
 10
1622.5143
 20
104.7474
 10
1622.5181
 20
104.8889
 10
1622.514
 20
105.0283
 10
1622.5015
 20
105.1612
 10
1622.4808
 20
105.2878
 10
1622.4517
 20
105.4079
 10
1622.4141
 20
105.5216
 10
1622.3681
 20
105.6289
 10
1622.3136
 20
105.7298
 10
1622.2506
 20
105.8243
 10
1622.1795
 20
105.9143
 10
1622.101
 20
106.0001
 10
1622.0148
 20
106.0819
 10
1621.921
 20
106.1596
 10
1621.8195
 20
106.2333
 10
1621.7102
 20
106.3031
 10
1621.5932
 20
106.3689
 10
1621.4683
 20
106.4308
 10
1621.3299
 20
106.4965
 10
1621.1838
 20
106.5571
 10
1621.0303
 20
106.6128
 10
1620.8692
 20
106.6634
 10
1620.7006
 20
106.7091
 10
1620.5244
 20
106.7498
 10
1620.3408
 20
106.7856
 10
1620.1497
 20
106.8165
 10
1619.9509
 20
106.8424
 10
1619.7469
 20
106.8649
 10
1619.5375
 20
106.884
 10
1619.3226
 20
106.8995
 10
1619.1021
 20
106.9116
 10
1618.8758
 20
106.9203
 10
1618.6437
 20
106.9255
 10
1618.4055
 20
106.9272
 10
1618.1528
 20
106.9258
 10
1617.8995
 20
106.9215
 10
1617.6456
 20
106.9145
 10
1617.3911
 20
106.9046
 10
1617.1362
 20
106.8918
 10
1616.8807
 20
106.8762
 10
1616.6249
 20
106.8577
 10
1616.3687
 20
106.8363
 10
1614.7291
 20
106.6619
 10
1614.7291
 20
112.1882
 10
1624.9543
 20
112.1882
 10
1624.9543
 20
110.9355
 10
1617.138
 20
110.9355
 10
1617.138
 20
108.0794
 10
1618.025
 20
108.1211
 10
1618.8252
 20
108.1361
 10
1619.1753
 20
108.1339
 10
1619.5115
 20
108.1274
 10
1619.8339
 20
108.1166
 10
1620.1425
 20
108.1015
 10
1620.4376
 20
108.0821
 10
1620.7192
 20
108.0585
 10
1620.9874
 20
108.0307
 10
1621.2423
 20
107.9987
 10
1621.4877
 20
107.9606
 10
1621.7308
 20
107.9144
 10
1621.9716
 20
107.8601
 10
1622.2102
 20
107.7977
 10
1622.4465
 20
107.7272
 10
1622.6806
 20
107.6487
 10
1622.9125
 20
107.5621
 10
1623.1423
 20
107.4674
 10
1623.3666
 20
107.3631
 10
1623.5776
 20
107.2527
 10
1623.7752
 20
107.1363
 10
1623.9593
 20
107.0137
 10
1624.1299
 20
106.8848
 10
1624.2868
 20
106.7498
 10
1624.4301
 20
106.6085
 10
1624.5596
 20
106.4609
 10
1624.6758
 20
106.3039
 10
1624.7765
 20
106.1355
 10
1624.8617
 20
105.9557
 10
1624.9314
 20
105.7646
 10
1624.9857
 20
105.562
 10
1625.0244
 20
105.3481
 10
1625.0477
 20
105.1228
 10
1625.0554
 20
104.8862
  0
LWPOLYLINE
  5
A7
330
1F
100
AcDbEntity
  8
Layer 1
 62
     7
100
AcDbPolyline
 90
      178
 70
     1
 43
0.0
 10
1651.9738
 20
101.4741
 10
1651.9738
 20
106.1217
 10
1651.9689
 20
106.393
 10
1651.9544
 20
106.6541
 10
1651.9302
 20
106.9051
 10
1651.8965
 20
107.146
 10
1651.876
 20
107.2605
 10
1651.85
 20
107.3686
 10
1651.8188
 20
107.4704
 10
1651.7823
 20
107.5659
 10
1651.7406
 20
107.6551
 10
1651.6937
 20
107.738
 10
1651.6419
 20
107.8147
 10
1651.585
 20
107.8852
 10
1651.5188
 20
107.9546
 10
1651.446
 20
108.0192
 10
1651.3665
 20
108.0791
 10
1651.2804
 20
108.1342
 10
1651.1877
 20
108.1846
 10
1651.0885
 20
108.2303
 10
1650.9827
 20
108.2714
 10
1650.8705
 20
108.3078
 10
1650.7506
 20
108.3398
 10
1650.62
 20
108.3676
 10
1650.479
 20
108.3912
 10
1650.3276
 20
108.4106
 10
1649.9938
 20
108.4365
 10
1649.6196
 20
108.4452
 10
1649.4361
 20
108.4412
 10
1649.2495
 20
108.4291
 10
1649.0597
 20
108.4089
 10
1648.8667
 20
108.3807
 10
1648.6705
 20
108.3444
 10
1648.471
 20
108.3001
 10
1648.2682
 20
108.2478
 10
1648.0621
 20
108.1874
 10
1647.8525
 20
108.1202
 10
1647.641
 20
108.0456
 10
1647.4278
 20
107.9638
 10
1647.2129
 20
107.8747
 10
1646.9962
 20
107.7783
 10
1646.778
 20
107.6746
 10
1646.5582
 20
107.5637
 10
1646.3369
 20
107.4455
 10
1646.369
 20
107.1556
 10
1646.3868
 20
106.7549
 10
1646.3868
 20
101.4741
 10
1644.0303
 20
101.4741
 10
1644.0303
 20
106.1217
 10
1644.0252
 20
106.393
 10
1644.0102
 20
106.6541
 10
1643.9856
 20
106.9051
 10
1643.9518
 20
107.146
 10
1643.932
 20
107.2605
 10
1643.9065
 20
107.3686
 10
1643.8754
 20
107.4704
 10
1643.839
 20
107.5659
 10
1643.7972
 20
107.6551
 10
1643.7503
 20
107.738
 10
1643.6984
 20
107.8147
 10
1643.6415
 20
107.8852
 10
1643.5756
 20
107.9546
 10
1643.5029
 20
108.0192
 10
1643.4235
 20
108.0791
 10
1643.3374
 20
108.1342
 10
1643.2447
 20
108.1846
 10
1643.1455
 20
108.2303
 10
1643.04
 20
108.2714
 10
1642.9281
 20
108.3078
 10
1642.8078
 20
108.3398
 10
1642.6769
 20
108.3676
 10
1642.5356
 20
108.3912
 10
1642.384
 20
108.4106
 10
1642.0498
 20
108.4365
 10
1641.6749
 20
108.4452
 10
1641.4821
 20
108.4409
 10
1641.2871
 20
108.4281
 10
1641.0899
 20
108.4067
 10
1640.8905
 20
108.3768
 10
1640.6886
 20
108.3381
 10
1640.4844
 20
108.2909
 10
1640.2778
 20
108.2349
 10
1640.0686
 20
108.1703
 10
1639.8599
 20
108.0988
 10
1639.6528
 20
108.0226
 10
1639.4473
 20
107.9418
 10
1639.2435
 20
107.8563
 10
1639.0411
 20
107.7662
 10
1638.8404
 20
107.6713
 10
1638.6411
 20
107.5717
 10
1638.4433
 20
107.4674
 10
1638.4433
 20
101.4741
 10
1636.0855
 20
101.4741
 10
1636.0855
 20
109.5057
 10
1638.4433
 20
109.5057
 10
1638.4433
 20
108.6121
 10
1638.6748
 20
108.7412
 10
1638.9057
 20
108.8628
 10
1639.1359
 20
108.977
 10
1639.3655
 20
109.0837
 10
1639.5945
 20
109.1829
 10
1639.8229
 20
109.2745
 10
1640.0507
 20
109.3587
 10
1640.2779
 20
109.4353
 10
1640.5088
 20
109.5034
 10
1640.745
 20
109.5626
 10
1640.9866
 20
109.6127
 10
1641.2337
 20
109.6539
 10
1641.4862
 20
109.6859
 10
1641.7444
 20
109.7089
 10
1642.0082
 20
109.7227
 10
1642.2777
 20
109.7273
 10
1642.5829
 20
109.7222
 10
1642.8794
 20
109.707
 10
1643.1673
 20
109.6817
 10
1643.4467
 20
109.6463
 10
1643.7173
 20
109.6007
 10
1643.9793
 20
109.545
 10
1644.2327
 20
109.4792
 10
1644.4773
 20
109.4032
 10
1644.7095
 20
109.3155
 10
1644.9274
 20
109.2149
 10
1645.131
 20
109.1015
 10
1645.3202
 20
108.9751
 10
1645.495
 20
108.8358
 10
1645.6556
 20
108.6835
 10
1645.8018
 20
108.5182
 10
1645.9338
 20
108.3399
 10
1646.2003
 20
108.5051
 10
1646.4647
 20
108.6601
 10
1646.7273
 20
108.8049
 10
1646.988
 20
108.9394
 10
1647.247
 20
109.0636
 10
1647.5043
 20
109.1774
 10
1647.7601
 20
109.2808
 10
1648.0145
 20
109.3738
 10
1648.2714
 20
109.4567
 10
1648.5337
 20
109.5286
 10
1648.8015
 20
109.5893
 10
1649.0748
 20
109.639
 10
1649.3535
 20
109.6777
 10
1649.6377
 20
109.7052
 10
1649.9274
 20
109.7218
 10
1650.2225
 20
109.7273
 10
1650.4459
 20
109.7248
 10
1650.6641
 20
109.7172
 10
1650.877
 20
109.7045
 10
1651.0846
 20
109.6868
 10
1651.287
 20
109.664
 10
1651.484
 20
109.6361
 10
1651.6757
 20
109.6032
 10
1651.8621
 20
109.5652
 10
1652.0437
 20
109.5217
 10
1652.2195
 20
109.4722
 10
1652.3893
 20
109.4165
 10
1652.5533
 20
109.3547
 10
1652.7114
 20
109.2867
 10
1652.8637
 20
109.2123
 10
1653.0102
 20
109.1315
 10
1653.1509
 20
109.0442
 10
1653.2882
 20
108.9495
 10
1653.4173
 20
108.8493
 10
1653.5384
 20
108.7437
 10
1653.6515
 20
108.6326
 10
1653.7565
 20
108.5158
 10
1653.8535
 20
108.3932
 10
1653.9425
 20
108.2649
 10
1654.0236
 20
108.1307
 10
1654.0955
 20
107.9899
 10
1654.158
 20
107.8405
 10
1654.2109
 20
107.6822
 10
1654.2543
 20
107.5152
 10
1654.2881
 20
107.3393
 10
1654.3122
 20
107.1544
 10
1654.3268
 20
106.9606
 10
1654.3316
 20
106.7577
 10
1654.3316
 20
101.4741
 10
1651.9738
 20
101.4741
  0
LWPOLYLINE
  5
A8
330
1F
100
AcDbEntity
  8
Layer 1
 62
     7
100
AcDbPolyline
 90
      178
 70
     1
 43
0.0
 10
1673.4955
 20
101.4741
 10
1673.4955
 20
106.1217
 10
1673.4906
 20
106.393
 10
1673.476
 20
106.6541
 10
1673.4518
 20
106.9051
 10
1673.4182
 20
107.146
 10
1673.3976
 20
107.2605
 10
1673.3717
 20
107.3686
 10
1673.3404
 20
107.4704
 10
1673.3039
 20
107.5659
 10
1673.2622
 20
107.6551
 10
1673.2154
 20
107.738
 10
1673.1635
 20
107.8147
 10
1673.1067
 20
107.8852
 10
1673.0405
 20
107.9546
 10
1672.9676
 20
108.0192
 10
1672.8881
 20
108.0791
 10
1672.802
 20
108.1342
 10
1672.7093
 20
108.1846
 10
1672.6101
 20
108.2303
 10
1672.5044
 20
108.2714
 10
1672.3921
 20
108.3078
 10
1672.2722
 20
108.3398
 10
1672.1418
 20
108.3676
 10
1672.0009
 20
108.3912
 10
1671.8496
 20
108.4106
 10
1671.516
 20
108.4365
 10
1671.1413
 20
108.4452
 10
1670.9578
 20
108.4412
 10
1670.7712
 20
108.4291
 10
1670.5813
 20
108.4089
 10
1670.3882
 20
108.3807
 10
1670.1919
 20
108.3444
 10
1669.9922
 20
108.3001
 10
1669.7891
 20
108.2478
 10
1669.5826
 20
108.1874
 10
1669.373
 20
108.1202
 10
1669.1617
 20
108.0456
 10
1668.9486
 20
107.9638
 10
1668.7338
 20
107.8747
 10
1668.5173
 20
107.7783
 10
1668.299
 20
107.6746
 10
1668.079
 20
107.5637
 10
1667.8574
 20
107.4455
 10
1667.8906
 20
107.1556
 10
1667.9085
 20
106.7549
 10
1667.9085
 20
101.4741
 10
1665.5507
 20
101.4741
 10
1665.5507
 20
106.1217
 10
1665.5456
 20
106.393
 10
1665.5307
 20
106.6541
 10
1665.5061
 20
106.9051
 10
1665.4723
 20
107.146
 10
1665.4529
 20
107.2605
 10
1665.4277
 20
107.3686
 10
1665.3968
 20
107.4704
 10
1665.3605
 20
107.5659
 10
1665.3189
 20
107.6551
 10
1665.272
 20
107.738
 10
1665.22
 20
107.8147
 10
1665.1631
 20
107.8852
 10
1665.0969
 20
107.9546
 10
1665.0239
 20
108.0192
 10
1664.9443
 20
108.0791
 10
1664.8582
 20
108.1342
 10
1664.7656
 20
108.1846
 10
1664.6666
 20
108.2303
 10
1664.5613
 20
108.2714
 10
1664.4498
 20
108.3078
 10
1664.329
 20
108.3398
 10
1664.1978
 20
108.3676
 10
1664.0562
 20
108.3912
 10
1663.9045
 20
108.4106
 10
1663.5708
 20
108.4365
 10
1663.1978
 20
108.4452
 10
1663.0042
 20
108.4409
 10
1662.8087
 20
108.4281
 10
1662.6111
 20
108.4067
 10
1662.4114
 20
108.3768
 10
1662.2096
 20
108.3381
 10
1662.0055
 20
108.2909
 10
1661.7991
 20
108.2349
 10
1661.5903
 20
108.1703
 10
1661.3815
 20
108.0988
 10
1661.1743
 20
108.0226
 10
1660.9687
 20
107.9418
 10
1660.7647
 20
107.8563
 10
1660.5623
 20
107.7662
 10
1660.3615
 20
107.6713
 10
1660.1624
 20
107.5717
 10
1659.9649
 20
107.4674
 10
1659.9649
 20
101.4741
 10
1657.606
 20
101.4741
 10
1657.606
 20
109.5057
 10
1659.9649
 20
109.5057
 10
1659.9649
 20
108.6121
 10
1660.1964
 20
108.7412
 10
1660.4273
 20
108.8628
 10
1660.6575
 20
108.977
 10
1660.8871
 20
109.0837
 10
1661.1161
 20
109.1829
 10
1661.3445
 20
109.2745
 10
1661.5723
 20
109.3587
 10
1661.7995
 20
109.4353
 10
1662.0304
 20
109.5034
 10
1662.2666
 20
109.5626
 10
1662.5082
 20
109.6127
 10
1662.7552
 20
109.6539
 10
1663.0076
 20
109.6859
 10
1663.2655
 20
109.7089
 10
1663.529
 20
109.7227
 10
1663.7982
 20
109.7273
 10
1664.1034
 20
109.7222
 10
1664.4
 20
109.707
 10
1664.6881
 20
109.6817
 10
1664.9675
 20
109.6463
 10
1665.2383
 20
109.6007
 10
1665.5003
 20
109.545
 10
1665.7535
 20
109.4792
 10
1665.9978
 20
109.4032
 10
1666.2302
 20
109.3155
 10
1666.4483
 20
109.2149
 10
1666.6522
 20
109.1015
 10
1666.8417
 20
108.9751
 10
1667.0169
 20
108.8358
 10
1667.1776
 20
108.6835
 10
1667.3238
 20
108.5182
 10
1667.4555
 20
108.3399
 10
1667.722
 20
108.5051
 10
1667.9864
 20
108.6601
 10
1668.249
 20
108.8049
 10
1668.5097
 20
108.9394
 10
1668.7687
 20
109.0636
 10
1669.026
 20
109.1774
 10
1669.2818
 20
109.2808
 10
1669.5362
 20
109.3738
 10
1669.7931
 20
109.4567
 10
1670.0554
 20
109.5286
 10
1670.3232
 20
109.5893
 10
1670.5965
 20
109.639
 10
1670.8752
 20
109.6777
 10
1671.1594
 20
109.7052
 10
1671.449
 20
109.7218
 10
1671.7441
 20
109.7273
 10
1671.9671
 20
109.7248
 10
1672.185
 20
109.7172
 10
1672.3977
 20
109.7045
 10
1672.6052
 20
109.6868
 10
1672.8075
 20
109.664
 10
1673.0045
 20
109.6361
 10
1673.1961
 20
109.6032
 10
1673.3825
 20
109.5652
 10
1673.5646
 20
109.5217
 10
1673.7406
 20
109.4722
 10
1673.9108
 20
109.4165
 10
1674.075
 20
109.3547
 10
1674.2334
 20
109.2867
 10
1674.3859
 20
109.2123
 10
1674.5327
 20
109.1315
 10
1674.6738
 20
109.0442
 10
1674.8107
 20
108.9495
 10
1674.9395
 20
108.8493
 10
1675.0604
 20
108.7437
 10
1675.1733
 20
108.6326
 10
1675.2782
 20
108.5158
 10
1675.3752
 20
108.3932
 10
1675.4642
 20
108.2649
 10
1675.5453
 20
108.1307
 10
1675.6171
 20
107.9899
 10
1675.6793
 20
107.8405
 10
1675.7318
 20
107.6822
 10
1675.7747
 20
107.5152
 10
1675.8081
 20
107.3393
 10
1675.8318
 20
107.1544
 10
1675.8461
 20
106.9606
 10
1675.8508
 20
106.7577
 10
1675.8508
 20
101.4741
 10
1673.4955
 20
101.4741
  0
LWPOLYLINE
  5
A9
330
1F
100
AcDbEntity
  8
Layer 1
  6
New Line1
 62
     7
370
    20
100
AcDbPolyline
 90
        2
 70
     0
 43
0.0
 10
1630.6757
 20
84.9965
 10
1630.6757
 20
-12.9612
  0
LWPOLYLINE
  5
AB
330
1F
100
AcDbEntity
  8
Layer 1
 62
     7
100
AcDbPolyline
 90
      125
 70
     1
 43
0.0
 10
1658.9912
 20
31.0103
 10
1648.2606
 20
31.0103
 10
1648.2606
 20
32.4217
 10
1650.4472
 20
33.6313
 10
1650.7042
 20
33.7769
 10
1650.9597
 20
33.9239
 10
1651.2137
 20
34.0723
 10
1651.4661
 20
34.2222
 10
1651.717
 20
34.3736
 10
1651.9664
 20
34.5265
 10
1652.2141
 20
34.6809
 10
1652.4601
 20
34.8368
 10
1652.9376
 20
35.1433
 10
1653.3756
 20
35.434
 10
1653.7743
 20
35.7091
 10
1654.1334
 20
35.9685
 10
1654.4531
 20
36.2123
 10
1654.7332
 20
36.4406
 10
1654.9737
 20
36.6533
 10
1655.1745
 20
36.8505
 10
1655.3444
 20
37.0398
 10
1655.4919
 20
37.2309
 10
1655.6169
 20
37.4237
 10
1655.7194
 20
37.6183
 10
1655.7993
 20
37.8146
 10
1655.8564
 20
38.0127
 10
1655.8907
 20
38.2126
 10
1655.9022
 20
38.4143
 10
1655.8986
 20
38.5168
 10
1655.8877
 20
38.6161
 10
1655.8697
 20
38.7123
 10
1655.8445
 20
38.8053
 10
1655.8122
 20
38.8952
 10
1655.7728
 20
38.9821
 10
1655.7263
 20
39.0659
 10
1655.6727
 20
39.1466
 10
1655.6133
 20
39.2239
 10
1655.5484
 20
39.2978
 10
1655.4781
 20
39.3682
 10
1655.4024
 20
39.4353
 10
1655.3214
 20
39.499
 10
1655.2352
 20
39.5593
 10
1655.1438
 20
39.6162
 10
1655.0473
 20
39.6697
 10
1654.8345
 20
39.7647
 10
1654.6049
 20
39.8468
 10
1654.3589
 20
39.916
 10
1654.0973
 20
39.9726
 10
1653.8221
 20
40.0163
 10
1653.5341
 20
40.0477
 10
1653.2323
 20
40.0667
 10
1652.9155
 20
40.0731
 10
1652.6059
 20
40.0675
 10
1652.2929
 20
40.0506
 10
1651.977
 20
40.0221
 10
1651.6587
 20
39.9815
 10
1650.4377
 20
39.7572
 10
1649.4865
 20
39.4816
 10
1648.7469
 20
39.2054
 10
1648.6197
 20
39.2054
 10
1648.6197
 20
40.627
 10
1648.8103
 20
40.6792
 10
1649.0182
 20
40.7308
 10
1649.2437
 20
40.7819
 10
1649.4868
 20
40.8326
 10
1649.7476
 20
40.883
 10
1650.0262
 20
40.9331
 10
1650.3228
 20
40.9831
 10
1650.6374
 20
41.0331
 10
1650.9584
 20
41.0793
 10
1651.275
 20
41.1194
 10
1651.5872
 20
41.1533
 10
1651.8951
 20
41.1811
 10
1652.1985
 20
41.2028
 10
1652.4977
 20
41.2183
 10
1652.7925
 20
41.2276
 10
1653.0831
 20
41.2307
 10
1653.6744
 20
41.2191
 10
1654.2328
 20
41.1842
 10
1654.7584
 20
41.1262
 10
1655.2512
 20
41.045
 10
1655.7112
 20
40.9407
 10
1656.1385
 20
40.8133
 10
1656.5331
 20
40.6629
 10
1656.895
 20
40.4895
 10
1657.2181
 20
40.2952
 10
1657.4981
 20
40.0846
 10
1657.7349
 20
39.8576
 10
1657.9287
 20
39.6142
 10
1658.0793
 20
39.3544
 10
1658.1869
 20
39.078
 10
1658.2515
 20
38.7852
 10
1658.273
 20
38.4758
 10
1658.2693
 20
38.3308
 10
1658.2581
 20
38.1885
 10
1658.2393
 20
38.0491
 10
1658.2131
 20
37.9125
 10
1658.1794
 20
37.7787
 10
1658.1381
 20
37.6478
 10
1658.0892
 20
37.5198
 10
1658.0328
 20
37.3948
 10
1657.9699
 20
37.2718
 10
1657.9016
 20
37.151
 10
1657.8279
 20
37.0324
 10
1657.7485
 20
36.9161
 10
1657.6636
 20
36.8021
 10
1657.5729
 20
36.6905
 10
1657.4765
 20
36.5813
 10
1657.3742
 20
36.4744
 10
1657.1481
 20
36.2555
 10
1656.8984
 20
36.0379
 10
1656.6262
 20
35.8214
 10
1656.3326
 20
35.606
 10
1655.0521
 20
34.7609
 10
1654.7728
 20
34.5887
 10
1654.486
 20
34.4149
 10
1654.1916
 20
34.2393
 10
1653.8896
 20
34.062
 10
1653.5798
 20
33.883
 10
1653.2624
 20
33.7023
 10
1652.9371
 20
33.5199
 10
1652.604
 20
33.3359
 10
1650.4472
 20
32.1666
 10
1658.9912
 20
32.1666
 10
1658.9912
 20
31.0103
  0
LWPOLYLINE
  5
AC
330
1F
100
AcDbEntity
  8
Layer 1
 62
     7
100
AcDbPolyline
 90
       27
 70
     1
 43
0.0
 10
1671.2031
 20
31.0103
 10
1662.6996
 20
31.0103
 10
1662.6996
 20
32.0292
 10
1665.8611
 20
32.0292
 10
1665.8611
 20
38.7514
 10
1662.6996
 20
38.7514
 10
1662.6996
 20
39.6601
 10
1663.1326
 20
39.6647
 10
1663.5364
 20
39.6786
 10
1663.9109
 20
39.7017
 10
1664.2561
 20
39.734
 10
1664.5719
 20
39.7753
 10
1664.8583
 20
39.8257
 10
1665.1152
 20
39.8851
 10
1665.3427
 20
39.9534
 10
1665.5422
 20
40.035
 10
1665.7189
 20
40.1332
 10
1665.8727
 20
40.2478
 10
1666.0035
 20
40.3789
 10
1666.1112
 20
40.5262
 10
1666.1957
 20
40.6897
 10
1666.257
 20
40.8695
 10
1666.295
 20
41.0653
 10
1668.1118
 20
41.0653
 10
1668.1118
 20
32.0292
 10
1671.2031
 20
32.0292
 10
1671.2031
 20
31.0103
  0
LWPOLYLINE
  5
AD
330
1F
100
AcDbEntity
  8
Layer 1
 62
     7
100
AcDbPolyline
 90
       65
 70
     1
 43
0.0
 10
1685.258
 20
36.0238
 10
1685.2367
 20
35.3721
 10
1685.1727
 20
34.7652
 10
1685.0661
 20
34.203
 10
1684.9169
 20
33.6857
 10
1684.7252
 20
33.2131
 10
1684.4911
 20
32.7853
 10
1684.2145
 20
32.4023
 10
1683.8955
 20
32.064
 10
1683.5317
 20
31.7686
 10
1683.1217
 20
31.5125
 10
1682.6653
 20
31.2958
 10
1682.1627
 20
31.1185
 10
1681.6138
 20
30.9806
 10
1681.0185
 20
30.882
 10
1680.3769
 20
30.8229
 10
1679.6889
 20
30.8032
 10
1678.993
 20
30.8233
 10
1678.3454
 20
30.8837
 10
1677.7459
 20
30.9842
 10
1677.1944
 20
31.1249
 10
1676.6909
 20
31.3057
 10
1676.2352
 20
31.5267
 10
1675.8272
 20
31.7877
 10
1675.4668
 20
32.0887
 10
1675.1509
 20
32.431
 10
1674.8773
 20
32.8155
 10
1674.6459
 20
33.2422
 10
1674.4568
 20
33.7112
 10
1674.3097
 20
34.2224
 10
1674.2048
 20
34.7759
 10
1674.1419
 20
35.3718
 10
1674.1209
 20
36.0101
 10
1674.1422
 20
36.6648
 10
1674.2062
 20
37.2742
 10
1674.3128
 20
37.8381
 10
1674.4619
 20
38.3565
 10
1674.6534
 20
38.8294
 10
1674.8874
 20
39.2567
 10
1675.1637
 20
39.6385
 10
1675.4823
 20
39.9746
 10
1675.8467
 20
40.2693
 10
1676.2571
 20
40.5246
 10
1676.7135
 20
40.7405
 10
1677.2159
 20
40.9171
 10
1677.7646
 20
41.0543
 10
1678.3596
 20
41.1523
 10
1679.001
 20
41.2111
 10
1679.6889
 20
41.2307
 10
1680.3845
 20
41.2104
 10
1681.0321
 20
41.1493
 10
1681.6318
 20
41.0477
 10
1682.1836
 20
40.9054
 10
1682.6876
 20
40.7226
 10
1683.1439
 20
40.4992
 10
1683.5524
 20
40.2353
 10
1683.9133
 20
39.9309
 10
1684.2285
 20
39.5858
 10
1684.5016
 20
39.1999
 10
1684.7327
 20
38.7731
 10
1684.9218
 20
38.3053
 10
1685.0689
 20
37.7965
 10
1685.174
 20
37.2467
 10
1685.237
 20
36.6558
 10
1685.258
 20
36.0238
  0
LWPOLYLINE
  5
AE
330
1F
100
AcDbEntity
  8
Layer 1
 62
     7
100
AcDbPolyline
 90
      129
 70
     1
 43
0.0
 10
1682.263
 20
32.9728
 10
1682.3457
 20
33.1017
 10
1682.4219
 20
33.2385
 10
1682.4915
 20
33.3834
 10
1682.5548
 20
33.5365
 10
1682.6117
 20
33.6977
 10
1682.6624
 20
33.8671
 10
1682.7071
 20
34.0448
 10
1682.7457
 20
34.2309
 10
1682.7784
 20
34.4247
 10
1682.8068
 20
34.6271
 10
1682.8309
 20
34.8381
 10
1682.8507
 20
35.0579
 10
1682.8661
 20
35.2863
 10
1682.8771
 20
35.5234
 10
1682.8838
 20
35.7692
 10
1682.886
 20
36.0238
 10
1682.8838
 20
36.2763
 10
1682.8771
 20
36.5206
 10
1682.8661
 20
36.7566
 10
1682.8507
 20
36.9842
 10
1682.8309
 20
37.2034
 10
1682.8068
 20
37.4141
 10
1682.7784
 20
37.6163
 10
1682.7457
 20
37.8098
 10
1682.7068
 20
37.996
 10
1682.6615
 20
38.1741
 10
1682.6097
 20
38.344
 10
1682.5516
 20
38.5059
 10
1682.4871
 20
38.6597
 10
1682.4163
 20
38.8054
 10
1682.3393
 20
38.9431
 10
1682.2559
 20
39.0727
 10
1682.1635
 20
39.1969
 10
1682.0629
 20
39.3133
 10
1681.9541
 20
39.4218
 10
1681.8373
 20
39.5226
 10
1681.7125
 20
39.6156
 10
1681.5797
 20
39.7009
 10
1681.439
 20
39.7786
 10
1681.2904
 20
39.8488
 10
1681.1303
 20
39.9109
 10
1680.9587
 20
39.9648
 10
1680.7756
 20
40.0105
 10
1680.581
 20
40.048
 10
1680.375
 20
40.0771
 10
1680.1577
 20
40.098
 10
1679.9289
 20
40.1106
 10
1679.6889
 20
40.1148
 10
1679.4516
 20
40.1106
 10
1679.2249
 20
40.098
 10
1679.0088
 20
40.0771
 10
1678.8035
 20
40.048
 10
1678.6091
 20
40.0105
 10
1678.4257
 20
39.9648
 10
1678.2533
 20
39.9109
 10
1678.0921
 20
39.8488
 10
1677.9393
 20
39.7784
 10
1677.7947
 20
39.7
 10
1677.6585
 20
39.6137
 10
1677.5307
 20
39.5193
 10
1677.4113
 20
39.4169
 10
1677.3004
 20
39.3064
 10
1677.1979
 20
39.1878
 10
1677.104
 20
39.0611
 10
1677.0188
 20
38.9288
 10
1676.9408
 20
38.7881
 10
1676.8697
 20
38.6393
 10
1676.8057
 20
38.4821
 10
1676.7487
 20
38.3167
 10
1676.6986
 20
38.143
 10
1676.6553
 20
37.961
 10
1676.6189
 20
37.7708
 10
1676.5896
 20
37.5724
 10
1676.5641
 20
37.3679
 10
1676.5425
 20
37.1573
 10
1676.5247
 20
36.9405
 10
1676.5108
 20
36.7174
 10
1676.5009
 20
36.488
 10
1676.4949
 20
36.2523
 10
1676.4929
 20
36.0101
 10
1676.4946
 20
35.7536
 10
1676.4996
 20
35.5077
 10
1676.5081
 20
35.2724
 10
1676.5201
 20
35.0478
 10
1676.5356
 20
34.8338
 10
1676.5546
 20
34.6306
 10
1676.5772
 20
34.438
 10
1676.6035
 20
34.2562
 10
1676.6346
 20
34.0827
 10
1676.6745
 20
33.9136
 10
1676.7229
 20
33.7489
 10
1676.7799
 20
33.5887
 10
1676.8453
 20
33.433
 10
1676.919
 20
33.282
 10
1677.0009
 20
33.1356
 10
1677.0909
 20
32.994
 10
1677.1798
 20
32.8685
 10
1677.2777
 20
32.7503
 10
1677.3848
 20
32.6395
 10
1677.501
 20
32.5361
 10
1677.6263
 20
32.4402
 10
1677.7606
 20
32.3516
 10
1677.904
 20
32.2704
 10
1678.0564
 20
32.1967
 10
1678.2186
 20
32.1314
 10
1678.3929
 20
32.0749
 10
1678.5793
 20
32.0271
 10
1678.7777
 20
31.9882
 10
1678.9879
 20
31.9579
 10
1679.2099
 20
31.9363
 10
1679.4436
 20
31.9234
 10
1679.6889
 20
31.9191
 10
1679.9262
 20
31.9233
 10
1680.1528
 20
31.9359
 10
1680.3689
 20
31.9568
 10
1680.5744
 20
31.986
 10
1680.7693
 20
32.0236
 10
1680.9536
 20
32.0694
 10
1681.1273
 20
32.1235
 10
1681.2904
 20
32.1858
 10
1681.4415
 20
32.256
 10
1681.5845
 20
32.3342
 10
1681.7192
 20
32.4204
 10
1681.8454
 20
32.5147
 10
1681.963
 20
32.6171
 10
1682.0719
 20
32.7275
 10
1682.1719
 20
32.8461
 10
1682.263
 20
32.9728
  0
LWPOLYLINE
  5
AF
330
1F
100
AcDbEntity
  8
Layer 1
 62
     7
100
AcDbPolyline
 90
      178
 70
     1
 43
0.0
 10
1710.1267
 20
31.0103
 10
1710.1267
 20
35.3537
 10
1710.1224
 20
35.6073
 10
1710.1092
 20
35.8513
 10
1710.0865
 20
36.0858
 10
1710.0541
 20
36.311
 10
1710.035
 20
36.418
 10
1710.0108
 20
36.5191
 10
1709.9815
 20
36.6142
 10
1709.9474
 20
36.7035
 10
1709.9085
 20
36.7868
 10
1709.8649
 20
36.8643
 10
1709.8167
 20
36.9359
 10
1709.764
 20
37.0016
 10
1709.7024
 20
37.0665
 10
1709.6346
 20
37.1269
 10
1709.5604
 20
37.1828
 10
1709.48
 20
37.2343
 10
1709.3934
 20
37.2814
 10
1709.3007
 20
37.3242
 10
1709.2019
 20
37.3626
 10
1709.097
 20
37.3968
 10
1708.9842
 20
37.4268
 10
1708.8617
 20
37.4529
 10
1708.7296
 20
37.4748
 10
1708.5878
 20
37.4928
 10
1708.2761
 20
37.5167
 10
1707.9271
 20
37.5247
 10
1707.755
 20
37.521
 10
1707.5803
 20
37.5097
 10
1707.4028
 20
37.491
 10
1707.2224
 20
37.4647
 10
1707.0391
 20
37.431
 10
1706.8528
 20
37.3897
 10
1706.6633
 20
37.341
 10
1706.4706
 20
37.2847
 10
1706.2746
 20
37.2216
 10
1706.077
 20
37.1517
 10
1705.8779
 20
37.0751
 10
1705.6772
 20
36.9917
 10
1705.4749
 20
36.9016
 10
1705.2707
 20
36.8047
 10
1705.0648
 20
36.7011
 10
1704.8571
 20
36.5906
 10
1704.8892
 20
36.3199
 10
1704.9047
 20
35.9458
 10
1704.9047
 20
31.0103
 10
1702.7027
 20
31.0103
 10
1702.7027
 20
35.3537
 10
1702.6981
 20
35.6073
 10
1702.6843
 20
35.8513
 10
1702.6616
 20
36.0858
 10
1702.6302
 20
36.311
 10
1702.6115
 20
36.418
 10
1702.5875
 20
36.5191
 10
1702.5583
 20
36.6142
 10
1702.5241
 20
36.7035
 10
1702.4848
 20
36.7868
 10
1702.4406
 20
36.8643
 10
1702.3915
 20
36.9359
 10
1702.3377
 20
37.0016
 10
1702.2761
 20
37.0665
 10
1702.2082
 20
37.1269
 10
1702.1341
 20
37.1828
 10
1702.0538
 20
37.2343
 10
1701.9674
 20
37.2814
 10
1701.8748
 20
37.3242
 10
1701.7763
 20
37.3626
 10
1701.6718
 20
37.3968
 10
1701.5591
 20
37.4268
 10
1701.4367
 20
37.4529
 10
1701.3047
 20
37.4748
 10
1701.1632
 20
37.4928
 10
1700.8519
 20
37.5167
 10
1700.5031
 20
37.5247
 10
1700.3221
 20
37.5207
 10
1700.1394
 20
37.5089
 10
1699.9548
 20
37.489
 10
1699.7683
 20
37.4611
 10
1699.5798
 20
37.4251
 10
1699.3892
 20
37.3811
 10
1699.1964
 20
37.3288
 10
1699.0014
 20
37.2683
 10
1698.8061
 20
37.2015
 10
1698.6123
 20
37.1304
 10
1698.4201
 20
37.055
 10
1698.2293
 20
36.9752
 10
1698.0399
 20
36.891
 10
1697.8519
 20
36.8024
 10
1697.6651
 20
36.7093
 10
1697.4795
 20
36.6118
 10
1697.4795
 20
31.0103
 10
1695.2775
 20
31.0103
 10
1695.2775
 20
38.5168
 10
1697.4795
 20
38.5168
 10
1697.4795
 20
37.6819
 10
1697.6966
 20
37.8021
 10
1697.9128
 20
37.9156
 10
1698.1282
 20
38.0222
 10
1698.3429
 20
38.1219
 10
1698.5569
 20
38.2146
 10
1698.7705
 20
38.3003
 10
1698.9836
 20
38.379
 10
1699.1964
 20
38.4505
 10
1699.4117
 20
38.5143
 10
1699.6324
 20
38.5697
 10
1699.8583
 20
38.6167
 10
1700.0895
 20
38.6552
 10
1700.3258
 20
38.6852
 10
1700.5673
 20
38.7067
 10
1700.8139
 20
38.7197
 10
1701.0655
 20
38.724
 10
1701.3502
 20
38.7192
 10
1701.6271
 20
38.7049
 10
1701.8964
 20
38.6811
 10
1702.1577
 20
38.6478
 10
1702.4111
 20
38.6051
 10
1702.6564
 20
38.5529
 10
1702.8935
 20
38.4914
 10
1703.1224
 20
38.4204
 10
1703.3388
 20
38.3387
 10
1703.5419
 20
38.2449
 10
1703.7318
 20
38.1389
 10
1703.9085
 20
38.0209
 10
1704.0718
 20
37.8906
 10
1704.2218
 20
37.7482
 10
1704.3583
 20
37.5936
 10
1704.4814
 20
37.4269
 10
1704.7309
 20
37.5814
 10
1704.9784
 20
37.7263
 10
1705.224
 20
37.8617
 10
1705.4678
 20
37.9874
 10
1705.7098
 20
38.1035
 10
1705.9503
 20
38.2098
 10
1706.1891
 20
38.3064
 10
1706.4266
 20
38.3931
 10
1706.6671
 20
38.4707
 10
1706.9125
 20
38.538
 10
1707.1627
 20
38.5948
 10
1707.418
 20
38.6414
 10
1707.6784
 20
38.6775
 10
1707.9439
 20
38.7033
 10
1708.2146
 20
38.7188
 10
1708.4906
 20
38.724
 10
1708.6991
 20
38.7216
 10
1708.9028
 20
38.7145
 10
1709.1017
 20
38.7027
 10
1709.2959
 20
38.6861
 10
1709.4852
 20
38.6647
 10
1709.6697
 20
38.6386
 10
1709.8495
 20
38.6078
 10
1710.0244
 20
38.5722
 10
1710.1935
 20
38.5315
 10
1710.3574
 20
38.4851
 10
1710.516
 20
38.433
 10
1710.6693
 20
38.3752
 10
1710.8171
 20
38.3116
 10
1710.9595
 20
38.2421
 10
1711.0964
 20
38.1667
 10
1711.2276
 20
38.0854
 10
1711.3555
 20
37.9968
 10
1711.476
 20
37.9032
 10
1711.5891
 20
37.8045
 10
1711.6948
 20
37.7007
 10
1711.7931
 20
37.5915
 10
1711.8839
 20
37.477
 10
1711.9673
 20
37.3569
 10
1712.0433
 20
37.2313
 10
1712.1103
 20
37.0998
 10
1712.1685
 20
36.9601
 10
1712.2179
 20
36.8122
 10
1712.2585
 20
36.656
 10
1712.2901
 20
36.4915
 10
1712.3128
 20
36.3187
 10
1712.3264
 20
36.1375
 10
1712.331
 20
35.9479
 10
1712.331
 20
31.0103
 10
1710.1267
 20
31.0103
  0
LWPOLYLINE
  5
B0
330
1F
100
AcDbEntity
  8
Layer 1
 62
     7
100
AcDbPolyline
 90
      178
 70
     1
 43
0.0
 10
1730.2418
 20
31.0103
 10
1730.2418
 20
35.3537
 10
1730.2372
 20
35.6073
 10
1730.2235
 20
35.8513
 10
1730.2011
 20
36.0858
 10
1730.1704
 20
36.311
 10
1730.1513
 20
36.418
 10
1730.127
 20
36.5191
 10
1730.0977
 20
36.6142
 10
1730.0634
 20
36.7035
 10
1730.0242
 20
36.7868
 10
1729.9801
 20
36.8643
 10
1729.9314
 20
36.9359
 10
1729.8779
 20
37.0016
 10
1729.8163
 20
37.0665
 10
1729.7485
 20
37.1269
 10
1729.6744
 20
37.1828
 10
1729.5942
 20
37.2343
 10
1729.5079
 20
37.2814
 10
1729.4156
 20
37.3242
 10
1729.3174
 20
37.3626
 10
1729.2133
 20
37.3968
 10
1729.1005
 20
37.4268
 10
1728.978
 20
37.4529
 10
1728.8458
 20
37.4748
 10
1728.704
 20
37.4928
 10
1728.3919
 20
37.5167
 10
1728.0422
 20
37.5247
 10
1727.8697
 20
37.521
 10
1727.6947
 20
37.5097
 10
1727.517
 20
37.491
 10
1727.3365
 20
37.4647
 10
1727.1531
 20
37.431
 10
1726.9668
 20
37.3897
 10
1726.7772
 20
37.341
 10
1726.5845
 20
37.2847
 10
1726.3892
 20
37.2216
 10
1726.192
 20
37.1517
 10
1725.993
 20
37.0751
 10
1725.7923
 20
36.9917
 10
1725.59
 20
36.9016
 10
1725.386
 20
36.8047
 10
1725.1805
 20
36.7011
 10
1724.9734
 20
36.5906
 10
1725.0031
 20
36.3199
 10
1725.0198
 20
35.9458
 10
1725.0198
 20
31.0103
 10
1722.8166
 20
31.0103
 10
1722.8166
 20
35.3537
 10
1722.8123
 20
35.6073
 10
1722.7992
 20
35.8513
 10
1722.777
 20
36.0858
 10
1722.7453
 20
36.311
 10
1722.7262
 20
36.418
 10
1722.7019
 20
36.5191
 10
1722.6726
 20
36.6142
 10
1722.6383
 20
36.7035
 10
1722.5991
 20
36.7868
 10
1722.555
 20
36.8643
 10
1722.5062
 20
36.9359
 10
1722.4528
 20
37.0016
 10
1722.3916
 20
37.0665
 10
1722.324
 20
37.1269
 10
1722.2501
 20
37.1828
 10
1722.17
 20
37.2343
 10
1722.0836
 20
37.2814
 10
1721.9911
 20
37.3242
 10
1721.8926
 20
37.3626
 10
1721.7881
 20
37.3968
 10
1721.6753
 20
37.4268
 10
1721.5526
 20
37.4529
 10
1721.4203
 20
37.4748
 10
1721.2784
 20
37.4928
 10
1720.9662
 20
37.5167
 10
1720.617
 20
37.5247
 10
1720.4367
 20
37.5207
 10
1720.2543
 20
37.5089
 10
1720.0697
 20
37.489
 10
1719.8831
 20
37.4611
 10
1719.6943
 20
37.4251
 10
1719.5034
 20
37.3811
 10
1719.3104
 20
37.3288
 10
1719.1153
 20
37.2683
 10
1718.9206
 20
37.2015
 10
1718.7271
 20
37.1304
 10
1718.5348
 20
37.055
 10
1718.344
 20
36.9752
 10
1718.1545
 20
36.891
 10
1717.9667
 20
36.8024
 10
1717.7804
 20
36.7093
 10
1717.5958
 20
36.6118
 10
1717.5958
 20
31.0103
 10
1715.3914
 20
31.0103
 10
1715.3914
 20
38.5168
 10
1717.5958
 20
38.5168
 10
1717.5958
 20
37.6819
 10
1717.8122
 20
37.8021
 10
1718.0281
 20
37.9156
 10
1718.2434
 20
38.0222
 10
1718.4582
 20
38.1219
 10
1718.6726
 20
38.2146
 10
1718.8864
 20
38.3003
 10
1719.0998
 20
38.379
 10
1719.3127
 20
38.4505
 10
1719.5276
 20
38.5143
 10
1719.7478
 20
38.5697
 10
1719.9733
 20
38.6167
 10
1720.2041
 20
38.6552
 10
1720.4402
 20
38.6852
 10
1720.6814
 20
38.7067
 10
1720.9278
 20
38.7197
 10
1721.1794
 20
38.724
 10
1721.4647
 20
38.7192
 10
1721.742
 20
38.7049
 10
1722.0112
 20
38.6811
 10
1722.2724
 20
38.6478
 10
1722.5253
 20
38.6051
 10
1722.7701
 20
38.5529
 10
1723.0067
 20
38.4914
 10
1723.2351
 20
38.4204
 10
1723.4519
 20
38.3387
 10
1723.6553
 20
38.2449
 10
1723.8456
 20
38.1389
 10
1724.0225
 20
38.0209
 10
1724.1862
 20
37.8906
 10
1724.3366
 20
37.7482
 10
1724.4738
 20
37.5936
 10
1724.5977
 20
37.4269
 10
1724.8464
 20
37.5814
 10
1725.0934
 20
37.7263
 10
1725.3386
 20
37.8617
 10
1725.5822
 20
37.9874
 10
1725.8242
 20
38.1035
 10
1726.0647
 20
38.2098
 10
1726.3039
 20
38.3064
 10
1726.5417
 20
38.3931
 10
1726.7819
 20
38.4707
 10
1727.0272
 20
38.538
 10
1727.2776
 20
38.5948
 10
1727.533
 20
38.6414
 10
1727.7934
 20
38.6775
 10
1728.0588
 20
38.7033
 10
1728.3292
 20
38.7188
 10
1728.6045
 20
38.724
 10
1728.813
 20
38.7216
 10
1729.0167
 20
38.7145
 10
1729.2156
 20
38.7027
 10
1729.4096
 20
38.6861
 10
1729.5988
 20
38.6647
 10
1729.7831
 20
38.6386
 10
1729.9626
 20
38.6078
 10
1730.1371
 20
38.5722
 10
1730.3069
 20
38.5315
 10
1730.4713
 20
38.4851
 10
1730.6303
 20
38.433
 10
1730.7838
 20
38.3752
 10
1730.9319
 20
38.3116
 10
1731.0746
 20
38.2421
 10
1731.2119
 20
38.1667
 10
1731.3439
 20
38.0854
 10
1731.4717
 20
37.9968
 10
1731.5919
 20
37.9032
 10
1731.7046
 20
37.8045
 10
1731.8099
 20
37.7007
 10
1731.9077
 20
37.5915
 10
1731.9982
 20
37.477
 10
1732.0813
 20
37.3569
 10
1732.1572
 20
37.2313
 10
1732.2249
 20
37.0998
 10
1732.2834
 20
36.9601
 10
1732.3329
 20
36.8122
 10
1732.3733
 20
36.656
 10
1732.4047
 20
36.4915
 10
1732.427
 20
36.3187
 10
1732.4404
 20
36.1375
 10
1732.4449
 20
35.9479
 10
1732.4449
 20
31.0103
 10
1730.2418
 20
31.0103
  0
LWPOLYLINE
  5
B1
330
1F
100
AcDbEntity
  8
Layer 1
 62
     9
370
    20
100
AcDbPolyline
 90
        2
 70
     0
 43
0.0
 10
1872.8904
 20
-52.5341
 10
1872.8904
 20
-82.3898
  0
LWPOLYLINE
  5
B2
330
1F
100
AcDbEntity
  8
Layer 1
 62
     9
370
    20
100
AcDbPolyline
 90
        2
 70
     0
 43
0.0
 10
1393.5213
 20
-52.5341
 10
1393.5213
 20
-82.3898
  0
LWPOLYLINE
  5
B3
330
1F
100
AcDbEntity
  8
Layer 1
 62
     9
370
    20
100
AcDbPolyline
 90
        2
 70
     0
 43
0.0
 10
1393.5213
 20
-66.2226
 10
1872.8904
 20
-66.2226
  0
LWPOLYLINE
  5
B4
330
1F
100
AcDbEntity
  8
Layer 1
 62
     9
370
    20
100
AcDbPolyline
 90
        2
 70
     0
 43
0.0
 10
1662.8351
 20
-48.0417
 10
1662.8351
 20
-77.8974
  0
LWPOLYLINE
  5
B5
330
1F
100
AcDbEntity
  8
Layer 1
 62
     9
370
    20
100
AcDbPolyline
 90
        2
 70
     0
 43
0.0
 10
1601.6932
 20
-48.0417
 10
1601.6932
 20
-77.8974
  0
LWPOLYLINE
  5
B6
330
1F
100
AcDbEntity
  8
Layer 1
 62
     9
370
    20
100
AcDbPolyline
 90
        2
 70
     0
 43
0.0
 10
1601.6932
 20
-61.7295
 10
1662.8351
 20
-61.7295
  0
LWPOLYLINE
  5
B7
330
1F
100
AcDbEntity
  8
Layer 1
 62
     7
100
AcDbPolyline
 90
       91
 70
     1
 43
0.0
 10
1604.4683
 20
-91.0682
 10
1604.4629
 20
-90.8027
 10
1604.4466
 20
-90.5499
 10
1604.4193
 20
-90.3098
 10
1604.381
 20
-90.0822
 10
1604.3316
 20
-89.8672
 10
1604.2711
 20
-89.6647
 10
1604.1994
 20
-89.4748
 10
1604.1163
 20
-89.2973
 10
1604.0255
 20
-89.1317
 10
1603.9261
 20
-88.9757
 10
1603.8182
 20
-88.8295
 10
1603.702
 20
-88.693
 10
1603.5775
 20
-88.5662
 10
1603.4449
 20
-88.449
 10
1603.3042
 20
-88.3415
 10
1603.1556
 20
-88.2436
 10
1603.0177
 20
-88.1604
 10
1602.8796
 20
-88.0841
 10
1602.7412
 20
-88.0146
 10
1602.6026
 20
-87.9521
 10
1602.4637
 20
-87.8963
 10
1602.3245
 20
-87.8473
 10
1602.185
 20
-87.8051
 10
1602.0451
 20
-87.7697
 10
1601.7566
 20
-87.7133
 10
1601.4535
 20
-87.6732
 10
1601.1367
 20
-87.6492
 10
1600.8074
 20
-87.6412
 10
1600.4329
 20
-87.651
 10
1600.0779
 20
-87.6805
 10
1599.7426
 20
-87.7296
 10
1599.4269
 20
-87.7984
 10
1599.1307
 20
-87.8869
 10
1598.854
 20
-87.9951
 10
1598.5969
 20
-88.1231
 10
1598.3593
 20
-88.2709
 10
1598.1446
 20
-88.4372
 10
1597.9588
 20
-88.6212
 10
1597.8018
 20
-88.8228
 10
1597.6736
 20
-89.0421
 10
1597.574
 20
-89.2789
 10
1597.5029
 20
-89.5334
 10
1597.4604
 20
-89.8055
 10
1597.4462
 20
-90.0952
 10
1597.4508
 20
-90.2601
 10
1597.4648
 20
-90.4175
 10
1597.488
 20
-90.5673
 10
1597.5207
 20
-90.7097
 10
1597.5627
 20
-90.8447
 10
1597.6142
 20
-90.9723
 10
1597.6752
 20
-91.0926
 10
1597.7458
 20
-91.2057
 10
1597.8269
 20
-91.3126
 10
1597.9195
 20
-91.4157
 10
1598.0236
 20
-91.5151
 10
1598.1393
 20
-91.6107
 10
1598.2666
 20
-91.7025
 10
1598.4056
 20
-91.7905
 10
1598.5561
 20
-91.8747
 10
1598.7184
 20
-91.9551
 10
1598.8389
 20
-92.0088
 10
1598.9634
 20
-92.0577
 10
1599.0918
 20
-92.1018
 10
1599.2243
 20
-92.1412
 10
1599.3607
 20
-92.1758
 10
1599.5012
 20
-92.2058
 10
1599.6457
 20
-92.2311
 10
1599.7944
 20
-92.2519
 10
1600.1008
 20
-92.2857
 10
1600.4173
 20
-92.3093
 10
1600.7443
 20
-92.3232
 10
1601.0821
 20
-92.3278
 10
1601.2839
 20
-92.3253
 10
1601.4897
 20
-92.3178
 10
1601.6996
 20
-92.3052
 10
1601.9135
 20
-92.2876
 10
1602.1312
 20
-92.2649
 10
1602.3528
 20
-92.2372
 10
1602.5782
 20
-92.2043
 10
1602.8073
 20
-92.1664
 10
1603.0338
 20
-92.125
 10
1603.2531
 20
-92.0801
 10
1603.4653
 20
-92.0319
 10
1603.6702
 20
-91.9804
 10
1603.8678
 20
-91.9255
 10
1604.0582
 20
-91.8674
 10
1604.2413
 20
-91.8059
 10
1604.4171
 20
-91.7411
 10
1604.4516
 20
-91.4587
 10
1604.4683
 20
-91.0682
  0
LWPOLYLINE
  5
B8
330
1F
100
AcDbEntity
  8
Layer 1
 62
     7
100
AcDbPolyline
 90
      176
 70
     1
 43
0.0
 10
1594.9077
 20
-90.1499
 10
1594.9151
 20
-89.9456
 10
1594.9373
 20
-89.7454
 10
1594.9743
 20
-89.5496
 10
1595.026
 20
-89.3582
 10
1595.0924
 20
-89.1713
 10
1595.1735
 20
-88.989
 10
1595.2693
 20
-88.8115
 10
1595.3797
 20
-88.6388
 10
1595.5016
 20
-88.4704
 10
1595.6345
 20
-88.3078
 10
1595.7783
 20
-88.1511
 10
1595.9331
 20
-88.0003
 10
1596.0987
 20
-87.8555
 10
1596.2751
 20
-87.7166
 10
1596.4623
 20
-87.5839
 10
1596.6603
 20
-87.4572
 10
1596.8612
 20
-87.3417
 10
1597.0725
 20
-87.2326
 10
1597.2942
 20
-87.1301
 10
1597.5264
 20
-87.034
 10
1597.7691
 20
-86.9446
 10
1598.0223
 20
-86.8617
 10
1598.286
 20
-86.7855
 10
1598.5602
 20
-86.716
 10
1598.84
 20
-86.6529
 10
1599.1211
 20
-86.5983
 10
1599.4034
 20
-86.5522
 10
1599.6869
 20
-86.5146
 10
1599.9716
 20
-86.4854
 10
1600.2575
 20
-86.4646
 10
1600.5444
 20
-86.4521
 10
1600.8324
 20
-86.448
 10
1601.1509
 20
-86.4519
 10
1601.4617
 20
-86.4636
 10
1601.7649
 20
-86.483
 10
1602.0603
 20
-86.5102
 10
1602.3481
 20
-86.5451
 10
1602.6281
 20
-86.5876
 10
1602.9005
 20
-86.6378
 10
1603.1652
 20
-86.6955
 10
1603.4232
 20
-86.7616
 10
1603.6722
 20
-86.8344
 10
1603.912
 20
-86.9139
 10
1604.1427
 20
-87.0
 10
1604.3643
 20
-87.093
 10
1604.5769
 20
-87.1927
 10
1604.7803
 20
-87.2993
 10
1604.9748
 20
-87.4128
 10
1605.2098
 20
-87.5669
 10
1605.4309
 20
-87.7322
 10
1605.6381
 20
-87.9089
 10
1605.8316
 20
-88.0968
 10
1606.0115
 20
-88.2962
 10
1606.1781
 20
-88.507
 10
1606.3314
 20
-88.7292
 10
1606.4717
 20
-88.9629
 10
1606.5964
 20
-89.2105
 10
1606.7046
 20
-89.4739
 10
1606.7963
 20
-89.7531
 10
1606.8715
 20
-90.0481
 10
1606.93
 20
-90.3588
 10
1606.9719
 20
-90.6852
 10
1606.9971
 20
-91.0275
 10
1607.0055
 20
-91.3855
 10
1606.9972
 20
-91.7167
 10
1606.9724
 20
-92.0434
 10
1606.9312
 20
-92.3658
 10
1606.8737
 20
-92.6836
 10
1606.8
 20
-92.997
 10
1606.7101
 20
-93.3059
 10
1606.6042
 20
-93.6102
 10
1606.4824
 20
-93.91
 10
1606.345
 20
-94.202
 10
1606.1921
 20
-94.4811
 10
1606.0238
 20
-94.7475
 10
1605.84
 20
-95.0011
 10
1605.6408
 20
-95.2421
 10
1605.426
 20
-95.4706
 10
1605.1957
 20
-95.6866
 10
1604.9498
 20
-95.8902
 10
1604.6738
 20
-96.093
 10
1604.3843
 20
-96.2833
 10
1604.0814
 20
-96.4612
 10
1603.7652
 20
-96.6267
 10
1603.4356
 20
-96.7798
 10
1603.0927
 20
-96.9205
 10
1602.7366
 20
-97.0489
 10
1602.3673
 20
-97.1648
 10
1601.9778
 20
-97.2675
 10
1601.5665
 20
-97.3567
 10
1601.1333
 20
-97.4322
 10
1600.6781
 20
-97.4942
 10
1600.2009
 20
-97.5424
 10
1599.7018
 20
-97.5769
 10
1599.1807
 20
-97.5976
 10
1598.6375
 20
-97.6045
 10
1597.5746
 20
-97.5723
 10
1597.2973
 20
-97.5523
 10
1597.0294
 20
-97.5258
 10
1596.7713
 20
-97.4924
 10
1596.5235
 20
-97.452
 10
1596.5235
 20
-96.0721
 10
1596.6472
 20
-96.0721
 10
1596.8259
 20
-96.1229
 10
1597.048
 20
-96.1729
 10
1597.3131
 20
-96.2222
 10
1597.621
 20
-96.2711
 10
1597.9547
 20
-96.3128
 10
1598.2908
 20
-96.3425
 10
1598.6293
 20
-96.3602
 10
1598.9704
 20
-96.3661
 10
1599.5659
 20
-96.3516
 10
1600.1289
 20
-96.3081
 10
1600.6593
 20
-96.2356
 10
1601.157
 20
-96.1339
 10
1601.6219
 20
-96.0031
 10
1602.054
 20
-95.8431
 10
1602.4531
 20
-95.654
 10
1602.8192
 20
-95.4355
 10
1603.1492
 20
-95.19
 10
1603.4417
 20
-94.9196
 10
1603.6966
 20
-94.6242
 10
1603.9139
 20
-94.3039
 10
1604.0934
 20
-93.9585
 10
1604.235
 20
-93.5882
 10
1604.3386
 20
-93.1927
 10
1604.4041
 20
-92.7722
 10
1604.1555
 20
-92.8668
 10
1603.9101
 20
-92.9546
 10
1603.6678
 20
-93.0357
 10
1603.4283
 20
-93.1102
 10
1603.1918
 20
-93.178
 10
1602.9579
 20
-93.2393
 10
1602.7267
 20
-93.2941
 10
1602.4981
 20
-93.3425
 10
1602.2696
 20
-93.385
 10
1602.0361
 20
-93.4216
 10
1601.7977
 20
-93.4526
 10
1601.5542
 20
-93.4778
 10
1601.3057
 20
-93.4973
 10
1601.052
 20
-93.5112
 10
1600.7932
 20
-93.5195
 10
1600.5292
 20
-93.5223
 10
1600.2745
 20
-93.5202
 10
1600.0249
 20
-93.514
 10
1599.7807
 20
-93.5037
 10
1599.5421
 20
-93.4893
 10
1599.3091
 20
-93.4709
 10
1599.0819
 20
-93.4485
 10
1598.8608
 20
-93.4221
 10
1598.6459
 20
-93.3917
 10
1598.4326
 20
-93.3556
 10
1598.2192
 20
-93.312
 10
1598.0055
 20
-93.2608
 10
1597.7916
 20
-93.2019
 10
1597.5774
 20
-93.1353
 10
1597.3631
 20
-93.0609
 10
1597.1485
 20
-92.9786
 10
1596.9337
 20
-92.8885
 10
1596.6912
 20
-92.7751
 10
1596.464
 20
-92.6543
 10
1596.2521
 20
-92.5263
 10
1596.0555
 20
-92.3909
 10
1595.8742
 20
-92.2481
 10
1595.7083
 20
-92.0979
 10
1595.5577
 20
-91.9403
 10
1595.4225
 20
-91.7753
 10
1595.3021
 20
-91.6025
 10
1595.1976
 20
-91.4211
 10
1595.1091
 20
-91.2311
 10
1595.0367
 20
-91.0324
 10
1594.9803
 20
-90.8249
 10
1594.94
 20
-90.6087
 10
1594.9158
 20
-90.3837
 10
1594.9077
 20
-90.1499
  0
LWPOLYLINE
  5
B9
330
1F
100
AcDbEntity
  8
Layer 1
 62
     7
100
AcDbPolyline
 90
       65
 70
     1
 43
0.0
 10
1621.02
 20
-92.0187
 10
1620.9971
 20
-92.7161
 10
1620.9285
 20
-93.3655
 10
1620.8142
 20
-93.9671
 10
1620.6544
 20
-94.5207
 10
1620.4491
 20
-95.0265
 10
1620.1984
 20
-95.4843
 10
1619.9023
 20
-95.8941
 10
1619.5611
 20
-96.2561
 10
1619.1717
 20
-96.5722
 10
1618.7329
 20
-96.8461
 10
1618.2446
 20
-97.0779
 10
1617.7068
 20
-97.2675
 10
1617.1195
 20
-97.4149
 10
1616.4825
 20
-97.5202
 10
1615.7959
 20
-97.5834
 10
1615.0597
 20
-97.6045
 10
1614.3151
 20
-97.583
 10
1613.6221
 20
-97.5184
 10
1612.9806
 20
-97.4108
 10
1612.3904
 20
-97.2602
 10
1611.8516
 20
-97.0667
 10
1611.3639
 20
-96.8302
 10
1610.9273
 20
-96.5509
 10
1610.5416
 20
-96.2287
 10
1610.2039
 20
-95.8625
 10
1609.9113
 20
-95.4512
 10
1609.6638
 20
-94.9947
 10
1609.4614
 20
-94.493
 10
1609.304
 20
-93.9461
 10
1609.1916
 20
-93.3539
 10
1609.1242
 20
-92.7165
 10
1609.1017
 20
-92.0337
 10
1609.1245
 20
-91.3329
 10
1609.1929
 20
-90.6809
 10
1609.3068
 20
-90.0775
 10
1609.4663
 20
-89.5229
 10
1609.6713
 20
-89.017
 10
1609.9218
 20
-88.5598
 10
1610.2179
 20
-88.1514
 10
1610.5594
 20
-87.7916
 10
1610.9496
 20
-87.4763
 10
1611.3888
 20
-87.2032
 10
1611.8773
 20
-86.9722
 10
1612.415
 20
-86.7834
 10
1613.002
 20
-86.6366
 10
1613.6384
 20
-86.5318
 10
1614.3243
 20
-86.4689
 10
1615.0597
 20
-86.448
 10
1615.8047
 20
-86.4698
 10
1616.498
 20
-86.535
 10
1617.1398
 20
-86.6437
 10
1617.7301
 20
-86.7959
 10
1618.2692
 20
-86.9914
 10
1618.7572
 20
-87.2303
 10
1619.1941
 20
-87.5126
 10
1619.5802
 20
-87.8381
 10
1619.9175
 20
-88.2072
 10
1620.21
 20
-88.6201
 10
1620.4574
 20
-89.0768
 10
1620.6599
 20
-89.5774
 10
1620.8174
 20
-90.1218
 10
1620.93
 20
-90.7102
 10
1620.9975
 20
-91.3425
 10
1621.02
 20
-92.0187
  0
LWPOLYLINE
  5
BA
330
1F
100
AcDbEntity
  8
Layer 1
 62
     7
100
AcDbPolyline
 90
      129
 70
     1
 43
0.0
 10
1617.8145
 20
-95.283
 10
1617.9026
 20
-95.1454
 10
1617.984
 20
-94.999
 10
1618.0587
 20
-94.844
 10
1618.1267
 20
-94.6802
 10
1618.188
 20
-94.5077
 10
1618.2426
 20
-94.3264
 10
1618.2905
 20
-94.1363
 10
1618.3317
 20
-93.9374
 10
1618.3665
 20
-93.73
 10
1618.3967
 20
-93.5134
 10
1618.4225
 20
-93.2877
 10
1618.4436
 20
-93.0526
 10
1618.4601
 20
-92.8083
 10
1618.472
 20
-92.5545
 10
1618.4791
 20
-92.2914
 10
1618.4815
 20
-92.0187
 10
1618.4791
 20
-91.7485
 10
1618.472
 20
-91.4871
 10
1618.4601
 20
-91.2346
 10
1618.4436
 20
-90.9911
 10
1618.4225
 20
-90.7565
 10
1618.3967
 20
-90.531
 10
1618.3665
 20
-90.3147
 10
1618.3317
 20
-90.1075
 10
1618.2903
 20
-89.9083
 10
1618.2418
 20
-89.7178
 10
1618.1863
 20
-89.5361
 10
1618.124
 20
-89.363
 10
1618.0548
 20
-89.1985
 10
1617.9789
 20
-89.0426
 10
1617.8964
 20
-88.8953
 10
1617.8074
 20
-88.7564
 10
1617.7085
 20
-88.6235
 10
1617.6008
 20
-88.499
 10
1617.4844
 20
-88.3829
 10
1617.3593
 20
-88.2752
 10
1617.2256
 20
-88.1757
 10
1617.0832
 20
-88.0845
 10
1616.9324
 20
-88.0013
 10
1616.773
 20
-87.9263
 10
1616.6019
 20
-87.8599
 10
1616.4185
 20
-87.8021
 10
1616.2229
 20
-87.7532
 10
1616.0149
 20
-87.713
 10
1615.7946
 20
-87.6817
 10
1615.562
 20
-87.6592
 10
1615.317
 20
-87.6457
 10
1615.0597
 20
-87.6412
 10
1614.8062
 20
-87.6457
 10
1614.5638
 20
-87.6592
 10
1614.3328
 20
-87.6817
 10
1614.1131
 20
-87.713
 10
1613.905
 20
-87.7532
 10
1613.7085
 20
-87.8021
 10
1613.5239
 20
-87.8599
 10
1613.3511
 20
-87.9263
 10
1613.1875
 20
-88.0016
 10
1613.0328
 20
-88.0854
 10
1612.887
 20
-88.1778
 10
1612.7501
 20
-88.2788
 10
1612.6221
 20
-88.3884
 10
1612.503
 20
-88.5065
 10
1612.3929
 20
-88.6333
 10
1612.2917
 20
-88.7687
 10
1612.2014
 20
-88.9105
 10
1612.1185
 20
-89.061
 10
1612.043
 20
-89.2202
 10
1611.9749
 20
-89.3883
 10
1611.9141
 20
-89.5652
 10
1611.8607
 20
-89.7511
 10
1611.8145
 20
-89.946
 10
1611.7757
 20
-90.1499
 10
1611.7442
 20
-90.3621
 10
1611.7165
 20
-90.5809
 10
1611.6929
 20
-90.8063
 10
1611.6733
 20
-91.0383
 10
1611.6579
 20
-91.2769
 10
1611.6468
 20
-91.5224
 10
1611.6401
 20
-91.7746
 10
1611.6378
 20
-92.0337
 10
1611.6397
 20
-92.3081
 10
1611.6454
 20
-92.5711
 10
1611.6548
 20
-92.8228
 10
1611.6681
 20
-93.0632
 10
1611.6852
 20
-93.2921
 10
1611.706
 20
-93.5095
 10
1611.7307
 20
-93.7155
 10
1611.7591
 20
-93.91
 10
1611.7926
 20
-94.0956
 10
1611.8353
 20
-94.2765
 10
1611.887
 20
-94.4526
 10
1611.9477
 20
-94.624
 10
1612.0173
 20
-94.7904
 10
1612.096
 20
-94.9521
 10
1612.1835
 20
-95.1088
 10
1612.2798
 20
-95.2605
 10
1612.3748
 20
-95.395
 10
1612.4797
 20
-95.5215
 10
1612.5944
 20
-95.6401
 10
1612.7189
 20
-95.7507
 10
1612.853
 20
-95.8533
 10
1612.9968
 20
-95.9479
 10
1613.1502
 20
-96.0345
 10
1613.3131
 20
-96.1131
 10
1613.4863
 20
-96.183
 10
1613.6726
 20
-96.2435
 10
1613.8717
 20
-96.2947
 10
1614.0838
 20
-96.3365
 10
1614.3087
 20
-96.3689
 10
1614.5463
 20
-96.3921
 10
1614.7967
 20
-96.406
 10
1615.0597
 20
-96.4106
 10
1615.3136
 20
-96.4061
 10
1615.5563
 20
-96.3927
 10
1615.7877
 20
-96.3703
 10
1616.0077
 20
-96.3391
 10
1616.2164
 20
-96.2989
 10
1616.4135
 20
-96.25
 10
1616.5991
 20
-96.1921
 10
1616.773
 20
-96.1255
 10
1616.9353
 20
-96.0504
 10
1617.0887
 20
-95.9667
 10
1617.2331
 20
-95.8744
 10
1617.3682
 20
-95.7735
 10
1617.4941
 20
-95.6639
 10
1617.6105
 20
-95.5456
 10
1617.7173
 20
-95.4187
 10
1617.8145
 20
-95.283
  0
LWPOLYLINE
  5
BB
330
1F
100
AcDbEntity
  8
Layer 1
 62
     7
100
AcDbPolyline
 90
      178
 70
     1
 43
0.0
 10
1647.6269
 20
-97.3836
 10
1647.6269
 20
-92.736
 10
1647.6224
 20
-92.4647
 10
1647.6086
 20
-92.2036
 10
1647.5853
 20
-91.9526
 10
1647.552
 20
-91.7117
 10
1647.5314
 20
-91.597
 10
1647.5053
 20
-91.4887
 10
1647.4739
 20
-91.3868
 10
1647.4372
 20
-91.2913
 10
1647.3952
 20
-91.2022
 10
1647.3482
 20
-91.1194
 10
1647.2962
 20
-91.0428
 10
1647.2393
 20
-90.9725
 10
1647.1732
 20
-90.9031
 10
1647.1004
 20
-90.8385
 10
1647.0211
 20
-90.7787
 10
1646.9353
 20
-90.7236
 10
1646.8428
 20
-90.6731
 10
1646.7437
 20
-90.6274
 10
1646.6381
 20
-90.5863
 10
1646.5259
 20
-90.5499
 10
1646.4053
 20
-90.5179
 10
1646.2743
 20
-90.4901
 10
1646.1331
 20
-90.4665
 10
1645.9817
 20
-90.4471
 10
1645.6485
 20
-90.4212
 10
1645.2751
 20
-90.4125
 10
1645.0909
 20
-90.4165
 10
1644.9038
 20
-90.4287
 10
1644.7137
 20
-90.4488
 10
1644.5205
 20
-90.4771
 10
1644.3242
 20
-90.5133
 10
1644.1246
 20
-90.5576
 10
1643.9216
 20
-90.61
 10
1643.7152
 20
-90.6703
 10
1643.506
 20
-90.7375
 10
1643.295
 20
-90.8121
 10
1643.0821
 20
-90.8939
 10
1642.8673
 20
-90.983
 10
1642.6507
 20
-91.0793
 10
1642.4323
 20
-91.1828
 10
1642.212
 20
-91.2936
 10
1641.99
 20
-91.4115
 10
1642.0245
 20
-91.7014
 10
1642.0411
 20
-92.1028
 10
1642.0411
 20
-97.3836
 10
1639.6846
 20
-97.3836
 10
1639.6846
 20
-92.736
 10
1639.6797
 20
-92.4647
 10
1639.6651
 20
-92.2036
 10
1639.6409
 20
-91.9526
 10
1639.6073
 20
-91.7117
 10
1639.5867
 20
-91.597
 10
1639.5606
 20
-91.4887
 10
1639.5291
 20
-91.3868
 10
1639.4924
 20
-91.2913
 10
1639.4505
 20
-91.2022
 10
1639.4035
 20
-91.1194
 10
1639.3515
 20
-91.0428
 10
1639.2946
 20
-90.9725
 10
1639.2288
 20
-90.9031
 10
1639.1562
 20
-90.8385
 10
1639.0769
 20
-90.7787
 10
1638.9909
 20
-90.7236
 10
1638.8983
 20
-90.6731
 10
1638.7992
 20
-90.6274
 10
1638.6934
 20
-90.5863
 10
1638.5812
 20
-90.5499
 10
1638.4612
 20
-90.5179
 10
1638.3305
 20
-90.4901
 10
1638.1893
 20
-90.4665
 10
1638.0377
 20
-90.4471
 10
1637.7035
 20
-90.4212
 10
1637.3292
 20
-90.4125
 10
1637.1365
 20
-90.4168
 10
1636.9416
 20
-90.4296
 10
1636.7447
 20
-90.451
 10
1636.5455
 20
-90.481
 10
1636.3441
 20
-90.5196
 10
1636.1403
 20
-90.5668
 10
1635.934
 20
-90.6228
 10
1635.7253
 20
-90.6874
 10
1635.5161
 20
-90.7589
 10
1635.3086
 20
-90.835
 10
1635.1028
 20
-90.9158
 10
1634.8987
 20
-91.0012
 10
1634.6962
 20
-91.0913
 10
1634.4953
 20
-91.1862
 10
1634.2962
 20
-91.2858
 10
1634.0987
 20
-91.3903
 10
1634.0987
 20
-97.3836
 10
1631.741
 20
-97.3836
 10
1631.741
 20
-89.3513
 10
1634.0987
 20
-89.3513
 10
1634.0987
 20
-90.2457
 10
1634.3302
 20
-90.1166
 10
1634.5611
 20
-89.9949
 10
1634.7914
 20
-89.8808
 10
1635.0211
 20
-89.7741
 10
1635.2502
 20
-89.6748
 10
1635.4788
 20
-89.5832
 10
1635.7069
 20
-89.499
 10
1635.9345
 20
-89.4224
 10
1636.1647
 20
-89.3541
 10
1636.4005
 20
-89.2948
 10
1636.6418
 20
-89.2447
 10
1636.8888
 20
-89.2036
 10
1637.1414
 20
-89.1716
 10
1637.3997
 20
-89.1487
 10
1637.6636
 20
-89.135
 10
1637.9332
 20
-89.1304
 10
1638.2381
 20
-89.1355
 10
1638.5346
 20
-89.1507
 10
1638.8226
 20
-89.176
 10
1639.1021
 20
-89.2115
 10
1639.373
 20
-89.257
 10
1639.6351
 20
-89.3127
 10
1639.8884
 20
-89.3786
 10
1640.1328
 20
-89.4545
 10
1640.3643
 20
-89.542
 10
1640.5817
 20
-89.6424
 10
1640.785
 20
-89.7557
 10
1640.9742
 20
-89.8821
 10
1641.1491
 20
-90.0214
 10
1641.3097
 20
-90.1738
 10
1641.4561
 20
-90.3392
 10
1641.5881
 20
-90.5178
 10
1641.855
 20
-90.3526
 10
1642.1199
 20
-90.1975
 10
1642.3828
 20
-90.0526
 10
1642.6438
 20
-89.9181
 10
1642.9029
 20
-89.7938
 10
1643.1603
 20
-89.68
 10
1643.416
 20
-89.5767
 10
1643.67
 20
-89.4839
 10
1643.9268
 20
-89.401
 10
1644.1889
 20
-89.3291
 10
1644.4564
 20
-89.2684
 10
1644.7294
 20
-89.2187
 10
1645.0079
 20
-89.18
 10
1645.2922
 20
-89.1525
 10
1645.5821
 20
-89.1359
 10
1645.8779
 20
-89.1304
 10
1646.101
 20
-89.1329
 10
1646.3191
 20
-89.1404
 10
1646.532
 20
-89.153
 10
1646.7397
 20
-89.1707
 10
1646.9421
 20
-89.1934
 10
1647.1393
 20
-89.2213
 10
1647.3311
 20
-89.2543
 10
1647.5175
 20
-89.2925
 10
1647.6988
 20
-89.336
 10
1647.8744
 20
-89.3855
 10
1648.0443
 20
-89.4412
 10
1648.2083
 20
-89.503
 10
1648.3666
 20
-89.571
 10
1648.5191
 20
-89.6454
 10
1648.6657
 20
-89.7262
 10
1648.8064
 20
-89.8135
 10
1648.9437
 20
-89.9082
 10
1649.0728
 20
-90.0084
 10
1649.1938
 20
-90.1139
 10
1649.3067
 20
-90.2251
 10
1649.4114
 20
-90.3418
 10
1649.508
 20
-90.4642
 10
1649.5964
 20
-90.5924
 10
1649.6767
 20
-90.7264
 10
1649.7493
 20
-90.8672
 10
1649.8121
 20
-91.0167
 10
1649.8651
 20
-91.175
 10
1649.9083
 20
-91.3421
 10
1649.9418
 20
-91.5181
 10
1649.9657
 20
-91.7029
 10
1649.98
 20
-91.8967
 10
1649.9847
 20
-92.0994
 10
1649.9847
 20
-97.3836
 10
1647.6269
 20
-97.3836
  0
LWPOLYLINE
  5
BC
330
1F
100
AcDbEntity
  8
Layer 1
 62
     7
100
AcDbPolyline
 90
      178
 70
     1
 43
0.0
 10
1669.1486
 20
-97.3836
 10
1669.1486
 20
-92.736
 10
1669.1441
 20
-92.4647
 10
1669.1303
 20
-92.2036
 10
1669.107
 20
-91.9526
 10
1669.0737
 20
-91.7117
 10
1669.0527
 20
-91.597
 10
1669.0263
 20
-91.4887
 10
1668.9946
 20
-91.3868
 10
1668.9577
 20
-91.2913
 10
1668.9157
 20
-91.2022
 10
1668.8687
 20
-91.1194
 10
1668.8167
 20
-91.0428
 10
1668.7598
 20
-90.9725
 10
1668.694
 20
-90.9031
 10
1668.6216
 20
-90.8385
 10
1668.5424
 20
-90.7787
 10
1668.4566
 20
-90.7236
 10
1668.3641
 20
-90.6731
 10
1668.2649
 20
-90.6274
 10
1668.159
 20
-90.5863
 10
1668.0464
 20
-90.5499
 10
1667.9261
 20
-90.5179
 10
1667.7954
 20
-90.4901
 10
1667.6544
 20
-90.4665
 10
1667.503
 20
-90.4471
 10
1667.1696
 20
-90.4212
 10
1666.7956
 20
-90.4125
 10
1666.6117
 20
-90.4165
 10
1666.4248
 20
-90.4287
 10
1666.2348
 20
-90.4488
 10
1666.0416
 20
-90.4771
 10
1665.8453
 20
-90.5133
 10
1665.6458
 20
-90.5576
 10
1665.443
 20
-90.61
 10
1665.2369
 20
-90.6703
 10
1665.0277
 20
-90.7375
 10
1664.8167
 20
-90.8121
 10
1664.6037
 20
-90.8939
 10
1664.389
 20
-90.983
 10
1664.1723
 20
-91.0793
 10
1663.9539
 20
-91.1828
 10
1663.7336
 20
-91.2936
 10
1663.5116
 20
-91.4115
 10
1663.5449
 20
-91.7014
 10
1663.5616
 20
-92.1028
 10
1663.5616
 20
-97.3836
 10
1661.2062
 20
-97.3836
 10
1661.2062
 20
-92.736
 10
1661.2013
 20
-92.4647
 10
1661.1868
 20
-92.2036
 10
1661.1626
 20
-91.9526
 10
1661.1289
 20
-91.7117
 10
1661.1084
 20
-91.597
 10
1661.0824
 20
-91.4887
 10
1661.0512
 20
-91.3868
 10
1661.0147
 20
-91.2913
 10
1660.973
 20
-91.2022
 10
1660.9261
 20
-91.1194
 10
1660.8743
 20
-91.0428
 10
1660.8174
 20
-90.9725
 10
1660.7512
 20
-90.9031
 10
1660.6784
 20
-90.8385
 10
1660.5989
 20
-90.7787
 10
1660.5128
 20
-90.7236
 10
1660.4201
 20
-90.6731
 10
1660.3209
 20
-90.6274
 10
1660.2151
 20
-90.5863
 10
1660.1029
 20
-90.5499
 10
1659.9829
 20
-90.5179
 10
1659.8522
 20
-90.4901
 10
1659.711
 20
-90.4665
 10
1659.5594
 20
-90.4471
 10
1659.2252
 20
-90.4212
 10
1658.8509
 20
-90.4125
 10
1658.6581
 20
-90.4168
 10
1658.4633
 20
-90.4296
 10
1658.2663
 20
-90.451
 10
1658.0672
 20
-90.481
 10
1657.8657
 20
-90.5196
 10
1657.6619
 20
-90.5668
 10
1657.4556
 20
-90.6228
 10
1657.2469
 20
-90.6874
 10
1657.0374
 20
-90.7589
 10
1656.8297
 20
-90.835
 10
1656.6238
 20
-90.9158
 10
1656.4197
 20
-91.0012
 10
1656.2172
 20
-91.0913
 10
1656.0163
 20
-91.1862
 10
1655.817
 20
-91.2858
 10
1655.6192
 20
-91.3903
 10
1655.6192
 20
-97.3836
 10
1653.2615
 20
-97.3836
 10
1653.2615
 20
-89.3513
 10
1655.6192
 20
-89.3513
 10
1655.6192
 20
-90.2457
 10
1655.8511
 20
-90.1166
 10
1656.0823
 20
-89.9949
 10
1656.3127
 20
-89.8808
 10
1656.5425
 20
-89.7741
 10
1656.7715
 20
-89.6748
 10
1657.0
 20
-89.5832
 10
1657.2278
 20
-89.499
 10
1657.455
 20
-89.4224
 10
1657.6852
 20
-89.3541
 10
1657.9211
 20
-89.2948
 10
1658.1626
 20
-89.2447
 10
1658.4098
 20
-89.2036
 10
1658.6625
 20
-89.1716
 10
1658.9207
 20
-89.1487
 10
1659.1844
 20
-89.135
 10
1659.4537
 20
-89.1304
 10
1659.7589
 20
-89.1355
 10
1660.0555
 20
-89.1507
 10
1660.3437
 20
-89.176
 10
1660.6232
 20
-89.2115
 10
1660.8941
 20
-89.257
 10
1661.1563
 20
-89.3127
 10
1661.4098
 20
-89.3786
 10
1661.6545
 20
-89.4545
 10
1661.8864
 20
-89.542
 10
1662.1039
 20
-89.6424
 10
1662.3072
 20
-89.7557
 10
1662.4962
 20
-89.8821
 10
1662.6708
 20
-90.0214
 10
1662.8311
 20
-90.1738
 10
1662.977
 20
-90.3392
 10
1663.1086
 20
-90.5178
 10
1663.3755
 20
-90.3526
 10
1663.6404
 20
-90.1975
 10
1663.9033
 20
-90.0526
 10
1664.1644
 20
-89.9181
 10
1664.4237
 20
-89.7938
 10
1664.6813
 20
-89.68
 10
1664.9372
 20
-89.5767
 10
1665.1917
 20
-89.4839
 10
1665.4481
 20
-89.401
 10
1665.7101
 20
-89.3291
 10
1665.9775
 20
-89.2684
 10
1666.2506
 20
-89.2187
 10
1666.5293
 20
-89.18
 10
1666.8137
 20
-89.1525
 10
1667.1038
 20
-89.1359
 10
1667.3996
 20
-89.1304
 10
1667.6226
 20
-89.1329
 10
1667.8405
 20
-89.1404
 10
1668.0533
 20
-89.153
 10
1668.2609
 20
-89.1707
 10
1668.4633
 20
-89.1934
 10
1668.6605
 20
-89.2213
 10
1668.8525
 20
-89.2543
 10
1669.0392
 20
-89.2925
 10
1669.2201
 20
-89.336
 10
1669.3954
 20
-89.3855
 10
1669.5651
 20
-89.4412
 10
1669.729
 20
-89.503
 10
1669.8872
 20
-89.571
 10
1670.0396
 20
-89.6454
 10
1670.1862
 20
-89.7262
 10
1670.3269
 20
-89.8135
 10
1670.4639
 20
-89.9082
 10
1670.593
 20
-90.0084
 10
1670.7141
 20
-90.1139
 10
1670.8273
 20
-90.2251
 10
1670.9324
 20
-90.3418
 10
1671.0293
 20
-90.4642
 10
1671.118
 20
-90.5924
 10
1671.1984
 20
-90.7264
 10
1671.271
 20
-90.8672
 10
1671.3338
 20
-91.0167
 10
1671.3867
 20
-91.175
 10
1671.4299
 20
-91.3421
 10
1671.4634
 20
-91.5181
 10
1671.4873
 20
-91.7029
 10
1671.5016
 20
-91.8967
 10
1671.5063
 20
-92.0994
 10
1671.5063
 20
-97.3836
 10
1669.1486
 20
-97.3836
  0
LWPOLYLINE
  5
BD
330
1F
100
AcDbEntity
  8
Layer 1
 62
     7
100
AcDbPolyline
 90
      176
 70
     1
 43
0.0
 10
1738.9522
 20
-57.5776
 10
1738.9448
 20
-57.7829
 10
1738.9227
 20
-57.9842
 10
1738.8859
 20
-58.1815
 10
1738.8342
 20
-58.3748
 10
1738.7677
 20
-58.564
 10
1738.6864
 20
-58.7489
 10
1738.5901
 20
-58.9295
 10
1738.479
 20
-59.1058
 10
1738.3546
 20
-59.2772
 10
1738.2203
 20
-59.4413
 10
1738.076
 20
-59.598
 10
1737.9217
 20
-59.7474
 10
1737.7572
 20
-59.8896
 10
1737.5825
 20
-60.0245
 10
1737.3974
 20
-60.1523
 10
1737.202
 20
-60.273
 10
1736.9892
 20
-60.3934
 10
1736.77
 20
-60.5062
 10
1736.5445
 20
-60.6116
 10
1736.3127
 20
-60.7095
 10
1736.0746
 20
-60.8
 10
1735.8303
 20
-60.883
 10
1735.5799
 20
-60.9585
 10
1735.3234
 20
-61.0266
 10
1735.0606
 20
-61.0863
 10
1734.791
 20
-61.1381
 10
1734.5146
 20
-61.182
 10
1734.2314
 20
-61.218
 10
1733.9412
 20
-61.2461
 10
1733.6441
 20
-61.2662
 10
1733.3399
 20
-61.2783
 10
1733.0287
 20
-61.2823
 10
1732.717
 20
-61.2785
 10
1732.4125
 20
-61.267
 10
1732.115
 20
-61.2479
 10
1731.8246
 20
-61.2211
 10
1731.5412
 20
-61.1866
 10
1731.2648
 20
-61.1444
 10
1730.9953
 20
-61.0945
 10
1730.7328
 20
-61.0368
 10
1730.4781
 20
-60.972
 10
1730.2314
 20
-60.8998
 10
1729.9924
 20
-60.82
 10
1729.7611
 20
-60.7328
 10
1729.5376
 20
-60.6381
 10
1729.3216
 20
-60.5359
 10
1729.1133
 20
-60.4263
 10
1728.9125
 20
-60.3093
 10
1728.6773
 20
-60.1578
 10
1728.4557
 20
-59.994
 10
1728.2476
 20
-59.8179
 10
1728.0529
 20
-59.6295
 10
1727.8713
 20
-59.4288
 10
1727.7026
 20
-59.2157
 10
1727.5468
 20
-58.9902
 10
1727.4037
 20
-58.7523
 10
1727.2765
 20
-58.5011
 10
1727.1659
 20
-58.2361
 10
1727.0721
 20
-57.9572
 10
1726.9952
 20
-57.6644
 10
1726.9353
 20
-57.3575
 10
1726.8923
 20
-57.0366
 10
1726.8665
 20
-56.7016
 10
1726.8579
 20
-56.3523
 10
1726.8657
 20
-56.0075
 10
1726.8891
 20
-55.6709
 10
1726.9282
 20
-55.3428
 10
1726.9829
 20
-55.0231
 10
1727.0533
 20
-54.7119
 10
1727.1393
 20
-54.4092
 10
1727.2411
 20
-54.1152
 10
1727.3585
 20
-53.8298
 10
1727.492
 20
-53.5524
 10
1727.6426
 20
-53.2843
 10
1727.8102
 20
-53.0253
 10
1727.9947
 20
-52.7756
 10
1728.1961
 20
-52.5349
 10
1728.414
 20
-52.3034
 10
1728.6485
 20
-52.0809
 10
1728.8994
 20
-51.8674
 10
1729.1619
 20
-51.6694
 10
1729.4431
 20
-51.4828
 10
1729.7427
 20
-51.3073
 10
1730.0609
 20
-51.143
 10
1730.3974
 20
-50.99
 10
1730.7524
 20
-50.848
 10
1731.1258
 20
-50.7173
 10
1731.5175
 20
-50.5976
 10
1731.926
 20
-50.4904
 10
1732.3501
 20
-50.3975
 10
1732.7897
 20
-50.3188
 10
1733.2451
 20
-50.2545
 10
1733.7163
 20
-50.2045
 10
1734.2034
 20
-50.1688
 10
1734.7066
 20
-50.1473
 10
1735.2259
 20
-50.1402
 10
1736.3864
 20
-50.1771
 10
1736.6479
 20
-50.1979
 10
1736.8948
 20
-50.2238
 10
1737.1259
 20
-50.2552
 10
1737.3399
 20
-50.2926
 10
1737.3399
 20
-51.6725
 10
1737.227
 20
-51.6725
 10
1737.0398
 20
-51.6187
 10
1736.8153
 20
-51.5666
 10
1736.5539
 20
-51.5166
 10
1736.2556
 20
-51.4694
 10
1735.9295
 20
-51.4293
 10
1735.5941
 20
-51.4009
 10
1735.2483
 20
-51.3841
 10
1734.8907
 20
-51.3785
 10
1734.3237
 20
-51.3925
 10
1733.7847
 20
-51.4347
 10
1733.2736
 20
-51.505
 10
1732.7905
 20
-51.6035
 10
1732.3353
 20
-51.7301
 10
1731.908
 20
-51.885
 10
1731.5086
 20
-52.0682
 10
1731.1371
 20
-52.2797
 10
1730.7985
 20
-52.5191
 10
1730.4962
 20
-52.7857
 10
1730.2302
 20
-53.0794
 10
1730.0006
 20
-53.4003
 10
1729.8073
 20
-53.7484
 10
1729.6505
 20
-54.1238
 10
1729.5301
 20
-54.5266
 10
1729.4463
 20
-54.9567
 10
1729.6685
 20
-54.8693
 10
1729.8925
 20
-54.7872
 10
1730.1183
 20
-54.7102
 10
1730.3458
 20
-54.6384
 10
1730.5748
 20
-54.5717
 10
1730.8053
 20
-54.5101
 10
1731.0372
 20
-54.4536
 10
1731.2702
 20
-54.4021
 10
1731.5066
 20
-54.3565
 10
1731.7486
 20
-54.317
 10
1731.9963
 20
-54.2836
 10
1732.2496
 20
-54.2563
 10
1732.5086
 20
-54.2351
 10
1732.7733
 20
-54.22
 10
1733.0438
 20
-54.2109
 10
1733.32
 20
-54.2079
 10
1733.5862
 20
-54.2099
 10
1733.8445
 20
-54.2157
 10
1734.0948
 20
-54.2256
 10
1734.3372
 20
-54.2393
 10
1734.5714
 20
-54.257
 10
1734.7977
 20
-54.2786
 10
1735.0158
 20
-54.3042
 10
1735.2259
 20
-54.3338
 10
1735.4302
 20
-54.3697
 10
1735.6374
 20
-54.4132
 10
1735.8473
 20
-54.4646
 10
1736.0596
 20
-54.5239
 10
1736.2741
 20
-54.5912
 10
1736.4908
 20
-54.6666
 10
1736.7094
 20
-54.7501
 10
1736.9298
 20
-54.8418
 10
1737.1779
 20
-54.9569
 10
1737.4094
 20
-55.0796
 10
1737.6244
 20
-55.2098
 10
1737.8231
 20
-55.3474
 10
1738.0055
 20
-55.4924
 10
1738.1715
 20
-55.6448
 10
1738.3214
 20
-55.8045
 10
1738.4552
 20
-55.9714
 10
1738.5718
 20
-56.1466
 10
1738.6728
 20
-56.3291
 10
1738.7582
 20
-56.5189
 10
1738.8281
 20
-56.716
 10
1738.8824
 20
-56.9205
 10
1738.9212
 20
-57.1322
 10
1738.9444
 20
-57.3512
 10
1738.9522
 20
-57.5776
  0
LWPOLYLINE
  5
BE
330
1F
100
AcDbEntity
  8
Layer 1
 62
     7
100
AcDbPolyline
 90
       91
 70
     1
 43
0.0
 10
1736.4161
 20
-57.6343
 10
1736.4115
 20
-57.4729
 10
1736.3977
 20
-57.3184
 10
1736.3747
 20
-57.1706
 10
1736.3424
 20
-57.0297
 10
1736.3007
 20
-56.8954
 10
1736.2496
 20
-56.7677
 10
1736.189
 20
-56.6466
 10
1736.1189
 20
-56.5321
 10
1736.0377
 20
-56.4233
 10
1735.9449
 20
-56.3185
 10
1735.8405
 20
-56.2176
 10
1735.7244
 20
-56.1207
 10
1735.5966
 20
-56.0277
 10
1735.4571
 20
-55.9387
 10
1735.3058
 20
-55.8536
 10
1735.1427
 20
-55.7724
 10
1735.0192
 20
-55.7179
 10
1734.8914
 20
-55.6684
 10
1734.7593
 20
-55.6237
 10
1734.623
 20
-55.584
 10
1734.4827
 20
-55.549
 10
1734.3384
 20
-55.5189
 10
1734.1902
 20
-55.4935
 10
1734.0382
 20
-55.4729
 10
1733.7259
 20
-55.4422
 10
1733.4101
 20
-55.4199
 10
1733.0911
 20
-55.4064
 10
1732.7695
 20
-55.4018
 10
1732.5511
 20
-55.4041
 10
1732.3345
 20
-55.4111
 10
1732.1196
 20
-55.4227
 10
1731.9065
 20
-55.439
 10
1731.6949
 20
-55.46
 10
1731.4849
 20
-55.4858
 10
1731.2764
 20
-55.5163
 10
1731.0693
 20
-55.5516
 10
1730.863
 20
-55.5914
 10
1730.6579
 20
-55.6354
 10
1730.4538
 20
-55.6837
 10
1730.2507
 20
-55.7362
 10
1730.0485
 20
-55.7929
 10
1729.847
 20
-55.8539
 10
1729.6464
 20
-55.9191
 10
1729.4463
 20
-55.9885
 10
1729.4083
 20
-56.2935
 10
1729.3952
 20
-56.6613
 10
1729.4012
 20
-56.932
 10
1729.4192
 20
-57.1891
 10
1729.4491
 20
-57.4327
 10
1729.4909
 20
-57.6628
 10
1729.5445
 20
-57.8795
 10
1729.6099
 20
-58.0828
 10
1729.687
 20
-58.2728
 10
1729.7757
 20
-58.4494
 10
1729.8739
 20
-58.614
 10
1729.9777
 20
-58.7684
 10
1730.0871
 20
-58.9125
 10
1730.2021
 20
-59.0464
 10
1730.3227
 20
-59.1699
 10
1730.449
 20
-59.2833
 10
1730.5809
 20
-59.3864
 10
1730.7185
 20
-59.4792
 10
1730.8539
 20
-59.5606
 10
1730.99
 20
-59.6357
 10
1731.1268
 20
-59.7045
 10
1731.2644
 20
-59.7669
 10
1731.403
 20
-59.8229
 10
1731.5427
 20
-59.8726
 10
1731.6835
 20
-59.916
 10
1731.8255
 20
-59.953
 10
1732.1164
 20
-60.0125
 10
1732.4185
 20
-60.0548
 10
1732.7317
 20
-60.08
 10
1733.0561
 20
-60.0884
 10
1733.4218
 20
-60.0787
 10
1733.7699
 20
-60.0497
 10
1734.1003
 20
-60.0014
 10
1734.413
 20
-59.9339
 10
1734.708
 20
-59.8471
 10
1734.9852
 20
-59.7411
 10
1735.2447
 20
-59.616
 10
1735.4863
 20
-59.4717
 10
1735.7038
 20
-59.3084
 10
1735.8924
 20
-59.1261
 10
1736.0522
 20
-58.9249
 10
1736.1831
 20
-58.7048
 10
1736.2849
 20
-58.4657
 10
1736.3578
 20
-58.2076
 10
1736.4015
 20
-57.9304
 10
1736.4161
 20
-57.6343
  0
LWPOLYLINE
  5
BF
330
1F
100
AcDbEntity
  8
Layer 1
 62
     7
100
AcDbPolyline
 90
       27
 70
     1
 43
0.0
 10
1751.6861
 20
-61.0607
 10
1742.5893
 20
-61.0607
 10
1742.5893
 20
-59.9701
 10
1745.9707
 20
-59.9701
 10
1745.9707
 20
-52.7789
 10
1742.5893
 20
-52.7789
 10
1742.5893
 20
-51.8058
 10
1743.0529
 20
-51.8008
 10
1743.485
 20
-51.786
 10
1743.8857
 20
-51.7613
 10
1744.2549
 20
-51.7268
 10
1744.5926
 20
-51.6825
 10
1744.8988
 20
-51.6284
 10
1745.1735
 20
-51.5647
 10
1745.4167
 20
-51.4913
 10
1745.6305
 20
-51.4042
 10
1745.8197
 20
-51.2995
 10
1745.9843
 20
-51.1771
 10
1746.1243
 20
-51.0371
 10
1746.2395
 20
-50.8797
 10
1746.3301
 20
-50.7048
 10
1746.3958
 20
-50.5125
 10
1746.4368
 20
-50.3029
 10
1748.3808
 20
-50.3029
 10
1748.3808
 20
-59.9701
 10
1751.6861
 20
-59.9701
 10
1751.6861
 20
-61.0607
  0
LWPOLYLINE
  5
C0
330
1F
100
AcDbEntity
  8
Layer 1
 62
     7
100
AcDbPolyline
 90
       70
 70
     1
 43
0.0
 10
1763.9052
 20
-52.8322
 10
1763.8923
 20
-52.6555
 10
1763.8534
 20
-52.4863
 10
1763.7884
 20
-52.3246
 10
1763.6973
 20
-52.1704
 10
1763.5799
 20
-52.0235
 10
1763.4362
 20
-51.8838
 10
1763.2661
 20
-51.7513
 10
1763.0694
 20
-51.626
 10
1762.8509
 20
-51.513
 10
1762.612
 20
-51.4149
 10
1762.3526
 20
-51.3318
 10
1762.0729
 20
-51.2638
 10
1761.7728
 20
-51.2108
 10
1761.4524
 20
-51.1729
 10
1761.1118
 20
-51.1502
 10
1760.7509
 20
-51.1426
 10
1760.4174
 20
-51.1494
 10
1760.0998
 20
-51.1698
 10
1759.7979
 20
-51.2037
 10
1759.5118
 20
-51.2513
 10
1759.2413
 20
-51.3125
 10
1758.9861
 20
-51.3872
 10
1758.7463
 20
-51.4756
 10
1758.5216
 20
-51.5775
 10
1758.3184
 20
-51.69
 10
1758.1422
 20
-51.8123
 10
1757.993
 20
-51.9443
 10
1757.8709
 20
-52.0859
 10
1757.7759
 20
-52.2372
 10
1757.708
 20
-52.3982
 10
1757.6672
 20
-52.5687
 10
1757.6536
 20
-52.7488
 10
1757.6606
 20
-52.8798
 10
1757.6816
 20
-53.0055
 10
1757.7165
 20
-53.1261
 10
1757.7654
 20
-53.2415
 10
1757.828
 20
-53.3519
 10
1757.9044
 20
-53.4571
 10
1757.9945
 20
-53.5574
 10
1758.0983
 20
-53.6527
 10
1758.2158
 20
-53.7436
 10
1758.3472
 20
-53.8323
 10
1758.4925
 20
-53.9187
 10
1758.6518
 20
-54.0029
 10
1758.8251
 20
-54.0848
 10
1759.0125
 20
-54.1644
 10
1759.2141
 20
-54.2417
 10
1759.4299
 20
-54.3167
 10
1760.6094
 20
-54.6551
 10
1760.997
 20
-54.7578
 10
1761.3674
 20
-54.8486
 10
1761.7199
 20
-54.9274
 10
1762.054
 20
-54.9943
 10
1762.3134
 20
-54.8731
 10
1762.5511
 20
-54.751
 10
1762.7672
 20
-54.628
 10
1762.9616
 20
-54.5043
 10
1763.1344
 20
-54.3797
 10
1763.2854
 20
-54.2543
 10
1763.4148
 20
-54.1282
 10
1763.5224
 20
-54.0014
 10
1763.6126
 20
-53.8712
 10
1763.6906
 20
-53.7366
 10
1763.7564
 20
-53.5975
 10
1763.8101
 20
-53.4537
 10
1763.8518
 20
-53.3054
 10
1763.8815
 20
-53.1524
 10
1763.8993
 20
-52.9947
 10
1763.9052
 20
-52.8322
  0
LWPOLYLINE
  5
C1
330
1F
100
AcDbEntity
  8
Layer 1
 62
     7
100
AcDbPolyline
 90
       67
 70
     1
 43
0.0
 10
1764.2917
 20
-58.2121
 10
1764.2846
 20
-58.0512
 10
1764.2634
 20
-57.8987
 10
1764.228
 20
-57.7547
 10
1764.1785
 20
-57.6191
 10
1764.1147
 20
-57.4921
 10
1764.0369
 20
-57.3736
 10
1763.9449
 20
-57.2638
 10
1763.8387
 20
-57.1625
 10
1763.7132
 20
-57.0649
 10
1763.5613
 20
-56.967
 10
1763.3831
 20
-56.8688
 10
1763.1785
 20
-56.77
 10
1762.9474
 20
-56.6708
 10
1762.69
 20
-56.571
 10
1762.406
 20
-56.4705
 10
1762.0956
 20
-56.3694
 10
1760.9578
 20
-56.0747
 10
1759.3574
 20
-55.6986
 10
1759.1059
 20
-55.8009
 10
1758.8694
 20
-55.9088
 10
1758.6481
 20
-56.0223
 10
1758.4419
 20
-56.1416
 10
1758.2508
 20
-56.2666
 10
1758.075
 20
-56.3974
 10
1757.9143
 20
-56.534
 10
1757.7689
 20
-56.6764
 10
1757.6397
 20
-56.8235
 10
1757.5275
 20
-56.9758
 10
1757.4325
 20
-57.1331
 10
1757.3547
 20
-57.2955
 10
1757.2941
 20
-57.4629
 10
1757.2508
 20
-57.6355
 10
1757.2248
 20
-57.8133
 10
1757.2161
 20
-57.9961
 10
1757.2322
 20
-58.2339
 10
1757.2804
 20
-58.4611
 10
1757.3606
 20
-58.6777
 10
1757.4726
 20
-58.8838
 10
1757.6164
 20
-59.0793
 10
1757.7919
 20
-59.2642
 10
1757.9989
 20
-59.4385
 10
1758.2374
 20
-59.6023
 10
1758.5018
 20
-59.7506
 10
1758.7823
 20
-59.8792
 10
1759.0789
 20
-59.988
 10
1759.3918
 20
-60.077
 10
1759.7208
 20
-60.1463
 10
1760.0661
 20
-60.1958
 10
1760.4277
 20
-60.2255
 10
1760.8056
 20
-60.2354
 10
1761.1898
 20
-60.2269
 10
1761.5548
 20
-60.2013
 10
1761.9005
 20
-60.1588
 10
1762.2269
 20
-60.0994
 10
1762.5338
 20
-60.0231
 10
1762.8212
 20
-59.9299
 10
1763.0889
 20
-59.8199
 10
1763.3369
 20
-59.6932
 10
1763.5612
 20
-59.5507
 10
1763.7555
 20
-59.396
 10
1763.9196
 20
-59.2291
 10
1764.0537
 20
-59.0501
 10
1764.1579
 20
-58.8588
 10
1764.2323
 20
-58.6554
 10
1764.2769
 20
-58.4399
 10
1764.2917
 20
-58.2121
  0
LWPOLYLINE
  5
C2
330
1F
100
AcDbEntity
  8
Layer 1
 62
     7
100
AcDbPolyline
 90
      147
 70
     1
 43
0.0
 10
1760.7545
 20
-61.3117
 10
1760.4107
 20
-61.308
 10
1760.0749
 20
-61.2969
 10
1759.747
 20
-61.2784
 10
1759.427
 20
-61.2524
 10
1759.1148
 20
-61.2189
 10
1758.8103
 20
-61.1779
 10
1758.5135
 20
-61.1293
 10
1758.2243
 20
-61.0731
 10
1757.9449
 20
-61.011
 10
1757.6758
 20
-60.9421
 10
1757.417
 20
-60.8666
 10
1757.1687
 20
-60.7844
 10
1756.9308
 20
-60.6955
 10
1756.7036
 20
-60.6002
 10
1756.4872
 20
-60.4983
 10
1756.2815
 20
-60.39
 10
1756.0905
 20
-60.2788
 10
1755.9117
 20
-60.1629
 10
1755.7449
 20
-60.042
 10
1755.59
 20
-59.9163
 10
1755.4468
 20
-59.7856
 10
1755.3153
 20
-59.6499
 10
1755.1953
 20
-59.5093
 10
1755.0866
 20
-59.3636
 10
1754.9916
 20
-59.2135
 10
1754.9092
 20
-59.0615
 10
1754.8393
 20
-58.9075
 10
1754.7821
 20
-58.7516
 10
1754.7375
 20
-58.5935
 10
1754.7056
 20
-58.4334
 10
1754.6864
 20
-58.2709
 10
1754.68
 20
-58.1062
 10
1754.6927
 20
-57.8903
 10
1754.7306
 20
-57.6788
 10
1754.7939
 20
-57.4718
 10
1754.8826
 20
-57.2692
 10
1754.9966
 20
-57.071
 10
1755.136
 20
-56.8771
 10
1755.3007
 20
-56.6874
 10
1755.4909
 20
-56.502
 10
1755.7064
 20
-56.3243
 10
1755.9445
 20
-56.1558
 10
1756.2053
 20
-55.9965
 10
1756.489
 20
-55.8466
 10
1756.7956
 20
-55.7059
 10
1757.1254
 20
-55.5746
 10
1757.4783
 20
-55.4527
 10
1757.8545
 20
-55.3403
 10
1757.8545
 20
-55.2965
 10
1757.5195
 20
-55.18
 10
1757.2074
 20
-55.0608
 10
1756.918
 20
-54.9388
 10
1756.6511
 20
-54.8142
 10
1756.4068
 20
-54.6869
 10
1756.1847
 20
-54.557
 10
1755.9849
 20
-54.4244
 10
1755.8071
 20
-54.2893
 10
1755.6512
 20
-54.1478
 10
1755.5162
 20
-53.9978
 10
1755.4019
 20
-53.8393
 10
1755.3085
 20
-53.6724
 10
1755.2358
 20
-53.4971
 10
1755.184
 20
-53.3134
 10
1755.1529
 20
-53.1214
 10
1755.1425
 20
-52.9211
 10
1755.1673
 20
-52.6243
 10
1755.2415
 20
-52.3402
 10
1755.3654
 20
-52.0687
 10
1755.5389
 20
-51.81
 10
1755.762
 20
-51.5639
 10
1756.0349
 20
-51.3305
 10
1756.3574
 20
-51.1098
 10
1756.7298
 20
-50.9019
 10
1757.1409
 20
-50.713
 10
1757.5786
 20
-50.5493
 10
1758.043
 20
-50.4108
 10
1758.5339
 20
-50.2976
 10
1759.0513
 20
-50.2095
 10
1759.5951
 20
-50.1467
 10
1760.1652
 20
-50.109
 10
1760.7616
 20
-50.0964
 10
1761.3807
 20
-50.1084
 10
1761.9683
 20
-50.1442
 10
1762.5244
 20
-50.204
 10
1763.0489
 20
-50.2878
 10
1763.5419
 20
-50.3955
 10
1764.0033
 20
-50.5271
 10
1764.4332
 20
-50.6827
 10
1764.8315
 20
-50.8622
 10
1765.191
 20
-51.0613
 10
1765.5027
 20
-51.2736
 10
1765.7665
 20
-51.4991
 10
1765.9824
 20
-51.7379
 10
1766.1504
 20
-51.9898
 10
1766.2704
 20
-52.255
 10
1766.3424
 20
-52.5336
 10
1766.3664
 20
-52.8254
 10
1766.355
 20
-53.0055
 10
1766.3209
 20
-53.1851
 10
1766.264
 20
-53.3644
 10
1766.1842
 20
-53.5431
 10
1766.0816
 20
-53.7213
 10
1765.9561
 20
-53.8988
 10
1765.8077
 20
-54.0756
 10
1765.6364
 20
-54.2517
 10
1765.4431
 20
-54.4237
 10
1765.2295
 20
-54.5858
 10
1764.9959
 20
-54.7381
 10
1764.742
 20
-54.8807
 10
1764.468
 20
-55.0136
 10
1764.1738
 20
-55.137
 10
1763.8594
 20
-55.2509
 10
1763.5248
 20
-55.3553
 10
1763.5248
 20
-55.3964
 10
1763.9195
 20
-55.5099
 10
1764.2894
 20
-55.6289
 10
1764.6346
 20
-55.7535
 10
1764.9551
 20
-55.8838
 10
1765.2508
 20
-56.0198
 10
1765.5218
 20
-56.1617
 10
1765.768
 20
-56.3094
 10
1765.9895
 20
-56.463
 10
1766.1863
 20
-56.6259
 10
1766.3569
 20
-56.7997
 10
1766.5012
 20
-56.9845
 10
1766.6192
 20
-57.1804
 10
1766.711
 20
-57.3875
 10
1766.7765
 20
-57.6059
 10
1766.8158
 20
-57.8356
 10
1766.8289
 20
-58.0768
 10
1766.8019
 20
-58.4141
 10
1766.7207
 20
-58.7375
 10
1766.5854
 20
-59.0467
 10
1766.3958
 20
-59.342
 10
1766.152
 20
-59.6233
 10
1765.8538
 20
-59.8905
 10
1765.5012
 20
-60.1438
 10
1765.0942
 20
-60.3831
 10
1764.6469
 20
-60.6007
 10
1764.1725
 20
-60.7893
 10
1763.671
 20
-60.9488
 10
1763.1424
 20
-61.0795
 10
1762.5865
 20
-61.181
 10
1762.0032
 20
-61.2536
 10
1761.3926
 20
-61.2972
 10
1760.7545
 20
-61.3117
  0
LWPOLYLINE
  5
C3
330
1F
100
AcDbEntity
  8
Layer 1
 62
     7
100
AcDbPolyline
 90
      178
 70
     1
 43
0.0
 10
1793.3336
 20
-61.0607
 10
1793.3336
 20
-56.4138
 10
1793.3291
 20
-56.1424
 10
1793.3153
 20
-55.8812
 10
1793.292
 20
-55.6302
 10
1793.2587
 20
-55.3895
 10
1793.238
 20
-55.2748
 10
1793.2118
 20
-55.1665
 10
1793.1801
 20
-55.0646
 10
1793.1432
 20
-54.9691
 10
1793.101
 20
-54.8799
 10
1793.0539
 20
-54.7969
 10
1793.0017
 20
-54.7202
 10
1792.9448
 20
-54.6497
 10
1792.8794
 20
-54.5805
 10
1792.8071
 20
-54.5161
 10
1792.7281
 20
-54.4563
 10
1792.6424
 20
-54.4013
 10
1792.55
 20
-54.3509
 10
1792.4511
 20
-54.3052
 10
1792.3457
 20
-54.2642
 10
1792.2338
 20
-54.2278
 10
1792.1128
 20
-54.1958
 10
1791.9817
 20
-54.1679
 10
1791.8404
 20
-54.1443
 10
1791.689
 20
-54.1249
 10
1791.3557
 20
-54.099
 10
1790.9818
 20
-54.0903
 10
1790.7976
 20
-54.0943
 10
1790.6105
 20
-54.1064
 10
1790.4204
 20
-54.1264
 10
1790.2272
 20
-54.1546
 10
1790.0309
 20
-54.1908
 10
1789.8313
 20
-54.2351
 10
1789.6283
 20
-54.2876
 10
1789.4219
 20
-54.3481
 10
1789.2131
 20
-54.4153
 10
1789.0022
 20
-54.4899
 10
1788.7893
 20
-54.5717
 10
1788.5745
 20
-54.6608
 10
1788.3577
 20
-54.7571
 10
1788.1391
 20
-54.8606
 10
1787.9188
 20
-54.9714
 10
1787.6967
 20
-55.0893
 10
1787.7311
 20
-55.3793
 10
1787.7478
 20
-55.7799
 10
1787.7478
 20
-61.0607
 10
1785.3901
 20
-61.0607
 10
1785.3901
 20
-56.4138
 10
1785.3854
 20
-56.1424
 10
1785.3712
 20
-55.8812
 10
1785.3474
 20
-55.6302
 10
1785.314
 20
-55.3895
 10
1785.2934
 20
-55.2748
 10
1785.2673
 20
-55.1665
 10
1785.2358
 20
-55.0646
 10
1785.1991
 20
-54.9691
 10
1785.1572
 20
-54.8799
 10
1785.1102
 20
-54.7969
 10
1785.0582
 20
-54.7202
 10
1785.0013
 20
-54.6497
 10
1784.9355
 20
-54.5805
 10
1784.8631
 20
-54.5161
 10
1784.7839
 20
-54.4563
 10
1784.6981
 20
-54.4013
 10
1784.6056
 20
-54.3509
 10
1784.5064
 20
-54.3052
 10
1784.4005
 20
-54.2642
 10
1784.2879
 20
-54.2278
 10
1784.1676
 20
-54.1958
 10
1784.0368
 20
-54.1679
 10
1783.8956
 20
-54.1443
 10
1783.7441
 20
-54.1249
 10
1783.4106
 20
-54.099
 10
1783.0371
 20
-54.0903
 10
1782.8443
 20
-54.0946
 10
1782.6493
 20
-54.1074
 10
1782.4522
 20
-54.1288
 10
1782.2528
 20
-54.1588
 10
1782.0511
 20
-54.1974
 10
1781.8471
 20
-54.2447
 10
1781.6407
 20
-54.3006
 10
1781.4319
 20
-54.3652
 10
1781.2227
 20
-54.4367
 10
1781.015
 20
-54.5128
 10
1780.809
 20
-54.5936
 10
1780.6046
 20
-54.679
 10
1780.4017
 20
-54.7691
 10
1780.2005
 20
-54.864
 10
1780.001
 20
-54.9636
 10
1779.8031
 20
-55.0681
 10
1779.8031
 20
-61.0607
 10
1777.4477
 20
-61.0607
 10
1777.4477
 20
-53.0291
 10
1779.8031
 20
-53.0291
 10
1779.8031
 20
-53.9235
 10
1780.0353
 20
-53.7944
 10
1780.2667
 20
-53.6727
 10
1780.4971
 20
-53.5586
 10
1780.7269
 20
-53.4519
 10
1780.9559
 20
-53.3526
 10
1781.1844
 20
-53.261
 10
1781.4124
 20
-53.1768
 10
1781.64
 20
-53.1002
 10
1781.8702
 20
-53.0319
 10
1782.1061
 20
-52.9727
 10
1782.3477
 20
-52.9225
 10
1782.5949
 20
-52.8814
 10
1782.8477
 20
-52.8495
 10
1783.1062
 20
-52.8266
 10
1783.3703
 20
-52.8129
 10
1783.6399
 20
-52.8083
 10
1783.9444
 20
-52.8134
 10
1784.2407
 20
-52.8286
 10
1784.5288
 20
-52.8539
 10
1784.8084
 20
-52.8893
 10
1785.0794
 20
-52.9349
 10
1785.3416
 20
-52.9906
 10
1785.5951
 20
-53.0564
 10
1785.8395
 20
-53.1324
 10
1786.0711
 20
-53.2199
 10
1786.2886
 20
-53.3202
 10
1786.492
 20
-53.4336
 10
1786.6813
 20
-53.5599
 10
1786.8563
 20
-53.6992
 10
1787.0169
 20
-53.8516
 10
1787.1631
 20
-54.0171
 10
1787.2948
 20
-54.1956
 10
1787.561
 20
-54.0304
 10
1787.8254
 20
-53.8753
 10
1788.0881
 20
-53.7304
 10
1788.3491
 20
-53.5959
 10
1788.6085
 20
-53.4716
 10
1788.8662
 20
-53.3578
 10
1789.1222
 20
-53.2545
 10
1789.3767
 20
-53.1618
 10
1789.6335
 20
-53.0787
 10
1789.8956
 20
-53.0068
 10
1790.1631
 20
-52.946
 10
1790.4361
 20
-52.8963
 10
1790.7146
 20
-52.8578
 10
1790.9989
 20
-52.8303
 10
1791.2888
 20
-52.8138
 10
1791.5846
 20
-52.8083
 10
1791.8073
 20
-52.8108
 10
1792.0249
 20
-52.8183
 10
1792.2375
 20
-52.8309
 10
1792.445
 20
-52.8485
 10
1792.6475
 20
-52.8711
 10
1792.8448
 20
-52.8988
 10
1793.0371
 20
-52.9317
 10
1793.2242
 20
-52.9696
 10
1793.4055
 20
-53.0132
 10
1793.5811
 20
-53.0628
 10
1793.751
 20
-53.1185
 10
1793.915
 20
-53.1804
 10
1794.0733
 20
-53.2485
 10
1794.2258
 20
-53.3229
 10
1794.3724
 20
-53.4036
 10
1794.5131
 20
-53.4907
 10
1794.6501
 20
-53.5856
 10
1794.7792
 20
-53.6858
 10
1794.9003
 20
-53.7914
 10
1795.0134
 20
-53.9026
 10
1795.1183
 20
-54.0193
 10
1795.215
 20
-54.1418
 10
1795.3034
 20
-54.27
 10
1795.3834
 20
-54.4042
 10
1795.4561
 20
-54.545
 10
1795.519
 20
-54.6945
 10
1795.5721
 20
-54.8528
 10
1795.6155
 20
-55.0199
 10
1795.6493
 20
-55.1959
 10
1795.6733
 20
-55.3807
 10
1795.6877
 20
-55.5745
 10
1795.6925
 20
-55.7772
 10
1795.6925
 20
-61.0607
 10
1793.3336
 20
-61.0607
  0
LWPOLYLINE
  5
C4
330
1F
100
AcDbEntity
  8
Layer 1
 62
     7
100
AcDbPolyline
 90
      178
 70
     1
 43
0.0
 10
1814.8553
 20
-61.0607
 10
1814.8553
 20
-56.4138
 10
1814.8508
 20
-56.1424
 10
1814.837
 20
-55.8812
 10
1814.8137
 20
-55.6302
 10
1814.7804
 20
-55.3895
 10
1814.7597
 20
-55.2748
 10
1814.7335
 20
-55.1665
 10
1814.7018
 20
-55.0646
 10
1814.6649
 20
-54.9691
 10
1814.6227
 20
-54.8799
 10
1814.5756
 20
-54.7969
 10
1814.5234
 20
-54.7202
 10
1814.4665
 20
-54.6497
 10
1814.4011
 20
-54.5805
 10
1814.3288
 20
-54.5161
 10
1814.2497
 20
-54.4563
 10
1814.1639
 20
-54.4013
 10
1814.0714
 20
-54.3509
 10
1813.9722
 20
-54.3052
 10
1813.8665
 20
-54.2642
 10
1813.7543
 20
-54.2278
 10
1813.6336
 20
-54.1958
 10
1813.5027
 20
-54.1679
 10
1813.3614
 20
-54.1443
 10
1813.21
 20
-54.1249
 10
1812.8768
 20
-54.099
 10
1812.5035
 20
-54.0903
 10
1812.3192
 20
-54.0943
 10
1812.132
 20
-54.1064
 10
1811.9418
 20
-54.1264
 10
1811.7485
 20
-54.1546
 10
1811.5521
 20
-54.1908
 10
1811.3525
 20
-54.2351
 10
1811.1496
 20
-54.2876
 10
1810.9435
 20
-54.3481
 10
1810.7343
 20
-54.4153
 10
1810.5233
 20
-54.4899
 10
1810.3103
 20
-54.5717
 10
1810.0955
 20
-54.6608
 10
1809.8787
 20
-54.7571
 10
1809.6601
 20
-54.8606
 10
1809.4395
 20
-54.9714
 10
1809.2171
 20
-55.0893
 10
1809.2528
 20
-55.3793
 10
1809.2683
 20
-55.7799
 10
1809.2683
 20
-61.0607
 10
1806.9105
 20
-61.0607
 10
1806.9105
 20
-56.4138
 10
1806.906
 20
-56.1424
 10
1806.8922
 20
-55.8812
 10
1806.8689
 20
-55.6302
 10
1806.8356
 20
-55.3895
 10
1806.815
 20
-55.2748
 10
1806.7889
 20
-55.1665
 10
1806.7575
 20
-55.0646
 10
1806.7208
 20
-54.9691
 10
1806.6788
 20
-54.8799
 10
1806.6318
 20
-54.7969
 10
1806.5798
 20
-54.7202
 10
1806.5229
 20
-54.6497
 10
1806.4572
 20
-54.5805
 10
1806.3847
 20
-54.5161
 10
1806.3056
 20
-54.4563
 10
1806.2198
 20
-54.4013
 10
1806.1272
 20
-54.3509
 10
1806.028
 20
-54.3052
 10
1805.9221
 20
-54.2642
 10
1805.8095
 20
-54.2278
 10
1805.6889
 20
-54.1958
 10
1805.5579
 20
-54.1679
 10
1805.4166
 20
-54.1443
 10
1805.2651
 20
-54.1249
 10
1804.9316
 20
-54.099
 10
1804.5575
 20
-54.0903
 10
1804.3651
 20
-54.0946
 10
1804.1703
 20
-54.1074
 10
1803.9732
 20
-54.1288
 10
1803.7737
 20
-54.1588
 10
1803.5719
 20
-54.1974
 10
1803.3677
 20
-54.2447
 10
1803.1612
 20
-54.3006
 10
1802.9524
 20
-54.3652
 10
1802.7436
 20
-54.4367
 10
1802.5364
 20
-54.5128
 10
1802.3307
 20
-54.5936
 10
1802.1265
 20
-54.679
 10
1801.9238
 20
-54.7691
 10
1801.7226
 20
-54.864
 10
1801.5229
 20
-54.9636
 10
1801.3247
 20
-55.0681
 10
1801.3247
 20
-61.0607
 10
1798.9682
 20
-61.0607
 10
1798.9682
 20
-53.0291
 10
1801.3247
 20
-53.0291
 10
1801.3247
 20
-53.9235
 10
1801.5562
 20
-53.7944
 10
1801.7871
 20
-53.6727
 10
1802.0174
 20
-53.5586
 10
1802.2472
 20
-53.4519
 10
1802.4765
 20
-53.3526
 10
1802.7053
 20
-53.261
 10
1802.9337
 20
-53.1768
 10
1803.1617
 20
-53.1002
 10
1803.3919
 20
-53.0319
 10
1803.6278
 20
-52.9727
 10
1803.8694
 20
-52.9225
 10
1804.1166
 20
-52.8814
 10
1804.3694
 20
-52.8495
 10
1804.6279
 20
-52.8266
 10
1804.8919
 20
-52.8129
 10
1805.1615
 20
-52.8083
 10
1805.466
 20
-52.8134
 10
1805.7622
 20
-52.8286
 10
1806.05
 20
-52.8539
 10
1806.3294
 20
-52.8893
 10
1806.6002
 20
-52.9349
 10
1806.8623
 20
-52.9906
 10
1807.1156
 20
-53.0564
 10
1807.36
 20
-53.1324
 10
1807.5916
 20
-53.2199
 10
1807.8091
 20
-53.3202
 10
1808.0125
 20
-53.4336
 10
1808.2018
 20
-53.5599
 10
1808.3767
 20
-53.6992
 10
1808.5374
 20
-53.8516
 10
1808.6836
 20
-54.0171
 10
1808.8153
 20
-54.1956
 10
1809.0819
 20
-54.0304
 10
1809.3466
 20
-53.8753
 10
1809.6095
 20
-53.7304
 10
1809.8707
 20
-53.5959
 10
1810.1301
 20
-53.4716
 10
1810.3878
 20
-53.3578
 10
1810.6439
 20
-53.2545
 10
1810.8984
 20
-53.1618
 10
1811.1552
 20
-53.0787
 10
1811.4173
 20
-53.0068
 10
1811.6848
 20
-52.946
 10
1811.9578
 20
-52.8963
 10
1812.2363
 20
-52.8578
 10
1812.5206
 20
-52.8303
 10
1812.8105
 20
-52.8138
 10
1813.1063
 20
-52.8083
 10
1813.3286
 20
-52.8108
 10
1813.546
 20
-52.8183
 10
1813.7586
 20
-52.8309
 10
1813.9662
 20
-52.8485
 10
1814.1688
 20
-52.8711
 10
1814.3663
 20
-52.8988
 10
1814.5587
 20
-52.9317
 10
1814.7459
 20
-52.9696
 10
1814.9268
 20
-53.0132
 10
1815.1022
 20
-53.0628
 10
1815.272
 20
-53.1185
 10
1815.4361
 20
-53.1804
 10
1815.5943
 20
-53.2485
 10
1815.7467
 20
-53.3229
 10
1815.8931
 20
-53.4036
 10
1816.0335
 20
-53.4907
 10
1816.1705
 20
-53.5856
 10
1816.2996
 20
-53.6858
 10
1816.4208
 20
-53.7914
 10
1816.534
 20
-53.9026
 10
1816.639
 20
-54.0193
 10
1816.736
 20
-54.1418
 10
1816.8247
 20
-54.27
 10
1816.9051
 20
-54.4042
 10
1816.9777
 20
-54.545
 10
1817.0405
 20
-54.6945
 10
1817.0934
 20
-54.8528
 10
1817.1366
 20
-55.0199
 10
1817.1701
 20
-55.1959
 10
1817.194
 20
-55.3807
 10
1817.2083
 20
-55.5745
 10
1817.213
 20
-55.7772
 10
1817.213
 20
-61.0607
 10
1814.8553
 20
-61.0607
  0
LWPOLYLINE
  5
C5
330
1F
100
AcDbEntity
  8
Layer 1
 62
     7
100
AcDbPolyline
 90
       13
 70
     1
 43
0.0
 10
1956.8024
 20
71.1022
 10
1956.8024
 20
69.3996
 10
1943.5085
 20
69.3996
 10
1943.5085
 20
63.5553
 10
1956.8024
 20
63.5553
 10
1956.8024
 20
61.8527
 10
1929.6557
 20
61.8527
 10
1929.6557
 20
63.5553
 10
1940.2982
 20
63.5553
 10
1940.2982
 20
69.3996
 10
1929.6557
 20
69.3996
 10
1929.6557
 20
71.1022
 10
1956.8024
 20
71.1022
  0
LWPOLYLINE
  5
C6
330
1F
100
AcDbEntity
  8
Layer 1
 62
     7
100
AcDbPolyline
 90
       27
 70
     1
 43
0.0
 10
1993.2196
 20
51.7581
 10
1993.2196
 20
46.5266
 10
1991.322
 20
46.5266
 10
1991.322
 20
48.4712
 10
1978.8175
 20
48.4712
 10
1978.8175
 20
46.5266
 10
1977.1268
 20
46.5266
 10
1977.1182
 20
46.793
 10
1977.0923
 20
47.0414
 10
1977.0493
 20
47.2718
 10
1976.9892
 20
47.4842
 10
1976.912
 20
47.6784
 10
1976.8178
 20
47.8544
 10
1976.7066
 20
48.0123
 10
1976.5786
 20
48.1519
 10
1976.4272
 20
48.2749
 10
1976.245
 20
48.3838
 10
1976.0322
 20
48.4786
 10
1975.7889
 20
48.5592
 10
1975.5151
 20
48.6256
 10
1975.2109
 20
48.6778
 10
1974.8766
 20
48.7157
 10
1974.5122
 20
48.7393
 10
1974.5122
 20
49.8573
 10
1991.322
 20
49.8573
 10
1991.322
 20
51.7581
 10
1993.2196
 20
51.7581
  0
LWPOLYLINE
  5
C7
330
1F
100
AcDbEntity
  8
Layer 1
 62
     7
100
AcDbPolyline
 90
       65
 70
     1
 43
0.0
 10
1983.8897
 20
60.4072
 10
1985.1023
 20
60.3941
 10
1986.2316
 20
60.3547
 10
1987.2777
 20
60.2891
 10
1988.2405
 20
60.1973
 10
1989.12
 20
60.0794
 10
1989.9162
 20
59.9353
 10
1990.6292
 20
59.7651
 10
1991.2589
 20
59.5689
 10
1991.8082
 20
59.345
 10
1992.2842
 20
59.0926
 10
1992.687
 20
58.8118
 10
1993.0166
 20
58.5026
 10
1993.2729
 20
58.1648
 10
1993.4559
 20
57.7987
 10
1993.5658
 20
57.404
 10
1993.6024
 20
56.9808
 10
1993.565
 20
56.5524
 10
1993.4528
 20
56.1538
 10
1993.2659
 20
55.7848
 10
1993.0042
 20
55.4454
 10
1992.6678
 20
55.1355
 10
1992.2566
 20
54.855
 10
1991.7708
 20
54.6038
 10
1991.2102
 20
54.3818
 10
1990.5739
 20
54.1874
 10
1989.8592
 20
54.019
 10
1989.0657
 20
53.8767
 10
1988.1936
 20
53.7603
 10
1987.2428
 20
53.6699
 10
1986.2131
 20
53.6053
 10
1985.1045
 20
53.5666
 10
1983.917
 20
53.5537
 10
1982.6984
 20
53.5668
 10
1981.5644
 20
53.6062
 10
1980.5151
 20
53.6718
 10
1979.5505
 20
53.7636
 10
1978.6706
 20
53.8814
 10
1977.8754
 20
54.0254
 10
1977.165
 20
54.1954
 10
1976.5394
 20
54.3914
 10
1975.9915
 20
54.6158
 10
1975.5168
 20
54.8684
 10
1975.1152
 20
55.1493
 10
1974.7867
 20
55.4587
 10
1974.5313
 20
55.7964
 10
1974.349
 20
56.1626
 10
1974.2396
 20
56.5574
 10
1974.2031
 20
56.9808
 10
1974.2409
 20
57.4088
 10
1974.3544
 20
57.8073
 10
1974.5435
 20
58.1762
 10
1974.8081
 20
58.5157
 10
1975.1483
 20
58.8256
 10
1975.5639
 20
59.1062
 10
1976.055
 20
59.3574
 10
1976.6214
 20
59.5792
 10
1977.2628
 20
59.7734
 10
1977.9806
 20
59.9417
 10
1978.7747
 20
60.084
 10
1979.6452
 20
60.2004
 10
1980.5919
 20
60.2909
 10
1981.6149
 20
60.3555
 10
1982.7142
 20
60.3943
 10
1983.8897
 20
60.4072
  0
LWPOLYLINE
  5
C8
330
1F
100
AcDbEntity
  8
Layer 1
 62
     7
100
AcDbPolyline
 90
      129
 70
     1
 43
0.0
 10
1989.567
 20
58.5651
 10
1989.3277
 20
58.6157
 10
1989.0733
 20
58.6624
 10
1988.8038
 20
58.7051
 10
1988.5191
 20
58.744
 10
1988.2191
 20
58.7791
 10
1987.9036
 20
58.8104
 10
1987.5725
 20
58.838
 10
1987.2259
 20
58.8619
 10
1986.866
 20
58.8819
 10
1986.4898
 20
58.8993
 10
1986.0972
 20
58.9141
 10
1985.6884
 20
58.9263
 10
1985.2633
 20
58.9358
 10
1984.8218
 20
58.9426
 10
1984.3639
 20
58.9467
 10
1983.8897
 20
58.9481
 10
1983.4199
 20
58.9467
 10
1982.9656
 20
58.9426
 10
1982.5269
 20
58.9358
 10
1982.1037
 20
58.9263
 10
1981.696
 20
58.9141
 10
1981.3039
 20
58.8993
 10
1980.9274
 20
58.8819
 10
1980.5665
 20
58.8619
 10
1980.2208
 20
58.8379
 10
1979.8899
 20
58.81
 10
1979.574
 20
58.7781
 10
1979.273
 20
58.7423
 10
1978.987
 20
58.7026
 10
1978.7161
 20
58.6589
 10
1978.4602
 20
58.6113
 10
1978.2194
 20
58.5597
 10
1977.9879
 20
58.503
 10
1977.7713
 20
58.4413
 10
1977.5694
 20
58.3744
 10
1977.3821
 20
58.3026
 10
1977.2091
 20
58.2257
 10
1977.0504
 20
58.1439
 10
1976.9057
 20
58.0571
 10
1976.7748
 20
57.9655
 10
1976.6593
 20
57.8671
 10
1976.5591
 20
57.7616
 10
1976.4741
 20
57.649
 10
1976.4045
 20
57.5293
 10
1976.3502
 20
57.4027
 10
1976.3113
 20
57.269
 10
1976.288
 20
57.1284
 10
1976.2802
 20
56.9808
 10
1976.288
 20
56.8348
 10
1976.3113
 20
56.6953
 10
1976.3502
 20
56.5623
 10
1976.4045
 20
56.4359
 10
1976.4741
 20
56.3161
 10
1976.5591
 20
56.2031
 10
1976.6593
 20
56.0969
 10
1976.7748
 20
55.9976
 10
1976.906
 20
55.9035
 10
1977.0519
 20
55.8144
 10
1977.2123
 20
55.7305
 10
1977.3876
 20
55.6517
 10
1977.5778
 20
55.578
 10
1977.7829
 20
55.5096
 10
1978.0031
 20
55.4463
 10
1978.2385
 20
55.3883
 10
1978.4854
 20
55.3364
 10
1978.7473
 20
55.2888
 10
1979.0244
 20
55.2454
 10
1979.3167
 20
55.2064
 10
1979.6243
 20
55.1715
 10
1979.9474
 20
55.1407
 10
1980.286
 20
55.1141
 10
1980.6402
 20
55.0916
 10
1981.0093
 20
55.0735
 10
1981.3898
 20
55.0577
 10
1981.7818
 20
55.0442
 10
1982.1854
 20
55.033
 10
1982.6007
 20
55.0243
 10
1983.0276
 20
55.018
 10
1983.4664
 20
55.0142
 10
1983.917
 20
55.0129
 10
1984.3937
 20
55.0139
 10
1984.851
 20
55.017
 10
1985.2886
 20
55.0223
 10
1985.7066
 20
55.0297
 10
1986.1048
 20
55.0392
 10
1986.4831
 20
55.051
 10
1986.8414
 20
55.065
 10
1987.1796
 20
55.0813
 10
1987.5023
 20
55.1006
 10
1987.8169
 20
55.1252
 10
1988.1231
 20
55.155
 10
1988.421
 20
55.1901
 10
1988.7105
 20
55.2303
 10
1988.9915
 20
55.2756
 10
1989.264
 20
55.326
 10
1989.5278
 20
55.3815
 10
1989.7613
 20
55.4359
 10
1989.9812
 20
55.4961
 10
1990.1873
 20
55.5619
 10
1990.3798
 20
55.6335
 10
1990.5585
 20
55.7106
 10
1990.7234
 20
55.7934
 10
1990.8744
 20
55.8818
 10
1991.0116
 20
55.9757
 10
1991.1331
 20
56.0754
 10
1991.238
 20
56.1825
 10
1991.3266
 20
56.2972
 10
1991.3988
 20
56.4193
 10
1991.4548
 20
56.5487
 10
1991.4947
 20
56.6855
 10
1991.5186
 20
56.8295
 10
1991.5265
 20
56.9808
 10
1991.5187
 20
57.1268
 10
1991.4953
 20
57.2662
 10
1991.4565
 20
57.3991
 10
1991.4021
 20
57.5255
 10
1991.3323
 20
57.6453
 10
1991.2471
 20
57.7586
 10
1991.1465
 20
57.8653
 10
1991.0307
 20
57.9655
 10
1990.9005
 20
58.0588
 10
1990.7553
 20
58.147
 10
1990.5951
 20
58.2299
 10
1990.4197
 20
58.3076
 10
1990.2292
 20
58.38
 10
1990.0236
 20
58.4471
 10
1989.8029
 20
58.5088
 10
1989.567
 20
58.5651
  0
LWPOLYLINE
  5
C9
330
1F
100
AcDbEntity
  8
Layer 1
 62
     7
100
AcDbPolyline
 90
      168
 70
     1
 43
0.0
 10
1993.2196
 20
75.7101
 10
1985.1381
 20
75.7101
 10
1983.3558
 20
75.6664
 10
1982.9689
 20
75.6395
 10
1982.6262
 20
75.6003
 10
1982.327
 20
75.5491
 10
1982.0705
 20
75.4865
 10
1981.9502
 20
75.4487
 10
1981.838
 20
75.4069
 10
1981.734
 20
75.3614
 10
1981.638
 20
75.3119
 10
1981.5503
 20
75.2587
 10
1981.4706
 20
75.2017
 10
1981.3991
 20
75.1408
 10
1981.3357
 20
75.0763
 10
1981.2801
 20
75.0069
 10
1981.2318
 20
74.9317
 10
1981.191
 20
74.8506
 10
1981.1575
 20
74.7636
 10
1981.1315
 20
74.6707
 10
1981.1128
 20
74.5719
 10
1981.1016
 20
74.4673
 10
1981.0979
 20
74.3569
 10
1981.1049
 20
74.2512
 10
1981.126
 20
74.1437
 10
1981.161
 20
74.0344
 10
1981.21
 20
73.9232
 10
1981.2729
 20
73.8102
 10
1981.3498
 20
73.6954
 10
1981.4405
 20
73.5786
 10
1981.545
 20
73.4598
 10
1981.6619
 20
73.3395
 10
1981.7916
 20
73.2182
 10
1981.9339
 20
73.0957
 10
1982.089
 20
72.9722
 10
1982.2567
 20
72.8477
 10
1982.4372
 20
72.7221
 10
1982.6303
 20
72.5954
 10
1982.8362
 20
72.4677
 10
1983.3404
 20
72.4868
 10
1984.0371
 20
72.4971
 10
1993.2196
 20
72.4971
 10
1993.2196
 20
71.1411
 10
1985.1381
 20
71.1411
 10
1983.3558
 20
71.0967
 10
1982.9689
 20
71.0706
 10
1982.6262
 20
71.0318
 10
1982.327
 20
70.9808
 10
1982.0705
 20
70.9182
 10
1981.9502
 20
70.8801
 10
1981.838
 20
70.8382
 10
1981.734
 20
70.7926
 10
1981.638
 20
70.7431
 10
1981.5503
 20
70.6899
 10
1981.4706
 20
70.633
 10
1981.3991
 20
70.5723
 10
1981.3357
 20
70.508
 10
1981.2801
 20
70.4386
 10
1981.2318
 20
70.3632
 10
1981.191
 20
70.2819
 10
1981.1575
 20
70.1946
 10
1981.1315
 20
70.1016
 10
1981.1128
 20
70.0027
 10
1981.1016
 20
69.8982
 10
1981.0979
 20
69.7879
 10
1981.1053
 20
69.6768
 10
1981.1276
 20
69.5645
 10
1981.1648
 20
69.451
 10
1981.2168
 20
69.3363
 10
1981.2838
 20
69.2203
 10
1981.3658
 20
69.1029
 10
1981.4627
 20
68.9843
 10
1981.5747
 20
68.8642
 10
1981.6995
 20
68.7441
 10
1981.8322
 20
68.625
 10
1981.9729
 20
68.5067
 10
1982.1217
 20
68.3893
 10
1982.2784
 20
68.2728
 10
1982.4432
 20
68.1573
 10
1982.616
 20
68.0426
 10
1982.797
 20
67.9288
 10
1993.2196
 20
67.9288
 10
1993.2196
 20
66.5728
 10
1979.2527
 20
66.5728
 10
1979.2527
 20
67.9288
 10
1980.8066
 20
67.9288
 10
1980.5825
 20
68.0619
 10
1980.3711
 20
68.1947
 10
1980.1726
 20
68.3271
 10
1979.987
 20
68.4592
 10
1979.8144
 20
68.591
 10
1979.6548
 20
68.7224
 10
1979.5084
 20
68.8536
 10
1979.3751
 20
68.9845
 10
1979.2571
 20
69.1171
 10
1979.1545
 20
69.2528
 10
1979.0675
 20
69.3917
 10
1978.9961
 20
69.5338
 10
1978.9405
 20
69.6791
 10
1978.9006
 20
69.8275
 10
1978.8766
 20
69.9791
 10
1978.8686
 20
70.1339
 10
1978.8774
 20
70.3092
 10
1978.9038
 20
70.4798
 10
1978.9478
 20
70.6454
 10
1979.0094
 20
70.8062
 10
1979.0885
 20
70.962
 10
1979.1851
 20
71.1127
 10
1979.2993
 20
71.2584
 10
1979.431
 20
71.3989
 10
1979.5838
 20
71.5323
 10
1979.7588
 20
71.6576
 10
1979.9561
 20
71.7747
 10
1980.1758
 20
71.8836
 10
1980.4178
 20
71.9843
 10
1980.6825
 20
72.0767
 10
1980.9698
 20
72.1608
 10
1981.2799
 20
72.2365
 10
1980.993
 20
72.3898
 10
1980.7238
 20
72.542
 10
1980.4722
 20
72.693
 10
1980.2383
 20
72.8431
 10
1980.0223
 20
72.9921
 10
1979.8242
 20
73.1401
 10
1979.6441
 20
73.2871
 10
1979.4821
 20
73.4332
 10
1979.338
 20
73.5811
 10
1979.2132
 20
73.7321
 10
1979.1077
 20
73.8861
 10
1979.0215
 20
74.0433
 10
1978.9546
 20
74.2036
 10
1978.9068
 20
74.367
 10
1978.8781
 20
74.5337
 10
1978.8686
 20
74.7036
 10
1978.873
 20
74.8317
 10
1978.8862
 20
74.9569
 10
1978.9082
 20
75.0792
 10
1978.939
 20
75.1986
 10
1978.9787
 20
75.315
 10
1979.0271
 20
75.4283
 10
1979.0843
 20
75.5387
 10
1979.1504
 20
75.6459
 10
1979.2257
 20
75.7504
 10
1979.3117
 20
75.8515
 10
1979.4084
 20
75.9493
 10
1979.516
 20
76.0437
 10
1979.6345
 20
76.1348
 10
1979.764
 20
76.2225
 10
1979.9046
 20
76.3069
 10
1980.0564
 20
76.3878
 10
1980.2207
 20
76.4665
 10
1980.3946
 20
76.5407
 10
1980.578
 20
76.6103
 10
1980.7713
 20
76.6753
 10
1980.9745
 20
76.7357
 10
1981.1877
 20
76.7915
 10
1981.4111
 20
76.8426
 10
1981.6449
 20
76.889
 10
1981.8896
 20
76.9305
 10
1982.1493
 20
76.9665
 10
1982.4243
 20
76.9968
 10
1982.7147
 20
77.0216
 10
1983.0205
 20
77.0408
 10
1983.3419
 20
77.0545
 10
1983.6792
 20
77.0627
 10
1984.0323
 20
77.0654
 10
1993.2196
 20
77.0654
 10
1993.2196
 20
75.7101
  0
LWPOLYLINE
  5
CA
330
1F
100
AcDbEntity
  8
Layer 1
 62
     7
100
AcDbPolyline
 90
      168
 70
     1
 43
0.0
 10
1993.2196
 20
88.0865
 10
1985.1381
 20
88.0865
 10
1983.3558
 20
88.0427
 10
1982.9689
 20
88.0162
 10
1982.6262
 20
87.9772
 10
1982.327
 20
87.9262
 10
1982.0705
 20
87.8636
 10
1981.9502
 20
87.8255
 10
1981.838
 20
87.7836
 10
1981.734
 20
87.7379
 10
1981.638
 20
87.6884
 10
1981.5503
 20
87.6352
 10
1981.4706
 20
87.5783
 10
1981.3991
 20
87.5176
 10
1981.3357
 20
87.4533
 10
1981.2801
 20
87.3839
 10
1981.2318
 20
87.3086
 10
1981.191
 20
87.2274
 10
1981.1575
 20
87.1403
 10
1981.1315
 20
87.0474
 10
1981.1128
 20
86.9487
 10
1981.1016
 20
86.8442
 10
1981.0979
 20
86.734
 10
1981.1049
 20
86.628
 10
1981.126
 20
86.5204
 10
1981.161
 20
86.4111
 10
1981.21
 20
86.3
 10
1981.2729
 20
86.1871
 10
1981.3498
 20
86.0723
 10
1981.4405
 20
85.9556
 10
1981.545
 20
85.8368
 10
1981.6619
 20
85.7165
 10
1981.7916
 20
85.5951
 10
1981.9339
 20
85.4725
 10
1982.089
 20
85.349
 10
1982.2567
 20
85.2244
 10
1982.4372
 20
85.0988
 10
1982.6303
 20
84.9722
 10
1982.8362
 20
84.8447
 10
1983.3404
 20
84.8638
 10
1984.0371
 20
84.8741
 10
1993.2196
 20
84.8741
 10
1993.2196
 20
83.5182
 10
1985.1381
 20
83.5182
 10
1983.3558
 20
83.4737
 10
1982.9689
 20
83.4473
 10
1982.6262
 20
83.4083
 10
1982.327
 20
83.3572
 10
1982.0705
 20
83.2946
 10
1981.9502
 20
83.2567
 10
1981.838
 20
83.215
 10
1981.734
 20
83.1694
 10
1981.638
 20
83.12
 10
1981.5503
 20
83.0669
 10
1981.4706
 20
83.0099
 10
1981.3991
 20
82.9493
 10
1981.3357
 20
82.885
 10
1981.2801
 20
82.8156
 10
1981.2318
 20
82.7402
 10
1981.191
 20
82.6588
 10
1981.1575
 20
82.5716
 10
1981.1315
 20
82.4784
 10
1981.1128
 20
82.3795
 10
1981.1016
 20
82.2748
 10
1981.0979
 20
82.1643
 10
1981.1053
 20
82.0534
 10
1981.1276
 20
81.9413
 10
1981.1648
 20
81.828
 10
1981.2168
 20
81.7133
 10
1981.2838
 20
81.5973
 10
1981.3658
 20
81.48
 10
1981.4627
 20
81.3613
 10
1981.5747
 20
81.2412
 10
1981.6995
 20
81.1211
 10
1981.8322
 20
81.0019
 10
1981.9729
 20
80.8835
 10
1982.1217
 20
80.766
 10
1982.2784
 20
80.6495
 10
1982.4432
 20
80.534
 10
1982.616
 20
80.4194
 10
1982.797
 20
80.3058
 10
1993.2196
 20
80.3058
 10
1993.2196
 20
78.9499
 10
1979.2527
 20
78.9499
 10
1979.2527
 20
80.3058
 10
1980.8066
 20
80.3058
 10
1980.5825
 20
80.439
 10
1980.3711
 20
80.5717
 10
1980.1726
 20
80.7042
 10
1979.987
 20
80.8362
 10
1979.8144
 20
80.968
 10
1979.6548
 20
81.0994
 10
1979.5084
 20
81.2306
 10
1979.3751
 20
81.3615
 10
1979.2571
 20
81.4941
 10
1979.1545
 20
81.6299
 10
1979.0675
 20
81.7688
 10
1978.9961
 20
81.9109
 10
1978.9405
 20
82.0561
 10
1978.9006
 20
82.2046
 10
1978.8766
 20
82.3562
 10
1978.8686
 20
82.511
 10
1978.8774
 20
82.6863
 10
1978.9038
 20
82.8568
 10
1978.9478
 20
83.0225
 10
1979.0094
 20
83.1832
 10
1979.0885
 20
83.339
 10
1979.1851
 20
83.4897
 10
1979.2993
 20
83.6354
 10
1979.431
 20
83.7759
 10
1979.5838
 20
83.9093
 10
1979.7588
 20
84.0345
 10
1979.9561
 20
84.1516
 10
1980.1758
 20
84.2604
 10
1980.4178
 20
84.3611
 10
1980.6825
 20
84.4535
 10
1980.9698
 20
84.5377
 10
1981.2799
 20
84.6136
 10
1980.993
 20
84.7669
 10
1980.7238
 20
84.919
 10
1980.4722
 20
85.0701
 10
1980.2383
 20
85.2201
 10
1980.0223
 20
85.3691
 10
1979.8242
 20
85.5171
 10
1979.6441
 20
85.6641
 10
1979.4821
 20
85.8102
 10
1979.338
 20
85.9581
 10
1979.2132
 20
86.109
 10
1979.1077
 20
86.2629
 10
1979.0215
 20
86.4199
 10
1978.9546
 20
86.5801
 10
1978.9068
 20
86.7435
 10
1978.8781
 20
86.9101
 10
1978.8686
 20
87.08
 10
1978.873
 20
87.2083
 10
1978.8862
 20
87.3336
 10
1978.9082
 20
87.4561
 10
1978.939
 20
87.5755
 10
1978.9787
 20
87.692
 10
1979.0271
 20
87.8054
 10
1979.0843
 20
87.9157
 10
1979.1504
 20
88.0229
 10
1979.2257
 20
88.1274
 10
1979.3117
 20
88.2285
 10
1979.4084
 20
88.3263
 10
1979.516
 20
88.4208
 10
1979.6345
 20
88.5118
 10
1979.764
 20
88.5995
 10
1979.9046
 20
88.6839
 10
1980.0564
 20
88.7648
 10
1980.2207
 20
88.8436
 10
1980.3946
 20
88.9177
 10
1980.578
 20
88.9873
 10
1980.7713
 20
89.0523
 10
1980.9745
 20
89.1127
 10
1981.1877
 20
89.1685
 10
1981.4111
 20
89.2196
 10
1981.6449
 20
89.266
 10
1981.8896
 20
89.3073
 10
1982.1493
 20
89.3432
 10
1982.4243
 20
89.3735
 10
1982.7147
 20
89.3983
 10
1983.0205
 20
89.4176
 10
1983.3419
 20
89.4314
 10
1983.6792
 20
89.4396
 10
1984.0323
 20
89.4424
 10
1993.2196
 20
89.4424
 10
1993.2196
 20
88.0865
  0
ENDSEC
  0
SECTION
  2
OBJECTS
  0
DICTIONARY
  5
C
330
0
100
AcDbDictionary
281
     1
  3
ACAD_DETAILVIEWSTYLE
350
D2
  3
ACAD_GROUP
350
D
  3
ACAD_LAYOUT
350
1A
  3
ACAD_MATERIAL
350
43
  3
ACAD_MLEADERSTYLE
350
5B
  3
ACAD_MLINESTYLE
350
17
  3
ACAD_PLOTSETTINGS
350
19
  3
ACAD_PLOTSTYLENAME
350
E
  3
ACAD_SCALELIST
350
47
  3
ACAD_SECTIONVIEWSTYLE
350
D3
  3
ACAD_TABLESTYLE
350
59
  3
ACAD_VISUALSTYLE
350
2A
  3
ACDB_RECOMPOSE_DATA
350
CF
  3
AcDbVariableDictionary
350
CB
  0
SUN
  5
5D
330
29
100
AcDbSun
 90
        1
290
     0
 63
     7
421
 16777215
 40
1.0
291
     1
 91
  2455826
 92
 54000000
292
     0
 70
     2
 71
   256
280
     1
  0
DICTIONARY
  5
D2
102
{ACAD_REACTORS
330
C
102
}
330
C
100
AcDbDictionary
281
     1
  0
DICTIONARY
  5
D
102
{ACAD_REACTORS
330
C
102
}
330
C
100
AcDbDictionary
281
     1
  0
DICTIONARY
  5
1A
102
{ACAD_REACTORS
330
C
102
}
330
C
100
AcDbDictionary
281
     1
  3
Layout1
350
1E
  3
Layout2
350
26
  3
Model
350
22
  0
DICTIONARY
  5
43
102
{ACAD_REACTORS
330
C
102
}
330
C
100
AcDbDictionary
281
     1
  3
ByBlock
350
45
  3
ByLayer
350
44
  3
Global
350
46
  0
DICTIONARY
  5
5B
102
{ACAD_REACTORS
330
C
102
}
330
C
100
AcDbDictionary
281
     1
  3
Standard
350
5C
  0
DICTIONARY
  5
17
102
{ACAD_REACTORS
330
C
102
}
330
C
100
AcDbDictionary
281
     1
  3
Standard
350
18
  0
DICTIONARY
  5
19
102
{ACAD_REACTORS
330
C
102
}
330
C
100
AcDbDictionary
281
     1
  0
ACDBDICTIONARYWDFLT
  5
E
102
{ACAD_REACTORS
330
C
102
}
330
C
100
AcDbDictionary
281
     1
  3
Normal
350
F
100
AcDbDictionaryWithDefault
340
F
  0
DICTIONARY
  5
47
102
{ACAD_REACTORS
330
C
102
}
330
C
100
AcDbDictionary
281
     1
  3
A0
350
48
  3
A1
350
49
  3
A2
350
4A
  3
A3
350
4B
  3
A4
350
4C
  3
A5
350
4D
  3
A6
350
4E
  3
A7
350
4F
  3
A8
350
50
  3
A9
350
51
  3
B1
350
52
  3
B2
350
53
  3
B3
350
54
  3
B4
350
55
  3
B5
350
56
  3
B6
350
57
  3
B7
350
58
  0
DICTIONARY
  5
D3
102
{ACAD_REACTORS
330
C
102
}
330
C
100
AcDbDictionary
281
     1
  0
DICTIONARY
  5
59
102
{ACAD_REACTORS
330
C
102
}
330
C
100
AcDbDictionary
281
     1
  3
Standard
350
5A
  0
DICTIONARY
  5
2A
102
{ACAD_REACTORS
330
C
102
}
330
C
100
AcDbDictionary
281
     1
  3
2dWireframe
350
2F
  3
Basic
350
32
  3
Brighten
350
36
  3
ColorChange
350
3A
  3
Conceptual
350
34
  3
Dim
350
35
  3
EdgeColorOff
350
3D
  3
Facepattern
350
39
  3
Flat
350
2B
  3
FlatWithEdges
350
2C
  3
Gouraud
350
2D
  3
GouraudWithEdges
350
2E
  3
Hidden
350
31
  3
JitterOff
350
3B
  3
Linepattern
350
38
  3
OverhangOff
350
3C
  3
Realistic
350
33
  3
Shaded
350
42
  3
Shaded with edges
350
41
  3
Shades of Gray
350
3E
  3
Sketchy
350
3F
  3
Thicken
350
37
  3
Wireframe
350
30
  3
X-Ray
350
40
  0
XRECORD
  5
CF
102
{ACAD_REACTORS
330
C
102
}
330
C
100
AcDbXrecord
280
     1
 90
        1
330
5A
  0
DICTIONARY
  5
CB
102
{ACAD_REACTORS
330
C
102
}
330
C
100
AcDbDictionary
281
     1
  3
CANNOSCALE
350
CC
  3
CMLEADERSTYLE
350
D1
  3
CTABLESTYLE
350
D0
  0
LAYOUT
  5
1E
102
{ACAD_REACTORS
330
1A
102
}
330
1A
100
AcDbPlotSettings
  1

  2
none_device
  4

  6

 40
0.0
 41
0.0
 42
0.0
 43
0.0
 44
0.0
 45
0.0
 46
0.0
 47
0.0
 48
0.0
 49
0.0
140
0.0
141
0.0
142
1.0
143
1.0
 70
   688
 72
     0
 73
     0
 74
     5
  7

 75
    16
 76
     0
 77
     2
 78
   300
147
1.0
148
0.0
149
0.0
100
AcDbLayout
  1
Layout1
 70
     1
 71
     1
 10
0.0
 20
0.0
 11
12.0
 21
9.0
 12
0.0
 22
0.0
 32
0.0
 14
1.000000000000000E+20
 24
1.000000000000000E+20
 34
1.000000000000000E+20
 15
-1.000000000000000E+20
 25
-1.000000000000000E+20
 35
-1.000000000000000E+20
146
0.0
 13
0.0
 23
0.0
 33
0.0
 16
1.0
 26
0.0
 36
0.0
 17
0.0
 27
1.0
 37
0.0
 76
     0
330
1B
  0
LAYOUT
  5
26
102
{ACAD_REACTORS
330
1A
102
}
330
1A
100
AcDbPlotSettings
  1

  2
none_device
  4

  6

 40
0.0
 41
0.0
 42
0.0
 43
0.0
 44
0.0
 45
0.0
 46
0.0
 47
0.0
 48
0.0
 49
0.0
140
0.0
141
0.0
142
1.0
143
1.0
 70
   688
 72
     0
 73
     0
 74
     5
  7

 75
    16
 76
     0
 77
     2
 78
   300
147
1.0
148
0.0
149
0.0
100
AcDbLayout
  1
Layout2
 70
     1
 71
     2
 10
0.0
 20
0.0
 11
0.0
 21
0.0
 12
0.0
 22
0.0
 32
0.0
 14
0.0
 24
0.0
 34
0.0
 15
0.0
 25
0.0
 35
0.0
146
0.0
 13
0.0
 23
0.0
 33
0.0
 16
1.0
 26
0.0
 36
0.0
 17
0.0
 27
1.0
 37
0.0
 76
     0
330
23
  0
LAYOUT
  5
22
102
{ACAD_REACTORS
330
1A
102
}
330
1A
100
AcDbPlotSettings
  1

  2
none_device
  4
Letter_(8.50_x_11.00_Inches)
  6

 40
6.35
 41
6.35
 42
6.35000508
 43
6.35000508
 44
215.9
 45
279.4
 46
0.0
 47
0.0
 48
0.0
 49
0.0
140
0.0
141
0.0
142
1.0
143
1.0
 70
  1712
 72
     0
 73
     0
 74
     0
  7

 75
     0
 76
     0
 77
     2
 78
   300
147
1.0
148
0.0
149
0.0
100
AcDbLayout
  1
Model
 70
     1
 71
     0
 10
0.0
 20
0.0
 11
12.0
 21
9.0
 12
0.0
 22
0.0
 32
0.0
 14
484.9806
 24
-319.5607
 34
0.0
 15
2021.8418
 25
395.7053
 35
0.0
146
0.0
 13
0.0
 23
0.0
 33
0.0
 16
1.0
 26
0.0
 36
0.0
 17
0.0
 27
1.0
 37
0.0
 76
     0
330
1F
331
29
  0
MATERIAL
  5
45
102
{ACAD_REACTORS
330
43
102
}
330
43
100
AcDbMaterial
  1
ByBlock
 72
     1
 94
      127
  0
MATERIAL
  5
44
102
{ACAD_REACTORS
330
43
102
}
330
43
100
AcDbMaterial
  1
ByLayer
 72
     1
 94
      127
  0
MATERIAL
  5
46
102
{ACAD_REACTORS
330
43
102
}
330
43
100
AcDbMaterial
  1
Global
 72
     1
 94
      127
  0
MLEADERSTYLE
  5
5C
102
{ACAD_REACTORS
330
5B
102
}
330
5B
100
AcDbMLeaderStyle
179
     2
170
     2
171
     1
172
     0
 90
        2
 40
0.0
 41
0.0
173
     1
 91
-1056964608
340
14
 92
       -2
290
     1
 42
0.09
291
     1
 43
0.36
  3
Standard
341
0
 44
0.18
300

342
11
174
     1
178
     6
175
     1
176
     0
 93
-1056964608
 45
0.18
292
     0
297
     0
 46
0.18
343
0
 94
-1056964608
 47
1.0
 49
1.0
140
1.0
293
     1
141
0.0
294
     1
177
     0
142
1.0
295
     0
296
     0
143
0.125
271
     0
272
     9
273
     9
298
     0
  0
MLINESTYLE
  5
18
102
{ACAD_REACTORS
330
17
102
}
330
17
100
AcDbMlineStyle
  2
Standard
 70
     0
  3

 62
   256
 51
90.0
 52
90.0
 71
     2
 49
0.5
 62
   256
  6
BYLAYER
 49
-0.5
 62
   256
  6
BYLAYER
  0
ACDBPLACEHOLDER
  5
F
102
{ACAD_REACTORS
330
E
102
}
330
E
  0
SCALE
  5
48
102
{ACAD_REACTORS
330
47
102
}
330
47
100
AcDbScale
 70
     0
300
1:1
140
1.0
141
1.0
290
     1
  0
SCALE
  5
49
102
{ACAD_REACTORS
330
47
102
}
330
47
100
AcDbScale
 70
     0
300
1/128" = 1'-0"
140
0.0078125
141
12.0
290
     0
  0
SCALE
  5
4A
102
{ACAD_REACTORS
330
47
102
}
330
47
100
AcDbScale
 70
     0
300
1/64" = 1'-0"
140
0.015625
141
12.0
290
     0
  0
SCALE
  5
4B
102
{ACAD_REACTORS
330
47
102
}
330
47
100
AcDbScale
 70
     0
300
1/32" = 1'-0"
140
0.03125
141
12.0
290
     0
  0
SCALE
  5
4C
102
{ACAD_REACTORS
330
47
102
}
330
47
100
AcDbScale
 70
     0
300
1/16" = 1'-0"
140
0.0625
141
12.0
290
     0
  0
SCALE
  5
4D
102
{ACAD_REACTORS
330
47
102
}
330
47
100
AcDbScale
 70
     0
300
3/32" = 1'-0"
140
0.09375
141
12.0
290
     0
  0
SCALE
  5
4E
102
{ACAD_REACTORS
330
47
102
}
330
47
100
AcDbScale
 70
     0
300
1/8" = 1'-0"
140
0.125
141
12.0
290
     0
  0
SCALE
  5
4F
102
{ACAD_REACTORS
330
47
102
}
330
47
100
AcDbScale
 70
     0
300
3/16" = 1'-0"
140
0.1875
141
12.0
290
     0
  0
SCALE
  5
50
102
{ACAD_REACTORS
330
47
102
}
330
47
100
AcDbScale
 70
     0
300
1/4" = 1'-0"
140
0.25
141
12.0
290
     0
  0
SCALE
  5
51
102
{ACAD_REACTORS
330
47
102
}
330
47
100
AcDbScale
 70
     0
300
3/8" = 1'-0"
140
0.375
141
12.0
290
     0
  0
SCALE
  5
52
102
{ACAD_REACTORS
330
47
102
}
330
47
100
AcDbScale
 70
     0
300
1/2" = 1'-0"
140
0.5
141
12.0
290
     0
  0
SCALE
  5
53
102
{ACAD_REACTORS
330
47
102
}
330
47
100
AcDbScale
 70
     0
300
3/4" = 1'-0"
140
0.75
141
12.0
290
     0
  0
SCALE
  5
54
102
{ACAD_REACTORS
330
47
102
}
330
47
100
AcDbScale
 70
     0
300
1" = 1'-0"
140
1.0
141
12.0
290
     0
  0
SCALE
  5
55
102
{ACAD_REACTORS
330
47
102
}
330
47
100
AcDbScale
 70
     0
300
1-1/2" = 1'-0"
140
1.5
141
12.0
290
     0
  0
SCALE
  5
56
102
{ACAD_REACTORS
330
47
102
}
330
47
100
AcDbScale
 70
     0
300
3" = 1'-0"
140
3.0
141
12.0
290
     0
  0
SCALE
  5
57
102
{ACAD_REACTORS
330
47
102
}
330
47
100
AcDbScale
 70
     0
300
6" = 1'-0"
140
6.0
141
12.0
290
     0
  0
SCALE
  5
58
102
{ACAD_REACTORS
330
47
102
}
330
47
100
AcDbScale
 70
     0
300
1'-0" = 1'-0"
140
12.0
141
12.0
290
     0
  0
TABLESTYLE
  5
5A
102
{ACAD_REACTORS
330
59
102
}
102
{ACAD_XDICTIONARY
360
CD
102
}
330
59
100
AcDbTableStyle
  3
Standard
 70
     0
 71
     0
 40
0.06
 41
0.06
280
     0
281
     0
  7
Standard
140
0.18
170
     2
 62
     0
 63
   257
283
     0
 90
        4
 91
        0
  1

274
    -2
284
     1
 64
     0
275
    -2
285
     1
 65
     0
276
    -2
286
     1
 66
     0
277
    -2
287
     1
 67
     0
278
    -2
288
     1
 68
     0
279
    -2
289
     1
 69
     0
  7
Standard
140
0.25
170
     5
 62
     0
 63
   257
283
     0
 90
        4
 91
        0
  1

274
    -2
284
     1
 64
     0
275
    -2
285
     1
 65
     0
276
    -2
286
     1
 66
     0
277
    -2
287
     1
 67
     0
278
    -2
288
     1
 68
     0
279
    -2
289
     1
 69
     0
  7
Standard
140
0.18
170
     5
 62
     0
 63
   257
283
     0
 90
        4
 91
        0
  1

274
    -2
284
     1
 64
     0
275
    -2
285
     1
 65
     0
276
    -2
286
     1
 66
     0
277
    -2
287
     1
 67
     0
278
    -2
288
     1
 68
     0
279
    -2
289
     1
 69
     0
  0
VISUALSTYLE
  5
2F
102
{ACAD_REACTORS
330
2A
102
}
330
2A
100
AcDbVisualStyle
  2
2dWireframe
 70
     4
177
     3
291
     0
 70
    58
 90
        0
176
     1
 90
        2
176
     1
 90
        0
176
     1
 90
        0
176
     1
 40
0.6
176
     1
 40
30.0
176
     1
 62
     7
420
 16777215
176
     1
 90
        1
176
     1
 90
        4
176
     1
 62
     7
176
     1
 62
   257
176
     1
 90
        1
176
     1
 90
        1
176
     1
 40
1.0
176
     1
 90
        0
176
     1
 62
   257
176
     1
 40
1.0
176
     1
 90
        1
176
     1
 90
        6
176
     1
 90
        2
176
     1
 62
     7
176
     1
 90
        5
176
     1
 90
        0
176
     1
 90
        0
176
     1
290
     0
176
     1
 90
        1
176
     1
 40
0.0
176
     1
 90
        0
176
     1
290
     1
176
     1
290
     1
176
     1
290
     0
176
     1
290
     0
176
     1
290
     0
176
     1
290
     0
176
     1
290
     0
176
     1
290
     0
176
     1
290
     0
176
     1
 90
       50
176
     1
 40
0.0
176
     1
 40
1.0
176
     1
 90
        0
176
     1
 62
    18
420
        0
176
     1
 90
       50
176
     1
 90
        3
176
     1
 62
     5
420
      255
176
     1
290
     0
176
     1
 90
       50
176
     1
 90
       50
176
     1
 90
       50
176
     1
290
     0
176
     1
 90
       50
176
     1
 62
   256
176
     0
 40
1.0
176
     0
 90
        2
176
     1
  1
strokes_ogs.tif
176
     1
290
     0
176
     1
 40
1.0
176
     1
 40
1.0
176
     1
  0
VISUALSTYLE
  5
32
102
{ACAD_REACTORS
330
2A
102
}
330
2A
100
AcDbVisualStyle
  2
Basic
 70
     7
177
     3
291
     1
 70
    58
 90
        1
176
     1
 90
        0
176
     1
 90
        1
176
     1
 90
        0
176
     1
 40
0.6
176
     1
 40
30.0
176
     1
 62
     7
420
 16777215
176
     1
 90
        0
176
     1
 90
        4
176
     1
 62
     7
176
     1
 62
   257
176
     1
 90
        1
176
     1
 90
        1
176
     1
 40
1.0
176
     1
 90
        8
176
     1
 62
     7
176
     1
 40
1.0
176
     1
 90
        1
176
     1
 90
        6
176
     1
 90
        2
176
     1
 62
     7
176
     1
 90
        5
176
     1
 90
        0
176
     1
 90
        0
176
     1
290
     0
176
     1
 90
        1
176
     1
 40
0.0
176
     1
 90
        0
176
     1
290
     0
176
     1
290
     1
176
     1
290
     1
176
     1
290
     0
176
     1
290
     0
176
     1
290
     0
176
     1
290
     0
176
     1
290
     0
176
     1
290
     0
176
     1
 90
       50
176
     1
 40
0.0
176
     1
 40
1.0
176
     1
 90
        0
176
     1
 62
    18
420
        0
176
     1
 90
       50
176
     1
 90
        3
176
     1
 62
     5
420
      255
176
     1
290
     0
176
     1
 90
       50
176
     1
 90
       50
176
     1
 90
       50
176
     1
290
     0
176
     1
 90
       50
176
     1
 62
   256
176
     0
 40
1.0
176
     0
 90
        2
176
     1
  1
strokes_ogs.tif
176
     1
290
     0
176
     1
 40
1.0
176
     1
 40
1.0
176
     1
  0
VISUALSTYLE
  5
36
102
{ACAD_REACTORS
330
2A
102
}
330
2A
100
AcDbVisualStyle
  2
Brighten
 70
    12
177
     3
291
     1
 70
    58
 90
        2
176
     1
 90
        2
176
     1
 90
        0
176
     1
 90
        0
176
     1
 40
0.6
176
     1
 40
30.0
176
     1
 62
     7
420
 16777215
176
     1
 90
        1
176
     1
 90
        4
176
     1
 62
     7
176
     1
 62
   257
176
     1
 90
        1
176
     1
 90
        1
176
     1
 40
1.0
176
     1
 90
        8
176
     1
 62
     7
176
     1
 40
1.0
176
     1
 90
        1
176
     1
 90
        6
176
     1
 90
        2
176
     1
 62
     7
176
     1
 90
        5
176
     1
 90
        0
176
     1
 90
        0
176
     1
290
     0
176
     1
 90
        1
176
     1
 40
50.0
176
     1
 90
        0
176
     1
290
     0
176
     1
290
     1
176
     1
290
     1
176
     1
290
     0
176
     1
290
     0
176
     1
290
     0
176
     1
290
     0
176
     1
290
     0
176
     1
290
     0
176
     1
 90
       50
176
     1
 40
0.0
176
     1
 40
1.0
176
     1
 90
        0
176
     1
 62
    18
420
        0
176
     1
 90
       50
176
     1
 90
        3
176
     1
 62
     5
420
      255
176
     1
290
     0
176
     1
 90
       50
176
     1
 90
       50
176
     1
 90
       50
176
     1
290
     0
176
     1
 90
       50
176
     1
 62
   256
176
     0
 40
1.0
176
     0
 90
        2
176
     1
  1
strokes_ogs.tif
176
     1
290
     0
176
     1
 40
1.0
176
     1
 40
1.0
176
     1
  0
VISUALSTYLE
  5
3A
102
{ACAD_REACTORS
330
2A
102
}
330
2A
100
AcDbVisualStyle
  2
ColorChange
 70
    16
177
     3
291
     1
 70
    58
 90
        2
176
     1
 90
        2
176
     1
 90
        3
176
     1
 90
        0
176
     1
 40
0.6
176
     1
 40
30.0
176
     1
 62
     8
420
  8421504
176
     1
 90
        1
176
     1
 90
        4
176
     1
 62
     7
176
     1
 62
   257
176
     1
 90
        1
176
     1
 90
        1
176
     1
 40
1.0
176
     1
 90
        8
176
     1
 62
     8
420
  8421504
176
     1
 40
1.0
176
     1
 90
        1
176
     1
 90
        6
176
     1
 90
        2
176
     1
 62
     7
176
     1
 90
        5
176
     1
 90
        0
176
     1
 90
        0
176
     1
290
     0
176
     1
 90
        1
176
     1
 40
0.0
176
     1
 90
        0
176
     1
290
     0
176
     1
290
     1
176
     1
290
     1
176
     1
290
     0
176
     1
290
     0
176
     1
290
     0
176
     1
290
     0
176
     1
290
     0
176
     1
290
     0
176
     1
 90
       50
176
     1
 40
0.0
176
     1
 40
1.0
176
     1
 90
        0
176
     1
 62
    18
420
        0
176
     1
 90
       50
176
     1
 90
        3
176
     1
 62
     5
420
      255
176
     1
290
     0
176
     1
 90
       50
176
     1
 90
       50
176
     1
 90
       50
176
     1
290
     0
176
     1
 90
       50
176
     1
 62
   256
176
     0
 40
1.0
176
     0
 90
        2
176
     1
  1
strokes_ogs.tif
176
     1
290
     0
176
     1
 40
1.0
176
     1
 40
1.0
176
     1
  0
VISUALSTYLE
  5
34
102
{ACAD_REACTORS
330
2A
102
}
330
2A
100
AcDbVisualStyle
  2
Conceptual
 70
     9
177
     3
291
     0
 70
    58
 90
        3
176
     1
 90
        2
176
     1
 90
        0
176
     1
 90
        0
176
     1
 40
0.6
176
     1
 40
30.0
176
     1
 62
     7
420
 16777215
176
     1
 90
        2
176
     1
 90
        2
176
     1
 62
     7
176
     1
 62
   257
176
     1
 90
        1
176
     1
 90
        1
176
     1
 40
179.0
176
     1
 90
        8
176
     1
 62
     7
176
     1
 40
1.0
176
     1
 90
        1
176
     1
 90
        6
176
     1
 90
        2
176
     1
 62
     7
176
     1
 90
        3
176
     1
 90
        0
176
     1
 90
        0
176
     1
290
     0
176
     1
 90
        1
176
     1
 40
0.0
176
     1
 90
        0
176
     1
290
     0
176
     1
290
     1
176
     1
290
     1
176
     1
290
     0
176
     1
290
     0
176
     1
290
     0
176
     1
290
     0
176
     1
290
     0
176
     1
290
     0
176
     1
 90
       50
176
     1
 40
0.0
176
     1
 40
1.0
176
     1
 90
        0
176
     1
 62
    18
420
        0
176
     1
 90
       50
176
     1
 90
        3
176
     1
 62
     5
420
      255
176
     1
290
     0
176
     1
 90
       50
176
     1
 90
       50
176
     1
 90
       50
176
     1
290
     0
176
     1
 90
       50
176
     1
 62
   256
176
     0
 40
1.0
176
     0
 90
        2
176
     1
  1
strokes_ogs.tif
176
     1
290
     0
176
     1
 40
1.0
176
     1
 40
1.0
176
     1
  0
VISUALSTYLE
  5
35
102
{ACAD_REACTORS
330
2A
102
}
330
2A
100
AcDbVisualStyle
  2
Dim
 70
    11
177
     3
291
     1
 70
    58
 90
        2
176
     1
 90
        2
176
     1
 90
        0
176
     1
 90
        0
176
     1
 40
0.6
176
     1
 40
30.0
176
     1
 62
     7
420
 16777215
176
     1
 90
        1
176
     1
 90
        4
176
     1
 62
     7
176
     1
 62
   257
176
     1
 90
        1
176
     1
 90
        1
176
     1
 40
1.0
176
     1
 90
        8
176
     1
 62
     7
176
     1
 40
1.0
176
     1
 90
        1
176
     1
 90
        6
176
     1
 90
        2
176
     1
 62
     7
176
     1
 90
        5
176
     1
 90
        0
176
     1
 90
        0
176
     1
290
     0
176
     1
 90
        1
176
     1
 40
-50.0
176
     1
 90
        0
176
     1
290
     0
176
     1
290
     1
176
     1
290
     1
176
     1
290
     0
176
     1
290
     0
176
     1
290
     0
176
     1
290
     0
176
     1
290
     0
176
     1
290
     0
176
     1
 90
       50
176
     1
 40
0.0
176
     1
 40
1.0
176
     1
 90
        0
176
     1
 62
    18
420
        0
176
     1
 90
       50
176
     1
 90
        3
176
     1
 62
     5
420
      255
176
     1
290
     0
176
     1
 90
       50
176
     1
 90
       50
176
     1
 90
       50
176
     1
290
     0
176
     1
 90
       50
176
     1
 62
   256
176
     0
 40
1.0
176
     0
 90
        2
176
     1
  1
strokes_ogs.tif
176
     1
290
     0
176
     1
 40
1.0
176
     1
 40
1.0
176
     1
  0
VISUALSTYLE
  5
3D
102
{ACAD_REACTORS
330
2A
102
}
330
2A
100
AcDbVisualStyle
  2
EdgeColorOff
 70
    22
177
     3
291
     1
 70
    58
 90
        2
176
     0
 90
        2
176
     0
 90
        0
176
     0
 90
        0
176
     0
 40
0.6
176
     0
 40
30.0
176
     0
 62
     7
420
 16777215
176
     0
 90
        1
176
     0
 90
        4
176
     0
 62
     7
176
     0
 62
   257
176
     0
 90
        1
176
     0
 90
        1
176
     0
 40
1.0
176
     0
 90
        8
176
     2
 62
     7
176
     0
 40
1.0
176
     0
 90
        1
176
     0
 90
        6
176
     0
 90
        2
176
     0
 62
     7
176
     0
 90
        5
176
     0
 90
        0
176
     0
 90
        0
176
     0
290
     0
176
     0
 90
        1
176
     0
 40
0.0
176
     0
 90
        0
176
     0
290
     0
176
     0
290
     1
176
     0
290
     1
176
     0
290
     0
176
     0
290
     0
176
     0
290
     0
176
     0
290
     0
176
     0
290
     0
176
     0
290
     0
176
     0
 90
       50
176
     0
 40
0.0
176
     0
 40
1.0
176
     0
 90
        0
176
     0
 62
    18
420
        0
176
     0
 90
       50
176
     0
 90
        3
176
     0
 62
     5
420
      255
176
     0
290
     0
176
     0
 90
       50
176
     0
 90
       50
176
     0
 90
       50
176
     0
290
     0
176
     0
 90
       50
176
     0
 62
   256
176
     0
 40
1.0
176
     0
 90
        2
176
     0
  1
strokes_ogs.tif
176
     0
290
     0
176
     0
 40
1.0
176
     0
 40
1.0
176
     0
  0
VISUALSTYLE
  5
39
102
{ACAD_REACTORS
330
2A
102
}
330
2A
100
AcDbVisualStyle
  2
Facepattern
 70
    15
177
     3
291
     1
 70
    58
 90
        2
176
     1
 90
        2
176
     1
 90
        0
176
     1
 90
        0
176
     1
 40
0.6
176
     1
 40
30.0
176
     1
 62
     7
420
 16777215
176
     1
 90
        1
176
     1
 90
        4
176
     1
 62
     7
176
     1
 62
   257
176
     1
 90
        1
176
     1
 90
        1
176
     1
 40
1.0
176
     1
 90
        8
176
     1
 62
     7
176
     1
 40
1.0
176
     1
 90
        1
176
     1
 90
        6
176
     1
 90
        2
176
     1
 62
     7
176
     1
 90
        5
176
     1
 90
        0
176
     1
 90
        0
176
     1
290
     0
176
     1
 90
        1
176
     1
 40
0.0
176
     1
 90
        0
176
     1
290
     0
176
     1
290
     1
176
     1
290
     1
176
     1
290
     0
176
     1
290
     0
176
     1
290
     0
176
     1
290
     0
176
     1
290
     0
176
     1
290
     0
176
     1
 90
       50
176
     1
 40
0.0
176
     1
 40
1.0
176
     1
 90
        0
176
     1
 62
    18
420
        0
176
     1
 90
       50
176
     1
 90
        3
176
     1
 62
     5
420
      255
176
     1
290
     0
176
     1
 90
       50
176
     1
 90
       50
176
     1
 90
       50
176
     1
290
     0
176
     1
 90
       50
176
     1
 62
   256
176
     0
 40
1.0
176
     0
 90
        2
176
     1
  1
strokes_ogs.tif
176
     1
290
     0
176
     1
 40
1.0
176
     1
 40
1.0
176
     1
  0
VISUALSTYLE
  5
2B
102
{ACAD_REACTORS
330
2A
102
}
330
2A
100
AcDbVisualStyle
  2
Flat
 70
     0
177
     3
291
     1
 70
    58
 90
        2
176
     1
 90
        1
176
     1
 90
        1
176
     1
 90
        2
176
     1
 40
0.6
176
     1
 40
30.0
176
     1
 62
     7
420
 16777215
176
     1
 90
        0
176
     1
 90
        0
176
     1
 62
     7
176
     1
 62
   257
176
     1
 90
        1
176
     1
 90
        1
176
     1
 40
1.0
176
     1
 90
        8
176
     1
 62
     7
176
     1
 40
1.0
176
     1
 90
        1
176
     1
 90
        6
176
     1
 90
        2
176
     1
 62
     7
176
     1
 90
        5
176
     1
 90
        0
176
     1
 90
        0
176
     1
290
     0
176
     1
 90
       13
176
     1
 40
0.0
176
     1
 90
        0
176
     1
290
     0
176
     1
290
     1
176
     1
290
     1
176
     1
290
     0
176
     1
290
     0
176
     1
290
     0
176
     1
290
     0
176
     1
290
     0
176
     1
290
     0
176
     1
 90
       50
176
     1
 40
0.0
176
     1
 40
1.0
176
     1
 90
        0
176
     1
 62
    18
420
        0
176
     1
 90
       50
176
     1
 90
        3
176
     1
 62
     5
420
      255
176
     1
290
     0
176
     1
 90
       50
176
     1
 90
       50
176
     1
 90
       50
176
     1
290
     0
176
     1
 90
       50
176
     1
 62
   256
176
     0
 40
1.0
176
     0
 90
        2
176
     1
  1
strokes_ogs.tif
176
     1
290
     0
176
     1
 40
1.0
176
     1
 40
1.0
176
     1
  0
VISUALSTYLE
  5
2C
102
{ACAD_REACTORS
330
2A
102
}
330
2A
100
AcDbVisualStyle
  2
FlatWithEdges
 70
     1
177
     3
291
     1
 70
    58
 90
        2
176
     1
 90
        1
176
     1
 90
        1
176
     1
 90
        2
176
     1
 40
0.6
176
     1
 40
30.0
176
     1
 62
     7
420
 16777215
176
     1
 90
        1
176
     1
 90
        0
176
     1
 62
     7
176
     1
 62
   257
176
     1
 90
        1
176
     1
 90
        1
176
     1
 40
1.0
176
     1
 90
        0
176
     1
 62
   257
176
     1
 40
1.0
176
     1
 90
        1
176
     1
 90
        6
176
     1
 90
        2
176
     1
 62
     7
176
     1
 90
        5
176
     1
 90
        0
176
     1
 90
        0
176
     1
290
     0
176
     1
 90
       13
176
     1
 40
0.0
176
     1
 90
        0
176
     1
290
     0
176
     1
290
     1
176
     1
290
     1
176
     1
290
     0
176
     1
290
     0
176
     1
290
     0
176
     1
290
     0
176
     1
290
     0
176
     1
290
     0
176
     1
 90
       50
176
     1
 40
0.0
176
     1
 40
1.0
176
     1
 90
        0
176
     1
 62
    18
420
        0
176
     1
 90
       50
176
     1
 90
        3
176
     1
 62
     5
420
      255
176
     1
290
     0
176
     1
 90
       50
176
     1
 90
       50
176
     1
 90
       50
176
     1
290
     0
176
     1
 90
       50
176
     1
 62
   256
176
     0
 40
1.0
176
     0
 90
        2
176
     1
  1
strokes_ogs.tif
176
     1
290
     0
176
     1
 40
1.0
176
     1
 40
1.0
176
     1
  0
VISUALSTYLE
  5
2D
102
{ACAD_REACTORS
330
2A
102
}
330
2A
100
AcDbVisualStyle
  2
Gouraud
 70
     2
177
     3
291
     1
 70
    58
 90
        2
176
     1
 90
        2
176
     1
 90
        1
176
     1
 90
        2
176
     1
 40
0.6
176
     1
 40
30.0
176
     1
 62
     7
420
 16777215
176
     1
 90
        0
176
     1
 90
        0
176
     1
 62
     7
176
     1
 62
   257
176
     1
 90
        1
176
     1
 90
        1
176
     1
 40
1.0
176
     1
 90
        0
176
     1
 62
     7
176
     1
 40
1.0
176
     1
 90
        1
176
     1
 90
        6
176
     1
 90
        2
176
     1
 62
     7
176
     1
 90
        5
176
     1
 90
        0
176
     1
 90
        0
176
     1
290
     0
176
     1
 90
       13
176
     1
 40
0.0
176
     1
 90
        0
176
     1
290
     0
176
     1
290
     1
176
     1
290
     1
176
     1
290
     0
176
     1
290
     0
176
     1
290
     0
176
     1
290
     0
176
     1
290
     0
176
     1
290
     0
176
     1
 90
       50
176
     1
 40
0.0
176
     1
 40
1.0
176
     1
 90
        0
176
     1
 62
    18
420
        0
176
     1
 90
       50
176
     1
 90
        3
176
     1
 62
     5
420
      255
176
     1
290
     0
176
     1
 90
       50
176
     1
 90
       50
176
     1
 90
       50
176
     1
290
     0
176
     1
 90
       50
176
     1
 62
   256
176
     0
 40
1.0
176
     0
 90
        2
176
     1
  1
strokes_ogs.tif
176
     1
290
     0
176
     1
 40
1.0
176
     1
 40
1.0
176
     1
  0
VISUALSTYLE
  5
2E
102
{ACAD_REACTORS
330
2A
102
}
330
2A
100
AcDbVisualStyle
  2
GouraudWithEdges
 70
     3
177
     3
291
     1
 70
    58
 90
        2
176
     1
 90
        2
176
     1
 90
        1
176
     1
 90
        2
176
     1
 40
0.6
176
     1
 40
30.0
176
     1
 62
     7
420
 16777215
176
     1
 90
        1
176
     1
 90
        0
176
     1
 62
     7
176
     1
 62
   257
176
     1
 90
        1
176
     1
 90
        1
176
     1
 40
1.0
176
     1
 90
        0
176
     1
 62
   257
176
     1
 40
1.0
176
     1
 90
        1
176
     1
 90
        6
176
     1
 90
        2
176
     1
 62
     7
176
     1
 90
        5
176
     1
 90
        0
176
     1
 90
        0
176
     1
290
     0
176
     1
 90
       13
176
     1
 40
0.0
176
     1
 90
        0
176
     1
290
     0
176
     1
290
     1
176
     1
290
     1
176
     1
290
     0
176
     1
290
     0
176
     1
290
     0
176
     1
290
     0
176
     1
290
     0
176
     1
290
     0
176
     1
 90
       50
176
     1
 40
0.0
176
     1
 40
1.0
176
     1
 90
        0
176
     1
 62
    18
420
        0
176
     1
 90
       50
176
     1
 90
        3
176
     1
 62
     5
420
      255
176
     1
290
     0
176
     1
 90
       50
176
     1
 90
       50
176
     1
 90
       50
176
     1
290
     0
176
     1
 90
       50
176
     1
 62
   256
176
     0
 40
1.0
176
     0
 90
        2
176
     1
  1
strokes_ogs.tif
176
     1
290
     0
176
     1
 40
1.0
176
     1
 40
1.0
176
     1
  0
VISUALSTYLE
  5
31
102
{ACAD_REACTORS
330
2A
102
}
330
2A
100
AcDbVisualStyle
  2
Hidden
 70
     6
177
     3
291
     0
 70
    58
 90
        1
176
     1
 90
        2
176
     1
 90
        2
176
     1
 90
        0
176
     1
 40
0.6
176
     1
 40
30.0
176
     1
 62
     7
420
 16777215
176
     1
 90
        2
176
     1
 90
        2
176
     1
 62
     7
176
     1
 62
   257
176
     1
 90
        2
176
     1
 90
        1
176
     1
 40
40.0
176
     1
 90
        0
176
     1
 62
   257
176
     1
 40
1.0
176
     1
 90
        1
176
     1
 90
        6
176
     1
 90
        2
176
     1
 62
     7
176
     1
 90
        3
176
     1
 90
        0
176
     1
 90
        0
176
     1
290
     0
176
     1
 90
        1
176
     1
 40
0.0
176
     1
 90
        0
176
     1
290
     0
176
     1
290
     1
176
     1
290
     1
176
     1
290
     0
176
     1
290
     0
176
     1
290
     0
176
     1
290
     0
176
     1
290
     0
176
     1
290
     0
176
     1
 90
       50
176
     1
 40
0.0
176
     1
 40
1.0
176
     1
 90
        0
176
     1
 62
    18
420
        0
176
     1
 90
       50
176
     1
 90
        3
176
     1
 62
     5
420
      255
176
     1
290
     0
176
     1
 90
       50
176
     1
 90
       50
176
     1
 90
       50
176
     1
290
     0
176
     1
 90
       50
176
     1
 62
   256
176
     0
 40
1.0
176
     0
 90
        2
176
     1
  1
strokes_ogs.tif
176
     1
290
     0
176
     1
 40
1.0
176
     1
 40
1.0
176
     1
  0
VISUALSTYLE
  5
3B
102
{ACAD_REACTORS
330
2A
102
}
330
2A
100
AcDbVisualStyle
  2
JitterOff
 70
    20
177
     3
291
     1
 70
    58
 90
        2
176
     0
 90
        2
176
     0
 90
        0
176
     0
 90
        0
176
     0
 40
0.6
176
     0
 40
30.0
176
     0
 62
     7
420
 16777215
176
     0
 90
        1
176
     0
 90
        4
176
     0
 62
     7
176
     0
 62
   257
176
     0
 90
        1
176
     0
 90
        1
176
     0
 40
1.0
176
     0
 90
       10
176
     2
 62
     7
176
     0
 40
1.0
176
     0
 90
        1
176
     0
 90
        6
176
     0
 90
        2
176
     0
 62
     7
176
     0
 90
        5
176
     0
 90
        0
176
     0
 90
        0
176
     0
290
     0
176
     0
 90
        1
176
     0
 40
0.0
176
     0
 90
        0
176
     0
290
     0
176
     0
290
     1
176
     0
290
     1
176
     0
290
     0
176
     0
290
     0
176
     0
290
     0
176
     0
290
     0
176
     0
290
     0
176
     0
290
     0
176
     0
 90
       50
176
     0
 40
0.0
176
     0
 40
1.0
176
     0
 90
        0
176
     0
 62
    18
420
        0
176
     0
 90
       50
176
     0
 90
        3
176
     0
 62
     5
420
      255
176
     0
290
     0
176
     0
 90
       50
176
     0
 90
       50
176
     0
 90
       50
176
     0
290
     0
176
     0
 90
       50
176
     0
 62
   256
176
     0
 40
1.0
176
     0
 90
        2
176
     0
  1
strokes_ogs.tif
176
     0
290
     0
176
     0
 40
1.0
176
     0
 40
1.0
176
     0
  0
VISUALSTYLE
  5
38
102
{ACAD_REACTORS
330
2A
102
}
330
2A
100
AcDbVisualStyle
  2
Linepattern
 70
    14
177
     3
291
     1
 70
    58
 90
        2
176
     1
 90
        2
176
     1
 90
        0
176
     1
 90
        0
176
     1
 40
0.6
176
     1
 40
30.0
176
     1
 62
     7
420
 16777215
176
     1
 90
        1
176
     1
 90
        4
176
     1
 62
     7
176
     1
 62
   257
176
     1
 90
        7
176
     1
 90
        7
176
     1
 40
1.0
176
     1
 90
        8
176
     1
 62
     7
176
     1
 40
1.0
176
     1
 90
        1
176
     1
 90
        6
176
     1
 90
        2
176
     1
 62
     7
176
     1
 90
        5
176
     1
 90
        0
176
     1
 90
        0
176
     1
290
     0
176
     1
 90
        1
176
     1
 40
0.0
176
     1
 90
        0
176
     1
290
     0
176
     1
290
     1
176
     1
290
     1
176
     1
290
     0
176
     1
290
     0
176
     1
290
     0
176
     1
290
     0
176
     1
290
     0
176
     1
290
     0
176
     1
 90
       50
176
     1
 40
0.0
176
     1
 40
1.0
176
     1
 90
        0
176
     1
 62
    18
420
        0
176
     1
 90
       50
176
     1
 90
        3
176
     1
 62
     5
420
      255
176
     1
290
     0
176
     1
 90
       50
176
     1
 90
       50
176
     1
 90
       50
176
     1
290
     0
176
     1
 90
       50
176
     1
 62
   256
176
     0
 40
1.0
176
     0
 90
        2
176
     1
  1
strokes_ogs.tif
176
     1
290
     0
176
     1
 40
1.0
176
     1
 40
1.0
176
     1
  0
VISUALSTYLE
  5
3C
102
{ACAD_REACTORS
330
2A
102
}
330
2A
100
AcDbVisualStyle
  2
OverhangOff
 70
    21
177
     3
291
     1
 70
    58
 90
        2
176
     0
 90
        2
176
     0
 90
        0
176
     0
 90
        0
176
     0
 40
0.6
176
     0
 40
30.0
176
     0
 62
     7
420
 16777215
176
     0
 90
        1
176
     0
 90
        4
176
     0
 62
     7
176
     0
 62
   257
176
     0
 90
        1
176
     0
 90
        1
176
     0
 40
1.0
176
     0
 90
        9
176
     2
 62
     7
176
     0
 40
1.0
176
     0
 90
        1
176
     0
 90
        6
176
     0
 90
        2
176
     0
 62
     7
176
     0
 90
        5
176
     0
 90
        0
176
     0
 90
        0
176
     0
290
     0
176
     0
 90
        1
176
     0
 40
0.0
176
     0
 90
        0
176
     0
290
     0
176
     0
290
     1
176
     0
290
     1
176
     0
290
     0
176
     0
290
     0
176
     0
290
     0
176
     0
290
     0
176
     0
290
     0
176
     0
290
     0
176
     0
 90
       50
176
     0
 40
0.0
176
     0
 40
1.0
176
     0
 90
        0
176
     0
 62
    18
420
        0
176
     0
 90
       50
176
     0
 90
        3
176
     0
 62
     5
420
      255
176
     0
290
     0
176
     0
 90
       50
176
     0
 90
       50
176
     0
 90
       50
176
     0
290
     0
176
     0
 90
       50
176
     0
 62
   256
176
     0
 40
1.0
176
     0
 90
        2
176
     0
  1
strokes_ogs.tif
176
     0
290
     0
176
     0
 40
1.0
176
     0
 40
1.0
176
     0
  0
VISUALSTYLE
  5
33
102
{ACAD_REACTORS
330
2A
102
}
330
2A
100
AcDbVisualStyle
  2
Realistic
 70
     8
177
     3
291
     0
 70
    58
 90
        2
176
     1
 90
        3
176
     1
 90
        0
176
     1
 90
        2
176
     1
 40
0.6
176
     1
 40
30.0
176
     1
 62
     7
420
 16777215
176
     1
 90
        0
176
     1
 90
        0
176
     1
 62
     7
176
     1
 62
   257
176
     1
 90
        1
176
     1
 90
        1
176
     1
 40
1.0
176
     1
 90
        8
176
     1
 62
   257
176
     1
 40
1.0
176
     1
 90
        1
176
     1
 90
        6
176
     1
 90
        2
176
     1
 62
     7
176
     1
 90
        3
176
     1
 90
        0
176
     1
 90
        0
176
     1
290
     0
176
     1
 90
       13
176
     1
 40
0.0
176
     1
 90
        0
176
     1
290
     0
176
     1
290
     1
176
     1
290
     1
176
     1
290
     0
176
     1
290
     0
176
     1
290
     0
176
     1
290
     0
176
     1
290
     0
176
     1
290
     0
176
     1
 90
       50
176
     1
 40
0.0
176
     1
 40
1.0
176
     1
 90
        0
176
     1
 62
    18
420
        0
176
     1
 90
       50
176
     1
 90
        3
176
     1
 62
     5
420
      255
176
     1
290
     0
176
     1
 90
       50
176
     1
 90
       50
176
     1
 90
       50
176
     1
290
     0
176
     1
 90
       50
176
     1
 62
   256
176
     0
 40
1.0
176
     0
 90
        2
176
     1
  1
strokes_ogs.tif
176
     1
290
     0
176
     1
 40
1.0
176
     1
 40
1.0
176
     1
  0
VISUALSTYLE
  5
42
102
{ACAD_REACTORS
330
2A
102
}
330
2A
100
AcDbVisualStyle
  2
Shaded
 70
    27
177
     3
291
     0
 70
    58
 90
        2
176
     1
 90
        2
176
     1
 90
        1
176
     1
 90
        2
176
     1
 40
0.6
176
     1
 40
30.0
176
     1
 62
     7
420
 16777215
176
     1
 90
        0
176
     1
 90
        4
176
     1
 62
     7
176
     1
 62
   257
176
     1
 90
        1
176
     1
 90
        1
176
     1
 40
1.0
176
     1
 90
        8
176
     1
 62
   257
176
     1
 40
1.0
176
     1
 90
        1
176
     1
 90
        6
176
     1
 90
        2
176
     1
 62
     8
420
  7895160
176
     1
 90
        3
176
     1
 90
        0
176
     1
 90
        0
176
     1
290
     0
176
     1
 90
        5
176
     1
 40
0.0
176
     1
 90
        0
176
     1
290
     0
176
     1
290
     1
176
     1
290
     1
176
     1
290
     0
176
     1
290
     0
176
     1
290
     0
176
     1
290
     0
176
     1
290
     0
176
     1
290
     0
176
     1
 90
       50
176
     1
 40
0.0
176
     1
 40
1.0
176
     1
 90
        0
176
     1
 62
    18
420
        0
176
     1
 90
       50
176
     1
 90
        3
176
     1
 62
     5
420
      255
176
     1
290
     0
176
     1
 90
       50
176
     1
 90
       50
176
     1
 90
       50
176
     1
290
     0
176
     1
 90
       50
176
     1
 62
   256
176
     0
 40
1.0
176
     0
 90
        2
176
     1
  1
strokes_ogs.tif
176
     1
290
     0
176
     1
 40
1.0
176
     1
 40
1.0
176
     1
  0
VISUALSTYLE
  5
41
102
{ACAD_REACTORS
330
2A
102
}
330
2A
100
AcDbVisualStyle
  2
Shaded with edges
 70
    26
177
     3
291
     0
 70
    58
 90
        2
176
     1
 90
        2
176
     1
 90
        1
176
     1
 90
        2
176
     1
 40
0.6
176
     1
 40
30.0
176
     1
 62
     7
420
 16777215
176
     1
 90
        1
176
     1
 90
       10
176
     1
 62
     7
176
     1
 62
   257
176
     1
 90
        2
176
     1
 90
        1
176
     1
 40
1.0
176
     1
 90
        8
176
     1
 62
   257
176
     1
 40
1.0
176
     1
 90
        1
176
     1
 90
        6
176
     1
 90
        2
176
     1
 62
     7
176
     1
 90
        3
176
     1
 90
        0
176
     1
 90
        0
176
     1
290
     0
176
     1
 90
        5
176
     1
 40
0.0
176
     1
 90
        0
176
     1
290
     0
176
     1
290
     1
176
     1
290
     1
176
     1
290
     0
176
     1
290
     0
176
     1
290
     0
176
     1
290
     0
176
     1
290
     0
176
     1
290
     0
176
     1
 90
       50
176
     1
 40
0.0
176
     1
 40
1.0
176
     1
 90
        0
176
     1
 62
    18
420
        0
176
     1
 90
       50
176
     1
 90
        3
176
     1
 62
     5
420
      255
176
     1
290
     0
176
     1
 90
       50
176
     1
 90
       50
176
     1
 90
       50
176
     1
290
     0
176
     1
 90
       50
176
     1
 62
   256
176
     0
 40
1.0
176
     0
 90
        2
176
     1
  1
strokes_ogs.tif
176
     1
290
     0
176
     1
 40
1.0
176
     1
 40
1.0
176
     1
  0
VISUALSTYLE
  5
3E
102
{ACAD_REACTORS
330
2A
102
}
330
2A
100
AcDbVisualStyle
  2
Shades of Gray
 70
    23
177
     3
291
     0
 70
    58
 90
        2
176
     1
 90
        2
176
     1
 90
        3
176
     1
 90
        0
176
     1
 40
0.6
176
     1
 40
30.0
176
     1
 62
     7
420
 16777215
176
     1
 90
        2
176
     1
 90
        2
176
     1
 62
     7
176
     1
 62
     7
176
     1
 90
        1
176
     1
 90
        1
176
     1
 40
40.0
176
     1
 90
        8
176
     1
 62
     7
176
     1
 40
1.0
176
     1
 90
        1
176
     1
 90
        6
176
     1
 90
        2
176
     1
 62
     7
176
     1
 90
        3
176
     1
 90
        0
176
     1
 90
        0
176
     1
290
     0
176
     1
 90
        1
176
     1
 40
0.0
176
     1
 90
        0
176
     1
290
     0
176
     1
290
     1
176
     1
290
     1
176
     1
290
     0
176
     1
290
     0
176
     1
290
     0
176
     1
290
     0
176
     1
290
     0
176
     1
290
     0
176
     1
 90
       50
176
     1
 40
0.0
176
     1
 40
1.0
176
     1
 90
        0
176
     1
 62
    18
420
        0
176
     1
 90
       50
176
     1
 90
        3
176
     1
 62
     5
420
      255
176
     1
290
     0
176
     1
 90
       50
176
     1
 90
       50
176
     1
 90
       50
176
     1
290
     0
176
     1
 90
       50
176
     1
 62
   256
176
     0
 40
1.0
176
     0
 90
        2
176
     1
  1
strokes_ogs.tif
176
     1
290
     0
176
     1
 40
1.0
176
     1
 40
1.0
176
     1
  0
VISUALSTYLE
  5
3F
102
{ACAD_REACTORS
330
2A
102
}
330
2A
100
AcDbVisualStyle
  2
Sketchy
 70
    24
177
     3
291
     0
 70
    58
 90
        1
176
     1
 90
        2
176
     1
 90
        2
176
     1
 90
        0
176
     1
 40
0.6
176
     1
 40
30.0
176
     1
 62
     7
420
 16777215
176
     1
 90
        2
176
     1
 90
        2
176
     1
 62
     7
176
     1
 62
     7
176
     1
 90
        1
176
     1
 90
        1
176
     1
 40
40.0
176
     1
 90
       11
176
     1
 62
     7
176
     1
 40
1.0
176
     1
 90
        1
176
     1
 90
        6
176
     1
 90
        2
176
     1
 62
     7
176
     1
 90
        6
176
     1
 90
        0
176
     1
 90
        0
176
     1
290
     0
176
     1
 90
        1
176
     1
 40
0.0
176
     1
 90
        0
176
     1
290
     0
176
     1
290
     1
176
     1
290
     1
176
     1
290
     0
176
     1
290
     0
176
     1
290
     0
176
     1
290
     0
176
     1
290
     0
176
     1
290
     0
176
     1
 90
       50
176
     1
 40
0.0
176
     1
 40
1.0
176
     1
 90
        0
176
     1
 62
    18
420
        0
176
     1
 90
       50
176
     1
 90
        3
176
     1
 62
     5
420
      255
176
     1
290
     0
176
     1
 90
       50
176
     1
 90
       50
176
     1
 90
       50
176
     1
290
     0
176
     1
 90
       50
176
     1
 62
   256
176
     0
 40
1.0
176
     0
 90
        2
176
     1
  1
strokes_ogs.tif
176
     1
290
     0
176
     1
 40
1.0
176
     1
 40
1.0
176
     1
  0
VISUALSTYLE
  5
37
102
{ACAD_REACTORS
330
2A
102
}
330
2A
100
AcDbVisualStyle
  2
Thicken
 70
    13
177
     3
291
     1
 70
    58
 90
        2
176
     1
 90
        2
176
     1
 90
        0
176
     1
 90
        0
176
     1
 40
0.6
176
     1
 40
30.0
176
     1
 62
     7
420
 16777215
176
     1
 90
        1
176
     1
 90
        4
176
     1
 62
     7
176
     1
 62
   257
176
     1
 90
        1
176
     1
 90
        1
176
     1
 40
1.0
176
     1
 90
       12
176
     1
 62
     7
176
     1
 40
1.0
176
     1
 90
        1
176
     1
 90
        6
176
     1
 90
        2
176
     1
 62
     7
176
     1
 90
        5
176
     1
 90
        0
176
     1
 90
        0
176
     1
290
     0
176
     1
 90
        1
176
     1
 40
0.0
176
     1
 90
        0
176
     1
290
     0
176
     1
290
     1
176
     1
290
     1
176
     1
290
     0
176
     1
290
     0
176
     1
290
     0
176
     1
290
     0
176
     1
290
     0
176
     1
290
     0
176
     1
 90
       50
176
     1
 40
0.0
176
     1
 40
1.0
176
     1
 90
        0
176
     1
 62
    18
420
        0
176
     1
 90
       50
176
     1
 90
        3
176
     1
 62
     5
420
      255
176
     1
290
     0
176
     1
 90
       50
176
     1
 90
       50
176
     1
 90
       50
176
     1
290
     0
176
     1
 90
       50
176
     1
 62
   256
176
     0
 40
1.0
176
     0
 90
        2
176
     1
  1
strokes_ogs.tif
176
     1
290
     0
176
     1
 40
1.0
176
     1
 40
1.0
176
     1
  0
VISUALSTYLE
  5
30
102
{ACAD_REACTORS
330
2A
102
}
330
2A
100
AcDbVisualStyle
  2
Wireframe
 70
     5
177
     3
291
     0
 70
    58
 90
        0
176
     1
 90
        2
176
     1
 90
        0
176
     1
 90
        0
176
     1
 40
0.6
176
     1
 40
30.0
176
     1
 62
     7
420
 16777215
176
     1
 90
        1
176
     1
 90
        4
176
     1
 62
     7
176
     1
 62
   257
176
     1
 90
        1
176
     1
 90
        1
176
     1
 40
1.0
176
     1
 90
        0
176
     1
 62
   257
176
     1
 40
1.0
176
     1
 90
        1
176
     1
 90
        6
176
     1
 90
        2
176
     1
 62
     7
176
     1
 90
        3
176
     1
 90
        0
176
     1
 90
        0
176
     1
290
     0
176
     1
 90
        1
176
     1
 40
0.0
176
     1
 90
        0
176
     1
290
     0
176
     1
290
     1
176
     1
290
     1
176
     1
290
     0
176
     1
290
     0
176
     1
290
     0
176
     1
290
     0
176
     1
290
     0
176
     1
290
     0
176
     1
 90
       50
176
     1
 40
0.0
176
     1
 40
1.0
176
     1
 90
        0
176
     1
 62
    18
420
        0
176
     1
 90
       50
176
     1
 90
        3
176
     1
 62
     5
420
      255
176
     1
290
     0
176
     1
 90
       50
176
     1
 90
       50
176
     1
 90
       50
176
     1
290
     0
176
     1
 90
       50
176
     1
 62
   256
176
     0
 40
1.0
176
     0
 90
        2
176
     1
  1
strokes_ogs.tif
176
     1
290
     0
176
     1
 40
1.0
176
     1
 40
1.0
176
     1
  0
VISUALSTYLE
  5
40
102
{ACAD_REACTORS
330
2A
102
}
330
2A
100
AcDbVisualStyle
  2
X-Ray
 70
    25
177
     3
291
     0
 70
    58
 90
        2
176
     1
 90
        2
176
     1
 90
        1
176
     1
 90
        1
176
     1
 40
0.5
176
     1
 40
30.0
176
     1
 62
     7
420
 16777215
176
     1
 90
        1
176
     1
 90
        0
176
     1
 62
     7
176
     1
 62
   257
176
     1
 90
        1
176
     1
 90
        1
176
     1
 40
1.0
176
     1
 90
        8
176
     1
 62
     7
176
     1
 40
1.0
176
     1
 90
        1
176
     1
 90
        6
176
     1
 90
        2
176
     1
 62
     7
176
     1
 90
        3
176
     1
 90
        0
176
     1
 90
        0
176
     1
290
     0
176
     1
 90
       13
176
     1
 40
0.0
176
     1
 90
        0
176
     1
290
     0
176
     1
290
     1
176
     1
290
     1
176
     1
290
     0
176
     1
290
     0
176
     1
290
     0
176
     1
290
     0
176
     1
290
     0
176
     1
290
     0
176
     1
 90
       50
176
     1
 40
0.0
176
     1
 40
1.0
176
     1
 90
        0
176
     1
 62
    18
420
        0
176
     1
 90
       50
176
     1
 90
        3
176
     1
 62
     5
420
      255
176
     1
290
     0
176
     1
 90
       50
176
     1
 90
       50
176
     1
 90
       50
176
     1
290
     0
176
     1
 90
       50
176
     1
 62
   256
176
     0
 40
1.0
176
     0
 90
        2
176
     1
  1
strokes_ogs.tif
176
     1
290
     0
176
     1
 40
1.0
176
     1
 40
1.0
176
     1
  0
DICTIONARYVAR
  5
CC
102
{ACAD_REACTORS
330
CB
102
}
330
CB
100
DictionaryVariables
280
     0
  1
1:1
  0
DICTIONARYVAR
  5
D1
102
{ACAD_REACTORS
330
CB
102
}
330
CB
100
DictionaryVariables
280
     0
  1
Standard
  0
DICTIONARYVAR
  5
D0
102
{ACAD_REACTORS
330
CB
102
}
330
CB
100
DictionaryVariables
280
     0
  1
Standard
  0
DICTIONARY
  5
CD
330
5A
100
AcDbDictionary
280
     1
281
     1
  3
ACAD_ROUNDTRIP_2008_TABLESTYLE_CELLSTYLEMAP
360
CE
  0
CELLSTYLEMAP
  5
CE
102
{ACAD_REACTORS
330
CD
102
}
330
CD
100
AcDbCellStyleMap
 90
        3
300
CELLSTYLE
  1
TABLEFORMAT_BEGIN
 90
        5
170
     1
 91
        0
 92
    32768
 62
   257
 93
        1
300
CONTENTFORMAT
  1
CONTENTFORMAT_BEGIN
 90
        0
 91
        0
 92
        4
 93
        0
300

 40
0.0
140
1.0
 94
        5
 62
     0
340
11
144
0.25
309
CONTENTFORMAT_END
171
     1
301
MARGIN
  1
CELLMARGIN_BEGIN
 40
0.06
 40
0.06
 40
0.06
 40
0.06
 40
0.06
 40
0.06
309
CELLMARGIN_END
 94
        6
 95
        1
302
GRIDFORMAT
  1
GRIDFORMAT_BEGIN
 90
        0
 91
        1
 62
     0
 92
       -2
340
14
 93
        0
 40
0.045
309
GRIDFORMAT_END
 95
        2
302
GRIDFORMAT
  1
GRIDFORMAT_BEGIN
 90
        0
 91
        1
 62
     0
 92
       -2
340
14
 93
        0
 40
0.045
309
GRIDFORMAT_END
 95
        4
302
GRIDFORMAT
  1
GRIDFORMAT_BEGIN
 90
        0
 91
        1
 62
     0
 92
       -2
340
14
 93
        0
 40
0.045
309
GRIDFORMAT_END
 95
        8
302
GRIDFORMAT
  1
GRIDFORMAT_BEGIN
 90
        0
 91
        1
 62
     0
 92
       -2
340
14
 93
        0
 40
0.045
309
GRIDFORMAT_END
 95
       16
302
GRIDFORMAT
  1
GRIDFORMAT_BEGIN
 90
        0
 91
        1
 62
     0
 92
       -2
340
14
 93
        0
 40
0.045
309
GRIDFORMAT_END
 95
       32
302
GRIDFORMAT
  1
GRIDFORMAT_BEGIN
 90
        0
 91
        1
 62
     0
 92
       -2
340
14
 93
        0
 40
0.045
309
GRIDFORMAT_END
309
TABLEFORMAT_END
  1
CELLSTYLE_BEGIN
 90
        1
 91
        1
300
_TITLE
309
CELLSTYLE_END
300
CELLSTYLE
  1
TABLEFORMAT_BEGIN
 90
        5
170
     1
 91
        0
 92
        0
 62
   257
 93
        1
300
CONTENTFORMAT
  1
CONTENTFORMAT_BEGIN
 90
        0
 91
        0
 92
        4
 93
        0
300

 40
0.0
140
1.0
 94
        5
 62
     0
340
11
144
0.18
309
CONTENTFORMAT_END
171
     1
301
MARGIN
  1
CELLMARGIN_BEGIN
 40
0.06
 40
0.06
 40
0.06
 40
0.06
 40
0.06
 40
0.06
309
CELLMARGIN_END
 94
        6
 95
        1
302
GRIDFORMAT
  1
GRIDFORMAT_BEGIN
 90
        0
 91
        1
 62
     0
 92
       -2
340
14
 93
        0
 40
0.045
309
GRIDFORMAT_END
 95
        2
302
GRIDFORMAT
  1
GRIDFORMAT_BEGIN
 90
        0
 91
        1
 62
     0
 92
       -2
340
14
 93
        0
 40
0.045
309
GRIDFORMAT_END
 95
        4
302
GRIDFORMAT
  1
GRIDFORMAT_BEGIN
 90
        0
 91
        1
 62
     0
 92
       -2
340
14
 93
        0
 40
0.045
309
GRIDFORMAT_END
 95
        8
302
GRIDFORMAT
  1
GRIDFORMAT_BEGIN
 90
        0
 91
        1
 62
     0
 92
       -2
340
14
 93
        0
 40
0.045
309
GRIDFORMAT_END
 95
       16
302
GRIDFORMAT
  1
GRIDFORMAT_BEGIN
 90
        0
 91
        1
 62
     0
 92
       -2
340
14
 93
        0
 40
0.045
309
GRIDFORMAT_END
 95
       32
302
GRIDFORMAT
  1
GRIDFORMAT_BEGIN
 90
        0
 91
        1
 62
     0
 92
       -2
340
14
 93
        0
 40
0.045
309
GRIDFORMAT_END
309
TABLEFORMAT_END
  1
CELLSTYLE_BEGIN
 90
        2
 91
        1
300
_HEADER
309
CELLSTYLE_END
300
CELLSTYLE
  1
TABLEFORMAT_BEGIN
 90
        5
170
     1
 91
        0
 92
        0
 62
   257
 93
        1
300
CONTENTFORMAT
  1
CONTENTFORMAT_BEGIN
 90
        0
 91
        0
 92
        4
 93
        0
300

 40
0.0
140
1.0
 94
        2
 62
     0
340
11
144
0.18
309
CONTENTFORMAT_END
171
     1
301
MARGIN
  1
CELLMARGIN_BEGIN
 40
0.06
 40
0.06
 40
0.06
 40
0.06
 40
0.06
 40
0.06
309
CELLMARGIN_END
 94
        6
 95
        1
302
GRIDFORMAT
  1
GRIDFORMAT_BEGIN
 90
        0
 91
        1
 62
     0
 92
       -2
340
14
 93
        0
 40
0.045
309
GRIDFORMAT_END
 95
        2
302
GRIDFORMAT
  1
GRIDFORMAT_BEGIN
 90
        0
 91
        1
 62
     0
 92
       -2
340
14
 93
        0
 40
0.045
309
GRIDFORMAT_END
 95
        4
302
GRIDFORMAT
  1
GRIDFORMAT_BEGIN
 90
        0
 91
        1
 62
     0
 92
       -2
340
14
 93
        0
 40
0.045
309
GRIDFORMAT_END
 95
        8
302
GRIDFORMAT
  1
GRIDFORMAT_BEGIN
 90
        0
 91
        1
 62
     0
 92
       -2
340
14
 93
        0
 40
0.045
309
GRIDFORMAT_END
 95
       16
302
GRIDFORMAT
  1
GRIDFORMAT_BEGIN
 90
        0
 91
        1
 62
     0
 92
       -2
340
14
 93
        0
 40
0.045
309
GRIDFORMAT_END
 95
       32
302
GRIDFORMAT
  1
GRIDFORMAT_BEGIN
 90
        0
 91
        1
 62
     0
 92
       -2
340
14
 93
        0
 40
0.045
309
GRIDFORMAT_END
309
TABLEFORMAT_END
  1
CELLSTYLE_BEGIN
 90
        3
 91
        2
300
_DATA
309
CELLSTYLE_END
  0
ENDSEC
  0
EOF
