  0
SECTION
  2
HEADER
  9
$ACADVER
  1
AC1027
  9
$ACADMAINTVER
 70
   105
  9
$DWGCODEPAGE
  3
ANSI_1252
  9
$LASTSAVEDBY
  1
Office Desk
  9
$REQUIREDVERSIONS
160
                 0
  9
$INSBASE
 10
0.0
 20
0.0
 30
0.0
  9
$EXTMIN
 10
484.9806
 20
-319.5607
 30
0.0
  9
$EXTMAX
 10
1884.8865
 20
395.7053
 30
0.0
  9
$LIMMIN
 10
0.0
 20
0.0
  9
$LIMMAX
 10
12.0
 20
9.0
  9
$ORTHOMODE
 70
     0
  9
$REGENMODE
 70
     1
  9
$FILLMODE
 70
     1
  9
$QTEXTMODE
 70
     0
  9
$MIRRTEXT
 70
     1
  9
$LTSCALE
 40
1.0
  9
$ATTMODE
 70
     1
  9
$TEXTSIZE
 40
0.2
  9
$TRACEWID
 40
0.05
  9
$TEXTSTYLE
  7
Standard
  9
$CLAYER
  8
0
  9
$CELTYPE
  6
ByLayer
  9
$CECOLOR
 62
   256
  9
$CELTSCALE
 40
1.0
  9
$DISPSILH
 70
     0
  9
$DIMSCALE
 40
1.0
  9
$DIMASZ
 40
0.18
  9
$DIMEXO
 40
0.0625
  9
$DIMDLI
 40
0.38
  9
$DIMRND
 40
0.0
  9
$DIMDLE
 40
0.0
  9
$DIMEXE
 40
0.18
  9
$DIMTP
 40
0.0
  9
$DIMTM
 40
0.0
  9
$DIMTXT
 40
0.18
  9
$DIMCEN
 40
0.09
  9
$DIMTSZ
 40
0.0
  9
$DIMTOL
 70
     0
  9
$DIMLIM
 70
     0
  9
$DIMTIH
 70
     1
  9
$DIMTOH
 70
     1
  9
$DIMSE1
 70
     0
  9
$DIMSE2
 70
     0
  9
$DIMTAD
 70
     0
  9
$DIMZIN
 70
     0
  9
$DIMBLK
  1

  9
$DIMASO
 70
     1
  9
$DIMSHO
 70
     1
  9
$DIMPOST
  1

  9
$DIMAPOST
  1

  9
$DIMALT
 70
     0
  9
$DIMALTD
 70
     2
  9
$DIMALTF
 40
25.4
  9
$DIMLFAC
 40
1.0
  9
$DIMTOFL
 70
     0
  9
$DIMTVP
 40
0.0
  9
$DIMTIX
 70
     0
  9
$DIMSOXD
 70
     0
  9
$DIMSAH
 70
     0
  9
$DIMBLK1
  1

  9
$DIMBLK2
  1

  9
$DIMSTYLE
  2
Standard
  9
$DIMCLRD
 70
     0
  9
$DIMCLRE
 70
     0
  9
$DIMCLRT
 70
     0
  9
$DIMTFAC
 40
1.0
  9
$DIMGAP
 40
0.09
  9
$DIMJUST
 70
     0
  9
$DIMSD1
 70
     0
  9
$DIMSD2
 70
     0
  9
$DIMTOLJ
 70
     1
  9
$DIMTZIN
 70
     0
  9
$DIMALTZ
 70
     0
  9
$DIMALTTZ
 70
     0
  9
$DIMUPT
 70
     0
  9
$DIMDEC
 70
     4
  9
$DIMTDEC
 70
     4
  9
$DIMALTU
 70
     2
  9
$DIMALTTD
 70
     2
  9
$DIMTXSTY
  7
Standard
  9
$DIMAUNIT
 70
     0
  9
$DIMADEC
 70
     0
  9
$DIMALTRND
 40
0.0
  9
$DIMAZIN
 70
     0
  9
$DIMDSEP
 70
    46
  9
$DIMATFIT
 70
     3
  9
$DIMFRAC
 70
     0
  9
$DIMLDRBLK
  1

  9
$DIMLUNIT
 70
     2
  9
$DIMLWD
 70
    -2
  9
$DIMLWE
 70
    -2
  9
$DIMTMOVE
 70
     0
  9
$DIMFXL
 40
1.0
  9
$DIMFXLON
 70
     0
  9
$DIMJOGANG
 40
0.7853981633974483
  9
$DIMTFILL
 70
     0
  9
$DIMTFILLCLR
 70
     0
  9
$DIMARCSYM
 70
     0
  9
$DIMLTYPE
  6

  9
$DIMLTEX1
  6

  9
$DIMLTEX2
  6

  9
$DIMTXTDIRECTION
 70
     0
  9
$LUNITS
 70
     2
  9
$LUPREC
 70
     4
  9
$SKETCHINC
 40
0.1
  9
$FILLETRAD
 40
0.0
  9
$AUNITS
 70
     0
  9
$AUPREC
 70
     0
  9
$MENU
  1
.
  9
$ELEVATION
 40
0.0
  9
$PELEVATION
 40
0.0
  9
$THICKNESS
 40
0.0
  9
$LIMCHECK
 70
     0
  9
$CHAMFERA
 40
0.0
  9
$CHAMFERB
 40
0.0
  9
$CHAMFERC
 40
0.0
  9
$CHAMFERD
 40
0.0
  9
$SKPOLY
 70
     0
  9
$TDCREATE
 40
2461009.609125208
  9
$TDUCREATE
 40
2461009.379958542
  9
$TDUPDATE
 40
2461009.609125324
  9
$TDUUPDATE
 40
2461009.379958658
  9
$TDINDWG
 40
0.0000000116
  9
$TDUSRTIMER
 40
0.0000000116
  9
$USRTIMER
 70
     1
  9
$ANGBASE
 50
0.0
  9
$ANGDIR
 70
     0
  9
$PDMODE
 70
     0
  9
$PDSIZE
 40
0.0
  9
$PLINEWID
 40
0.0
  9
$SPLFRAME
 70
     0
  9
$SPLINETYPE
 70
     6
  9
$SPLINESEGS
 70
     8
  9
$HANDSEED
  5
CE
  9
$SURFTAB1
 70
     6
  9
$SURFTAB2
 70
     6
  9
$SURFTYPE
 70
     6
  9
$SURFU
 70
     6
  9
$SURFV
 70
     6
  9
$UCSBASE
  2

  9
$UCSNAME
  2

  9
$UCSORG
 10
0.0
 20
0.0
 30
0.0
  9
$UCSXDIR
 10
1.0
 20
0.0
 30
0.0
  9
$UCSYDIR
 10
0.0
 20
1.0
 30
0.0
  9
$UCSORTHOREF
  2

  9
$UCSORTHOVIEW
 70
     0
  9
$UCSORGTOP
 10
0.0
 20
0.0
 30
0.0
  9
$UCSORGBOTTOM
 10
0.0
 20
0.0
 30
0.0
  9
$UCSORGLEFT
 10
0.0
 20
0.0
 30
0.0
  9
$UCSORGRIGHT
 10
0.0
 20
0.0
 30
0.0
  9
$UCSORGFRONT
 10
0.0
 20
0.0
 30
0.0
  9
$UCSORGBACK
 10
0.0
 20
0.0
 30
0.0
  9
$PUCSBASE
  2

  9
$PUCSNAME
  2

  9
$PUCSORG
 10
0.0
 20
0.0
 30
0.0
  9
$PUCSXDIR
 10
1.0
 20
0.0
 30
0.0
  9
$PUCSYDIR
 10
0.0
 20
1.0
 30
0.0
  9
$PUCSORTHOREF
  2

  9
$PUCSORTHOVIEW
 70
     0
  9
$PUCSORGTOP
 10
0.0
 20
0.0
 30
0.0
  9
$PUCSORGBOTTOM
 10
0.0
 20
0.0
 30
0.0
  9
$PUCSORGLEFT
 10
0.0
 20
0.0
 30
0.0
  9
$PUCSORGRIGHT
 10
0.0
 20
0.0
 30
0.0
  9
$PUCSORGFRONT
 10
0.0
 20
0.0
 30
0.0
  9
$PUCSORGBACK
 10
0.0
 20
0.0
 30
0.0
  9
$USERI1
 70
     0
  9
$USERI2
 70
     0
  9
$USERI3
 70
     0
  9
$USERI4
 70
     0
  9
$USERI5
 70
     0
  9
$USERR1
 40
0.0
  9
$USERR2
 40
0.0
  9
$USERR3
 40
0.0
  9
$USERR4
 40
0.0
  9
$USERR5
 40
0.0
  9
$WORLDVIEW
 70
     1
  9
$SHADEDGE
 70
     3
  9
$SHADEDIF
 70
    70
  9
$TILEMODE
 70
     1
  9
$MAXACTVP
 70
    64
  9
$PINSBASE
 10
0.0
 20
0.0
 30
0.0
  9
$PLIMCHECK
 70
     0
  9
$PEXTMIN
 10
1.000000000000000E+20
 20
1.000000000000000E+20
 30
1.000000000000000E+20
  9
$PEXTMAX
 10
-1.000000000000000E+20
 20
-1.000000000000000E+20
 30
-1.000000000000000E+20
  9
$PLIMMIN
 10
0.0
 20
0.0
  9
$PLIMMAX
 10
12.0
 20
9.0
  9
$UNITMODE
 70
     0
  9
$VISRETAIN
 70
     1
  9
$PLINEGEN
 70
     0
  9
$PSLTSCALE
 70
     1
  9
$TREEDEPTH
 70
  3020
  9
$CMLSTYLE
  2
Standard
  9
$CMLJUST
 70
     0
  9
$CMLSCALE
 40
1.0
  9
$PROXYGRAPHICS
 70
     1
  9
$MEASUREMENT
 70
     0
  9
$CELWEIGHT
370
    -1
  9
$ENDCAPS
280
     0
  9
$JOINSTYLE
280
     0
  9
$LWDISPLAY
290
     0
  9
$INSUNITS
 70
     4
  9
$HYPERLINKBASE
  1

  9
$STYLESHEET
  1

  9
$XEDIT
290
     1
  9
$CEPSNTYPE
380
     0
  9
$PSTYLEMODE
290
     1
  9
$FINGERPRINTGUID
  2
{53da4b3d-2f0e-4bc3-b579-556bef28f453}
  9
$VERSIONGUID
  2
{FAEB1C32-E019-11D5-929B-00C0DF256EC4}
  9
$EXTNAMES
290
     1
  9
$PSVPSCALE
 40
0.0
  9
$OLESTARTUP
290
     0
  9
$SORTENTS
280
   127
  9
$INDEXCTL
280
     0
  9
$HIDETEXT
280
     1
  9
$XCLIPFRAME
280
     2
  9
$HALOGAP
280
     0
  9
$OBSCOLOR
 70
   257
  9
$OBSLTYPE
280
     0
  9
$INTERSECTIONDISPLAY
280
     0
  9
$INTERSECTIONCOLOR
 70
   257
  9
$DIMASSOC
280
     2
  9
$PROJECTNAME
  1

  9
$CAMERADISPLAY
290
     0
  9
$LENSLENGTH
 40
50.0
  9
$CAMERAHEIGHT
 40
0.0
  9
$STEPSPERSEC
 40
2.0
  9
$STEPSIZE
 40
6.0
  9
$3DDWFPREC
 40
2.0
  9
$PSOLWIDTH
 40
0.25
  9
$PSOLHEIGHT
 40
4.0
  9
$LOFTANG1
 40
1.570796326794897
  9
$LOFTANG2
 40
1.570796326794897
  9
$LOFTMAG1
 40
0.0
  9
$LOFTMAG2
 40
0.0
  9
$LOFTPARAM
 70
     7
  9
$LOFTNORMALS
280
     1
  9
$LATITUDE
 40
37.795
  9
$LONGITUDE
 40
-122.394
  9
$NORTHDIRECTION
 40
0.0
  9
$TIMEZONE
 70
 -8000
  9
$LIGHTGLYPHDISPLAY
280
     1
  9
$TILEMODELIGHTSYNCH
280
     1
  9
$CMATERIAL
347
44
  9
$SOLIDHIST
280
     0
  9
$SHOWHIST
280
     1
  9
$DWFFRAME
280
     2
  9
$DGNFRAME
280
     2
  9
$REALWORLDSCALE
290
     1
  9
$INTERFERECOLOR
 62
   256
  9
$CSHADOW
280
     0
  9
$SHADOWPLANELOCATION
 40
0.0
  0
ENDSEC
  0
SECTION
  2
CLASSES
  0
CLASS
  1
ACDBDICTIONARYWDFLT
  2
AcDbDictionaryWithDefault
  3
ObjectDBX Classes
 90
        0
 91
        3
280
     0
281
     0
  0
CLASS
  1
VISUALSTYLE
  2
AcDbVisualStyle
  3
ObjectDBX Classes
 90
     4095
 91
        3
280
     0
281
     0
  0
CLASS
  1
MATERIAL
  2
AcDbMaterial
  3
ObjectDBX Classes
 90
     1153
 91
        3
280
     0
281
     0
  0
CLASS
  1
SCALE
  2
AcDbScale
  3
ObjectDBX Classes
 90
     1153
 91
        3
280
     0
281
     0
  0
CLASS
  1
TABLESTYLE
  2
AcDbTableStyle
  3
ObjectDBX Classes
 90
     4095
 91
        3
280
     0
281
     0
  0
CLASS
  1
MLEADERSTYLE
  2
AcDbMLeaderStyle
  3
ACDB_MLEADERSTYLE_CLASS
 90
     4095
 91
        3
280
     0
281
     0
  0
CLASS
  1
SUN
  2
AcDbSun
  3
SCENEOE
 90
     1153
 91
        3
280
     0
281
     0
  0
CLASS
  1
DICTIONARYVAR
  2
AcDbDictionaryVar
  3
ObjectDBX Classes
 90
        0
 91
        3
280
     0
281
     0
  0
CLASS
  1
CELLSTYLEMAP
  2
AcDbCellStyleMap
  3
ObjectDBX Classes
 90
     1152
 91
        3
280
     0
281
     0
  0
ENDSEC
  0
SECTION
  2
TABLES
  0
TABLE
  2
VPORT
  5
8
330
0
100
AcDbSymbolTable
 70
     1
  0
VPORT
  5
29
330
8
100
AcDbSymbolTableRecord
100
AcDbViewportTableRecord
  2
*Active
 70
     0
 10
0.0
 20
0.0
 11
1.0
 21
1.0
 12
10.42990654205607
 22
4.5
 13
0.0
 23
0.0
 14
0.5
 24
0.5
 15
0.5
 25
0.5
 16
0.0
 26
0.0
 36
1.0
 17
0.0
 27
0.0
 37
0.0
 40
9.0
 41
1.972972972850329
 42
50.0
 43
0.0
 44
0.0
 50
0.0
 51
0.0
 71
     0
 72
   100
 73
     1
 74
     3
 75
     0
 76
     0
 77
     0
 78
     0
281
     0
 65
     1
110
0.0
120
0.0
130
0.0
111
1.0
121
0.0
131
0.0
112
0.0
122
1.0
132
0.0
 79
     0
146
0.0
348
2F
 60
     3
 61
     5
292
     1
282
     1
141
0.0
142
0.0
 63
   250
361
5D
  0
ENDTAB
  0
TABLE
  2
LTYPE
  5
5
330
0
100
AcDbSymbolTable
 70
     2
  0
LTYPE
  5
14
330
5
100
AcDbSymbolTableRecord
100
AcDbLinetypeTableRecord
  2
ByBlock
 70
     0
  3

 72
    65
 73
     0
 40
0.0
  0
LTYPE
  5
15
330
5
100
AcDbSymbolTableRecord
100
AcDbLinetypeTableRecord
  2
ByLayer
 70
     0
  3

 72
    65
 73
     0
 40
0.0
  0
LTYPE
  5
16
330
5
100
AcDbSymbolTableRecord
100
AcDbLinetypeTableRecord
  2
Continuous
 70
     0
  3
Solid line
 72
    65
 73
     0
 40
0.0
  0
LTYPE
  5
A4
330
5
100
AcDbSymbolTableRecord
100
AcDbLinetypeTableRecord
  2
New Line1
 70
     0
  3

 72
    65
 73
     2
 40
0.2
 49
0.1
 74
     4
 75
     0
340
0
 46
1.0
 50
0.0
 44
0.0
 45
0.0
 49
-0.1
 74
     4
 75
     0
340
0
 46
1.0
 50
0.0
 44
0.0
 45
0.0
  0
ENDTAB
  0
TABLE
  2
LAYER
  5
2
330
0
100
AcDbSymbolTable
 70
     2
  0
LAYER
  5
10
330
2
100
AcDbSymbolTableRecord
100
AcDbLayerTableRecord
  2
0
 70
     0
 62
     7
  6
Continuous
370
    -3
390
F
347
46
348
0
  0
LAYER
  5
5F
330
2
100
AcDbSymbolTableRecord
100
AcDbLayerTableRecord
  2
Layer 1
 70
     0
 62
     7
  6
Continuous
370
    -3
390
F
347
46
348
0
  0
ENDTAB
  0
TABLE
  2
STYLE
  5
3
330
0
100
AcDbSymbolTable
 70
     1
  0
STYLE
  5
11
330
3
100
AcDbSymbolTableRecord
100
AcDbTextStyleTableRecord
  2
Standard
 70
     0
 40
0.0
 41
1.0
 50
0.0
 71
     0
 42
0.2
  3
txt
  4

  0
ENDTAB
  0
TABLE
  2
VIEW
  5
6
330
0
100
AcDbSymbolTable
 70
     0
  0
ENDTAB
  0
TABLE
  2
UCS
  5
7
330
0
100
AcDbSymbolTable
 70
     0
  0
ENDTAB
  0
TABLE
  2
APPID
  5
9
330
0
100
AcDbSymbolTable
 70
     2
  0
APPID
  5
12
330
9
100
AcDbSymbolTableRecord
100
AcDbRegAppTableRecord
  2
ACAD
 70
     0
  0
APPID
  5
5E
330
9
100
AcDbSymbolTableRecord
100
AcDbRegAppTableRecord
  2
ODA
 70
     0
  0
ENDTAB
  0
TABLE
  2
DIMSTYLE
  5
A
330
0
100
AcDbSymbolTable
 70
     1
100
AcDbDimStyleTable
  0
DIMSTYLE
105
27
330
A
100
AcDbSymbolTableRecord
100
AcDbDimStyleTableRecord
  2
Standard
 70
     0
178
     0
340
11
  0
ENDTAB
  0
TABLE
  2
BLOCK_RECORD
  5
1
330
0
100
AcDbSymbolTable
 70
     1
  0
BLOCK_RECORD
  5
1F
330
1
100
AcDbSymbolTableRecord
100
AcDbBlockTableRecord
  2
*Model_Space
340
22
 70
     0
280
     1
281
     0
  0
BLOCK_RECORD
  5
1B
330
1
100
AcDbSymbolTableRecord
100
AcDbBlockTableRecord
  2
*Paper_Space
340
1E
 70
     0
280
     1
281
     0
  0
BLOCK_RECORD
  5
23
330
1
100
AcDbSymbolTableRecord
100
AcDbBlockTableRecord
  2
*Paper_Space0
340
26
 70
     0
280
     1
281
     0
  0
ENDTAB
  0
ENDSEC
  0
SECTION
  2
BLOCKS
  0
BLOCK
  5
20
330
1F
100
AcDbEntity
  8
0
100
AcDbBlockBegin
  2
*Model_Space
 70
     0
 10
0.0
 20
0.0
 30
0.0
  3
*Model_Space
  1

  0
ENDBLK
  5
21
330
1F
100
AcDbEntity
  8
0
100
AcDbBlockEnd
  0
BLOCK
  5
1C
330
1B
100
AcDbEntity
 67
     1
  8
0
100
AcDbBlockBegin
  2
*Paper_Space
 70
     0
 10
0.0
 20
0.0
 30
0.0
  3
*Paper_Space
  1

  0
ENDBLK
  5
1D
330
1B
100
AcDbEntity
 67
     1
  8
0
100
AcDbBlockEnd
  0
BLOCK
  5
24
330
23
100
AcDbEntity
  8
0
100
AcDbBlockBegin
  2
*Paper_Space0
 70
     0
 10
0.0
 20
0.0
 30
0.0
  3
*Paper_Space0
  1

  0
ENDBLK
  5
25
330
23
100
AcDbEntity
  8
0
100
AcDbBlockEnd
  0
ENDSEC
  0
SECTION
  2
ENTITIES
  0
LWPOLYLINE
  5
60
330
1F
100
AcDbEntity
  8
Layer 1
 62
   250
370
    18
100
AcDbPolyline
 90
        5
 70
     1
 43
0.0
 10
485.0688
 20
-319.4725
 10
1884.7982
 20
-319.4725
 10
1884.7982
 20
395.6171
 10
485.0688
 20
395.6171
 10
485.0688
 20
-319.4725
  0
LWPOLYLINE
  5
61
330
1F
100
AcDbEntity
  8
Layer 1
 62
     7
100
AcDbPolyline
 90
      286
 70
     1
 43
0.0
 10
605.6461
 20
-13.5901
 10
605.6553
 20
-13.9447
 10
605.6829
 20
-14.3004
 10
605.7292
 20
-14.6571
 10
605.7941
 20
-15.0152
 10
605.8741
 20
-15.3702
 10
605.9648
 20
-15.7225
 10
606.0673
 20
-16.0713
 10
606.1829
 20
-16.4159
 10
606.2972
 20
-16.7239
 10
606.4157
 20
-17.0109
 10
606.5371
 20
-17.2766
 10
606.6601
 20
-17.5206
 10
607.1277
 20
-18.361
 10
607.1277
 20
-18.5188
 10
604.7419
 20
-18.5188
 10
604.6438
 20
-18.2943
 10
604.5482
 20
-18.0504
 10
604.4551
 20
-17.7871
 10
604.3644
 20
-17.5045
 10
604.2761
 20
-17.2029
 10
604.1904
 20
-16.8823
 10
604.107
 20
-16.5429
 10
604.0262
 20
-16.1847
 10
603.9503
 20
-15.818
 10
603.8846
 20
-15.4554
 10
603.829
 20
-15.0972
 10
603.7836
 20
-14.7434
 10
603.7483
 20
-14.394
 10
603.7231
 20
-14.0492
 10
603.7079
 20
-13.709
 10
603.7029
 20
-13.3735
 10
603.7066
 20
-13.0437
 10
603.7176
 20
-12.7247
 10
603.7359
 20
-12.4165
 10
603.7614
 20
-12.119
 10
603.794
 20
-11.8321
 10
603.8338
 20
-11.5555
 10
603.8806
 20
-11.2893
 10
603.9344
 20
-11.0333
 10
603.996
 20
-10.7874
 10
604.0655
 20
-10.5472
 10
604.1429
 20
-10.3126
 10
604.2282
 20
-10.0839
 10
604.3216
 20
-9.8611
 10
604.423
 20
-9.6442
 10
604.5325
 20
-9.4335
 10
604.6501
 20
-9.229
 10
604.7884
 20
-9.017
 10
604.9341
 20
-8.8185
 10
605.087
 20
-8.6336
 10
605.2473
 20
-8.4622
 10
605.4147
 20
-8.3042
 10
605.5893
 20
-8.1596
 10
605.7711
 20
-8.0283
 10
605.9599
 20
-7.9102
 10
606.1559
 20
-7.8069
 10
606.3599
 20
-7.7172
 10
606.5721
 20
-7.6411
 10
606.7922
 20
-7.5787
 10
607.0203
 20
-7.5301
 10
607.2562
 20
-7.4953
 10
607.5
 20
-7.4744
 10
607.7516
 20
-7.4674
 10
608.0938
 20
-7.4841
 10
608.4252
 20
-7.5344
 10
608.746
 20
-7.6182
 10
609.056
 20
-7.7356
 10
609.3552
 20
-7.8866
 10
609.6438
 20
-8.0712
 10
609.9216
 20
-8.2895
 10
610.1886
 20
-8.5415
 10
610.4396
 20
-8.8161
 10
610.6666
 20
-9.1041
 10
610.8695
 20
-9.4054
 10
611.0484
 20
-9.72
 10
611.2032
 20
-10.0478
 10
611.334
 20
-10.3889
 10
611.4407
 20
-10.7431
 10
611.5234
 20
-11.1104
 10
611.6821
 20
-11.1104
 10
611.7408
 20
-10.7941
 10
611.8196
 20
-10.467
 10
611.9176
 20
-10.1288
 10
612.034
 20
-9.7794
 10
612.0997
 20
-9.6047
 10
612.1726
 20
-9.4331
 10
612.2527
 20
-9.2644
 10
612.3403
 20
-9.0987
 10
612.4353
 20
-8.9359
 10
612.5379
 20
-8.7762
 10
612.6482
 20
-8.6194
 10
612.7664
 20
-8.4656
 10
612.892
 20
-8.3169
 10
613.0265
 20
-8.1754
 10
613.1697
 20
-8.0409
 10
613.3217
 20
-7.9135
 10
613.4824
 20
-7.7929
 10
613.6518
 20
-7.6793
 10
613.8298
 20
-7.5724
 10
614.0165
 20
-7.4723
 10
614.2121
 20
-7.3817
 10
614.4179
 20
-7.3034
 10
614.6341
 20
-7.2373
 10
614.8606
 20
-7.1835
 10
615.0978
 20
-7.1417
 10
615.3456
 20
-7.1119
 10
615.6042
 20
-7.0941
 10
615.8738
 20
-7.0882
 10
616.1559
 20
-7.0954
 10
616.4322
 20
-7.117
 10
616.7028
 20
-7.1529
 10
616.9678
 20
-7.203
 10
617.2273
 20
-7.2673
 10
617.4814
 20
-7.3457
 10
617.73
 20
-7.4381
 10
617.9733
 20
-7.5445
 10
618.2079
 20
-7.665
 10
618.4358
 20
-7.7971
 10
618.657
 20
-7.9408
 10
618.8714
 20
-8.0962
 10
619.079
 20
-8.2633
 10
619.2799
 20
-8.4421
 10
619.4739
 20
-8.6327
 10
619.6612
 20
-8.835
 10
619.847
 20
-9.0557
 10
620.0212
 20
-9.2874
 10
620.1839
 20
-9.5302
 10
620.335
 20
-9.7842
 10
620.4744
 20
-10.0493
 10
620.6021
 20
-10.3257
 10
620.7179
 20
-10.6133
 10
620.8219
 20
-10.9122
 10
620.9157
 20
-11.2219
 10
620.9967
 20
-11.5418
 10
621.065
 20
-11.872
 10
621.1207
 20
-12.2123
 10
621.1639
 20
-12.5629
 10
621.1946
 20
-12.9236
 10
621.213
 20
-13.2946
 10
621.2191
 20
-13.6757
 10
621.2144
 20
-14.0459
 10
621.2003
 20
-14.4154
 10
621.1767
 20
-14.784
 10
621.1437
 20
-15.1518
 10
621.1011
 20
-15.5187
 10
621.049
 20
-15.8847
 10
620.9873
 20
-16.2499
 10
620.9161
 20
-16.6141
 10
620.837
 20
-16.9705
 10
620.7545
 20
-17.3122
 10
620.6683
 20
-17.6394
 10
620.5784
 20
-17.9521
 10
620.4846
 20
-18.2504
 10
620.3869
 20
-18.5346
 10
620.285
 20
-18.8046
 10
620.1789
 20
-19.0607
 10
617.7944
 20
-19.0607
 10
617.7944
 20
-18.876
 10
617.9254
 20
-18.6588
 10
618.0547
 20
-18.4239
 10
618.1822
 20
-18.1712
 10
618.3081
 20
-17.9007
 10
618.4325
 20
-17.6124
 10
618.5555
 20
-17.3064
 10
618.6771
 20
-16.9826
 10
618.7976
 20
-16.641
 10
618.9103
 20
-16.289
 10
619.0077
 20
-15.9374
 10
619.09
 20
-15.5862
 10
619.1571
 20
-15.2353
 10
619.2092
 20
-14.8845
 10
619.2463
 20
-14.5338
 10
619.2685
 20
-14.1831
 10
619.2759
 20
-13.8323
 10
619.2724
 20
-13.6307
 10
619.2621
 20
-13.4287
 10
619.2448
 20
-13.2263
 10
619.2206
 20
-13.0237
 10
619.1895
 20
-12.8208
 10
619.1516
 20
-12.6178
 10
619.1068
 20
-12.4146
 10
619.0552
 20
-12.2114
 10
618.996
 20
-12.0126
 10
618.9277
 20
-11.8219
 10
618.8504
 20
-11.6393
 10
618.7642
 20
-11.465
 10
618.6693
 20
-11.2992
 10
618.5658
 20
-11.1419
 10
618.4538
 20
-10.9933
 10
618.3336
 20
-10.8535
 10
618.208
 20
-10.7254
 10
618.0792
 20
-10.6053
 10
617.9472
 20
-10.4931
 10
617.8118
 20
-10.3888
 10
617.6732
 20
-10.2924
 10
617.5312
 20
-10.2038
 10
617.3859
 20
-10.1229
 10
617.2373
 20
-10.0498
 10
617.0813
 20
-9.9848
 10
616.9156
 20
-9.9283
 10
616.7402
 20
-9.8804
 10
616.5551
 20
-9.8411
 10
616.3602
 20
-9.8104
 10
616.1555
 20
-9.7885
 10
615.9409
 20
-9.7753
 10
615.7164
 20
-9.7709
 10
615.4932
 20
-9.7757
 10
615.2799
 20
-9.7902
 10
615.0766
 20
-9.8144
 10
614.8833
 20
-9.8483
 10
614.7002
 20
-9.8919
 10
614.5272
 20
-9.9453
 10
614.3645
 20
-10.0085
 10
614.2122
 20
-10.0816
 10
614.0681
 20
-10.1634
 10
613.932
 20
-10.2528
 10
613.8038
 20
-10.3499
 10
613.6837
 20
-10.4547
 10
613.5717
 20
-10.5674
 10
613.4677
 20
-10.6878
 10
613.3718
 20
-10.8162
 10
613.2841
 20
-10.9526
 10
613.2015
 20
-11.0943
 10
613.1256
 20
-11.2426
 10
613.0563
 20
-11.3974
 10
612.9938
 20
-11.5587
 10
612.938
 20
-11.7268
 10
612.889
 20
-11.9015
 10
612.8469
 20
-12.083
 10
612.8117
 20
-12.2713
 10
612.7808
 20
-12.4645
 10
612.7544
 20
-12.6615
 10
612.7322
 20
-12.8623
 10
612.7142
 20
-13.0669
 10
612.7004
 20
-13.2754
 10
612.6906
 20
-13.4877
 10
612.6848
 20
-13.7039
 10
612.6829
 20
-13.924
 10
612.6829
 20
-15.0519
 10
610.8065
 20
-15.0519
 10
610.8065
 20
-14.176
 10
610.7953
 20
-13.7395
 10
610.7615
 20
-13.3238
 10
610.7053
 20
-12.9288
 10
610.6265
 20
-12.5547
 10
610.5252
 20
-12.2015
 10
610.4014
 20
-11.8693
 10
610.255
 20
-11.5582
 10
610.086
 20
-11.2682
 10
609.8949
 20
-11.0066
 10
609.6831
 20
-10.7795
 10
609.4507
 20
-10.5872
 10
609.1978
 20
-10.4296
 10
608.9244
 20
-10.3069
 10
608.6308
 20
-10.2192
 10
608.317
 20
-10.1665
 10
607.983
 20
-10.1489
 10
607.8283
 20
-10.1533
 10
607.679
 20
-10.1667
 10
607.5351
 20
-10.189
 10
607.3967
 20
-10.2205
 10
607.2636
 20
-10.2611
 10
607.1358
 20
-10.3109
 10
607.0134
 20
-10.3702
 10
606.8963
 20
-10.4388
 10
606.7837
 20
-10.5139
 10
606.6776
 20
-10.5942
 10
606.5777
 20
-10.6795
 10
606.4841
 20
-10.7699
 10
606.3965
 20
-10.865
 10
606.3148
 20
-10.965
 10
606.2389
 20
-11.0697
 10
606.1686
 20
-11.1789
 10
606.097
 20
-11.3074
 10
606.0314
 20
-11.4388
 10
605.9717
 20
-11.5732
 10
605.918
 20
-11.7105
 10
605.8699
 20
-11.8507
 10
605.8276
 20
-11.994
 10
605.7908
 20
-12.1403
 10
605.7595
 20
-12.2897
 10
605.7106
 20
-12.5994
 10
605.6751
 20
-12.9192
 10
605.6534
 20
-13.2495
 10
605.6461
 20
-13.5901
  0
LWPOLYLINE
  5
62
330
1F
100
AcDbEntity
  8
Layer 1
 62
     7
100
AcDbPolyline
 90
       74
 70
     1
 43
0.0
 10
607.952
 20
6.8698
 10
607.6744
 20
6.856
 10
607.4088
 20
6.8147
 10
607.155
 20
6.7457
 10
606.913
 20
6.649
 10
606.6826
 20
6.5245
 10
606.4637
 20
6.3723
 10
606.2563
 20
6.1922
 10
606.0601
 20
5.9841
 10
605.8818
 20
5.7535
 10
605.7273
 20
5.5013
 10
605.5965
 20
5.2275
 10
605.4894
 20
4.932
 10
605.4061
 20
4.6148
 10
605.3466
 20
4.2761
 10
605.3109
 20
3.9158
 10
605.299
 20
3.5339
 10
605.3097
 20
3.1818
 10
605.3417
 20
2.8464
 10
605.3951
 20
2.5277
 10
605.4699
 20
2.2254
 10
605.566
 20
1.9393
 10
605.6835
 20
1.6692
 10
605.8223
 20
1.415
 10
605.9825
 20
1.1765
 10
606.1595
 20
0.9622
 10
606.3514
 20
0.7763
 10
606.5584
 20
0.6189
 10
606.7804
 20
0.49
 10
607.0176
 20
0.3896
 10
607.27
 20
0.3178
 10
607.5377
 20
0.2747
 10
607.8208
 20
0.2603
 10
608.0265
 20
0.2677
 10
608.2241
 20
0.2898
 10
608.4136
 20
0.3267
 10
608.5951
 20
0.3783
 10
608.7686
 20
0.4446
 10
608.9341
 20
0.5255
 10
609.0917
 20
0.6211
 10
609.2415
 20
0.7312
 10
609.3838
 20
0.8551
 10
609.5226
 20
0.9939
 10
609.6579
 20
1.1475
 10
609.7898
 20
1.316
 10
609.918
 20
1.4994
 10
610.0428
 20
1.6977
 10
610.164
 20
1.911
 10
610.2816
 20
2.1393
 10
610.8149
 20
3.3846
 10
610.8976
 20
3.5923
 10
610.9756
 20
3.7952
 10
611.0491
 20
3.9932
 10
611.1178
 20
4.1864
 10
611.1819
 20
4.3746
 10
611.2413
 20
4.558
 10
611.2959
 20
4.7365
 10
611.3457
 20
4.9101
 10
611.1561
 20
5.1849
 10
610.9649
 20
5.4367
 10
610.7722
 20
5.6655
 10
610.5781
 20
5.8713
 10
610.3826
 20
6.054
 10
610.1859
 20
6.2137
 10
609.988
 20
6.3503
 10
609.789
 20
6.4637
 10
609.5843
 20
6.5588
 10
609.3728
 20
6.6412
 10
609.1543
 20
6.711
 10
608.9286
 20
6.7681
 10
608.6957
 20
6.8126
 10
608.4554
 20
6.8444
 10
608.2075
 20
6.8634
 10
607.952
 20
6.8698
  0
LWPOLYLINE
  5
63
330
1F
100
AcDbEntity
  8
Layer 1
 62
     7
100
AcDbPolyline
 90
       70
 70
     1
 43
0.0
 10
616.3987
 20
7.276
 10
616.1462
 20
7.2686
 10
615.907
 20
7.2463
 10
615.6809
 20
7.2092
 10
615.4682
 20
7.157
 10
615.269
 20
7.0899
 10
615.0832
 20
7.0076
 10
614.911
 20
6.9103
 10
614.7525
 20
6.7977
 10
614.5993
 20
6.6653
 10
614.4455
 20
6.5048
 10
614.2912
 20
6.3164
 10
614.1361
 20
6.1001
 10
613.9803
 20
5.8558
 10
613.8235
 20
5.5838
 10
613.6659
 20
5.2841
 10
613.5072
 20
4.9566
 10
613.3973
 20
4.7113
 10
613.2837
 20
4.4298
 10
613.1658
 20
4.1114
 10
613.0432
 20
3.7553
 10
612.4539
 20
2.061
 10
612.6143
 20
1.7951
 10
612.7835
 20
1.5452
 10
612.9616
 20
1.3113
 10
613.1486
 20
1.0934
 10
613.3447
 20
0.8915
 10
613.5501
 20
0.7058
 10
613.7649
 20
0.5361
 10
613.9891
 20
0.3826
 10
614.2199
 20
0.2459
 10
614.4588
 20
0.1275
 10
614.7057
 20
0.0274
 10
614.9607
 20
-0.0544
 10
615.2237
 20
-0.118
 10
615.4948
 20
-0.1634
 10
615.7739
 20
-0.1906
 10
616.0611
 20
-0.1997
 10
616.4343
 20
-0.1828
 10
616.7907
 20
-0.1321
 10
617.1305
 20
-0.0476
 10
617.4536
 20
0.0705
 10
617.7601
 20
0.2223
 10
618.0501
 20
0.4078
 10
618.3235
 20
0.6268
 10
618.5805
 20
0.8793
 10
618.814
 20
1.1588
 10
619.0162
 20
1.4551
 10
619.1872
 20
1.7684
 10
619.3271
 20
2.0987
 10
619.4357
 20
2.4462
 10
619.5133
 20
2.811
 10
619.5598
 20
3.1931
 10
619.5753
 20
3.5926
 10
619.562
 20
3.9989
 10
619.5221
 20
4.3848
 10
619.4555
 20
4.7503
 10
619.3622
 20
5.0953
 10
619.2423
 20
5.4198
 10
619.0957
 20
5.7238
 10
618.9224
 20
6.0074
 10
618.7224
 20
6.2704
 10
618.4994
 20
6.5064
 10
618.2572
 20
6.7109
 10
617.9957
 20
6.8837
 10
617.7149
 20
7.0251
 10
617.4148
 20
7.1349
 10
617.0955
 20
7.2133
 10
616.7567
 20
7.2603
 10
616.3987
 20
7.276
  0
LWPOLYLINE
  5
64
330
1F
100
AcDbEntity
  8
Layer 1
 62
     7
100
AcDbPolyline
 90
      147
 70
     1
 43
0.0
 10
621.2668
 20
3.5387
 10
621.2609
 20
3.1755
 10
621.2433
 20
2.8207
 10
621.214
 20
2.4743
 10
621.173
 20
2.1361
 10
621.1203
 20
1.8061
 10
621.056
 20
1.4842
 10
620.98
 20
1.1704
 10
620.8923
 20
0.8646
 10
620.7941
 20
0.5691
 10
620.6858
 20
0.2846
 10
620.5672
 20
0.0111
 10
620.4384
 20
-0.2512
 10
620.2993
 20
-0.5024
 10
620.1498
 20
-0.7423
 10
619.9901
 20
-0.9709
 10
619.8199
 20
-1.1881
 10
619.6456
 20
-1.3904
 10
619.4637
 20
-1.5799
 10
619.274
 20
-1.7567
 10
619.0764
 20
-1.9209
 10
618.8709
 20
-2.0724
 10
618.6574
 20
-2.2113
 10
618.4357
 20
-2.3378
 10
618.2059
 20
-2.4518
 10
617.9708
 20
-2.5525
 10
617.7326
 20
-2.6397
 10
617.4911
 20
-2.7135
 10
617.2464
 20
-2.7739
 10
616.9984
 20
-2.8208
 10
616.747
 20
-2.8544
 10
616.4923
 20
-2.8745
 10
616.2341
 20
-2.8812
 10
615.8946
 20
-2.8679
 10
615.5624
 20
-2.8279
 10
615.2372
 20
-2.7611
 10
614.9191
 20
-2.6676
 10
614.608
 20
-2.5471
 10
614.3038
 20
-2.3997
 10
614.0065
 20
-2.2252
 10
613.7159
 20
-2.0236
 10
613.4364
 20
-1.7964
 10
613.1714
 20
-1.5451
 10
612.921
 20
-1.2695
 10
612.6853
 20
-0.9698
 10
612.4643
 20
-0.6457
 10
612.2582
 20
-0.2972
 10
612.067
 20
0.0757
 10
611.8908
 20
0.4731
 10
611.8205
 20
0.4731
 10
611.6376
 20
0.1195
 10
611.4504
 20
-0.2101
 10
611.2589
 20
-0.5158
 10
611.0631
 20
-0.7977
 10
610.8632
 20
-1.056
 10
610.6591
 20
-1.2907
 10
610.451
 20
-1.5019
 10
610.2387
 20
-1.6897
 10
610.0165
 20
-1.8548
 10
609.7811
 20
-1.9979
 10
609.5325
 20
-2.1191
 10
609.2707
 20
-2.2181
 10
608.9957
 20
-2.2952
 10
608.7075
 20
-2.3503
 10
608.4061
 20
-2.3833
 10
608.0915
 20
-2.3943
 10
607.6256
 20
-2.368
 10
607.1796
 20
-2.2893
 10
606.7536
 20
-2.158
 10
606.3475
 20
-1.9742
 10
605.9614
 20
-1.738
 10
605.5951
 20
-1.4493
 10
605.2487
 20
-1.1082
 10
604.9221
 20
-0.7147
 10
604.6253
 20
-0.2805
 10
604.3682
 20
0.1819
 10
604.1508
 20
0.6724
 10
603.9731
 20
1.191
 10
603.835
 20
1.7378
 10
603.7364
 20
2.3128
 10
603.6773
 20
2.916
 10
603.6576
 20
3.5473
 10
603.6763
 20
4.2011
 10
603.7325
 20
4.8218
 10
603.8262
 20
5.4095
 10
603.9575
 20
5.9641
 10
604.1262
 20
6.4855
 10
604.3325
 20
6.9736
 10
604.5763
 20
7.4283
 10
604.8577
 20
7.8497
 10
605.1708
 20
8.2291
 10
605.5043
 20
8.558
 10
605.8585
 20
8.8364
 10
606.2333
 20
9.0642
 10
606.6288
 20
9.2414
 10
607.0451
 20
9.3681
 10
607.4821
 20
9.4441
 10
607.94
 20
9.4694
 10
608.2233
 20
9.4574
 10
608.5058
 20
9.4212
 10
608.7875
 20
9.361
 10
609.0683
 20
9.2766
 10
609.3482
 20
9.1681
 10
609.627
 20
9.0354
 10
609.9048
 20
8.8785
 10
610.1814
 20
8.6975
 10
610.4518
 20
8.494
 10
610.7065
 20
8.2689
 10
610.9458
 20
8.0223
 10
611.1696
 20
7.7542
 10
611.3782
 20
7.4647
 10
611.5716
 20
7.1539
 10
611.75
 20
6.8218
 10
611.9135
 20
6.4686
 10
611.9779
 20
6.4686
 10
612.1559
 20
6.8853
 10
612.3428
 20
7.2758
 10
612.5385
 20
7.6402
 10
612.7432
 20
7.9786
 10
612.9567
 20
8.291
 10
613.1793
 20
8.5775
 10
613.4109
 20
8.8381
 10
613.6515
 20
9.073
 10
613.9078
 20
9.2807
 10
614.181
 20
9.4605
 10
614.4713
 20
9.6125
 10
614.779
 20
9.7368
 10
615.1041
 20
9.8334
 10
615.447
 20
9.9024
 10
615.8077
 20
9.9437
 10
616.1864
 20
9.9575
 10
616.7169
 20
9.9289
 10
617.2251
 20
9.8432
 10
617.711
 20
9.7002
 10
618.1746
 20
9.5
 10
618.6159
 20
9.2424
 10
619.035
 20
8.9274
 10
619.4319
 20
8.5549
 10
619.8067
 20
8.1249
 10
620.1486
 20
7.652
 10
620.445
 20
7.1506
 10
620.6959
 20
6.6207
 10
620.9013
 20
6.0621
 10
621.0612
 20
5.4747
 10
621.1754
 20
4.8585
 10
621.2439
 20
4.2132
 10
621.2668
 20
3.5387
  0
LWPOLYLINE
  5
65
330
1F
100
AcDbEntity
  8
Layer 1
 62
     7
100
AcDbPolyline
 90
       65
 70
     1
 43
0.0
 10
612.4491
 20
26.3266
 10
613.5441
 20
26.3025
 10
614.5639
 20
26.2301
 10
615.5084
 20
26.1096
 10
616.3777
 20
25.941
 10
617.1718
 20
25.7243
 10
617.8907
 20
25.4596
 10
618.5344
 20
25.1469
 10
619.103
 20
24.7864
 10
619.5991
 20
24.3746
 10
620.0289
 20
23.9106
 10
620.3927
 20
23.3945
 10
620.6902
 20
22.8261
 10
620.9216
 20
22.2054
 10
621.0869
 20
21.5324
 10
621.1861
 20
20.8069
 10
621.2191
 20
20.029
 10
621.1853
 20
19.242
 10
621.084
 20
18.5095
 10
620.9153
 20
17.8314
 10
620.679
 20
17.2076
 10
620.3754
 20
16.6379
 10
620.0043
 20
16.1224
 10
619.5658
 20
15.6609
 10
619.06
 20
15.2532
 10
618.4851
 20
14.8959
 10
617.8394
 20
14.5865
 10
617.1227
 20
14.3249
 10
616.335
 20
14.1111
 10
615.4763
 20
13.9449
 10
614.5464
 20
13.8262
 10
613.5454
 20
13.7551
 10
612.473
 20
13.7314
 10
611.3731
 20
13.7555
 10
610.3495
 20
13.8277
 10
609.4023
 20
13.9481
 10
608.5313
 20
14.1166
 10
607.7366
 20
14.3332
 10
607.0183
 20
14.5979
 10
606.3764
 20
14.9107
 10
605.8108
 20
15.2715
 10
605.3164
 20
15.683
 10
604.8881
 20
16.1468
 10
604.5258
 20
16.6629
 10
604.2295
 20
17.2314
 10
603.999
 20
17.8522
 10
603.8345
 20
18.5254
 10
603.7358
 20
19.251
 10
603.7029
 20
20.029
 10
603.7371
 20
20.816
 10
603.8395
 20
21.5485
 10
604.0101
 20
22.2266
 10
604.249
 20
22.8504
 10
604.5559
 20
23.42
 10
604.9309
 20
23.9356
 10
605.3738
 20
24.3971
 10
605.8847
 20
24.8048
 10
606.4643
 20
25.1621
 10
607.1127
 20
25.4715
 10
607.8298
 20
25.7331
 10
608.6158
 20
25.9469
 10
609.4707
 20
26.1131
 10
610.3945
 20
26.2318
 10
611.3873
 20
26.3029
 10
612.4491
 20
26.3266
  0
LWPOLYLINE
  5
66
330
1F
100
AcDbEntity
  8
Layer 1
 62
     7
100
AcDbPolyline
 90
      129
 70
     1
 43
0.0
 10
617.5749
 20
22.9405
 10
617.3584
 20
23.0336
 10
617.1285
 20
23.1195
 10
616.8851
 20
23.1982
 10
616.628
 20
23.2699
 10
616.3572
 20
23.3345
 10
616.0725
 20
23.3922
 10
615.7739
 20
23.4431
 10
615.4611
 20
23.4873
 10
615.1354
 20
23.5236
 10
614.7954
 20
23.5553
 10
614.4409
 20
23.5824
 10
614.0719
 20
23.6047
 10
613.6883
 20
23.6223
 10
613.29
 20
23.6349
 10
612.8769
 20
23.6425
 10
612.4491
 20
23.6451
 10
612.0252
 20
23.6425
 10
611.615
 20
23.6349
 10
611.2186
 20
23.6223
 10
610.8362
 20
23.6047
 10
610.4678
 20
23.5824
 10
610.1136
 20
23.5553
 10
609.7735
 20
23.5236
 10
609.4478
 20
23.4873
 10
609.1353
 20
23.4429
 10
608.8366
 20
23.3914
 10
608.5515
 20
23.3327
 10
608.28
 20
23.2669
 10
608.0219
 20
23.194
 10
607.777
 20
23.1138
 10
607.5454
 20
23.0265
 10
607.3269
 20
22.9319
 10
607.1184
 20
22.8273
 10
606.9232
 20
22.7134
 10
606.7412
 20
22.5903
 10
606.5723
 20
22.458
 10
606.4162
 20
22.3167
 10
606.2729
 20
22.1662
 10
606.1424
 20
22.0068
 10
606.0243
 20
21.8383
 10
605.9195
 20
21.6578
 10
605.8288
 20
21.4641
 10
605.7521
 20
21.2572
 10
605.6894
 20
21.0373
 10
605.6407
 20
20.8044
 10
605.6059
 20
20.5587
 10
605.585
 20
20.3002
 10
605.5781
 20
20.029
 10
605.585
 20
19.7606
 10
605.6059
 20
19.5041
 10
605.6407
 20
19.2597
 10
605.6894
 20
19.0275
 10
605.7521
 20
18.8077
 10
605.8288
 20
18.6003
 10
605.9195
 20
18.4055
 10
606.0243
 20
18.2234
 10
606.1427
 20
18.0501
 10
606.2743
 20
17.8863
 10
606.4191
 20
17.7319
 10
606.5773
 20
17.5871
 10
606.749
 20
17.4518
 10
606.9343
 20
17.3262
 10
607.1333
 20
17.2103
 10
607.346
 20
17.104
 10
607.5689
 20
17.008
 10
607.8054
 20
16.92
 10
608.0557
 20
16.84
 10
608.3196
 20
16.7678
 10
608.5974
 20
16.7035
 10
608.8889
 20
16.647
 10
609.1942
 20
16.5982
 10
609.5134
 20
16.5572
 10
609.8472
 20
16.524
 10
610.1911
 20
16.4949
 10
610.5451
 20
16.4701
 10
610.9095
 20
16.4497
 10
611.2844
 20
16.4337
 10
611.6698
 20
16.4222
 10
612.066
 20
16.4152
 10
612.473
 20
16.4129
 10
612.9034
 20
16.4148
 10
613.3162
 20
16.4205
 10
613.7112
 20
16.4302
 10
614.0884
 20
16.4438
 10
614.4479
 20
16.4614
 10
614.7896
 20
16.4831
 10
615.1134
 20
16.5089
 10
615.4194
 20
16.5389
 10
615.7106
 20
16.5741
 10
615.9945
 20
16.6191
 10
616.2711
 20
16.6738
 10
616.5402
 20
16.7381
 10
616.8018
 20
16.8121
 10
617.0557
 20
16.8955
 10
617.3019
 20
16.9884
 10
617.5403
 20
17.0906
 10
617.7507
 20
17.1904
 10
617.9489
 20
17.3009
 10
618.1348
 20
17.4218
 10
618.3085
 20
17.5533
 10
618.4699
 20
17.6952
 10
618.6189
 20
17.8475
 10
618.7556
 20
18.0101
 10
618.8799
 20
18.183
 10
618.9893
 20
18.3661
 10
619.0839
 20
18.563
 10
619.1639
 20
18.7735
 10
619.2292
 20
18.9977
 10
619.28
 20
19.2355
 10
619.3162
 20
19.4866
 10
619.3379
 20
19.7512
 10
619.3451
 20
20.029
 10
619.3381
 20
20.2971
 10
619.317
 20
20.5534
 10
619.2819
 20
20.7979
 10
619.2328
 20
21.0304
 10
619.1698
 20
21.2509
 10
619.093
 20
21.4591
 10
619.0023
 20
21.6549
 10
618.8978
 20
21.8383
 10
618.7798
 20
22.0102
 10
618.6483
 20
22.1725
 10
618.5035
 20
22.3253
 10
618.3451
 20
22.4683
 10
618.1731
 20
22.6014
 10
617.9874
 20
22.7246
 10
617.7881
 20
22.8376
 10
617.5749
 20
22.9405
  0
LWPOLYLINE
  5
67
330
1F
100
AcDbEntity
  8
Layer 1
 62
     7
100
AcDbPolyline
 90
      190
 70
     1
 43
0.0
 10
620.8732
 20
47.6783
 10
613.5764
 20
47.6783
 10
613.3614
 20
47.6771
 10
613.1503
 20
47.6734
 10
612.9431
 20
47.6673
 10
612.7399
 20
47.6586
 10
612.5405
 20
47.6473
 10
612.3451
 20
47.6334
 10
612.1536
 20
47.6168
 10
611.966
 20
47.5975
 10
611.7863
 20
47.5762
 10
611.6167
 20
47.549
 10
611.4571
 20
47.5161
 10
611.3075
 20
47.4775
 10
611.1677
 20
47.4334
 10
611.0377
 20
47.3837
 10
610.9173
 20
47.3288
 10
610.8065
 20
47.2685
 10
610.6975
 20
47.1988
 10
610.596
 20
47.122
 10
610.502
 20
47.038
 10
610.4154
 20
46.9471
 10
610.3362
 20
46.8491
 10
610.2645
 20
46.7441
 10
610.2002
 20
46.6323
 10
610.1433
 20
46.5137
 10
610.0933
 20
46.3866
 10
610.0498
 20
46.2484
 10
610.013
 20
46.0993
 10
609.9827
 20
45.9392
 10
609.9591
 20
45.7683
 10
609.9422
 20
45.5866
 10
609.932
 20
45.3943
 10
609.9286
 20
45.1913
 10
609.9349
 20
44.9971
 10
609.9539
 20
44.7996
 10
609.9855
 20
44.599
 10
610.0297
 20
44.3949
 10
610.0865
 20
44.1874
 10
610.156
 20
43.9764
 10
610.2382
 20
43.7618
 10
610.3329
 20
43.5435
 10
610.4381
 20
43.3226
 10
610.5551
 20
43.0995
 10
610.6837
 20
42.8743
 10
610.8238
 20
42.6471
 10
610.9753
 20
42.4179
 10
611.1381
 20
42.1869
 10
611.3121
 20
41.954
 10
611.4972
 20
41.7195
 10
611.9505
 20
41.7562
 10
612.5815
 20
41.7746
 10
620.8732
 20
41.7746
 10
620.8732
 20
39.2827
 10
613.5764
 20
39.2827
 10
613.3614
 20
39.2814
 10
613.1503
 20
39.2776
 10
612.9431
 20
39.2713
 10
612.7399
 20
39.2624
 10
612.5405
 20
39.2509
 10
612.3451
 20
39.2368
 10
612.1536
 20
39.22
 10
611.966
 20
39.2007
 10
611.7863
 20
39.1793
 10
611.6167
 20
39.152
 10
611.4571
 20
39.1189
 10
611.3075
 20
39.0801
 10
611.1677
 20
39.0357
 10
611.0377
 20
38.9858
 10
610.9173
 20
38.9307
 10
610.8065
 20
38.8704
 10
610.6975
 20
38.8012
 10
610.596
 20
38.7246
 10
610.502
 20
38.6409
 10
610.4154
 20
38.5501
 10
610.3362
 20
38.4522
 10
610.2645
 20
38.3473
 10
610.2002
 20
38.2355
 10
610.1433
 20
38.1169
 10
610.0933
 20
37.9898
 10
610.0498
 20
37.8516
 10
610.013
 20
37.7025
 10
609.9827
 20
37.5426
 10
609.9591
 20
37.3718
 10
609.9422
 20
37.1904
 10
609.932
 20
36.9983
 10
609.9286
 20
36.7957
 10
609.9353
 20
36.5914
 10
609.9553
 20
36.3849
 10
609.9887
 20
36.1761
 10
610.0356
 20
35.9651
 10
610.0961
 20
35.7517
 10
610.1701
 20
35.5361
 10
610.2578
 20
35.3181
 10
610.3592
 20
35.0977
 10
610.4714
 20
34.8769
 10
610.5908
 20
34.6578
 10
610.7174
 20
34.4403
 10
610.8513
 20
34.2244
 10
610.9925
 20
34.0102
 10
611.1412
 20
33.7977
 10
611.2975
 20
33.5869
 10
611.4614
 20
33.3778
 10
620.8732
 20
33.3778
 10
620.8732
 20
30.8859
 10
608.2621
 20
30.8859
 10
608.2621
 20
33.3778
 10
609.6637
 20
33.3778
 10
609.4615
 20
33.6228
 10
609.271
 20
33.867
 10
609.0921
 20
34.1105
 10
608.9248
 20
34.3533
 10
608.7691
 20
34.5954
 10
608.6251
 20
34.8369
 10
608.4927
 20
35.0777
 10
608.3719
 20
35.3179
 10
608.2649
 20
35.5613
 10
608.1722
 20
35.8108
 10
608.0937
 20
36.0662
 10
608.0294
 20
36.3276
 10
607.9794
 20
36.5949
 10
607.9436
 20
36.8681
 10
607.9222
 20
37.147
 10
607.915
 20
37.4318
 10
607.9229
 20
37.754
 10
607.9466
 20
38.0673
 10
607.9861
 20
38.3716
 10
608.0416
 20
38.6669
 10
608.113
 20
38.953
 10
608.2004
 20
39.23
 10
608.3037
 20
39.4977
 10
608.4232
 20
39.7561
 10
608.5604
 20
40.0009
 10
608.7178
 20
40.2308
 10
608.8957
 20
40.4458
 10
609.0941
 20
40.6457
 10
609.3131
 20
40.8307
 10
609.5528
 20
41.0005
 10
609.8132
 20
41.1553
 10
610.0944
 20
41.295
 10
609.8348
 20
41.5769
 10
609.5912
 20
41.8566
 10
609.3637
 20
42.1343
 10
609.1523
 20
42.4099
 10
608.9571
 20
42.6836
 10
608.7782
 20
42.9556
 10
608.6157
 20
43.2258
 10
608.4697
 20
43.4945
 10
608.3393
 20
43.7662
 10
608.2265
 20
44.0434
 10
608.1312
 20
44.3264
 10
608.0532
 20
44.6151
 10
607.9927
 20
44.9095
 10
607.9495
 20
45.2097
 10
607.9236
 20
45.5156
 10
607.915
 20
45.8274
 10
607.9189
 20
46.0636
 10
607.9307
 20
46.2942
 10
607.9504
 20
46.5192
 10
607.9781
 20
46.7386
 10
608.0137
 20
46.9524
 10
608.0574
 20
47.1608
 10
608.1092
 20
47.3635
 10
608.1691
 20
47.5608
 10
608.2377
 20
47.7528
 10
608.3157
 20
47.9387
 10
608.4031
 20
48.1186
 10
608.5001
 20
48.2923
 10
608.6067
 20
48.4599
 10
608.723
 20
48.6212
 10
608.849
 20
48.7762
 10
608.985
 20
48.9248
 10
609.1345
 20
49.0696
 10
609.2923
 20
49.2058
 10
609.4585
 20
49.3336
 10
609.6333
 20
49.4528
 10
609.8168
 20
49.5636
 10
610.0092
 20
49.6661
 10
610.2106
 20
49.7602
 10
610.4212
 20
49.846
 10
610.6416
 20
49.9221
 10
610.8761
 20
49.988
 10
611.1246
 20
50.0437
 10
611.3871
 20
50.0893
 10
611.6636
 20
50.1247
 10
611.9541
 20
50.15
 10
612.2584
 20
50.1651
 10
612.5767
 20
50.1702
 10
620.8732
 20
50.1702
 10
620.8732
 20
47.6783
  0
LWPOLYLINE
  5
68
330
1F
100
AcDbEntity
  8
Layer 1
 62
     7
100
AcDbPolyline
 90
      190
 70
     1
 43
0.0
 10
620.8732
 20
72.1188
 10
613.5764
 20
72.1188
 10
613.3614
 20
72.1176
 10
613.1503
 20
72.1139
 10
612.9431
 20
72.1078
 10
612.7399
 20
72.0991
 10
612.5405
 20
72.0878
 10
612.3451
 20
72.0739
 10
612.1536
 20
72.0574
 10
611.966
 20
72.0381
 10
611.7863
 20
72.0168
 10
611.6167
 20
71.9896
 10
611.4571
 20
71.9566
 10
611.3075
 20
71.918
 10
611.1677
 20
71.8739
 10
611.0377
 20
71.8242
 10
610.9173
 20
71.7693
 10
610.8065
 20
71.709
 10
610.6975
 20
71.6393
 10
610.596
 20
71.5625
 10
610.502
 20
71.4785
 10
610.4154
 20
71.3876
 10
610.3362
 20
71.2896
 10
610.2645
 20
71.1846
 10
610.2002
 20
71.0728
 10
610.1433
 20
70.9542
 10
610.0933
 20
70.8271
 10
610.0498
 20
70.6889
 10
610.013
 20
70.5398
 10
609.9827
 20
70.3797
 10
609.9591
 20
70.2088
 10
609.9422
 20
70.0271
 10
609.932
 20
69.8348
 10
609.9286
 20
69.6318
 10
609.9349
 20
69.4376
 10
609.9539
 20
69.2401
 10
609.9855
 20
69.0395
 10
610.0297
 20
68.8354
 10
610.0865
 20
68.6279
 10
610.156
 20
68.4169
 10
610.2382
 20
68.2023
 10
610.3329
 20
67.984
 10
610.4381
 20
67.7631
 10
610.5551
 20
67.5401
 10
610.6837
 20
67.3149
 10
610.8238
 20
67.0877
 10
610.9753
 20
66.8585
 10
611.1381
 20
66.6274
 10
611.3121
 20
66.3946
 10
611.4972
 20
66.1601
 10
611.9505
 20
66.1968
 10
612.5815
 20
66.2151
 10
620.8732
 20
66.2151
 10
620.8732
 20
63.7232
 10
613.5764
 20
63.7232
 10
613.3614
 20
63.7219
 10
613.1503
 20
63.7181
 10
612.9431
 20
63.7118
 10
612.7399
 20
63.7029
 10
612.5405
 20
63.6914
 10
612.3451
 20
63.6773
 10
612.1536
 20
63.6606
 10
611.966
 20
63.6413
 10
611.7863
 20
63.6199
 10
611.6167
 20
63.5926
 10
611.4571
 20
63.5594
 10
611.3075
 20
63.5206
 10
611.1677
 20
63.4762
 10
611.0377
 20
63.4264
 10
610.9173
 20
63.3713
 10
610.8065
 20
63.311
 10
610.6975
 20
63.2417
 10
610.596
 20
63.1652
 10
610.502
 20
63.0815
 10
610.4154
 20
62.9906
 10
610.3362
 20
62.8927
 10
610.2645
 20
62.7878
 10
610.2002
 20
62.676
 10
610.1433
 20
62.5574
 10
610.0933
 20
62.4303
 10
610.0498
 20
62.2921
 10
610.013
 20
62.143
 10
609.9827
 20
61.9831
 10
609.9591
 20
61.8123
 10
609.9422
 20
61.6309
 10
609.932
 20
61.4388
 10
609.9286
 20
61.2362
 10
609.9353
 20
61.0319
 10
609.9553
 20
60.8254
 10
609.9887
 20
60.6166
 10
610.0356
 20
60.4056
 10
610.0961
 20
60.1923
 10
610.1701
 20
59.9766
 10
610.2578
 20
59.7587
 10
610.3592
 20
59.5383
 10
610.4714
 20
59.3175
 10
610.5908
 20
59.0984
 10
610.7174
 20
58.8809
 10
610.8513
 20
58.665
 10
610.9925
 20
58.4508
 10
611.1412
 20
58.2383
 10
611.2975
 20
58.0274
 10
611.4614
 20
57.8183
 10
620.8732
 20
57.8183
 10
620.8732
 20
55.3264
 10
608.2621
 20
55.3264
 10
608.2621
 20
57.8183
 10
609.6637
 20
57.8183
 10
609.4615
 20
58.0633
 10
609.271
 20
58.3076
 10
609.0921
 20
58.5511
 10
608.9248
 20
58.7939
 10
608.7691
 20
59.036
 10
608.6251
 20
59.2775
 10
608.4927
 20
59.5183
 10
608.3719
 20
59.7585
 10
608.2649
 20
60.0019
 10
608.1722
 20
60.2513
 10
608.0937
 20
60.5068
 10
608.0294
 20
60.7682
 10
607.9794
 20
61.0355
 10
607.9436
 20
61.3086
 10
607.9222
 20
61.5876
 10
607.915
 20
61.8724
 10
607.9229
 20
62.1946
 10
607.9466
 20
62.5079
 10
607.9861
 20
62.8122
 10
608.0416
 20
63.1075
 10
608.113
 20
63.3936
 10
608.2004
 20
63.6706
 10
608.3037
 20
63.9383
 10
608.4232
 20
64.1966
 10
608.5604
 20
64.4415
 10
608.7178
 20
64.6714
 10
608.8957
 20
64.8864
 10
609.0941
 20
65.0863
 10
609.3131
 20
65.2713
 10
609.5528
 20
65.4411
 10
609.8132
 20
65.5959
 10
610.0944
 20
65.7356
 10
609.8348
 20
66.0176
 10
609.5912
 20
66.2974
 10
609.3637
 20
66.5752
 10
609.1523
 20
66.851
 10
608.9571
 20
67.1248
 10
608.7782
 20
67.3967
 10
608.6157
 20
67.6668
 10
608.4697
 20
67.9351
 10
608.3393
 20
68.2067
 10
608.2265
 20
68.484
 10
608.1312
 20
68.7669
 10
608.0532
 20
69.0556
 10
607.9927
 20
69.35
 10
607.9495
 20
69.6502
 10
607.9236
 20
69.9561
 10
607.915
 20
70.2679
 10
607.9189
 20
70.5041
 10
607.9307
 20
70.7347
 10
607.9504
 20
70.9597
 10
607.9781
 20
71.1792
 10
608.0137
 20
71.393
 10
608.0574
 20
71.6013
 10
608.1092
 20
71.8041
 10
608.1691
 20
72.0014
 10
608.2377
 20
72.1934
 10
608.3157
 20
72.3793
 10
608.4031
 20
72.5592
 10
608.5001
 20
72.7329
 10
608.6067
 20
72.9005
 10
608.723
 20
73.0618
 10
608.849
 20
73.2168
 10
608.985
 20
73.3654
 10
609.1345
 20
73.5102
 10
609.2923
 20
73.6464
 10
609.4585
 20
73.7741
 10
609.6333
 20
73.8934
 10
609.8168
 20
74.0042
 10
610.0092
 20
74.1066
 10
610.2106
 20
74.2007
 10
610.4212
 20
74.2865
 10
610.6416
 20
74.3626
 10
610.8761
 20
74.4285
 10
611.1246
 20
74.4842
 10
611.3871
 20
74.5298
 10
611.6636
 20
74.5652
 10
611.9541
 20
74.5905
 10
612.2584
 20
74.6056
 10
612.5767
 20
74.6107
 10
620.8732
 20
74.6107
 10
620.8732
 20
72.1188
  0
LWPOLYLINE
  5
69
330
1F
100
AcDbEntity
  8
Layer 1
 62
     7
370
    18
100
AcDbPolyline
 90
        2
 70
     0
 43
0.0
 10
1062.2295
 20
239.633
 10
651.7615
 20
239.633
  0
LWPOLYLINE
  5
6A
330
1F
100
AcDbEntity
  8
Layer 1
 62
     7
370
    18
100
AcDbPolyline
 90
        2
 70
     0
 43
0.0
 10
1132.8023
 20
177.3432
 10
1038.4054
 20
177.3432
  0
LWPOLYLINE
  5
6B
330
1F
100
AcDbEntity
  8
Layer 1
 62
     7
370
    18
100
AcDbPolyline
 90
        2
 70
     0
 43
0.0
 10
1132.8023
 20
-128.0663
 10
1041.755
 20
-128.0663
  0
LWPOLYLINE
  5
6C
330
1F
100
AcDbEntity
  8
Layer 1
 62
     7
370
    18
100
AcDbPolyline
 90
        2
 70
     0
 43
0.0
 10
1119.652
 20
-126.9384
 10
1119.652
 20
176.5346
  0
LWPOLYLINE
  5
6D
330
1F
100
AcDbEntity
  8
Layer 1
 62
     7
370
    18
100
AcDbPolyline
 90
        2
 70
     0
 43
0.0
 10
649.2874
 20
162.2206
 10
649.2874
 20
253.9616
  0
LWPOLYLINE
  5
6E
330
1F
100
AcDbEntity
  8
Layer 1
 62
     7
370
    18
100
AcDbPolyline
 90
        2
 70
     0
 43
0.0
 10
1063.043
 20
158.7978
 10
1063.043
 20
253.9616
  0
LWPOLYLINE
  5
6F
330
1F
100
AcDbEntity
  8
Layer 1
 62
     7
370
    25
100
AcDbPolyline
 90
       33
 70
     1
 43
0.0
 10
862.169
 20
50.1897
 10
867.1069
 20
49.6788
 10
871.706
 20
48.2136
 10
875.8677
 20
45.8952
 10
879.4937
 20
42.8248
 10
882.4853
 20
39.1034
 10
884.7441
 20
34.8321
 10
886.1717
 20
30.1121
 10
886.6694
 20
25.0446
 10
886.1717
 20
19.9775
 10
884.7441
 20
15.258
 10
882.4853
 20
10.9871
 10
879.4937
 20
7.266
 10
875.8677
 20
4.1958
 10
871.706
 20
1.8777
 10
867.1069
 20
0.4126
 10
862.169
 20
-0.0982
 10
857.231
 20
0.4126
 10
852.6318
 20
1.8777
 10
848.4698
 20
4.1958
 10
844.8437
 20
7.266
 10
841.8518
 20
10.9871
 10
839.5928
 20
15.258
 10
838.1651
 20
19.9775
 10
837.6673
 20
25.0446
 10
838.1651
 20
30.1121
 10
839.5928
 20
34.8321
 10
841.8518
 20
39.1034
 10
844.8437
 20
42.8248
 10
848.4698
 20
45.8952
 10
852.6318
 20
48.2136
 10
857.231
 20
49.6788
 10
862.169
 20
50.1897
  0
LWPOLYLINE
  5
70
330
1F
100
AcDbEntity
  8
Layer 1
 62
     7
370
    25
100
AcDbPolyline
 90
       33
 70
     1
 43
0.0
 10
862.169
 20
43.1006
 10
865.7166
 20
42.7338
 10
869.0209
 20
41.6817
 10
872.0111
 20
40.017
 10
874.6163
 20
37.8123
 10
876.7658
 20
35.14
 10
878.3888
 20
32.073
 10
879.4146
 20
28.6836
 10
879.7722
 20
25.0446
 10
879.4146
 20
21.4059
 10
878.3888
 20
18.0167
 10
876.7658
 20
14.9497
 10
874.6163
 20
12.2774
 10
872.0111
 20
10.0724
 10
869.0209
 20
8.4076
 10
865.7166
 20
7.3554
 10
862.169
 20
6.9885
 10
858.6217
 20
7.3554
 10
855.3175
 20
8.4076
 10
852.3274
 20
10.0724
 10
849.7221
 20
12.2774
 10
847.5724
 20
14.9497
 10
845.9492
 20
18.0167
 10
844.9234
 20
21.4059
 10
844.5657
 20
25.0446
 10
844.9234
 20
28.6836
 10
845.9492
 20
32.073
 10
847.5724
 20
35.14
 10
849.7221
 20
37.8123
 10
852.3274
 20
40.017
 10
855.3175
 20
41.6817
 10
858.6217
 20
42.7338
 10
862.169
 20
43.1006
  0
LWPOLYLINE
  5
71
330
1F
100
AcDbEntity
  8
Layer 1
 62
     7
370
    20
100
AcDbPolyline
 90
       37
 70
     1
 43
0.0
 10
720.8718
 20
113.786
 10
992.1493
 20
113.786
 10
992.7824
 20
113.7106
 10
993.3733
 20
113.4945
 10
993.9089
 20
113.1528
 10
994.3763
 20
112.7008
 10
994.7624
 20
112.1535
 10
995.0542
 20
111.5261
 10
995.2389
 20
110.8337
 10
995.3033
 20
110.0916
 10
995.3033
 20
-63.2712
 10
995.2389
 20
-64.0124
 10
995.0542
 20
-64.7039
 10
994.7624
 20
-65.3305
 10
994.3763
 20
-65.877
 10
993.9089
 20
-66.3284
 10
993.3733
 20
-66.6696
 10
992.7824
 20
-66.8854
 10
992.1493
 20
-66.9607
 10
720.8718
 20
-66.9607
 10
720.2371
 20
-66.8854
 10
719.6452
 20
-66.6696
 10
719.109
 20
-66.3284
 10
718.6413
 20
-65.877
 10
718.2551
 20
-65.3305
 10
717.9633
 20
-64.7039
 10
717.7787
 20
-64.0124
 10
717.7143
 20
-63.2712
 10
717.7143
 20
110.0916
 10
717.7787
 20
110.8337
 10
717.9633
 20
111.5261
 10
718.2551
 20
112.1535
 10
718.6413
 20
112.7008
 10
719.109
 20
113.1528
 10
719.6452
 20
113.4945
 10
720.2371
 20
113.7106
 10
720.8718
 20
113.786
  0
LWPOLYLINE
  5
72
330
1F
100
AcDbEntity
  8
Layer 1
 62
     7
370
    25
100
AcDbPolyline
 90
       37
 70
     1
 43
0.0
 10
673.0459
 20
157.5219
 10
1039.2607
 20
157.5219
 10
1040.9505
 20
157.321
 10
1042.5268
 20
156.7454
 10
1043.955
 20
155.8352
 10
1045.2007
 20
154.6309
 10
1046.2296
 20
153.1728
 10
1047.0071
 20
151.5012
 10
1047.4988
 20
149.6566
 10
1047.6704
 20
147.6791
 10
1047.6704
 20
-100.8684
 10
1047.4988
 20
-102.8466
 10
1047.0071
 20
-104.6918
 10
1046.2296
 20
-106.3636
 10
1045.2007
 20
-107.8217
 10
1043.955
 20
-109.026
 10
1042.5268
 20
-109.936
 10
1040.9505
 20
-110.5116
 10
1039.2607
 20
-110.7124
 10
673.0459
 20
-110.7124
 10
671.3567
 20
-110.5116
 10
669.7806
 20
-109.936
 10
668.3523
 20
-109.026
 10
667.1062
 20
-107.8217
 10
666.0768
 20
-106.3636
 10
665.2988
 20
-104.6918
 10
664.8067
 20
-102.8466
 10
664.635
 20
-100.8684
 10
664.635
 20
147.6791
 10
664.8067
 20
149.6566
 10
665.2988
 20
151.5012
 10
666.0768
 20
153.1728
 10
667.1062
 20
154.6309
 10
668.3523
 20
155.8352
 10
669.7806
 20
156.7454
 10
671.3567
 20
157.321
 10
673.0459
 20
157.5219
  0
LWPOLYLINE
  5
73
330
1F
100
AcDbEntity
  8
Layer 1
 62
     7
370
    25
100
AcDbPolyline
 90
       37
 70
     1
 43
0.0
 10
666.027
 20
177.3444
 10
1046.2795
 20
177.3444
 10
1049.6443
 20
176.9441
 10
1052.7835
 20
175.797
 10
1055.6283
 20
173.9834
 10
1058.11
 20
171.5838
 10
1060.1599
 20
168.6787
 10
1061.7092
 20
165.3485
 10
1062.6892
 20
161.6737
 10
1063.0311
 20
157.7347
 10
1063.0311
 20
-108.4872
 10
1062.6892
 20
-112.4269
 10
1061.7092
 20
-116.1021
 10
1060.1599
 20
-119.4323
 10
1058.11
 20
-122.3373
 10
1055.6283
 20
-124.7365
 10
1052.7835
 20
-126.5498
 10
1049.6443
 20
-127.6967
 10
1046.2795
 20
-128.0969
 10
666.027
 20
-128.0969
 10
662.6618
 20
-127.6967
 10
659.5224
 20
-126.5498
 10
656.6774
 20
-124.7365
 10
654.1955
 20
-122.3373
 10
652.1456
 20
-119.4323
 10
650.5962
 20
-116.1021
 10
649.6162
 20
-112.4269
 10
649.2743
 20
-108.4872
 10
649.2743
 20
157.7347
 10
649.6162
 20
161.6737
 10
650.5962
 20
165.3485
 10
652.1456
 20
168.6787
 10
654.1955
 20
171.5838
 10
656.6774
 20
173.9834
 10
659.5224
 20
175.797
 10
662.6618
 20
176.9441
 10
666.027
 20
177.3444
  0
LWPOLYLINE
  5
74
330
1F
100
AcDbEntity
  8
Layer 1
 62
     7
370
    18
100
AcDbPolyline
 90
        2
 70
     0
 43
0.0
 10
717.9517
 20
-63.3898
 10
664.8664
 20
-101.0617
  0
LWPOLYLINE
  5
75
330
1F
100
AcDbEntity
  8
Layer 1
 62
     7
370
    18
100
AcDbPolyline
 90
        2
 70
     0
 43
0.0
 10
720.8766
 20
-66.568
 10
670.4562
 20
-111.0317
  0
LWPOLYLINE
  5
76
330
1F
100
AcDbEntity
  8
Layer 1
 62
     7
370
    18
100
AcDbPolyline
 90
        2
 70
     0
 43
0.0
 10
994.6615
 20
-63.3898
 10
1047.7492
 20
-101.0617
  0
LWPOLYLINE
  5
77
330
1F
100
AcDbEntity
  8
Layer 1
 62
     7
370
    18
100
AcDbPolyline
 90
        2
 70
     0
 43
0.0
 10
991.7378
 20
-66.568
 10
1042.1594
 20
-111.0317
  0
LWPOLYLINE
  5
78
330
1F
100
AcDbEntity
  8
Layer 1
 62
     7
370
    18
100
AcDbPolyline
 90
        2
 70
     0
 43
0.0
 10
717.9517
 20
110.1809
 10
664.8664
 20
147.854
  0
LWPOLYLINE
  5
79
330
1F
100
AcDbEntity
  8
Layer 1
 62
     7
370
    18
100
AcDbPolyline
 90
        2
 70
     0
 43
0.0
 10
720.8766
 20
113.3591
 10
670.4562
 20
157.8228
  0
LWPOLYLINE
  5
7A
330
1F
100
AcDbEntity
  8
Layer 1
 62
     7
370
    18
100
AcDbPolyline
 90
        2
 70
     0
 43
0.0
 10
994.6615
 20
110.1809
 10
1047.7492
 20
147.854
  0
LWPOLYLINE
  5
7B
330
1F
100
AcDbEntity
  8
Layer 1
 62
     7
370
    18
100
AcDbPolyline
 90
        2
 70
     0
 43
0.0
 10
991.7378
 20
113.3591
 10
1042.1594
 20
157.8228
  0
LWPOLYLINE
  5
7C
330
1F
100
AcDbEntity
  8
Layer 1
 62
     7
100
AcDbPolyline
 90
       12
 70
     1
 43
0.0
 10
1143.3807
 20
-10.0217
 10
1139.4454
 20
-10.0217
 10
1139.4454
 20
-18.4001
 10
1137.5809
 20
-18.4001
 10
1126.9023
 20
-9.5911
 10
1126.9023
 20
-7.6509
 10
1137.5809
 20
-7.6509
 10
1137.5809
 20
-5.0379
 10
1139.4454
 20
-5.0379
 10
1139.4454
 20
-7.6509
 10
1143.3807
 20
-7.6509
 10
1143.3807
 20
-10.0217
  0
LWPOLYLINE
  5
7D
330
1F
100
AcDbEntity
  8
Layer 1
 62
     7
100
AcDbPolyline
 90
        4
 70
     1
 43
0.0
 10
1137.5809
 20
-10.0217
 10
1130.1672
 20
-10.0217
 10
1137.5809
 20
-16.0697
 10
1137.5809
 20
-10.0217
  0
LWPOLYLINE
  5
7E
330
1F
100
AcDbEntity
  8
Layer 1
 62
     7
100
AcDbPolyline
 90
      128
 70
     1
 43
0.0
 10
1139.0553
 20
-2.6096
 10
1138.8919
 20
-0.1324
 10
1139.2669
 20
-0.0518
 10
1139.6179
 20
0.0515
 10
1139.945
 20
0.1773
 10
1140.2482
 20
0.3257
 10
1140.5274
 20
0.4966
 10
1140.7828
 20
0.6899
 10
1141.0141
 20
0.9055
 10
1141.2216
 20
1.1435
 10
1141.4037
 20
1.3996
 10
1141.5617
 20
1.6696
 10
1141.6956
 20
1.9534
 10
1141.8052
 20
2.2509
 10
1141.8906
 20
2.5621
 10
1141.9516
 20
2.8869
 10
1141.9883
 20
3.2251
 10
1142.0005
 20
3.5767
 10
1141.9832
 20
4.0009
 10
1141.9314
 20
4.4074
 10
1141.8452
 20
4.7964
 10
1141.7245
 20
5.1679
 10
1141.5694
 20
5.5221
 10
1141.38
 20
5.8591
 10
1141.1563
 20
6.1791
 10
1140.8983
 20
6.482
 10
1140.6111
 20
6.7568
 10
1140.3016
 20
6.9949
 10
1139.9697
 20
7.1963
 10
1139.6155
 20
7.3611
 10
1139.239
 20
7.4893
 10
1138.8402
 20
7.5808
 10
1138.4191
 20
7.6357
 10
1137.9758
 20
7.654
 10
1137.5543
 20
7.6365
 10
1137.1558
 20
7.584
 10
1136.7802
 20
7.4965
 10
1136.4274
 20
7.3739
 10
1136.0975
 20
7.2162
 10
1135.7904
 20
7.0233
 10
1135.5059
 20
6.7954
 10
1135.2441
 20
6.5322
 10
1135.01
 20
6.2396
 10
1134.8071
 20
5.9242
 10
1134.6353
 20
5.586
 10
1134.4947
 20
5.2251
 10
1134.3853
 20
4.8415
 10
1134.3071
 20
4.4352
 10
1134.2602
 20
4.0063
 10
1134.2445
 20
3.5547
 10
1134.2514
 20
3.2704
 10
1134.2723
 20
2.9938
 10
1134.3071
 20
2.7246
 10
1134.356
 20
2.463
 10
1134.419
 20
2.2087
 10
1134.4961
 20
1.9618
 10
1134.5874
 20
1.7222
 10
1134.693
 20
1.4897
 10
1134.8097
 20
1.2687
 10
1134.9344
 20
1.0596
 10
1135.0672
 20
0.8626
 10
1135.2082
 20
0.6776
 10
1135.3573
 20
0.5046
 10
1135.5148
 20
0.3435
 10
1135.6806
 20
0.1944
 10
1135.8548
 20
0.0572
 10
1135.5793
 20
-2.179
 10
1127.1099
 20
-0.3208
 10
1127.1099
 20
9.243
 10
1129.0435
 20
9.243
 10
1129.0435
 20
1.5692
 10
1133.4882
 20
0.5429
 10
1133.2446
 20
0.9779
 10
1133.0336
 20
1.4185
 10
1132.8552
 20
1.8646
 10
1132.7094
 20
2.3162
 10
1132.596
 20
2.7731
 10
1132.5151
 20
3.2353
 10
1132.4666
 20
3.7026
 10
1132.4504
 20
4.1749
 10
1132.4737
 20
4.7921
 10
1132.5437
 20
5.385
 10
1132.6604
 20
5.9533
 10
1132.8238
 20
6.4972
 10
1133.0339
 20
7.0165
 10
1133.2908
 20
7.511
 10
1133.5945
 20
7.9809
 10
1133.9451
 20
8.4259
 10
1134.3327
 20
8.8316
 10
1134.7466
 20
9.1834
 10
1135.187
 20
9.4813
 10
1135.6539
 20
9.7252
 10
1136.1474
 20
9.915
 10
1136.6676
 20
10.0507
 10
1137.2146
 20
10.1321
 10
1137.7885
 20
10.1593
 10
1138.3386
 20
10.1356
 10
1138.8697
 20
10.0643
 10
1139.3817
 20
9.9455
 10
1139.8746
 20
9.779
 10
1140.3483
 20
9.5649
 10
1140.8029
 20
9.3031
 10
1141.2384
 20
8.9936
 10
1141.6546
 20
8.6363
 10
1142.1239
 20
8.1522
 10
1142.5307
 20
7.6257
 10
1142.8749
 20
7.0568
 10
1143.1566
 20
6.4455
 10
1143.3757
 20
5.7918
 10
1143.5322
 20
5.0958
 10
1143.6261
 20
4.3574
 10
1143.6574
 20
3.5767
 10
1143.6376
 20
2.9354
 10
1143.5783
 20
2.3242
 10
1143.4795
 20
1.7433
 10
1143.3413
 20
1.1924
 10
1143.1638
 20
0.6716
 10
1142.9469
 20
0.1808
 10
1142.6907
 20
-0.28
 10
1142.3954
 20
-0.711
 10
1142.0673
 20
-1.1044
 10
1141.7138
 20
-1.4532
 10
1141.3348
 20
-1.7575
 10
1140.9302
 20
-2.0172
 10
1140.5
 20
-2.2323
 10
1140.0442
 20
-2.4027
 10
1139.5626
 20
-2.5285
 10
1139.0553
 20
-2.6096
  0
LWPOLYLINE
  5
7F
330
1F
100
AcDbEntity
  8
Layer 1
 62
     7
100
AcDbPolyline
 90
       97
 70
     1
 43
0.0
 10
1135.2489
 20
12.3723
 10
1134.5368
 20
12.3832
 10
1133.8599
 20
12.4159
 10
1133.2182
 20
12.4705
 10
1132.6119
 20
12.5469
 10
1132.0411
 20
12.6453
 10
1131.5059
 20
12.7655
 10
1131.0065
 20
12.9078
 10
1130.543
 20
13.072
 10
1130.1082
 20
13.2596
 10
1129.6995
 20
13.4682
 10
1129.3168
 20
13.6979
 10
1128.96
 20
13.9487
 10
1128.6292
 20
14.2206
 10
1128.3243
 20
14.5138
 10
1128.0453
 20
14.8282
 10
1127.7922
 20
15.1639
 10
1127.5675
 20
15.521
 10
1127.3728
 20
15.9006
 10
1127.2081
 20
16.3027
 10
1127.0735
 20
16.7271
 10
1126.9688
 20
17.174
 10
1126.8941
 20
17.6433
 10
1126.8492
 20
18.135
 10
1126.8343
 20
18.6491
 10
1126.8425
 20
19.0304
 10
1126.8673
 20
19.3999
 10
1126.9085
 20
19.7577
 10
1126.9664
 20
20.1039
 10
1127.041
 20
20.4385
 10
1127.1323
 20
20.7616
 10
1127.2403
 20
21.0732
 10
1127.3652
 20
21.3734
 10
1127.5067
 20
21.6602
 10
1127.6629
 20
21.9343
 10
1127.8337
 20
22.1955
 10
1128.0192
 20
22.4438
 10
1128.2193
 20
22.679
 10
1128.434
 20
22.901
 10
1128.6635
 20
23.1097
 10
1128.9075
 20
23.305
 10
1129.1654
 20
23.4885
 10
1129.4371
 20
23.6619
 10
1129.7226
 20
23.8252
 10
1130.0219
 20
23.9784
 10
1130.3348
 20
24.1216
 10
1130.6614
 20
24.2546
 10
1131.0015
 20
24.3775
 10
1131.3553
 20
24.4904
 10
1131.7325
 20
24.5927
 10
1132.141
 20
24.6813
 10
1132.5809
 20
24.7562
 10
1133.0521
 20
24.8174
 10
1133.5545
 20
24.8649
 10
1134.0881
 20
24.8988
 10
1134.6529
 20
24.9191
 10
1135.2489
 20
24.9259
 10
1135.9567
 20
24.915
 10
1136.6299
 20
24.8822
 10
1137.2684
 20
24.8276
 10
1137.872
 20
24.7513
 10
1138.4408
 20
24.6533
 10
1138.9746
 20
24.5336
 10
1139.4733
 20
24.3925
 10
1139.9369
 20
24.2298
 10
1140.3709
 20
24.0455
 10
1140.7791
 20
23.8393
 10
1141.1616
 20
23.6113
 10
1141.5185
 20
23.3616
 10
1141.8498
 20
23.0902
 10
1142.1557
 20
22.7972
 10
1142.4361
 20
22.4826
 10
1142.6912
 20
22.1465
 10
1142.9177
 20
21.79
 10
1143.1139
 20
21.4103
 10
1143.28
 20
21.0076
 10
1143.4159
 20
20.5818
 10
1143.5215
 20
20.133
 10
1143.597
 20
19.6613
 10
1143.6423
 20
19.1666
 10
1143.6574
 20
18.6491
 10
1143.6309
 20
17.9722
 10
1143.5514
 20
17.3324
 10
1143.4189
 20
16.7297
 10
1143.2335
 20
16.1643
 10
1142.9951
 20
15.6361
 10
1142.7038
 20
15.1452
 10
1142.3596
 20
14.6918
 10
1141.9624
 20
14.2758
 10
1141.4043
 20
13.8291
 10
1140.7659
 20
13.4421
 10
1140.0473
 20
13.1149
 10
1139.2484
 20
12.8474
 10
1138.3692
 20
12.6394
 10
1137.4095
 20
12.491
 10
1136.3695
 20
12.402
 10
1135.2489
 20
12.3723
  0
LWPOLYLINE
  5
80
330
1F
100
AcDbEntity
  8
Layer 1
 62
     7
100
AcDbPolyline
 90
       65
 70
     1
 43
0.0
 10
1135.256
 20
14.7969
 10
1136.2306
 20
14.8141
 10
1137.1199
 20
14.8658
 10
1137.9239
 20
14.9521
 10
1138.6424
 20
15.0731
 10
1139.2755
 20
15.2288
 10
1139.8229
 20
15.4193
 10
1140.2848
 20
15.6447
 10
1140.6609
 20
15.9052
 10
1140.975
 20
16.1914
 10
1141.2472
 20
16.4939
 10
1141.4774
 20
16.8127
 10
1141.6658
 20
17.1478
 10
1141.8122
 20
17.499
 10
1141.9168
 20
17.8663
 10
1141.9796
 20
18.2497
 10
1142.0005
 20
18.6491
 10
1141.9795
 20
19.0484
 10
1141.9164
 20
19.4317
 10
1141.8114
 20
19.7988
 10
1141.6644
 20
20.1498
 10
1141.4755
 20
20.4846
 10
1141.2447
 20
20.8032
 10
1140.972
 20
21.1056
 10
1140.6574
 20
21.3918
 10
1140.2784
 20
21.6523
 10
1139.8149
 20
21.8779
 10
1139.267
 20
22.0686
 10
1138.6344
 20
22.2245
 10
1137.9171
 20
22.3457
 10
1137.115
 20
22.4322
 10
1136.228
 20
22.484
 10
1135.256
 20
22.5013
 10
1134.2818
 20
22.484
 10
1133.3929
 20
22.4322
 10
1132.5893
 20
22.3457
 10
1131.8711
 20
22.2245
 10
1131.2382
 20
22.0686
 10
1130.6908
 20
21.8779
 10
1130.2288
 20
21.6523
 10
1129.8523
 20
21.3918
 10
1129.5379
 20
21.1071
 10
1129.2655
 20
20.8047
 10
1129.0353
 20
20.4846
 10
1128.847
 20
20.1469
 10
1128.7007
 20
19.7917
 10
1128.5962
 20
19.4191
 10
1128.5336
 20
19.0293
 10
1128.5127
 20
18.6222
 10
1128.5312
 20
18.2249
 10
1128.5867
 20
17.8479
 10
1128.6791
 20
17.4911
 10
1128.8085
 20
17.1547
 10
1128.9748
 20
16.8386
 10
1129.178
 20
16.5429
 10
1129.418
 20
16.2677
 10
1129.6948
 20
16.0129
 10
1130.1102
 20
15.7278
 10
1130.6057
 20
15.4807
 10
1131.1812
 20
15.2717
 10
1131.8367
 20
15.1007
 10
1132.5719
 20
14.9678
 10
1133.387
 20
14.8728
 10
1134.2817
 20
14.8159
 10
1135.256
 20
14.7969
  0
LWPOLYLINE
  5
81
330
1F
100
AcDbEntity
  8
Layer 1
 62
     7
100
AcDbPolyline
 90
      148
 70
     1
 43
0.0
 10
1143.3807
 20
28.0013
 10
1131.4352
 20
28.0013
 10
1131.4352
 20
30.1286
 10
1133.1256
 20
30.1286
 10
1132.9117
 20
30.2988
 10
1132.7083
 20
30.4829
 10
1132.5157
 20
30.6808
 10
1132.3338
 20
30.8924
 10
1132.1628
 20
31.1178
 10
1132.0027
 20
31.3567
 10
1131.8536
 20
31.6093
 10
1131.7156
 20
31.8755
 10
1131.5906
 20
32.1531
 10
1131.4823
 20
32.4398
 10
1131.3907
 20
32.7359
 10
1131.3157
 20
33.0413
 10
1131.2574
 20
33.3561
 10
1131.2157
 20
33.6804
 10
1131.1907
 20
34.0142
 10
1131.1824
 20
34.3576
 10
1131.1911
 20
34.7366
 10
1131.217
 20
35.0982
 10
1131.2601
 20
35.4423
 10
1131.3203
 20
35.769
 10
1131.3976
 20
36.0781
 10
1131.4919
 20
36.3697
 10
1131.6031
 20
36.6435
 10
1131.7311
 20
36.8997
 10
1131.8763
 20
37.1384
 10
1132.0348
 20
37.3588
 10
1132.2066
 20
37.561
 10
1132.3919
 20
37.7449
 10
1132.5909
 20
37.9103
 10
1132.8037
 20
38.0573
 10
1133.0303
 20
38.1857
 10
1133.2711
 20
38.2955
 10
1132.7813
 20
38.7284
 10
1132.3569
 20
39.1922
 10
1131.9979
 20
39.6871
 10
1131.7043
 20
40.213
 10
1131.4759
 20
40.7702
 10
1131.3128
 20
41.3586
 10
1131.215
 20
41.9784
 10
1131.1824
 20
42.6297
 10
1131.1977
 20
43.1364
 10
1131.2437
 20
43.6131
 10
1131.3205
 20
44.0598
 10
1131.428
 20
44.4763
 10
1131.5663
 20
44.8625
 10
1131.7354
 20
45.2183
 10
1131.9355
 20
45.5437
 10
1132.1665
 20
45.8384
 10
1132.4283
 20
46.1022
 10
1132.7234
 20
46.331
 10
1133.0517
 20
46.5248
 10
1133.4133
 20
46.6836
 10
1133.8081
 20
46.8072
 10
1134.2361
 20
46.8955
 10
1134.6973
 20
46.9486
 10
1135.1916
 20
46.9663
 10
1143.3807
 20
46.9663
 10
1143.3807
 20
44.5955
 10
1135.862
 20
44.5955
 10
1135.5705
 20
44.5917
 10
1135.2999
 20
44.5803
 10
1135.0503
 20
44.5615
 10
1134.8217
 20
44.5354
 10
1134.614
 20
44.5022
 10
1134.4272
 20
44.4619
 10
1134.2615
 20
44.4147
 10
1134.1168
 20
44.3607
 10
1133.9868
 20
44.2979
 10
1133.8634
 20
44.2232
 10
1133.7464
 20
44.1366
 10
1133.636
 20
44.038
 10
1133.532
 20
43.9274
 10
1133.4343
 20
43.8047
 10
1133.343
 20
43.6698
 10
1133.258
 20
43.5227
 10
1133.1817
 20
43.3675
 10
1133.1155
 20
43.2058
 10
1133.0595
 20
43.0374
 10
1133.0137
 20
42.8626
 10
1132.9781
 20
42.6812
 10
1132.9527
 20
42.4934
 10
1132.9374
 20
42.2992
 10
1132.9323
 20
42.0987
 10
1132.9454
 20
41.7361
 10
1132.9848
 20
41.3894
 10
1133.0503
 20
41.0588
 10
1133.1419
 20
40.7441
 10
1133.2596
 20
40.4452
 10
1133.4033
 20
40.1622
 10
1133.573
 20
39.895
 10
1133.7685
 20
39.6436
 10
1133.994
 20
39.4145
 10
1134.2507
 20
39.2162
 10
1134.5388
 20
39.0485
 10
1134.8582
 20
38.9116
 10
1135.2089
 20
38.8052
 10
1135.5909
 20
38.7292
 10
1136.0042
 20
38.6837
 10
1136.4489
 20
38.6686
 10
1143.3807
 20
38.6686
 10
1143.3807
 20
36.2978
 10
1135.6294
 20
36.2978
 10
1135.3031
 20
36.2888
 10
1134.9978
 20
36.2617
 10
1134.7135
 20
36.2166
 10
1134.4501
 20
36.1533
 10
1134.2077
 20
36.0718
 10
1133.9863
 20
35.9722
 10
1133.7858
 20
35.8542
 10
1133.6063
 20
35.718
 10
1133.4486
 20
35.5619
 10
1133.3118
 20
35.3827
 10
1133.1959
 20
35.1804
 10
1133.1011
 20
34.9551
 10
1133.0273
 20
34.7068
 10
1132.9745
 20
34.4355
 10
1132.9429
 20
34.1413
 10
1132.9323
 20
33.8243
 10
1132.9393
 20
33.5775
 10
1132.9604
 20
33.3353
 10
1132.9956
 20
33.0977
 10
1133.0447
 20
32.8647
 10
1133.1078
 20
32.6364
 10
1133.1849
 20
32.4128
 10
1133.2759
 20
32.1938
 10
1133.3808
 20
31.9795
 10
1133.4992
 20
31.7745
 10
1133.6307
 20
31.5842
 10
1133.7754
 20
31.4086
 10
1133.9333
 20
31.2477
 10
1134.1044
 20
31.1013
 10
1134.2888
 20
30.9694
 10
1134.4866
 20
30.8519
 10
1134.6978
 20
30.7489
 10
1134.9251
 20
30.6604
 10
1135.1767
 20
30.5837
 10
1135.4525
 20
30.5189
 10
1135.7523
 20
30.466
 10
1136.076
 20
30.4249
 10
1136.4236
 20
30.3955
 10
1136.7948
 20
30.378
 10
1137.1897
 20
30.3721
 10
1143.3807
 20
30.3721
 10
1143.3807
 20
28.0013
  0
LWPOLYLINE
  5
82
330
1F
100
AcDbEntity
  8
Layer 1
 62
     7
100
AcDbPolyline
 90
      148
 70
     1
 43
0.0
 10
1143.3807
 20
50.4405
 10
1131.4352
 20
50.4405
 10
1131.4352
 20
52.5691
 10
1133.1256
 20
52.5691
 10
1132.9117
 20
52.7393
 10
1132.7083
 20
52.9234
 10
1132.5157
 20
53.1213
 10
1132.3338
 20
53.3329
 10
1132.1628
 20
53.5582
 10
1132.0027
 20
53.7972
 10
1131.8536
 20
54.0498
 10
1131.7156
 20
54.316
 10
1131.5906
 20
54.5931
 10
1131.4823
 20
54.8796
 10
1131.3907
 20
55.1755
 10
1131.3157
 20
55.4809
 10
1131.2574
 20
55.7957
 10
1131.2157
 20
56.1202
 10
1131.1907
 20
56.4543
 10
1131.1824
 20
56.7981
 10
1131.1911
 20
57.1771
 10
1131.217
 20
57.5387
 10
1131.2601
 20
57.8828
 10
1131.3203
 20
58.2095
 10
1131.3976
 20
58.5186
 10
1131.4919
 20
58.8101
 10
1131.6031
 20
59.084
 10
1131.7311
 20
59.3401
 10
1131.8763
 20
59.5784
 10
1132.0348
 20
59.7985
 10
1132.2066
 20
60.0006
 10
1132.3919
 20
60.1844
 10
1132.5909
 20
60.3499
 10
1132.8037
 20
60.497
 10
1133.0303
 20
60.6257
 10
1133.2711
 20
60.7359
 10
1132.7813
 20
61.1688
 10
1132.3569
 20
61.6326
 10
1131.9979
 20
62.1274
 10
1131.7043
 20
62.6533
 10
1131.4759
 20
63.2103
 10
1131.3128
 20
63.7985
 10
1131.215
 20
64.418
 10
1131.1824
 20
65.0689
 10
1131.1977
 20
65.5756
 10
1131.2437
 20
66.0523
 10
1131.3205
 20
66.499
 10
1131.428
 20
66.9156
 10
1131.5663
 20
67.302
 10
1131.7354
 20
67.658
 10
1131.9355
 20
67.9837
 10
1132.1665
 20
68.2788
 10
1132.4283
 20
68.5426
 10
1132.7234
 20
68.7714
 10
1133.0517
 20
68.9652
 10
1133.4133
 20
69.124
 10
1133.8081
 20
69.2476
 10
1134.2361
 20
69.3359
 10
1134.6973
 20
69.389
 10
1135.1916
 20
69.4067
 10
1143.3807
 20
69.4067
 10
1143.3807
 20
67.036
 10
1135.862
 20
67.036
 10
1135.5705
 20
67.0322
 10
1135.2999
 20
67.0208
 10
1135.0503
 20
67.002
 10
1134.8217
 20
66.9759
 10
1134.614
 20
66.9426
 10
1134.4272
 20
66.9023
 10
1134.2615
 20
66.8551
 10
1134.1168
 20
66.8011
 10
1133.9868
 20
66.738
 10
1133.8634
 20
66.6631
 10
1133.7464
 20
66.5765
 10
1133.636
 20
66.478
 10
1133.532
 20
66.3675
 10
1133.4343
 20
66.2449
 10
1133.343
 20
66.1101
 10
1133.258
 20
65.9631
 10
1133.1817
 20
65.8079
 10
1133.1155
 20
65.6462
 10
1133.0595
 20
65.4778
 10
1133.0137
 20
65.3028
 10
1132.9781
 20
65.1213
 10
1132.9527
 20
64.9333
 10
1132.9374
 20
64.7388
 10
1132.9323
 20
64.5379
 10
1132.9454
 20
64.1757
 10
1132.9848
 20
63.8294
 10
1133.0503
 20
63.4989
 10
1133.1419
 20
63.1844
 10
1133.2596
 20
62.8856
 10
1133.4033
 20
62.6026
 10
1133.573
 20
62.3355
 10
1133.7685
 20
62.084
 10
1133.994
 20
61.8549
 10
1134.2507
 20
61.6566
 10
1134.5388
 20
61.489
 10
1134.8582
 20
61.352
 10
1135.2089
 20
61.2456
 10
1135.5909
 20
61.1697
 10
1136.0042
 20
61.1242
 10
1136.4489
 20
61.109
 10
1143.3807
 20
61.109
 10
1143.3807
 20
58.737
 10
1135.6294
 20
58.737
 10
1135.3031
 20
58.728
 10
1134.9978
 20
58.7009
 10
1134.7135
 20
58.6558
 10
1134.4501
 20
58.5926
 10
1134.2077
 20
58.5113
 10
1133.9863
 20
58.4119
 10
1133.7858
 20
58.2942
 10
1133.6063
 20
58.1584
 10
1133.4486
 20
58.0023
 10
1133.3118
 20
57.8231
 10
1133.1959
 20
57.6208
 10
1133.1011
 20
57.3955
 10
1133.0273
 20
57.1472
 10
1132.9745
 20
56.8759
 10
1132.9429
 20
56.5817
 10
1132.9323
 20
56.2647
 10
1132.9393
 20
56.0178
 10
1132.9604
 20
55.7755
 10
1132.9956
 20
55.5377
 10
1133.0447
 20
55.3045
 10
1133.1078
 20
55.076
 10
1133.1849
 20
54.8522
 10
1133.2759
 20
54.633
 10
1133.3808
 20
54.4187
 10
1133.4992
 20
54.2141
 10
1133.6307
 20
54.0241
 10
1133.7754
 20
53.8487
 10
1133.9333
 20
53.6878
 10
1134.1044
 20
53.5413
 10
1134.2888
 20
53.4093
 10
1134.4866
 20
53.2916
 10
1134.6978
 20
53.1881
 10
1134.9251
 20
53.0996
 10
1135.1767
 20
53.0231
 10
1135.4525
 20
52.9585
 10
1135.7523
 20
52.9058
 10
1136.076
 20
52.8649
 10
1136.4236
 20
52.8358
 10
1136.7948
 20
52.8183
 10
1137.1897
 20
52.8125
 10
1143.3807
 20
52.8125
 10
1143.3807
 20
50.4405
  0
LWPOLYLINE
  5
83
330
1F
100
AcDbEntity
  8
Layer 1
 62
     7
370
    18
100
AcDbPolyline
 90
        2
 70
     0
 43
0.0
 10
732.5107
 20
157.0399
 10
619.5217
 20
157.0399
  0
LWPOLYLINE
  5
84
330
1F
100
AcDbEntity
  8
Layer 1
 62
     7
370
    18
100
AcDbPolyline
 90
        2
 70
     0
 43
0.0
 10
732.5107
 20
-110.0995
 10
619.5217
 20
-110.0995
  0
LWPOLYLINE
  5
85
330
1F
100
AcDbEntity
  8
Layer 1
 62
     7
370
    18
100
AcDbPolyline
 90
        2
 70
     0
 43
0.0
 10
626.8244
 20
-108.1129
 10
626.8244
 20
156.0123
  0
LWPOLYLINE
  5
86
330
1F
100
AcDbEntity
  8
Layer 1
 62
     7
370
    18
100
AcDbPolyline
 90
        2
 70
     0
 43
0.0
 10
1046.041
 20
-151.7007
 10
665.835
 20
-151.7007
  0
LWPOLYLINE
  5
87
330
1F
100
AcDbEntity
  8
Layer 1
 62
     7
370
    18
100
AcDbPolyline
 90
        2
 70
     0
 43
0.0
 10
663.4838
 20
-173.4463
 10
663.4838
 20
-81.7053
  0
LWPOLYLINE
  5
88
330
1F
100
AcDbEntity
  8
Layer 1
 62
     7
370
    18
100
AcDbPolyline
 90
        2
 70
     0
 43
0.0
 10
1048.9158
 20
-173.4463
 10
1048.9158
 20
-81.7053
  0
LWPOLYLINE
  5
89
330
1F
100
AcDbEntity
  8
Layer 1
 62
     7
100
AcDbPolyline
 90
       12
 70
     1
 43
0.0
 10
827.9895
 20
-173.0438
 10
825.9998
 20
-173.0438
 10
825.9998
 20
-179.8148
 10
823.8252
 20
-179.8148
 10
823.8252
 20
-173.0438
 10
816.396
 20
-173.0438
 10
816.396
 20
-170.2669
 10
823.9171
 20
-160.1244
 10
825.9998
 20
-160.1244
 10
825.9998
 20
-170.9311
 10
827.9895
 20
-170.9311
 10
827.9895
 20
-173.0438
  0
LWPOLYLINE
  5
8A
330
1F
100
AcDbEntity
  8
Layer 1
 62
     7
100
AcDbPolyline
 90
        4
 70
     1
 43
0.0
 10
823.8252
 20
-170.9311
 10
823.8252
 20
-163.2524
 10
818.1686
 20
-170.9311
 10
823.8252
 20
-170.9311
  0
LWPOLYLINE
  5
8B
330
1F
100
AcDbEntity
  8
Layer 1
 62
     7
100
AcDbPolyline
 90
        8
 70
     1
 43
0.0
 10
841.7887
 20
-163.0628
 10
834.5229
 20
-179.8148
 10
832.1169
 20
-179.8148
 10
839.7918
 20
-162.4267
 10
831.1208
 20
-162.4267
 10
831.1208
 20
-160.1244
 10
841.7887
 20
-160.1244
 10
841.7887
 20
-163.0628
  0
LWPOLYLINE
  5
8C
330
1F
100
AcDbEntity
  8
Layer 1
 62
     7
100
AcDbPolyline
 90
       65
 70
     1
 43
0.0
 10
855.7978
 20
-169.9562
 10
855.7772
 20
-171.2379
 10
855.7153
 20
-172.4315
 10
855.6123
 20
-173.5371
 10
855.4681
 20
-174.5546
 10
855.2828
 20
-175.484
 10
855.0565
 20
-176.3253
 10
854.7892
 20
-177.0786
 10
854.4809
 20
-177.7438
 10
854.1286
 20
-178.3244
 10
853.7321
 20
-178.8277
 10
853.2912
 20
-179.2537
 10
852.8058
 20
-179.6023
 10
852.2757
 20
-179.8734
 10
851.701
 20
-180.0672
 10
851.0814
 20
-180.1834
 10
850.4168
 20
-180.2222
 10
849.7445
 20
-180.1826
 10
849.1187
 20
-180.0638
 10
848.5394
 20
-179.866
 10
848.0064
 20
-179.5891
 10
847.5197
 20
-179.2334
 10
847.0791
 20
-178.7988
 10
846.6845
 20
-178.2855
 10
846.3359
 20
-177.6936
 10
846.0307
 20
-177.0208
 10
845.7664
 20
-176.265
 10
845.5429
 20
-175.4261
 10
845.3602
 20
-174.504
 10
845.2181
 20
-173.4987
 10
845.1167
 20
-172.4101
 10
845.056
 20
-171.2383
 10
845.0357
 20
-169.9831
 10
845.0563
 20
-168.6956
 10
845.118
 20
-167.4974
 10
845.2209
 20
-166.3887
 10
845.3649
 20
-165.3694
 10
845.5501
 20
-164.4395
 10
845.7765
 20
-163.5991
 10
846.044
 20
-162.8483
 10
846.3526
 20
-162.1869
 10
846.7038
 20
-161.6077
 10
847.0999
 20
-161.1058
 10
847.5407
 20
-160.6813
 10
848.0264
 20
-160.3341
 10
848.5568
 20
-160.0641
 10
849.1321
 20
-159.8713
 10
849.7521
 20
-159.7556
 10
850.4168
 20
-159.7171
 10
851.0891
 20
-159.7571
 10
851.7148
 20
-159.8771
 10
852.2942
 20
-160.077
 10
852.8271
 20
-160.3567
 10
853.3139
 20
-160.7162
 10
853.7545
 20
-161.1554
 10
854.149
 20
-161.6742
 10
854.4976
 20
-162.2726
 10
854.8028
 20
-162.951
 10
855.0671
 20
-163.7099
 10
855.2906
 20
-164.5493
 10
855.4734
 20
-165.4694
 10
855.6154
 20
-166.4701
 10
855.7168
 20
-167.5514
 10
855.7776
 20
-168.7135
 10
855.7978
 20
-169.9562
  0
LWPOLYLINE
  5
8D
330
1F
100
AcDbEntity
  8
Layer 1
 62
     7
100
AcDbPolyline
 90
      129
 70
     1
 43
0.0
 10
852.9051
 20
-175.9553
 10
852.984
 20
-175.702
 10
853.057
 20
-175.4331
 10
853.1241
 20
-175.1482
 10
853.1853
 20
-174.8474
 10
853.2406
 20
-174.5305
 10
853.2901
 20
-174.1974
 10
853.3337
 20
-173.8478
 10
853.3715
 20
-173.4818
 10
853.4026
 20
-173.1008
 10
853.4296
 20
-172.703
 10
853.4526
 20
-172.2881
 10
853.4714
 20
-171.8561
 10
853.4861
 20
-171.4071
 10
853.4966
 20
-170.9407
 10
853.503
 20
-170.4572
 10
853.5051
 20
-169.9562
 10
853.503
 20
-169.46
 10
853.4966
 20
-168.9798
 10
853.4861
 20
-168.5157
 10
853.4714
 20
-168.068
 10
853.4526
 20
-167.6368
 10
853.4296
 20
-167.2223
 10
853.4026
 20
-166.8246
 10
853.3715
 20
-166.444
 10
853.3336
 20
-166.0781
 10
853.2896
 20
-165.7281
 10
853.2396
 20
-165.394
 10
853.1835
 20
-165.0758
 10
853.1213
 20
-164.7733
 10
853.0529
 20
-164.4867
 10
852.9785
 20
-164.2158
 10
852.8979
 20
-163.9607
 10
852.8078
 20
-163.7166
 10
852.71
 20
-163.4879
 10
852.6046
 20
-163.2744
 10
852.4916
 20
-163.0763
 10
852.3709
 20
-162.8932
 10
852.2425
 20
-162.7252
 10
852.1065
 20
-162.5722
 10
851.9627
 20
-162.434
 10
851.8078
 20
-162.3122
 10
851.642
 20
-162.2063
 10
851.4652
 20
-162.1166
 10
851.2774
 20
-162.043
 10
851.0787
 20
-161.9857
 10
850.869
 20
-161.9446
 10
850.6484
 20
-161.9199
 10
850.4168
 20
-161.9117
 10
850.1871
 20
-161.9199
 10
849.9679
 20
-161.9446
 10
849.7592
 20
-161.9857
 10
849.5609
 20
-162.043
 10
849.3731
 20
-162.1166
 10
849.1959
 20
-162.2063
 10
849.0293
 20
-162.3122
 10
848.8732
 20
-162.434
 10
848.7256
 20
-162.5726
 10
848.586
 20
-162.7268
 10
848.4545
 20
-162.8966
 10
848.331
 20
-163.0822
 10
848.2156
 20
-163.2836
 10
848.1083
 20
-163.5008
 10
848.009
 20
-163.7338
 10
847.9177
 20
-163.9827
 10
847.8356
 20
-164.2434
 10
847.7603
 20
-164.5201
 10
847.6917
 20
-164.8128
 10
847.6298
 20
-165.1216
 10
847.5747
 20
-165.4468
 10
847.5264
 20
-165.7883
 10
847.4848
 20
-166.1464
 10
847.4501
 20
-166.5211
 10
847.4219
 20
-166.911
 10
847.3972
 20
-167.313
 10
847.3761
 20
-167.7271
 10
847.3587
 20
-168.1535
 10
847.345
 20
-168.5921
 10
847.3352
 20
-169.0432
 10
847.3292
 20
-169.5069
 10
847.3272
 20
-169.9831
 10
847.3288
 20
-170.4874
 10
847.3336
 20
-170.9709
 10
847.3417
 20
-171.4335
 10
847.3532
 20
-171.8752
 10
847.3681
 20
-172.296
 10
847.3866
 20
-172.6956
 10
847.4087
 20
-173.0742
 10
847.4346
 20
-173.4316
 10
847.4647
 20
-173.7728
 10
847.503
 20
-174.1054
 10
847.5496
 20
-174.4293
 10
847.6044
 20
-174.7444
 10
847.6675
 20
-175.0506
 10
847.7387
 20
-175.3478
 10
847.8182
 20
-175.636
 10
847.9058
 20
-175.9149
 10
847.9913
 20
-176.1614
 10
848.0858
 20
-176.3935
 10
848.1892
 20
-176.6113
 10
848.3015
 20
-176.8145
 10
848.4227
 20
-177.0033
 10
848.5526
 20
-177.1774
 10
848.6913
 20
-177.337
 10
848.8386
 20
-177.482
 10
848.9952
 20
-177.6105
 10
849.1635
 20
-177.7216
 10
849.3435
 20
-177.8154
 10
849.5351
 20
-177.892
 10
849.7382
 20
-177.9514
 10
849.9529
 20
-177.9938
 10
850.1791
 20
-178.0192
 10
850.4168
 20
-178.0276
 10
850.6454
 20
-178.0194
 10
850.8641
 20
-177.9948
 10
851.0729
 20
-177.9538
 10
851.2716
 20
-177.8965
 10
851.46
 20
-177.8229
 10
851.6381
 20
-177.7329
 10
851.8057
 20
-177.6266
 10
851.9627
 20
-177.504
 10
852.1095
 20
-177.3659
 10
852.2482
 20
-177.2121
 10
852.3787
 20
-177.0426
 10
852.501
 20
-176.8572
 10
852.6149
 20
-176.6558
 10
852.7203
 20
-176.4385
 10
852.817
 20
-176.205
 10
852.9051
 20
-175.9553
  0
LWPOLYLINE
  5
8E
330
1F
100
AcDbEntity
  8
Layer 1
 62
     7
100
AcDbPolyline
 90
      190
 70
     1
 43
0.0
 10
874.0369
 20
-179.8148
 10
874.0369
 20
-171.2737
 10
874.0359
 20
-171.0223
 10
874.0328
 20
-170.7755
 10
874.0277
 20
-170.5333
 10
874.0205
 20
-170.2956
 10
874.0111
 20
-170.0626
 10
873.9996
 20
-169.8341
 10
873.986
 20
-169.6103
 10
873.9701
 20
-169.391
 10
873.9515
 20
-169.1807
 10
873.9279
 20
-168.982
 10
873.8995
 20
-168.7949
 10
873.8664
 20
-168.6194
 10
873.8287
 20
-168.4554
 10
873.7864
 20
-168.3031
 10
873.7396
 20
-168.1623
 10
873.6885
 20
-168.0331
 10
873.6287
 20
-167.9054
 10
873.5629
 20
-167.7867
 10
873.4911
 20
-167.6767
 10
873.4134
 20
-167.5754
 10
873.3298
 20
-167.4828
 10
873.2405
 20
-167.3988
 10
873.1453
 20
-167.3233
 10
873.0444
 20
-167.2563
 10
872.9351
 20
-167.1977
 10
872.8167
 20
-167.1466
 10
872.6891
 20
-167.1031
 10
872.5523
 20
-167.0673
 10
872.4064
 20
-167.0394
 10
872.2513
 20
-167.0193
 10
872.087
 20
-167.0072
 10
871.9135
 20
-167.0031
 10
871.7476
 20
-167.0105
 10
871.5789
 20
-167.0329
 10
871.4074
 20
-167.0701
 10
871.2332
 20
-167.1221
 10
871.0561
 20
-167.1888
 10
870.876
 20
-167.2704
 10
870.6931
 20
-167.3667
 10
870.5071
 20
-167.4777
 10
870.3176
 20
-167.6011
 10
870.1265
 20
-167.738
 10
869.9339
 20
-167.8884
 10
869.7397
 20
-168.0523
 10
869.544
 20
-168.2295
 10
869.3469
 20
-168.42
 10
869.1482
 20
-168.6237
 10
868.9481
 20
-168.8405
 10
868.9779
 20
-169.3739
 10
868.9934
 20
-170.1103
 10
868.9934
 20
-179.8148
 10
866.8641
 20
-179.8148
 10
866.8641
 20
-171.2737
 10
866.8631
 20
-171.0223
 10
866.86
 20
-170.7755
 10
866.8548
 20
-170.5333
 10
866.8474
 20
-170.2956
 10
866.8378
 20
-170.0626
 10
866.8258
 20
-169.8341
 10
866.8116
 20
-169.6103
 10
866.7949
 20
-169.391
 10
866.777
 20
-169.1807
 10
866.7538
 20
-168.982
 10
866.7254
 20
-168.7949
 10
866.6921
 20
-168.6194
 10
866.6539
 20
-168.4554
 10
866.6111
 20
-168.3031
 10
866.5638
 20
-168.1623
 10
866.5122
 20
-168.0331
 10
866.4536
 20
-167.9054
 10
866.3886
 20
-167.7867
 10
866.3174
 20
-167.6767
 10
866.24
 20
-167.5754
 10
866.1564
 20
-167.4828
 10
866.0667
 20
-167.3988
 10
865.971
 20
-167.3233
 10
865.8693
 20
-167.2563
 10
865.7611
 20
-167.1977
 10
865.6433
 20
-167.1466
 10
865.516
 20
-167.1031
 10
865.3793
 20
-167.0673
 10
865.2333
 20
-167.0394
 10
865.0782
 20
-167.0193
 10
864.914
 20
-167.0072
 10
864.7408
 20
-167.0031
 10
864.5656
 20
-167.011
 10
864.3887
 20
-167.0346
 10
864.2102
 20
-167.074
 10
864.03
 20
-167.1293
 10
863.8481
 20
-167.2004
 10
863.6644
 20
-167.2874
 10
863.4789
 20
-167.3905
 10
863.2915
 20
-167.5095
 10
863.1026
 20
-167.6408
 10
862.9151
 20
-167.7805
 10
862.7291
 20
-167.9288
 10
862.5446
 20
-168.0856
 10
862.3616
 20
-168.2511
 10
862.1801
 20
-168.4253
 10
862.0002
 20
-168.6082
 10
861.8218
 20
-168.8001
 10
861.8218
 20
-179.8148
 10
859.6926
 20
-179.8148
 10
859.6926
 20
-165.0531
 10
861.8218
 20
-165.0531
 10
861.8218
 20
-166.696
 10
862.0305
 20
-166.4592
 10
862.2389
 20
-166.236
 10
862.4468
 20
-166.0264
 10
862.6543
 20
-165.8304
 10
862.8613
 20
-165.6481
 10
863.0677
 20
-165.4796
 10
863.2735
 20
-165.3249
 10
863.4787
 20
-165.184
 10
863.6863
 20
-165.0584
 10
863.8992
 20
-164.9494
 10
864.1173
 20
-164.8571
 10
864.3406
 20
-164.7816
 10
864.5691
 20
-164.7227
 10
864.8026
 20
-164.6807
 10
865.0412
 20
-164.6554
 10
865.2847
 20
-164.647
 10
865.5596
 20
-164.6563
 10
865.827
 20
-164.6842
 10
866.0868
 20
-164.7307
 10
866.3389
 20
-164.796
 10
866.5833
 20
-164.8799
 10
866.82
 20
-164.9825
 10
867.0488
 20
-165.1038
 10
867.2697
 20
-165.244
 10
867.4793
 20
-165.4045
 10
867.676
 20
-165.5888
 10
867.8598
 20
-165.797
 10
868.0307
 20
-166.0292
 10
868.1886
 20
-166.2854
 10
868.3335
 20
-166.5657
 10
868.4654
 20
-166.8701
 10
868.5842
 20
-167.1988
 10
868.8256
 20
-166.8945
 10
869.0649
 20
-166.609
 10
869.3022
 20
-166.3425
 10
869.5377
 20
-166.095
 10
869.7715
 20
-165.8666
 10
870.0037
 20
-165.6573
 10
870.2346
 20
-165.4673
 10
870.4642
 20
-165.2966
 10
870.6961
 20
-165.1443
 10
870.933
 20
-165.0124
 10
871.1747
 20
-164.9007
 10
871.4213
 20
-164.8094
 10
871.6728
 20
-164.7383
 10
871.9291
 20
-164.6876
 10
872.1903
 20
-164.6571
 10
872.4563
 20
-164.647
 10
872.6583
 20
-164.6516
 10
872.8553
 20
-164.6656
 10
873.0476
 20
-164.6888
 10
873.2349
 20
-164.7213
 10
873.4175
 20
-164.7631
 10
873.5953
 20
-164.8142
 10
873.7684
 20
-164.8746
 10
873.9367
 20
-164.9443
 10
874.1009
 20
-165.0249
 10
874.2599
 20
-165.1165
 10
874.4136
 20
-165.2191
 10
874.562
 20
-165.3328
 10
874.7052
 20
-165.4579
 10
874.8432
 20
-165.5944
 10
874.9759
 20
-165.7424
 10
875.1033
 20
-165.9021
 10
875.2268
 20
-166.0763
 10
875.3431
 20
-166.2604
 10
875.4522
 20
-166.4545
 10
875.5541
 20
-166.6589
 10
875.6488
 20
-166.8736
 10
875.7362
 20
-167.0989
 10
875.8164
 20
-167.3349
 10
875.8894
 20
-167.5817
 10
875.9547
 20
-167.8402
 10
876.0111
 20
-168.1149
 10
876.0587
 20
-168.4057
 10
876.0975
 20
-168.7128
 10
876.1276
 20
-169.0363
 10
876.149
 20
-169.3761
 10
876.1618
 20
-169.7325
 10
876.1661
 20
-170.1054
 10
876.1661
 20
-179.8148
 10
874.0369
 20
-179.8148
  0
LWPOLYLINE
  5
8F
330
1F
100
AcDbEntity
  8
Layer 1
 62
     7
100
AcDbPolyline
 90
      190
 70
     1
 43
0.0
 10
894.9181
 20
-179.8148
 10
894.9181
 20
-171.2737
 10
894.917
 20
-171.0223
 10
894.9138
 20
-170.7755
 10
894.9085
 20
-170.5333
 10
894.901
 20
-170.2956
 10
894.8913
 20
-170.0626
 10
894.8794
 20
-169.8341
 10
894.8653
 20
-169.6103
 10
894.8489
 20
-169.391
 10
894.8304
 20
-169.1807
 10
894.807
 20
-168.982
 10
894.7787
 20
-168.7949
 10
894.7458
 20
-168.6194
 10
894.7081
 20
-168.4554
 10
894.6658
 20
-168.3031
 10
894.6189
 20
-168.1623
 10
894.5674
 20
-168.0331
 10
894.5076
 20
-167.9054
 10
894.4418
 20
-167.7867
 10
894.37
 20
-167.6767
 10
894.2925
 20
-167.5754
 10
894.209
 20
-167.4828
 10
894.1199
 20
-167.3988
 10
894.025
 20
-167.3233
 10
893.9245
 20
-167.2563
 10
893.8152
 20
-167.1977
 10
893.6968
 20
-167.1466
 10
893.5691
 20
-167.1031
 10
893.4323
 20
-167.0673
 10
893.2862
 20
-167.0394
 10
893.1308
 20
-167.0193
 10
892.9663
 20
-167.0072
 10
892.7924
 20
-167.0031
 10
892.6265
 20
-167.0105
 10
892.4581
 20
-167.0329
 10
892.2869
 20
-167.0701
 10
892.1129
 20
-167.1221
 10
891.9359
 20
-167.1888
 10
891.7559
 20
-167.2704
 10
891.5726
 20
-167.3667
 10
891.386
 20
-167.4777
 10
891.1971
 20
-167.6011
 10
891.0064
 20
-167.738
 10
890.8137
 20
-167.8884
 10
890.6194
 20
-168.0523
 10
890.4235
 20
-168.2295
 10
890.226
 20
-168.42
 10
890.0271
 20
-168.6237
 10
889.8269
 20
-168.8405
 10
889.858
 20
-169.3739
 10
889.8747
 20
-170.1103
 10
889.8747
 20
-179.8148
 10
887.7442
 20
-179.8148
 10
887.7442
 20
-171.2737
 10
887.7431
 20
-171.0223
 10
887.7399
 20
-170.7755
 10
887.7346
 20
-170.5333
 10
887.7272
 20
-170.2956
 10
887.7176
 20
-170.0626
 10
887.7059
 20
-169.8341
 10
887.6921
 20
-169.6103
 10
887.6762
 20
-169.391
 10
887.6579
 20
-169.1807
 10
887.6343
 20
-168.982
 10
887.6058
 20
-168.7949
 10
887.5724
 20
-168.6194
 10
887.5343
 20
-168.4554
 10
887.4917
 20
-168.3031
 10
887.4447
 20
-168.1623
 10
887.3935
 20
-168.0331
 10
887.3345
 20
-167.9054
 10
887.2692
 20
-167.7867
 10
887.1977
 20
-167.6767
 10
887.12
 20
-167.5754
 10
887.0362
 20
-167.4828
 10
886.9463
 20
-167.3988
 10
886.8502
 20
-167.3233
 10
886.7481
 20
-167.2563
 10
886.64
 20
-167.1977
 10
886.5223
 20
-167.1466
 10
886.3952
 20
-167.1031
 10
886.2588
 20
-167.0673
 10
886.113
 20
-167.0394
 10
885.958
 20
-167.0193
 10
885.794
 20
-167.0072
 10
885.6209
 20
-167.0031
 10
885.446
 20
-167.011
 10
885.2694
 20
-167.0346
 10
885.0911
 20
-167.074
 10
884.9109
 20
-167.1293
 10
884.7289
 20
-167.2004
 10
884.5451
 20
-167.2874
 10
884.3593
 20
-167.3905
 10
884.1715
 20
-167.5095
 10
883.9822
 20
-167.6408
 10
883.7946
 20
-167.7805
 10
883.6085
 20
-167.9288
 10
883.424
 20
-168.0856
 10
883.241
 20
-168.2511
 10
883.0595
 20
-168.4253
 10
882.8794
 20
-168.6082
 10
882.7007
 20
-168.8001
 10
882.7007
 20
-179.8148
 10
880.5714
 20
-179.8148
 10
880.5714
 20
-165.0531
 10
882.7007
 20
-165.0531
 10
882.7007
 20
-166.696
 10
882.9101
 20
-166.4592
 10
883.1188
 20
-166.236
 10
883.3268
 20
-166.0264
 10
883.5343
 20
-165.8304
 10
883.7411
 20
-165.6481
 10
883.9474
 20
-165.4796
 10
884.1533
 20
-165.3249
 10
884.3588
 20
-165.184
 10
884.5666
 20
-165.0584
 10
884.7795
 20
-164.9494
 10
884.9975
 20
-164.8571
 10
885.2205
 20
-164.7816
 10
885.4486
 20
-164.7227
 10
885.6818
 20
-164.6807
 10
885.9201
 20
-164.6554
 10
886.1636
 20
-164.647
 10
886.4389
 20
-164.6563
 10
886.7066
 20
-164.6842
 10
886.9667
 20
-164.7307
 10
887.219
 20
-164.796
 10
887.4636
 20
-164.8799
 10
887.7005
 20
-164.9825
 10
887.9296
 20
-165.1038
 10
888.1509
 20
-165.244
 10
888.3598
 20
-165.4045
 10
888.5559
 20
-165.5888
 10
888.7394
 20
-165.797
 10
888.9102
 20
-166.0292
 10
889.0682
 20
-166.2854
 10
889.2135
 20
-166.5657
 10
889.3459
 20
-166.8701
 10
889.4655
 20
-167.1988
 10
889.7062
 20
-166.8945
 10
889.945
 20
-166.609
 10
890.1822
 20
-166.3425
 10
890.4177
 20
-166.095
 10
890.6515
 20
-165.8666
 10
890.8836
 20
-165.6573
 10
891.1142
 20
-165.4673
 10
891.3431
 20
-165.2966
 10
891.575
 20
-165.1443
 10
891.8119
 20
-165.0124
 10
892.0537
 20
-164.9007
 10
892.3005
 20
-164.8094
 10
892.5523
 20
-164.7383
 10
892.8091
 20
-164.6876
 10
893.0708
 20
-164.6571
 10
893.3376
 20
-164.647
 10
893.5391
 20
-164.6516
 10
893.7358
 20
-164.6656
 10
893.9277
 20
-164.6888
 10
894.1149
 20
-164.7213
 10
894.2974
 20
-164.7631
 10
894.4754
 20
-164.8142
 10
894.6489
 20
-164.8746
 10
894.8179
 20
-164.9443
 10
894.9814
 20
-165.0249
 10
895.1397
 20
-165.1165
 10
895.293
 20
-165.2191
 10
895.4412
 20
-165.3328
 10
895.5843
 20
-165.4579
 10
895.7221
 20
-165.5944
 10
895.8548
 20
-165.7424
 10
895.9822
 20
-165.9021
 10
896.106
 20
-166.0763
 10
896.2226
 20
-166.2604
 10
896.3319
 20
-166.4545
 10
896.434
 20
-166.6589
 10
896.5288
 20
-166.8736
 10
896.6163
 20
-167.0989
 10
896.6965
 20
-167.3349
 10
896.7695
 20
-167.5817
 10
896.8345
 20
-167.8402
 10
896.8909
 20
-168.1149
 10
896.9387
 20
-168.4057
 10
896.9778
 20
-168.7128
 10
897.0082
 20
-169.0363
 10
897.03
 20
-169.3761
 10
897.043
 20
-169.7325
 10
897.0474
 20
-170.1054
 10
897.0474
 20
-179.8148
 10
894.9181
 20
-179.8148
  0
LWPOLYLINE
  5
90
330
1F
100
AcDbEntity
  8
Layer 1
 62
     7
100
AcDbPolyline
 90
      184
 70
     1
 43
0.0
 10
827.3036
 20
255.9507
 10
827.2975
 20
255.5967
 10
827.2791
 20
255.2495
 10
827.2484
 20
254.909
 10
827.2057
 20
254.5751
 10
827.1507
 20
254.2479
 10
827.0837
 20
253.9273
 10
827.0047
 20
253.6133
 10
826.9136
 20
253.3059
 10
826.8119
 20
253.0061
 10
826.7003
 20
252.7169
 10
826.5787
 20
252.4383
 10
826.4472
 20
252.1704
 10
826.3058
 20
251.9131
 10
826.1547
 20
251.6665
 10
825.9938
 20
251.4306
 10
825.8233
 20
251.2055
 10
825.64
 20
250.9862
 10
825.4463
 20
250.7789
 10
825.2419
 20
250.5836
 10
825.0267
 20
250.4004
 10
824.8007
 20
250.2292
 10
824.5638
 20
250.0703
 10
824.3158
 20
249.9235
 10
824.0566
 20
249.7889
 10
823.788
 20
249.6681
 10
823.5118
 20
249.5634
 10
823.228
 20
249.4749
 10
822.9363
 20
249.4025
 10
822.6368
 20
249.3462
 10
822.3293
 20
249.306
 10
822.0137
 20
249.2819
 10
821.69
 20
249.2739
 10
821.388
 20
249.2788
 10
821.0877
 20
249.2934
 10
820.7889
 20
249.3178
 10
820.4914
 20
249.3519
 10
820.1952
 20
249.3958
 10
819.9001
 20
249.4494
 10
819.6059
 20
249.5127
 10
819.3126
 20
249.5858
 10
819.0255
 20
249.6663
 10
818.7478
 20
249.7529
 10
818.4795
 20
249.8455
 10
818.2208
 20
249.9443
 10
817.9718
 20
250.0492
 10
817.7327
 20
250.1604
 10
817.5036
 20
250.2779
 10
817.2847
 20
250.4018
 10
817.2847
 20
253.2019
 10
817.4433
 20
253.2019
 10
817.5872
 20
253.083
 10
817.7593
 20
252.9571
 10
817.9598
 20
252.8236
 10
818.1889
 20
252.682
 10
818.4374
 20
252.5416
 10
818.6995
 20
252.4046
 10
818.975
 20
252.2709
 10
819.2637
 20
252.1401
 10
819.5885
 20
252.0063
 10
819.8996
 20
251.889
 10
820.1975
 20
251.7878
 10
820.4828
 20
251.7022
 10
820.6234
 20
251.6658
 10
820.7681
 20
251.6344
 10
820.9168
 20
251.6081
 10
821.0697
 20
251.5867
 10
821.3883
 20
251.5585
 10
821.7246
 20
251.5492
 10
821.8947
 20
251.5536
 10
822.0633
 20
251.5669
 10
822.2304
 20
251.589
 10
822.3961
 20
251.62
 10
822.5605
 20
251.6599
 10
822.7237
 20
251.7087
 10
822.8856
 20
251.7664
 10
823.0463
 20
251.833
 10
823.2056
 20
251.9097
 10
823.3586
 20
251.9974
 10
823.5056
 20
252.0962
 10
823.6466
 20
252.206
 10
823.7817
 20
252.3267
 10
823.9109
 20
252.4584
 10
824.0343
 20
252.6009
 10
824.1521
 20
252.7542
 10
824.2552
 20
252.9026
 10
824.3517
 20
253.0571
 10
824.4415
 20
253.2178
 10
824.5249
 20
253.3847
 10
824.6017
 20
253.558
 10
824.6721
 20
253.7377
 10
824.7361
 20
253.924
 10
824.7938
 20
254.117
 10
824.8457
 20
254.3164
 10
824.8905
 20
254.5245
 10
824.9282
 20
254.7414
 10
824.959
 20
254.9669
 10
824.9828
 20
255.201
 10
824.9998
 20
255.4437
 10
825.0099
 20
255.6948
 10
825.0133
 20
255.9544
 10
825.0095
 20
256.2112
 10
824.9981
 20
256.456
 10
824.9791
 20
256.6889
 10
824.9525
 20
256.9098
 10
824.9183
 20
257.1187
 10
824.8764
 20
257.3158
 10
824.827
 20
257.501
 10
824.77
 20
257.6744
 10
824.7065
 20
257.8399
 10
824.6358
 20
257.9979
 10
824.5581
 20
258.1483
 10
824.4732
 20
258.2914
 10
824.3814
 20
258.427
 10
824.2825
 20
258.5553
 10
824.1766
 20
258.6763
 10
824.0638
 20
258.79
 10
823.9391
 20
258.9106
 10
823.8075
 20
259.022
 10
823.669
 20
259.1242
 10
823.5236
 20
259.2173
 10
823.3713
 20
259.3013
 10
823.2121
 20
259.3763
 10
823.0461
 20
259.4423
 10
822.8733
 20
259.4995
 10
822.6944
 20
259.5469
 10
822.5104
 20
259.588
 10
822.3211
 20
259.6229
 10
822.1268
 20
259.6515
 10
821.9275
 20
259.6738
 10
821.7232
 20
259.6898
 10
821.514
 20
259.6994
 10
821.2999
 20
259.7026
 10
821.0708
 20
259.7
 10
820.8416
 20
259.6922
 10
820.6122
 20
259.6793
 10
820.3826
 20
259.661
 10
820.1528
 20
259.6375
 10
819.9227
 20
259.6087
 10
819.6923
 20
259.5745
 10
819.4617
 20
259.535
 10
819.0195
 20
259.4508
 10
818.6261
 20
259.3692
 10
818.28
 20
259.2904
 10
817.9801
 20
259.2145
 10
817.9801
 20
269.3717
 10
827.2118
 20
269.3717
 10
827.2118
 20
267.0694
 10
820.1535
 20
267.0694
 10
820.1535
 20
261.8189
 10
820.9552
 20
261.8948
 10
821.6768
 20
261.9229
 10
821.9931
 20
261.9189
 10
822.2969
 20
261.9069
 10
822.5883
 20
261.887
 10
822.8673
 20
261.8593
 10
823.1341
 20
261.8238
 10
823.3886
 20
261.7805
 10
823.6308
 20
261.7295
 10
823.861
 20
261.6709
 10
824.082
 20
261.6007
 10
824.3012
 20
261.5156
 10
824.5185
 20
261.4158
 10
824.734
 20
261.3013
 10
824.9477
 20
261.172
 10
825.1595
 20
261.028
 10
825.3694
 20
260.8693
 10
825.5775
 20
260.6959
 10
825.7799
 20
260.5038
 10
825.9701
 20
260.3007
 10
826.1481
 20
260.0866
 10
826.314
 20
259.8613
 10
826.4677
 20
259.6247
 10
826.6094
 20
259.3765
 10
826.7389
 20
259.1167
 10
826.8563
 20
258.8451
 10
826.9615
 20
258.5565
 10
827.0525
 20
258.2469
 10
827.1294
 20
257.9164
 10
827.1922
 20
257.5649
 10
827.241
 20
257.1925
 10
827.2758
 20
256.7993
 10
827.2967
 20
256.3853
 10
827.3036
 20
255.9507
  0
LWPOLYLINE
  5
91
330
1F
100
AcDbEntity
  8
Layer 1
 62
     7
100
AcDbPolyline
 90
       12
 70
     1
 43
0.0
 10
842.0058
 20
256.4523
 10
840.0149
 20
256.4523
 10
840.0149
 20
249.68
 10
837.8415
 20
249.68
 10
837.8415
 20
256.4523
 10
830.4123
 20
256.4523
 10
830.4123
 20
259.228
 10
837.9333
 20
269.3717
 10
840.0149
 20
269.3717
 10
840.0149
 20
258.5637
 10
842.0058
 20
258.5637
 10
842.0058
 20
256.4523
  0
LWPOLYLINE
  5
92
330
1F
100
AcDbEntity
  8
Layer 1
 62
     7
100
AcDbPolyline
 90
        4
 70
     1
 43
0.0
 10
837.8415
 20
258.5637
 10
837.8415
 20
266.2424
 10
832.1837
 20
258.5637
 10
837.8415
 20
258.5637
  0
LWPOLYLINE
  5
93
330
1F
100
AcDbEntity
  8
Layer 1
 62
     7
100
AcDbPolyline
 90
       65
 70
     1
 43
0.0
 10
855.7346
 20
259.5387
 10
855.714
 20
258.2574
 10
855.6522
 20
257.064
 10
855.5492
 20
255.9587
 10
855.4052
 20
254.9413
 10
855.2202
 20
254.012
 10
854.9943
 20
253.1707
 10
854.7275
 20
252.4175
 10
854.42
 20
251.7523
 10
854.0682
 20
251.1713
 10
853.672
 20
250.6678
 10
853.2312
 20
250.2418
 10
852.7459
 20
249.8933
 10
852.2158
 20
249.6223
 10
851.6408
 20
249.4287
 10
851.0209
 20
249.3126
 10
850.3559
 20
249.2739
 10
849.6832
 20
249.3135
 10
849.057
 20
249.4321
 10
848.4774
 20
249.6297
 10
847.9442
 20
249.9064
 10
847.4575
 20
250.2619
 10
847.0171
 20
250.6962
 10
846.623
 20
251.2093
 10
846.2751
 20
251.8012
 10
845.9703
 20
252.4743
 10
845.7063
 20
253.2303
 10
845.483
 20
254.0693
 10
845.3004
 20
254.9913
 10
845.1585
 20
255.9965
 10
845.0571
 20
257.0849
 10
844.9963
 20
258.2567
 10
844.9761
 20
259.5118
 10
844.9967
 20
260.7997
 10
845.0585
 20
261.9981
 10
845.1615
 20
263.1071
 10
845.3055
 20
264.1266
 10
845.4904
 20
265.0565
 10
845.7163
 20
265.8969
 10
845.9831
 20
266.6478
 10
846.2906
 20
267.3092
 10
846.6426
 20
267.888
 10
847.0391
 20
268.3895
 10
847.4802
 20
268.8138
 10
847.9659
 20
269.1609
 10
848.4963
 20
269.4309
 10
849.0714
 20
269.6236
 10
849.6912
 20
269.7393
 10
850.3559
 20
269.7778
 10
851.0282
 20
269.7378
 10
851.6541
 20
269.618
 10
852.2335
 20
269.4182
 10
852.7664
 20
269.1386
 10
853.2529
 20
268.7792
 10
853.6931
 20
268.34
 10
854.0869
 20
267.821
 10
854.4344
 20
267.2223
 10
854.7396
 20
266.544
 10
855.0039
 20
265.7852
 10
855.2274
 20
264.9459
 10
855.4102
 20
264.026
 10
855.5522
 20
263.0253
 10
855.6536
 20
261.944
 10
855.7144
 20
260.7818
 10
855.7346
 20
259.5387
  0
LWPOLYLINE
  5
94
330
1F
100
AcDbEntity
  8
Layer 1
 62
     7
100
AcDbPolyline
 90
      129
 70
     1
 43
0.0
 10
852.8419
 20
253.5396
 10
852.9219
 20
253.7929
 10
852.9954
 20
254.062
 10
853.0628
 20
254.347
 10
853.124
 20
254.648
 10
853.1791
 20
254.9652
 10
853.2284
 20
255.2985
 10
853.2718
 20
255.6482
 10
853.3095
 20
256.0143
 10
853.3407
 20
256.3949
 10
853.368
 20
256.7926
 10
853.3913
 20
257.2074
 10
853.4106
 20
257.6393
 10
853.4258
 20
258.0884
 10
853.4367
 20
258.5547
 10
853.4433
 20
259.0381
 10
853.4455
 20
259.5387
 10
853.4433
 20
260.0353
 10
853.4367
 20
260.5156
 10
853.4258
 20
260.9798
 10
853.4106
 20
261.4275
 10
853.3913
 20
261.8587
 10
853.368
 20
262.2732
 10
853.3407
 20
262.671
 10
853.3095
 20
263.052
 10
853.2715
 20
263.4179
 10
853.2274
 20
263.7677
 10
853.1772
 20
264.1016
 10
853.1209
 20
264.4197
 10
853.0584
 20
264.7219
 10
852.9899
 20
265.0083
 10
852.9153
 20
265.279
 10
852.8347
 20
265.5341
 10
852.7458
 20
265.7786
 10
852.6489
 20
266.0075
 10
852.5441
 20
266.2209
 10
852.4314
 20
266.4191
 10
852.3108
 20
266.602
 10
852.1823
 20
266.7698
 10
852.046
 20
266.9227
 10
851.9019
 20
267.0608
 10
851.7477
 20
267.183
 10
851.5822
 20
267.289
 10
851.4054
 20
267.3788
 10
851.2175
 20
267.4523
 10
851.0185
 20
267.5095
 10
850.8085
 20
267.5504
 10
850.5876
 20
267.575
 10
850.3559
 20
267.5832
 10
850.1266
 20
267.575
 10
849.9074
 20
267.5504
 10
849.6985
 20
267.5095
 10
849.5001
 20
267.4523
 10
849.3121
 20
267.3788
 10
849.1347
 20
267.289
 10
848.9681
 20
267.183
 10
848.8123
 20
267.0608
 10
848.6643
 20
266.9223
 10
848.5243
 20
266.7683
 10
848.3924
 20
266.5985
 10
848.2687
 20
266.4131
 10
848.1531
 20
266.2118
 10
848.0458
 20
265.9946
 10
847.9466
 20
265.7614
 10
847.8557
 20
265.5121
 10
847.7744
 20
265.2514
 10
847.6996
 20
264.9748
 10
847.6313
 20
264.6822
 10
847.5697
 20
264.3734
 10
847.5146
 20
264.0484
 10
847.4661
 20
263.707
 10
847.4243
 20
263.3493
 10
847.3892
 20
262.975
 10
847.361
 20
262.5847
 10
847.3363
 20
262.1825
 10
847.3152
 20
261.7683
 10
847.2978
 20
261.342
 10
847.2842
 20
260.9033
 10
847.2744
 20
260.4522
 10
847.2684
 20
259.9884
 10
847.2664
 20
259.5118
 10
847.268
 20
259.0075
 10
847.2729
 20
258.5241
 10
847.2812
 20
258.0616
 10
847.2928
 20
257.6201
 10
847.3078
 20
257.1994
 10
847.3263
 20
256.7998
 10
847.3482
 20
256.421
 10
847.3737
 20
256.0633
 10
847.4038
 20
255.7225
 10
847.4423
 20
255.39
 10
847.4891
 20
255.0661
 10
847.5442
 20
254.751
 10
847.6074
 20
254.4446
 10
847.6789
 20
254.1472
 10
847.7584
 20
253.8589
 10
847.8461
 20
253.5799
 10
847.9309
 20
253.3334
 10
848.0251
 20
253.1013
 10
848.1285
 20
252.8836
 10
848.241
 20
252.6803
 10
848.3624
 20
252.4916
 10
848.4926
 20
252.3174
 10
848.6315
 20
252.1579
 10
848.7789
 20
252.0129
 10
848.9349
 20
251.8848
 10
849.1028
 20
251.7738
 10
849.2827
 20
251.68
 10
849.4744
 20
251.6034
 10
849.6777
 20
251.5438
 10
849.8925
 20
251.5013
 10
850.1186
 20
251.4758
 10
850.3559
 20
251.4673
 10
850.5849
 20
251.4755
 10
850.8038
 20
251.5003
 10
851.0126
 20
251.5414
 10
851.2112
 20
251.5989
 10
851.3995
 20
251.6728
 10
851.5775
 20
251.763
 10
851.745
 20
251.8694
 10
851.9019
 20
251.9921
 10
852.0486
 20
252.1298
 10
852.187
 20
252.2834
 10
852.3172
 20
252.4529
 10
852.439
 20
252.6383
 10
852.5524
 20
252.8396
 10
852.6574
 20
253.057
 10
852.7539
 20
253.2903
 10
852.8419
 20
253.5396
  0
LWPOLYLINE
  5
95
330
1F
100
AcDbEntity
  8
Layer 1
 62
     7
100
AcDbPolyline
 90
      190
 70
     1
 43
0.0
 10
873.9772
 20
249.68
 10
873.9772
 20
258.2212
 10
873.9761
 20
258.4726
 10
873.9729
 20
258.7194
 10
873.9676
 20
258.9616
 10
873.9601
 20
259.1992
 10
873.9504
 20
259.4323
 10
873.9385
 20
259.6607
 10
873.9244
 20
259.8846
 10
873.908
 20
260.1039
 10
873.8895
 20
260.3146
 10
873.8661
 20
260.5136
 10
873.8378
 20
260.7008
 10
873.8049
 20
260.8764
 10
873.7672
 20
261.0403
 10
873.7249
 20
261.1925
 10
873.678
 20
261.3329
 10
873.6265
 20
261.4617
 10
873.5675
 20
261.5894
 10
873.5022
 20
261.7083
 10
873.4308
 20
261.8185
 10
873.3532
 20
261.9199
 10
873.2695
 20
262.0125
 10
873.1798
 20
262.0965
 10
873.0841
 20
262.1718
 10
872.9824
 20
262.2385
 10
872.8738
 20
262.2975
 10
872.7557
 20
262.3488
 10
872.6281
 20
262.3923
 10
872.4912
 20
262.428
 10
872.345
 20
262.4558
 10
872.1896
 20
262.4758
 10
872.0251
 20
262.4878
 10
871.8515
 20
262.4918
 10
871.6859
 20
262.4843
 10
871.5175
 20
262.462
 10
871.3462
 20
262.4248
 10
871.1719
 20
262.3728
 10
870.9945
 20
262.306
 10
870.8141
 20
262.2244
 10
870.6306
 20
262.1281
 10
870.4439
 20
262.0171
 10
870.2555
 20
261.8938
 10
870.0653
 20
261.7569
 10
869.8732
 20
261.6065
 10
869.6793
 20
261.4426
 10
869.4836
 20
261.2654
 10
869.2861
 20
261.0749
 10
869.0869
 20
260.8712
 10
868.886
 20
260.6543
 10
868.9182
 20
260.1222
 10
868.9326
 20
259.3858
 10
868.9326
 20
249.68
 10
866.8057
 20
249.68
 10
866.8057
 20
258.2212
 10
866.8045
 20
258.4726
 10
866.8011
 20
258.7194
 10
866.7954
 20
258.9616
 10
866.7875
 20
259.1992
 10
866.7775
 20
259.4323
 10
866.7654
 20
259.6607
 10
866.7513
 20
259.8846
 10
866.7353
 20
260.1039
 10
866.7167
 20
260.3146
 10
866.6933
 20
260.5136
 10
866.6651
 20
260.7008
 10
866.6321
 20
260.8764
 10
866.5944
 20
261.0403
 10
866.5521
 20
261.1925
 10
866.5052
 20
261.3329
 10
866.4538
 20
261.4617
 10
866.394
 20
261.5894
 10
866.3282
 20
261.7083
 10
866.2564
 20
261.8185
 10
866.1787
 20
261.9199
 10
866.0951
 20
262.0125
 10
866.0057
 20
262.0965
 10
865.9105
 20
262.1718
 10
865.8096
 20
262.2385
 10
865.7007
 20
262.2975
 10
865.5824
 20
262.3488
 10
865.4548
 20
262.3923
 10
865.318
 20
262.428
 10
865.1719
 20
262.4558
 10
865.0167
 20
262.4758
 10
864.8523
 20
262.4878
 10
864.6788
 20
262.4918
 10
864.5047
 20
262.484
 10
864.3285
 20
262.4605
 10
864.1503
 20
262.4213
 10
863.97
 20
262.3662
 10
863.7877
 20
262.2953
 10
863.6033
 20
262.2084
 10
863.4168
 20
262.1055
 10
863.2282
 20
261.9865
 10
863.0397
 20
261.8552
 10
862.8525
 20
261.7155
 10
862.6667
 20
261.5673
 10
862.4822
 20
261.4105
 10
862.2992
 20
261.245
 10
862.1176
 20
261.0708
 10
861.9374
 20
260.8878
 10
861.7586
 20
260.6959
 10
861.7586
 20
249.68
 10
859.6293
 20
249.68
 10
859.6293
 20
264.4417
 10
861.7586
 20
264.4417
 10
861.7586
 20
262.7988
 10
861.9684
 20
263.0357
 10
862.1774
 20
263.259
 10
862.3857
 20
263.4688
 10
862.5932
 20
263.6649
 10
862.8001
 20
263.8472
 10
863.0065
 20
264.0157
 10
863.2124
 20
264.1703
 10
863.4179
 20
264.3108
 10
863.6255
 20
264.4364
 10
863.8384
 20
264.5454
 10
864.0567
 20
264.6377
 10
864.28
 20
264.7133
 10
864.5084
 20
264.7721
 10
864.7417
 20
264.8142
 10
864.9799
 20
264.8395
 10
865.2227
 20
264.8479
 10
865.498
 20
264.8386
 10
865.7656
 20
264.8107
 10
866.0255
 20
264.7642
 10
866.2777
 20
264.6991
 10
866.5222
 20
264.6153
 10
866.7591
 20
264.5129
 10
866.9884
 20
264.3919
 10
867.21
 20
264.2521
 10
867.4185
 20
264.0912
 10
867.6143
 20
263.9066
 10
867.7976
 20
263.6982
 10
867.9683
 20
263.466
 10
868.1262
 20
263.2098
 10
868.2714
 20
262.9297
 10
868.4038
 20
262.6256
 10
868.5234
 20
262.2973
 10
868.7641
 20
262.6013
 10
869.003
 20
262.8864
 10
869.2402
 20
263.1527
 10
869.4758
 20
263.4001
 10
869.7097
 20
263.6284
 10
869.9421
 20
263.8376
 10
870.1729
 20
264.0276
 10
870.4022
 20
264.1983
 10
870.6345
 20
264.3505
 10
870.8715
 20
264.4825
 10
871.1134
 20
264.5941
 10
871.3601
 20
264.6855
 10
871.6117
 20
264.7565
 10
871.8683
 20
264.8073
 10
872.13
 20
264.8377
 10
872.3967
 20
264.8479
 10
872.598
 20
264.8433
 10
872.7947
 20
264.8293
 10
872.9869
 20
264.8061
 10
873.1744
 20
264.7736
 10
873.3573
 20
264.7318
 10
873.5353
 20
264.6807
 10
873.7086
 20
264.6203
 10
873.877
 20
264.5506
 10
874.0412
 20
264.4704
 10
874.2002
 20
264.3791
 10
874.3539
 20
264.2767
 10
874.5022
 20
264.1631
 10
874.6453
 20
264.0382
 10
874.783
 20
263.9017
 10
874.9154
 20
263.7537
 10
875.0425
 20
263.594
 10
875.1663
 20
263.4194
 10
875.2827
 20
263.235
 10
875.3919
 20
263.0406
 10
875.4938
 20
262.8361
 10
875.5885
 20
262.6213
 10
875.6761
 20
262.396
 10
875.7565
 20
262.16
 10
875.8298
 20
261.9131
 10
875.8944
 20
261.6546
 10
875.9503
 20
261.38
 10
875.9977
 20
261.0892
 10
876.0364
 20
260.7822
 10
876.0666
 20
260.4589
 10
876.0881
 20
260.1192
 10
876.101
 20
259.7632
 10
876.1053
 20
259.3907
 10
876.1053
 20
249.68
 10
873.9772
 20
249.68
  0
LWPOLYLINE
  5
96
330
1F
100
AcDbEntity
  8
Layer 1
 62
     7
100
AcDbPolyline
 90
      190
 70
     1
 43
0.0
 10
894.8573
 20
249.68
 10
894.8573
 20
258.2212
 10
894.8562
 20
258.4726
 10
894.8529
 20
258.7194
 10
894.8473
 20
258.9616
 10
894.8397
 20
259.1992
 10
894.8299
 20
259.4323
 10
894.818
 20
259.6607
 10
894.8041
 20
259.8846
 10
894.7881
 20
260.1039
 10
894.77
 20
260.3146
 10
894.7468
 20
260.5136
 10
894.7188
 20
260.7008
 10
894.686
 20
260.8764
 10
894.6484
 20
261.0403
 10
894.6061
 20
261.1925
 10
894.5592
 20
261.3329
 10
894.5078
 20
261.4617
 10
894.448
 20
261.5894
 10
894.3821
 20
261.7083
 10
894.3103
 20
261.8185
 10
894.2324
 20
261.9199
 10
894.1485
 20
262.0125
 10
894.0587
 20
262.0965
 10
893.9629
 20
262.1718
 10
893.8612
 20
262.2385
 10
893.7531
 20
262.2975
 10
893.6354
 20
262.3488
 10
893.5083
 20
262.3923
 10
893.3717
 20
262.428
 10
893.2258
 20
262.4558
 10
893.0706
 20
262.4758
 10
892.9063
 20
262.4878
 10
892.7328
 20
262.4918
 10
892.5668
 20
262.4843
 10
892.3979
 20
262.462
 10
892.2263
 20
262.4248
 10
892.0518
 20
262.3728
 10
891.8745
 20
262.306
 10
891.6943
 20
262.2244
 10
891.5112
 20
262.1281
 10
891.3252
 20
262.0171
 10
891.136
 20
261.8938
 10
890.9452
 20
261.7569
 10
890.7528
 20
261.6065
 10
890.5588
 20
261.4426
 10
890.3632
 20
261.2654
 10
890.1661
 20
261.0749
 10
889.9674
 20
260.8712
 10
889.7673
 20
260.6543
 10
889.7983
 20
260.1222
 10
889.8126
 20
259.3858
 10
889.8126
 20
249.68
 10
887.6845
 20
249.68
 10
887.6845
 20
258.2212
 10
887.6834
 20
258.4726
 10
887.6802
 20
258.7194
 10
887.6748
 20
258.9616
 10
887.6672
 20
259.1992
 10
887.6574
 20
259.4323
 10
887.6453
 20
259.6607
 10
887.6309
 20
259.8846
 10
887.6142
 20
260.1039
 10
887.5963
 20
260.3146
 10
887.573
 20
260.5136
 10
887.5447
 20
260.7008
 10
887.5114
 20
260.8764
 10
887.4734
 20
261.0403
 10
887.4308
 20
261.1925
 10
887.3838
 20
261.3329
 10
887.3326
 20
261.4617
 10
887.2732
 20
261.5894
 10
887.2078
 20
261.7083
 10
887.1363
 20
261.8185
 10
887.0589
 20
261.9199
 10
886.9753
 20
262.0125
 10
886.8858
 20
262.0965
 10
886.7901
 20
262.1718
 10
886.6885
 20
262.2385
 10
886.5799
 20
262.2975
 10
886.4618
 20
262.3488
 10
886.3343
 20
262.3923
 10
886.1975
 20
262.428
 10
886.0514
 20
262.4558
 10
885.8962
 20
262.4758
 10
885.732
 20
262.4878
 10
885.5588
 20
262.4918
 10
885.3843
 20
262.484
 10
885.2079
 20
262.4605
 10
885.0295
 20
262.4213
 10
884.8492
 20
262.3662
 10
884.667
 20
262.2953
 10
884.4827
 20
262.2084
 10
884.2965
 20
262.1055
 10
884.1083
 20
261.9865
 10
883.9198
 20
261.8552
 10
883.7326
 20
261.7155
 10
883.5468
 20
261.5673
 10
883.3624
 20
261.4105
 10
883.1795
 20
261.245
 10
882.9981
 20
261.0708
 10
882.8182
 20
260.8878
 10
882.6399
 20
260.6959
 10
882.6399
 20
249.68
 10
880.5106
 20
249.68
 10
880.5106
 20
264.4417
 10
882.6399
 20
264.4417
 10
882.6399
 20
262.7988
 10
882.849
 20
263.0357
 10
883.0576
 20
263.259
 10
883.2658
 20
263.4688
 10
883.4734
 20
263.6649
 10
883.6804
 20
263.8472
 10
883.8869
 20
264.0157
 10
884.0928
 20
264.1703
 10
884.298
 20
264.3108
 10
884.5055
 20
264.4364
 10
884.7184
 20
264.5454
 10
884.9364
 20
264.6377
 10
885.1597
 20
264.7133
 10
885.388
 20
264.7721
 10
885.6213
 20
264.8142
 10
885.8596
 20
264.8395
 10
886.1028
 20
264.8479
 10
886.3781
 20
264.8386
 10
886.6458
 20
264.8107
 10
886.9058
 20
264.7642
 10
887.158
 20
264.6991
 10
887.4025
 20
264.6153
 10
887.6392
 20
264.5129
 10
887.868
 20
264.3919
 10
888.0889
 20
264.2521
 10
888.2981
 20
264.0912
 10
888.4946
 20
263.9066
 10
888.6782
 20
263.6982
 10
888.849
 20
263.466
 10
889.0068
 20
263.2098
 10
889.1516
 20
262.9297
 10
889.2835
 20
262.6256
 10
889.4023
 20
262.2973
 10
889.6436
 20
262.6013
 10
889.8829
 20
262.8864
 10
890.1203
 20
263.1527
 10
890.3558
 20
263.4001
 10
890.5898
 20
263.6284
 10
890.8222
 20
263.8376
 10
891.0534
 20
264.0276
 10
891.2834
 20
264.1983
 10
891.5156
 20
264.3505
 10
891.7525
 20
264.4825
 10
891.9942
 20
264.5941
 10
892.2406
 20
264.6855
 10
892.4918
 20
264.7565
 10
892.748
 20
264.8073
 10
893.0092
 20
264.8377
 10
893.2755
 20
264.8479
 10
893.4775
 20
264.8433
 10
893.6748
 20
264.8293
 10
893.8672
 20
264.8061
 10
894.0548
 20
264.7736
 10
894.2376
 20
264.7318
 10
894.4155
 20
264.6807
 10
894.5887
 20
264.6203
 10
894.7571
 20
264.5506
 10
894.921
 20
264.4704
 10
895.0797
 20
264.3791
 10
895.2334
 20
264.2767
 10
895.3818
 20
264.1631
 10
895.525
 20
264.0382
 10
895.6629
 20
263.9017
 10
895.7954
 20
263.7537
 10
895.9225
 20
263.594
 10
896.0459
 20
263.4194
 10
896.1621
 20
263.235
 10
896.271
 20
263.0406
 10
896.3728
 20
262.8361
 10
896.4674
 20
262.6213
 10
896.5549
 20
262.396
 10
896.6353
 20
262.16
 10
896.7086
 20
261.9131
 10
896.7739
 20
261.6546
 10
896.8304
 20
261.38
 10
896.878
 20
261.0892
 10
896.9168
 20
260.7822
 10
896.9469
 20
260.4589
 10
896.9683
 20
260.1192
 10
896.9811
 20
259.7632
 10
896.9854
 20
259.3907
 10
896.9854
 20
249.68
 10
894.8573
 20
249.68
  0
LWPOLYLINE
  5
97
330
1F
100
AcDbEntity
  8
Layer 1
 62
     7
370
    25
100
AcDbPolyline
 90
       78
 70
     1
 43
0.0
 10
1283.3604
 20
92.1757
 10
1283.3604
 20
101.1407
 10
1313.9824
 20
101.1953
 10
1316.4045
 20
101.0681
 10
1318.7568
 20
100.6196
 10
1320.9657
 20
99.851
 10
1322.9576
 20
98.7633
 10
1324.6588
 20
97.3578
 10
1325.9957
 20
95.6357
 10
1326.8948
 20
93.598
 10
1327.2823
 20
91.2461
 10
1328.0921
 20
81.9842
 10
1328.8861
 20
72.7739
 10
1329.6695
 20
63.5979
 10
1330.4476
 20
54.439
 10
1331.2257
 20
45.2801
 10
1332.0092
 20
36.104
 10
1332.8032
 20
26.8935
 10
1333.613
 20
17.6314
 10
1334.1957
 20
14.5274
 10
1335.2723
 20
11.7758
 10
1336.849
 20
9.3799
 10
1338.9319
 20
7.3429
 10
1341.527
 20
5.668
 10
1344.6406
 20
4.3586
 10
1348.2786
 20
3.4179
 10
1352.4473
 20
2.8492
 10
1364.6184
 20
2.2839
 10
1377.0902
 20
1.7933
 10
1389.76
 20
1.3797
 10
1402.5255
 20
1.0457
 10
1415.284
 20
0.7936
 10
1427.933
 20
0.6258
 10
1440.3701
 20
0.5448
 10
1452.4927
 20
0.553
 10
1462.4773
 20
-0.9776
 10
1465.3966
 20
-1.3209
 10
1468.2772
 20
-1.6443
 10
1471.1321
 20
-1.9544
 10
1473.974
 20
-2.258
 10
1476.816
 20
-2.5615
 10
1479.6708
 20
-2.8716
 10
1482.5515
 20
-3.195
 10
1485.4708
 20
-3.5383
 10
1485.5731
 20
-9.1777
 10
1469.2828
 20
-9.0795
 10
1452.9756
 20
-8.9098
 10
1436.6573
 20
-8.6926
 10
1420.3335
 20
-8.4516
 10
1404.0097
 20
-8.2106
 10
1387.6917
 20
-7.9933
 10
1371.385
 20
-7.8235
 10
1355.0953
 20
-7.725
 10
1346.4013
 20
-6.8915
 10
1339.1194
 20
-5.4638
 10
1333.1526
 20
-3.4761
 10
1328.4036
 20
-0.9623
 10
1324.7756
 20
2.0436
 10
1322.1713
 20
5.5074
 10
1320.4938
 20
9.3951
 10
1319.6459
 20
13.6727
 10
1318.9253
 20
22.9115
 10
1318.1837
 20
32.1503
 10
1317.4282
 20
41.3891
 10
1316.6656
 20
50.628
 10
1315.903
 20
59.8668
 10
1315.1473
 20
69.1056
 10
1314.4054
 20
78.3444
 10
1313.6845
 20
87.5832
 10
1313.5782
 20
88.4616
 10
1313.3736
 20
89.2981
 10
1313.0086
 20
90.0687
 10
1312.4212
 20
90.7494
 10
1311.5494
 20
91.3161
 10
1310.3312
 20
91.7451
 10
1308.7044
 20
92.0121
 10
1306.6072
 20
92.0934
 10
1283.3604
 20
92.1757
  0
LWPOLYLINE
  5
98
330
1F
100
AcDbEntity
  8
Layer 1
 62
     7
370
    25
100
AcDbPolyline
 90
       78
 70
     1
 43
0.0
 10
1737.7046
 20
92.1757
 10
1737.7046
 20
101.1407
 10
1707.0837
 20
101.1953
 10
1704.6615
 20
101.0681
 10
1702.3091
 20
100.6196
 10
1700.1001
 20
99.851
 10
1698.1082
 20
98.7633
 10
1696.4069
 20
97.3578
 10
1695.07
 20
95.6357
 10
1694.1711
 20
93.598
 10
1693.7838
 20
91.2461
 10
1692.974
 20
81.9842
 10
1692.18
 20
72.7739
 10
1691.3965
 20
63.5979
 10
1690.6184
 20
54.439
 10
1689.8403
 20
45.2801
 10
1689.0569
 20
36.104
 10
1688.2629
 20
26.8935
 10
1687.4531
 20
17.6314
 10
1686.8704
 20
14.5274
 10
1685.7938
 20
11.7758
 10
1684.2171
 20
9.3799
 10
1682.1343
 20
7.3429
 10
1679.5391
 20
5.668
 10
1676.4255
 20
4.3586
 10
1672.7875
 20
3.4179
 10
1668.6188
 20
2.8492
 10
1656.4479
 20
2.2839
 10
1643.9762
 20
1.7933
 10
1631.3062
 20
1.3797
 10
1618.5406
 20
1.0457
 10
1605.7819
 20
0.7936
 10
1593.1328
 20
0.6258
 10
1580.6957
 20
0.5448
 10
1568.5734
 20
0.553
 10
1558.5888
 20
-0.9776
 10
1555.6695
 20
-1.3209
 10
1552.7888
 20
-1.6443
 10
1549.934
 20
-1.9544
 10
1547.092
 20
-2.258
 10
1544.2501
 20
-2.5615
 10
1541.3952
 20
-2.8716
 10
1538.5146
 20
-3.195
 10
1535.5953
 20
-3.5383
 10
1535.493
 20
-9.1777
 10
1551.7833
 20
-9.0795
 10
1568.0903
 20
-8.9098
 10
1584.4085
 20
-8.6926
 10
1600.7322
 20
-8.4516
 10
1617.0559
 20
-8.2106
 10
1633.3739
 20
-7.9933
 10
1649.6807
 20
-7.8235
 10
1665.9707
 20
-7.725
 10
1674.6647
 20
-6.8915
 10
1681.9466
 20
-5.4638
 10
1687.9135
 20
-3.4761
 10
1692.6625
 20
-0.9623
 10
1696.2905
 20
2.0436
 10
1698.8948
 20
5.5074
 10
1700.5723
 20
9.3951
 10
1701.4202
 20
13.6727
 10
1702.1408
 20
22.9115
 10
1702.8824
 20
32.1503
 10
1703.6379
 20
41.3891
 10
1704.4004
 20
50.628
 10
1705.1628
 20
59.8668
 10
1705.9183
 20
69.1056
 10
1706.6599
 20
78.3444
 10
1707.3805
 20
87.5832
 10
1707.4871
 20
88.4616
 10
1707.692
 20
89.2981
 10
1708.0572
 20
90.0687
 10
1708.6447
 20
90.7494
 10
1709.5166
 20
91.3161
 10
1710.7349
 20
91.7451
 10
1712.3617
 20
92.0121
 10
1714.4589
 20
92.0934
 10
1737.7046
 20
92.1757
  0
LWPOLYLINE
  5
99
330
1F
100
AcDbEntity
  8
Layer 1
 62
     7
370
    25
100
AcDbPolyline
 90
        5
 70
     1
 43
0.0
 10
1474.4705
 20
-10.6784
 10
1485.5731
 20
-10.6784
 10
1485.5731
 20
-19.4802
 10
1474.4705
 20
-19.4802
 10
1474.4705
 20
-10.6784
  0
LWPOLYLINE
  5
9A
330
1F
100
AcDbEntity
  8
Layer 1
 62
     7
370
    25
100
AcDbPolyline
 90
        5
 70
     1
 43
0.0
 10
1535.493
 20
-10.6784
 10
1546.5956
 20
-10.6784
 10
1546.5956
 20
-19.4802
 10
1535.493
 20
-19.4802
 10
1535.493
 20
-10.6784
  0
LWPOLYLINE
  5
9B
330
1F
100
AcDbEntity
  8
Layer 1
 62
     7
370
    20
100
AcDbPolyline
 90
        2
 70
     0
 43
0.0
 10
1692.4265
 20
138.0439
 10
1692.4265
 20
107.5202
  0
LWPOLYLINE
  5
9C
330
1F
100
AcDbEntity
  8
Layer 1
 62
     7
370
    20
100
AcDbPolyline
 90
        2
 70
     0
 43
0.0
 10
1326.3758
 20
138.0439
 10
1326.3758
 20
107.5202
  0
LWPOLYLINE
  5
9D
330
1F
100
AcDbEntity
  8
Layer 1
 62
     7
370
    20
100
AcDbPolyline
 90
        2
 70
     0
 43
0.0
 10
1326.3758
 20
124.0493
 10
1692.4265
 20
124.0493
  0
LWPOLYLINE
  5
9E
330
1F
100
AcDbEntity
  8
Layer 1
 62
     7
100
AcDbPolyline
 90
      166
 70
     1
 43
0.0
 10
1481.801
 20
135.9217
 10
1481.7956
 20
135.7215
 10
1481.7792
 20
135.525
 10
1481.7519
 20
135.3323
 10
1481.7137
 20
135.1434
 10
1481.6644
 20
134.9581
 10
1481.6042
 20
134.7764
 10
1481.5329
 20
134.5984
 10
1481.4506
 20
134.4239
 10
1481.3585
 20
134.2545
 10
1481.2574
 20
134.0912
 10
1481.1473
 20
133.9338
 10
1481.0283
 20
133.7824
 10
1480.9005
 20
133.637
 10
1480.7639
 20
133.4975
 10
1480.6186
 20
133.364
 10
1480.4646
 20
133.2365
 10
1480.299
 20
133.112
 10
1480.124
 20
132.9944
 10
1479.9394
 20
132.8837
 10
1479.745
 20
132.7798
 10
1479.5409
 20
132.6827
 10
1479.3269
 20
132.5926
 10
1479.103
 20
132.5093
 10
1478.869
 20
132.4329
 10
1478.6262
 20
132.3648
 10
1478.3766
 20
132.3058
 10
1478.1201
 20
132.2558
 10
1477.8565
 20
132.215
 10
1477.5858
 20
132.1832
 10
1477.3077
 20
132.1605
 10
1477.0223
 20
132.1468
 10
1476.7293
 20
132.1423
 10
1476.457
 20
132.145
 10
1476.186
 20
132.1532
 10
1475.9162
 20
132.1669
 10
1475.6477
 20
132.1862
 10
1475.3803
 20
132.2109
 10
1475.114
 20
132.2412
 10
1474.8488
 20
132.2771
 10
1474.5847
 20
132.3186
 10
1474.325
 20
132.3643
 10
1474.0739
 20
132.4134
 10
1473.8316
 20
132.466
 10
1473.598
 20
132.522
 10
1473.3732
 20
132.5815
 10
1473.1574
 20
132.6446
 10
1472.9506
 20
132.7111
 10
1472.7528
 20
132.7812
 10
1472.7528
 20
134.3657
 10
1472.8957
 20
134.3657
 10
1473.5679
 20
134.0721
 10
1474.54
 20
133.7646
 10
1475.6401
 20
133.517
 10
1475.8984
 20
133.4785
 10
1476.1713
 20
133.4515
 10
1476.4592
 20
133.4355
 10
1476.7621
 20
133.4303
 10
1476.9153
 20
133.4328
 10
1477.0673
 20
133.4404
 10
1477.2181
 20
133.453
 10
1477.3679
 20
133.4706
 10
1477.5166
 20
133.4933
 10
1477.6642
 20
133.521
 10
1477.8108
 20
133.5536
 10
1477.9565
 20
133.5913
 10
1478.1004
 20
133.6346
 10
1478.2387
 20
133.6841
 10
1478.3714
 20
133.74
 10
1478.4988
 20
133.8021
 10
1478.6208
 20
133.8704
 10
1478.7375
 20
133.945
 10
1478.849
 20
134.0259
 10
1478.9554
 20
134.1129
 10
1479.0484
 20
134.1971
 10
1479.1352
 20
134.2846
 10
1479.2161
 20
134.3755
 10
1479.2911
 20
134.47
 10
1479.3604
 20
134.568
 10
1479.4241
 20
134.6697
 10
1479.4824
 20
134.7751
 10
1479.5353
 20
134.8844
 10
1479.5816
 20
134.9973
 10
1479.6217
 20
135.1151
 10
1479.6555
 20
135.2379
 10
1479.6831
 20
135.3656
 10
1479.7044
 20
135.4982
 10
1479.7197
 20
135.6357
 10
1479.7288
 20
135.7781
 10
1479.7318
 20
135.9254
 10
1479.7284
 20
136.0704
 10
1479.7182
 20
136.2087
 10
1479.7012
 20
136.3404
 10
1479.6774
 20
136.4653
 10
1479.6467
 20
136.5836
 10
1479.6091
 20
136.6953
 10
1479.5647
 20
136.8003
 10
1479.5134
 20
136.8987
 10
1479.4556
 20
136.9924
 10
1479.3915
 20
137.0818
 10
1479.3212
 20
137.1669
 10
1479.2446
 20
137.2478
 10
1479.1618
 20
137.3244
 10
1479.0728
 20
137.3969
 10
1478.9775
 20
137.4653
 10
1478.876
 20
137.5296
 10
1478.763
 20
137.598
 10
1478.6439
 20
137.6612
 10
1478.5186
 20
137.7191
 10
1478.3871
 20
137.7718
 10
1478.2495
 20
137.8193
 10
1478.1059
 20
137.8617
 10
1477.9563
 20
137.8989
 10
1477.8007
 20
137.931
 10
1477.4723
 20
137.9814
 10
1477.1259
 20
138.0176
 10
1476.7614
 20
138.0395
 10
1476.3788
 20
138.0468
 10
1476.1721
 20
138.0453
 10
1475.9651
 20
138.0409
 10
1475.7578
 20
138.0336
 10
1475.5503
 20
138.0232
 10
1475.3423
 20
138.0099
 10
1475.1339
 20
137.9936
 10
1474.9251
 20
137.9744
 10
1474.7157
 20
137.9521
 10
1473.3803
 20
137.77
 10
1473.3803
 20
143.5208
 10
1481.7176
 20
143.5208
 10
1481.7176
 20
142.2168
 10
1475.3442
 20
142.2168
 10
1475.3442
 20
139.2452
 10
1476.0671
 20
139.2882
 10
1476.7204
 20
139.3035
 10
1477.0055
 20
139.3012
 10
1477.2794
 20
139.2945
 10
1477.5421
 20
139.2833
 10
1477.7937
 20
139.2676
 10
1478.0344
 20
139.2475
 10
1478.2641
 20
139.223
 10
1478.4831
 20
139.194
 10
1478.6913
 20
139.1607
 10
1478.8914
 20
139.121
 10
1479.0897
 20
139.073
 10
1479.2862
 20
139.0165
 10
1479.4808
 20
138.9517
 10
1479.6736
 20
138.8784
 10
1479.8646
 20
138.7967
 10
1480.0538
 20
138.7064
 10
1480.2412
 20
138.6077
 10
1480.4241
 20
138.4994
 10
1480.5961
 20
138.3848
 10
1480.757
 20
138.2637
 10
1480.9071
 20
138.1362
 10
1481.0462
 20
138.0023
 10
1481.1743
 20
137.8618
 10
1481.2916
 20
137.7146
 10
1481.3979
 20
137.5609
 10
1481.4925
 20
137.3976
 10
1481.5744
 20
137.2224
 10
1481.6437
 20
137.0354
 10
1481.7004
 20
136.8364
 10
1481.7444
 20
136.6256
 10
1481.7759
 20
136.4028
 10
1481.7947
 20
136.1682
 10
1481.801
 20
135.9217
  0
LWPOLYLINE
  5
9F
330
1F
100
AcDbEntity
  8
Layer 1
 62
     7
100
AcDbPolyline
 90
      131
 70
     1
 43
0.0
 10
1493.3584
 20
132.3717
 10
1483.9934
 20
132.3717
 10
1483.9934
 20
133.9439
 10
1485.9027
 20
135.2909
 10
1486.1269
 20
135.4527
 10
1486.3496
 20
135.6162
 10
1486.5709
 20
135.7815
 10
1486.7908
 20
135.9485
 10
1487.0095
 20
136.1171
 10
1487.2269
 20
136.2874
 10
1487.4431
 20
136.4593
 10
1487.6582
 20
136.6328
 10
1488.0748
 20
136.9738
 10
1488.4571
 20
137.2974
 10
1488.8051
 20
137.6035
 10
1489.1186
 20
137.8923
 10
1489.3976
 20
138.1637
 10
1489.6421
 20
138.4177
 10
1489.852
 20
138.6544
 10
1490.0272
 20
138.8737
 10
1490.1753
 20
139.0847
 10
1490.3038
 20
139.2977
 10
1490.4127
 20
139.5125
 10
1490.5018
 20
139.7292
 10
1490.5713
 20
139.9478
 10
1490.6209
 20
140.1683
 10
1490.6507
 20
140.3906
 10
1490.6607
 20
140.6148
 10
1490.6577
 20
140.7289
 10
1490.6485
 20
140.8394
 10
1490.6332
 20
140.9465
 10
1490.6117
 20
141.0501
 10
1490.5838
 20
141.1503
 10
1490.5497
 20
141.2471
 10
1490.5091
 20
141.3406
 10
1490.4621
 20
141.4307
 10
1490.4102
 20
141.5168
 10
1490.3534
 20
141.5991
 10
1490.292
 20
141.6776
 10
1490.2258
 20
141.7524
 10
1490.155
 20
141.8232
 10
1490.0795
 20
141.8903
 10
1489.9995
 20
141.9535
 10
1489.915
 20
142.0128
 10
1489.7299
 20
142.1187
 10
1489.5295
 20
142.2101
 10
1489.3146
 20
142.2873
 10
1489.0859
 20
142.3501
 10
1488.8459
 20
142.3991
 10
1488.5946
 20
142.4344
 10
1488.3315
 20
142.4558
 10
1488.0563
 20
142.463
 10
1487.786
 20
142.4567
 10
1487.5128
 20
142.4377
 10
1487.2369
 20
142.4058
 10
1486.9582
 20
142.361
 10
1486.6821
 20
142.3075
 10
1486.4123
 20
142.2477
 10
1486.1489
 20
142.1816
 10
1485.8918
 20
142.1097
 10
1485.6771
 20
142.0433
 10
1485.4676
 20
141.9701
 10
1485.2629
 20
141.8901
 10
1485.0627
 20
141.8037
 10
1484.4193
 20
141.497
 10
1484.3071
 20
141.497
 10
1484.3071
 20
143.0786
 10
1484.473
 20
143.1367
 10
1484.6542
 20
143.1942
 10
1484.8508
 20
143.2511
 10
1485.0628
 20
143.3075
 10
1485.2904
 20
143.3637
 10
1485.5334
 20
143.4195
 10
1485.7921
 20
143.4753
 10
1486.0665
 20
143.531
 10
1486.3468
 20
143.5823
 10
1486.6232
 20
143.6268
 10
1486.8958
 20
143.6646
 10
1487.1646
 20
143.6956
 10
1487.4296
 20
143.7198
 10
1487.6908
 20
143.7371
 10
1487.9484
 20
143.7475
 10
1488.2023
 20
143.751
 10
1488.7179
 20
143.7381
 10
1489.205
 20
143.6993
 10
1489.6636
 20
143.6347
 10
1490.0936
 20
143.5443
 10
1490.4952
 20
143.4282
 10
1490.8682
 20
143.2863
 10
1491.2126
 20
143.1188
 10
1491.5285
 20
142.9256
 10
1491.8099
 20
142.7094
 10
1492.0538
 20
142.475
 10
1492.2603
 20
142.2222
 10
1492.4293
 20
141.9512
 10
1492.5608
 20
141.6619
 10
1492.6547
 20
141.3543
 10
1492.7111
 20
141.0283
 10
1492.7299
 20
140.684
 10
1492.7266
 20
140.5225
 10
1492.7167
 20
140.3642
 10
1492.7003
 20
140.2091
 10
1492.6773
 20
140.0571
 10
1492.6478
 20
139.9083
 10
1492.6118
 20
139.7626
 10
1492.5693
 20
139.62
 10
1492.5204
 20
139.4805
 10
1492.4658
 20
139.3435
 10
1492.4063
 20
139.209
 10
1492.3419
 20
139.077
 10
1492.2727
 20
138.9475
 10
1492.1986
 20
138.8206
 10
1492.1196
 20
138.6963
 10
1492.036
 20
138.5746
 10
1491.9475
 20
138.4555
 10
1491.7491
 20
138.2123
 10
1491.531
 20
137.97
 10
1491.2935
 20
137.729
 10
1491.037
 20
137.4895
 10
1489.92
 20
136.5483
 10
1489.676
 20
136.3567
 10
1489.4256
 20
136.1631
 10
1489.1687
 20
135.9676
 10
1488.9052
 20
135.7703
 10
1488.6351
 20
135.571
 10
1488.3581
 20
135.3698
 10
1488.0742
 20
135.1666
 10
1487.7833
 20
134.9616
 10
1485.9027
 20
133.6597
 10
1493.3584
 20
133.6597
 10
1493.3584
 20
132.3717
  0
LWPOLYLINE
  5
A0
330
1F
100
AcDbEntity
  8
Layer 1
 62
     7
100
AcDbPolyline
 90
      166
 70
     1
 43
0.0
 10
1504.6188
 20
135.9217
 10
1504.6133
 20
135.7215
 10
1504.5967
 20
135.525
 10
1504.5692
 20
135.3323
 10
1504.5307
 20
135.1434
 10
1504.4813
 20
134.9581
 10
1504.4211
 20
134.7764
 10
1504.3501
 20
134.5984
 10
1504.2683
 20
134.4239
 10
1504.1763
 20
134.2545
 10
1504.0752
 20
134.0912
 10
1503.965
 20
133.9338
 10
1503.846
 20
133.7824
 10
1503.718
 20
133.637
 10
1503.5812
 20
133.4975
 10
1503.4357
 20
133.364
 10
1503.2814
 20
133.2365
 10
1503.1162
 20
133.112
 10
1502.9414
 20
132.9944
 10
1502.7569
 20
132.8837
 10
1502.5627
 20
132.7798
 10
1502.3587
 20
132.6827
 10
1502.1447
 20
132.5926
 10
1501.9208
 20
132.5093
 10
1501.6868
 20
132.4329
 10
1501.444
 20
132.3648
 10
1501.1943
 20
132.3058
 10
1500.9376
 20
132.2558
 10
1500.674
 20
132.215
 10
1500.4031
 20
132.1832
 10
1500.1251
 20
132.1605
 10
1499.8398
 20
132.1468
 10
1499.5471
 20
132.1423
 10
1499.2748
 20
132.145
 10
1499.0038
 20
132.1532
 10
1498.734
 20
132.1669
 10
1498.4653
 20
132.1862
 10
1498.1978
 20
132.2109
 10
1497.9314
 20
132.2412
 10
1497.6659
 20
132.2771
 10
1497.4015
 20
132.3186
 10
1497.1421
 20
132.3643
 10
1496.8913
 20
132.4134
 10
1496.6491
 20
132.466
 10
1496.4155
 20
132.522
 10
1496.1908
 20
132.5815
 10
1495.9748
 20
132.6446
 10
1495.7677
 20
132.7111
 10
1495.5696
 20
132.7812
 10
1495.5696
 20
134.3657
 10
1495.7135
 20
134.3657
 10
1496.3857
 20
134.0721
 10
1497.3558
 20
133.7646
 10
1498.4579
 20
133.517
 10
1498.716
 20
133.4785
 10
1498.9886
 20
133.4515
 10
1499.2761
 20
133.4355
 10
1499.5789
 20
133.4303
 10
1499.7323
 20
133.4328
 10
1499.8845
 20
133.4404
 10
1500.0354
 20
133.453
 10
1500.1852
 20
133.4706
 10
1500.3338
 20
133.4933
 10
1500.4815
 20
133.521
 10
1500.6283
 20
133.5536
 10
1500.7743
 20
133.5913
 10
1500.9182
 20
133.6346
 10
1501.0565
 20
133.6841
 10
1501.1892
 20
133.74
 10
1501.3166
 20
133.8021
 10
1501.4386
 20
133.8704
 10
1501.5553
 20
133.945
 10
1501.6668
 20
134.0259
 10
1501.7732
 20
134.1129
 10
1501.8662
 20
134.1971
 10
1501.953
 20
134.2846
 10
1502.0339
 20
134.3755
 10
1502.1089
 20
134.47
 10
1502.1782
 20
134.568
 10
1502.2419
 20
134.6697
 10
1502.3001
 20
134.7751
 10
1502.353
 20
134.8844
 10
1502.3994
 20
134.9973
 10
1502.4394
 20
135.1151
 10
1502.4733
 20
135.2379
 10
1502.5008
 20
135.3656
 10
1502.5222
 20
135.4982
 10
1502.5375
 20
135.6357
 10
1502.5466
 20
135.7781
 10
1502.5496
 20
135.9254
 10
1502.5462
 20
136.0704
 10
1502.536
 20
136.2087
 10
1502.519
 20
136.3404
 10
1502.4952
 20
136.4653
 10
1502.4645
 20
136.5836
 10
1502.4269
 20
136.6953
 10
1502.3825
 20
136.8003
 10
1502.3312
 20
136.8987
 10
1502.2733
 20
136.9924
 10
1502.2091
 20
137.0818
 10
1502.1387
 20
137.1669
 10
1502.062
 20
137.2478
 10
1501.9791
 20
137.3244
 10
1501.8901
 20
137.3969
 10
1501.795
 20
137.4653
 10
1501.6938
 20
137.5296
 10
1501.5808
 20
137.598
 10
1501.4617
 20
137.6612
 10
1501.3363
 20
137.7191
 10
1501.2048
 20
137.7718
 10
1501.0671
 20
137.8193
 10
1500.9233
 20
137.8617
 10
1500.7734
 20
137.8989
 10
1500.6175
 20
137.931
 10
1500.2896
 20
137.9814
 10
1499.9435
 20
138.0176
 10
1499.5792
 20
138.0395
 10
1499.1966
 20
138.0468
 10
1498.9898
 20
138.0453
 10
1498.7828
 20
138.0409
 10
1498.5754
 20
138.0336
 10
1498.3677
 20
138.0232
 10
1498.1596
 20
138.0099
 10
1497.9513
 20
137.9936
 10
1497.7426
 20
137.9744
 10
1497.5335
 20
137.9521
 10
1496.1981
 20
137.77
 10
1496.1981
 20
143.5208
 10
1504.5354
 20
143.5208
 10
1504.5354
 20
142.2168
 10
1498.162
 20
142.2168
 10
1498.162
 20
139.2452
 10
1498.8849
 20
139.2882
 10
1499.5382
 20
139.3035
 10
1499.8233
 20
139.3012
 10
1500.0972
 20
139.2945
 10
1500.3599
 20
139.2833
 10
1500.6115
 20
139.2676
 10
1500.8522
 20
139.2475
 10
1501.0819
 20
139.223
 10
1501.3009
 20
139.194
 10
1501.5091
 20
139.1607
 10
1501.7092
 20
139.121
 10
1501.9073
 20
139.073
 10
1502.1036
 20
139.0165
 10
1502.2981
 20
138.9517
 10
1502.4907
 20
138.8784
 10
1502.6815
 20
138.7967
 10
1502.8706
 20
138.7064
 10
1503.058
 20
138.6077
 10
1503.2412
 20
138.4994
 10
1503.4134
 20
138.3848
 10
1503.5746
 20
138.2637
 10
1503.7247
 20
138.1362
 10
1503.8639
 20
138.0023
 10
1503.9921
 20
137.8618
 10
1504.1093
 20
137.7146
 10
1504.2157
 20
137.5609
 10
1504.3103
 20
137.3976
 10
1504.3922
 20
137.2224
 10
1504.4615
 20
137.0354
 10
1504.5182
 20
136.8364
 10
1504.5622
 20
136.6256
 10
1504.5937
 20
136.4028
 10
1504.6125
 20
136.1682
 10
1504.6188
 20
135.9217
  0
LWPOLYLINE
  5
A1
330
1F
100
AcDbEntity
  8
Layer 1
 62
     7
100
AcDbPolyline
 90
      174
 70
     1
 43
0.0
 10
1526.5728
 20
132.3717
 10
1526.5728
 20
137.2076
 10
1526.569
 20
137.4902
 10
1526.5576
 20
137.7621
 10
1526.5384
 20
138.0232
 10
1526.5112
 20
138.2734
 10
1526.4941
 20
138.3927
 10
1526.4727
 20
138.5054
 10
1526.4471
 20
138.6114
 10
1526.4171
 20
138.7109
 10
1526.383
 20
138.8037
 10
1526.3448
 20
138.8901
 10
1526.3025
 20
138.97
 10
1526.2561
 20
139.0434
 10
1526.2026
 20
139.1155
 10
1526.1434
 20
139.1826
 10
1526.0786
 20
139.2448
 10
1526.0084
 20
139.3021
 10
1525.9329
 20
139.3545
 10
1525.8521
 20
139.4021
 10
1525.7662
 20
139.4448
 10
1525.6752
 20
139.4827
 10
1525.5768
 20
139.516
 10
1525.4701
 20
139.545
 10
1525.355
 20
139.5695
 10
1525.2315
 20
139.5896
 10
1524.9596
 20
139.6165
 10
1524.6545
 20
139.6255
 10
1524.5041
 20
139.6213
 10
1524.3514
 20
139.6087
 10
1524.1962
 20
139.5877
 10
1524.0387
 20
139.5584
 10
1523.8786
 20
139.5207
 10
1523.716
 20
139.4746
 10
1523.5506
 20
139.4202
 10
1523.3826
 20
139.3574
 10
1523.2117
 20
139.2875
 10
1523.0393
 20
139.2099
 10
1522.8655
 20
139.1248
 10
1522.6902
 20
139.032
 10
1522.5135
 20
138.9317
 10
1522.3353
 20
138.824
 10
1522.1557
 20
138.7087
 10
1521.9747
 20
138.5859
 10
1522.0025
 20
138.2843
 10
1522.0164
 20
137.8669
 10
1522.0164
 20
132.3717
 10
1520.0932
 20
132.3717
 10
1520.0932
 20
137.2076
 10
1520.0894
 20
137.4902
 10
1520.078
 20
137.7621
 10
1520.0588
 20
138.0232
 10
1520.0316
 20
138.2734
 10
1520.0149
 20
138.3927
 10
1519.9937
 20
138.5054
 10
1519.9682
 20
138.6114
 10
1519.9383
 20
138.7109
 10
1519.9041
 20
138.8037
 10
1519.8657
 20
138.8901
 10
1519.8231
 20
138.97
 10
1519.7764
 20
139.0434
 10
1519.7229
 20
139.1155
 10
1519.6639
 20
139.1826
 10
1519.5992
 20
139.2448
 10
1519.5291
 20
139.3021
 10
1519.4535
 20
139.3545
 10
1519.3725
 20
139.4021
 10
1519.2862
 20
139.4448
 10
1519.1946
 20
139.4827
 10
1519.0968
 20
139.516
 10
1518.9903
 20
139.545
 10
1518.8752
 20
139.5695
 10
1518.7516
 20
139.5896
 10
1518.4793
 20
139.6165
 10
1518.1739
 20
139.6255
 10
1518.0166
 20
139.6211
 10
1517.8576
 20
139.6077
 10
1517.6967
 20
139.5855
 10
1517.534
 20
139.5543
 10
1517.3694
 20
139.5142
 10
1517.2029
 20
139.4651
 10
1517.0345
 20
139.407
 10
1516.8642
 20
139.3399
 10
1516.525
 20
139.1861
 10
1516.1908
 20
139.0129
 10
1515.8614
 20
138.8202
 10
1515.5367
 20
138.6077
 10
1515.5367
 20
132.3717
 10
1513.6145
 20
132.3717
 10
1513.6145
 20
140.7292
 10
1515.5367
 20
140.7292
 10
1515.5367
 20
139.7989
 10
1515.7259
 20
139.9335
 10
1515.9145
 20
140.0602
 10
1516.1026
 20
140.179
 10
1516.2901
 20
140.2901
 10
1516.4772
 20
140.3932
 10
1516.6638
 20
140.4885
 10
1516.8501
 20
140.576
 10
1517.036
 20
140.6556
 10
1517.2238
 20
140.7266
 10
1517.4161
 20
140.7882
 10
1517.6131
 20
140.8404
 10
1517.8146
 20
140.8832
 10
1518.0206
 20
140.9165
 10
1518.2311
 20
140.9403
 10
1518.446
 20
140.9546
 10
1518.6654
 20
140.9594
 10
1518.9141
 20
140.9541
 10
1519.1559
 20
140.9384
 10
1519.3908
 20
140.912
 10
1519.6187
 20
140.8752
 10
1519.8396
 20
140.8277
 10
1520.0534
 20
140.7698
 10
1520.2601
 20
140.7012
 10
1520.4595
 20
140.6221
 10
1520.6488
 20
140.531
 10
1520.8266
 20
140.4265
 10
1520.9927
 20
140.3085
 10
1521.1472
 20
140.1771
 10
1521.29
 20
140.0322
 10
1521.4211
 20
139.8737
 10
1521.5405
 20
139.7017
 10
1521.648
 20
139.5162
 10
1521.8651
 20
139.688
 10
1522.0807
 20
139.8493
 10
1522.2948
 20
139.9999
 10
1522.5075
 20
140.1399
 10
1522.7187
 20
140.2691
 10
1522.9285
 20
140.3875
 10
1523.1369
 20
140.495
 10
1523.3439
 20
140.5915
 10
1523.5538
 20
140.678
 10
1523.7679
 20
140.7529
 10
1523.9863
 20
140.8161
 10
1524.2091
 20
140.8678
 10
1524.4363
 20
140.9079
 10
1524.668
 20
140.9365
 10
1524.9042
 20
140.9537
 10
1525.145
 20
140.9594
 10
1525.3269
 20
140.9568
 10
1525.5048
 20
140.949
 10
1525.6785
 20
140.9359
 10
1525.848
 20
140.9176
 10
1526.0132
 20
140.894
 10
1526.1741
 20
140.865
 10
1526.3305
 20
140.8307
 10
1526.4825
 20
140.7911
 10
1526.6305
 20
140.7459
 10
1526.7738
 20
140.6944
 10
1526.9124
 20
140.6366
 10
1527.0462
 20
140.5723
 10
1527.1752
 20
140.5014
 10
1527.2995
 20
140.424
 10
1527.4191
 20
140.3399
 10
1527.5339
 20
140.2491
 10
1527.6457
 20
140.1505
 10
1527.7511
 20
140.0463
 10
1527.85
 20
139.9364
 10
1527.9424
 20
139.8207
 10
1528.0281
 20
139.6992
 10
1528.1073
 20
139.5717
 10
1528.1799
 20
139.4382
 10
1528.2458
 20
139.2984
 10
1528.3041
 20
139.1521
 10
1528.3547
 20
138.9966
 10
1528.3976
 20
138.832
 10
1528.4327
 20
138.6581
 10
1528.46
 20
138.475
 10
1528.4795
 20
138.2826
 10
1528.4912
 20
138.0809
 10
1528.4951
 20
137.8698
 10
1528.4951
 20
132.3717
 10
1526.5728
 20
132.3717
  0
LWPOLYLINE
  5
A2
330
1F
100
AcDbEntity
  8
Layer 1
 62
     7
100
AcDbPolyline
 90
      174
 70
     1
 43
0.0
 10
1544.1253
 20
132.3717
 10
1544.1253
 20
137.2076
 10
1544.1215
 20
137.4902
 10
1544.1101
 20
137.7621
 10
1544.0909
 20
138.0232
 10
1544.0637
 20
138.2734
 10
1544.0472
 20
138.3927
 10
1544.0261
 20
138.5054
 10
1544.0005
 20
138.6114
 10
1543.9705
 20
138.7109
 10
1543.9363
 20
138.8037
 10
1543.898
 20
138.8901
 10
1543.8557
 20
138.97
 10
1543.8095
 20
139.0434
 10
1543.7558
 20
139.1155
 10
1543.6965
 20
139.1826
 10
1543.6319
 20
139.2448
 10
1543.5618
 20
139.3021
 10
1543.4863
 20
139.3545
 10
1543.4055
 20
139.4021
 10
1543.3192
 20
139.4448
 10
1543.2277
 20
139.4827
 10
1543.1293
 20
139.516
 10
1543.0224
 20
139.545
 10
1542.9072
 20
139.5695
 10
1542.7836
 20
139.5896
 10
1542.5117
 20
139.6165
 10
1542.207
 20
139.6255
 10
1542.0571
 20
139.6213
 10
1541.9046
 20
139.6087
 10
1541.7496
 20
139.5877
 10
1541.5919
 20
139.5584
 10
1541.4316
 20
139.5207
 10
1541.2687
 20
139.4746
 10
1541.1032
 20
139.4202
 10
1540.9351
 20
139.3574
 10
1540.7642
 20
139.2875
 10
1540.5918
 20
139.2099
 10
1540.418
 20
139.1248
 10
1540.2428
 20
139.032
 10
1540.0661
 20
138.9317
 10
1539.8881
 20
138.824
 10
1539.7088
 20
138.7087
 10
1539.5281
 20
138.5859
 10
1539.5549
 20
138.2843
 10
1539.5698
 20
137.8669
 10
1539.5698
 20
132.3717
 10
1537.6466
 20
132.3717
 10
1537.6466
 20
137.2076
 10
1537.6427
 20
137.4902
 10
1537.6309
 20
137.7621
 10
1537.6114
 20
138.0232
 10
1537.584
 20
138.2734
 10
1537.5676
 20
138.3927
 10
1537.5465
 20
138.5054
 10
1537.5211
 20
138.6114
 10
1537.4913
 20
138.7109
 10
1537.4573
 20
138.8037
 10
1537.4191
 20
138.8901
 10
1537.377
 20
138.97
 10
1537.3309
 20
139.0434
 10
1537.277
 20
139.1155
 10
1537.2176
 20
139.1826
 10
1537.1527
 20
139.2448
 10
1537.0824
 20
139.3021
 10
1537.0067
 20
139.3545
 10
1536.9259
 20
139.4021
 10
1536.84
 20
139.4448
 10
1536.749
 20
139.4827
 10
1536.6505
 20
139.516
 10
1536.5436
 20
139.545
 10
1536.4282
 20
139.5695
 10
1536.3045
 20
139.5896
 10
1536.0322
 20
139.6165
 10
1535.7273
 20
139.6255
 10
1535.5697
 20
139.6211
 10
1535.4105
 20
139.6077
 10
1535.2496
 20
139.5855
 10
1535.0869
 20
139.5543
 10
1534.9223
 20
139.5142
 10
1534.7558
 20
139.4651
 10
1534.5873
 20
139.407
 10
1534.4167
 20
139.3399
 10
1534.0779
 20
139.1861
 10
1533.7439
 20
139.0129
 10
1533.4149
 20
138.8202
 10
1533.0912
 20
138.6077
 10
1533.0912
 20
132.3717
 10
1531.1669
 20
132.3717
 10
1531.1669
 20
140.7292
 10
1533.0912
 20
140.7292
 10
1533.0912
 20
139.7989
 10
1533.2801
 20
139.9335
 10
1533.4684
 20
140.0602
 10
1533.6562
 20
140.179
 10
1533.8436
 20
140.2901
 10
1534.0304
 20
140.3932
 10
1534.2169
 20
140.4885
 10
1534.4029
 20
140.576
 10
1534.5885
 20
140.6556
 10
1534.7762
 20
140.7266
 10
1534.9686
 20
140.7882
 10
1535.1655
 20
140.8404
 10
1535.367
 20
140.8832
 10
1535.573
 20
140.9165
 10
1535.7835
 20
140.9403
 10
1535.9984
 20
140.9546
 10
1536.2178
 20
140.9594
 10
1536.4665
 20
140.9541
 10
1536.7083
 20
140.9384
 10
1536.9432
 20
140.912
 10
1537.1711
 20
140.8752
 10
1537.392
 20
140.8277
 10
1537.6058
 20
140.7698
 10
1537.8125
 20
140.7012
 10
1538.012
 20
140.6221
 10
1538.2013
 20
140.531
 10
1538.3791
 20
140.4265
 10
1538.5452
 20
140.3085
 10
1538.6996
 20
140.1771
 10
1538.8423
 20
140.0322
 10
1538.9732
 20
139.8737
 10
1539.0923
 20
139.7017
 10
1539.1995
 20
139.5162
 10
1539.4172
 20
139.688
 10
1539.6332
 20
139.8493
 10
1539.8475
 20
139.9999
 10
1540.0603
 20
140.1399
 10
1540.2716
 20
140.2691
 10
1540.4815
 20
140.3875
 10
1540.6901
 20
140.495
 10
1540.8973
 20
140.5915
 10
1541.1072
 20
140.678
 10
1541.3213
 20
140.7529
 10
1541.5397
 20
140.8161
 10
1541.7625
 20
140.8678
 10
1541.9897
 20
140.9079
 10
1542.2214
 20
140.9365
 10
1542.4577
 20
140.9537
 10
1542.6985
 20
140.9594
 10
1542.8801
 20
140.9568
 10
1543.0577
 20
140.949
 10
1543.2312
 20
140.9359
 10
1543.4006
 20
140.9176
 10
1543.5657
 20
140.894
 10
1543.7266
 20
140.865
 10
1543.883
 20
140.8307
 10
1544.0349
 20
140.7911
 10
1544.183
 20
140.7459
 10
1544.3265
 20
140.6944
 10
1544.4653
 20
140.6366
 10
1544.5994
 20
140.5723
 10
1544.7285
 20
140.5014
 10
1544.8528
 20
140.424
 10
1544.9721
 20
140.3399
 10
1545.0864
 20
140.2491
 10
1545.1982
 20
140.1505
 10
1545.3035
 20
140.0463
 10
1545.4022
 20
139.9364
 10
1545.4945
 20
139.8207
 10
1545.5802
 20
139.6992
 10
1545.6594
 20
139.5717
 10
1545.7321
 20
139.4382
 10
1545.7983
 20
139.2984
 10
1545.8572
 20
139.1521
 10
1545.908
 20
138.9966
 10
1545.9509
 20
138.832
 10
1545.9858
 20
138.6581
 10
1546.0129
 20
138.475
 10
1546.0322
 20
138.2826
 10
1546.0437
 20
138.0809
 10
1546.0475
 20
137.8698
 10
1546.0475
 20
132.3717
 10
1544.1253
 20
132.3717
  0
LWPOLYLINE
  5
A3
330
1F
100
AcDbEntity
  8
Layer 1
  6
New Line1
 62
     7
370
    20
100
AcDbPolyline
 90
        2
 70
     0
 43
0.0
 10
1509.4006
 20
115.5258
 10
1509.4006
 20
15.3752
  0
LWPOLYLINE
  5
A5
330
1F
100
AcDbEntity
  8
Layer 1
 62
     7
100
AcDbPolyline
 90
      131
 70
     1
 43
0.0
 10
1532.9492
 20
59.8759
 10
1523.5832
 20
59.8759
 10
1523.5832
 20
61.4473
 10
1525.4935
 20
62.7951
 10
1525.7174
 20
62.9569
 10
1525.9401
 20
63.1203
 10
1526.1616
 20
63.2855
 10
1526.3818
 20
63.4523
 10
1526.6008
 20
63.6208
 10
1526.8185
 20
63.791
 10
1527.0349
 20
63.9628
 10
1527.25
 20
64.1362
 10
1527.666
 20
64.4772
 10
1528.0478
 20
64.8008
 10
1528.3954
 20
65.107
 10
1528.7086
 20
65.3958
 10
1528.9875
 20
65.6673
 10
1529.2319
 20
65.9215
 10
1529.4418
 20
66.1584
 10
1529.617
 20
66.3779
 10
1529.7652
 20
66.5889
 10
1529.8939
 20
66.8018
 10
1530.0031
 20
67.0165
 10
1530.0926
 20
67.2331
 10
1530.1624
 20
67.4515
 10
1530.2124
 20
67.6719
 10
1530.2425
 20
67.8941
 10
1530.2525
 20
68.1183
 10
1530.2494
 20
68.2326
 10
1530.2402
 20
68.3433
 10
1530.2248
 20
68.4505
 10
1530.2031
 20
68.5541
 10
1530.1752
 20
68.6543
 10
1530.1411
 20
68.751
 10
1530.1006
 20
68.8443
 10
1530.0539
 20
68.9342
 10
1530.0019
 20
69.0203
 10
1529.945
 20
69.1026
 10
1529.8832
 20
69.1811
 10
1529.8166
 20
69.2559
 10
1529.7454
 20
69.3267
 10
1529.6697
 20
69.3938
 10
1529.5894
 20
69.457
 10
1529.5048
 20
69.5163
 10
1529.32
 20
69.6222
 10
1529.1203
 20
69.7137
 10
1528.9061
 20
69.7911
 10
1528.6778
 20
69.8543
 10
1528.4368
 20
69.9029
 10
1528.1854
 20
69.938
 10
1527.9222
 20
69.9593
 10
1527.6461
 20
69.9665
 10
1527.3753
 20
69.9602
 10
1527.1019
 20
69.9412
 10
1526.8261
 20
69.9093
 10
1526.548
 20
69.8645
 10
1526.272
 20
69.811
 10
1526.0025
 20
69.7512
 10
1525.7391
 20
69.6851
 10
1525.4816
 20
69.6132
 10
1525.2676
 20
69.5469
 10
1525.0588
 20
69.4739
 10
1524.8545
 20
69.3939
 10
1524.6545
 20
69.3072
 10
1524.0091
 20
69.0005
 10
1523.8979
 20
69.0005
 10
1523.8979
 20
70.5828
 10
1524.0638
 20
70.6407
 10
1524.245
 20
70.6981
 10
1524.4416
 20
70.7549
 10
1524.6536
 20
70.8114
 10
1524.8812
 20
70.8675
 10
1525.1243
 20
70.9234
 10
1525.383
 20
70.979
 10
1525.6574
 20
71.0345
 10
1525.9376
 20
71.086
 10
1526.2139
 20
71.1306
 10
1526.4863
 20
71.1684
 10
1526.7549
 20
71.1994
 10
1527.0197
 20
71.2235
 10
1527.2808
 20
71.2407
 10
1527.5382
 20
71.2511
 10
1527.7921
 20
71.2545
 10
1528.3082
 20
71.2416
 10
1528.7955
 20
71.2029
 10
1529.254
 20
71.1384
 10
1529.6838
 20
71.0481
 10
1530.0851
 20
70.932
 10
1530.4579
 20
70.7901
 10
1530.8022
 20
70.6225
 10
1531.1183
 20
70.4291
 10
1531.4003
 20
70.2129
 10
1531.6446
 20
69.9786
 10
1531.8513
 20
69.7259
 10
1532.0204
 20
69.455
 10
1532.1518
 20
69.1657
 10
1532.2456
 20
68.8581
 10
1532.3019
 20
68.532
 10
1532.3207
 20
68.1875
 10
1532.3174
 20
68.026
 10
1532.3077
 20
67.8677
 10
1532.2914
 20
67.7125
 10
1532.2686
 20
67.5606
 10
1532.2393
 20
67.4118
 10
1532.2034
 20
67.2661
 10
1532.1611
 20
67.1235
 10
1532.1122
 20
66.984
 10
1532.0573
 20
66.847
 10
1531.9975
 20
66.7126
 10
1531.9329
 20
66.5807
 10
1531.8635
 20
66.4513
 10
1531.7892
 20
66.3244
 10
1531.7101
 20
66.2001
 10
1531.6261
 20
66.0783
 10
1531.5373
 20
65.959
 10
1531.3392
 20
65.7159
 10
1531.1215
 20
65.4738
 10
1530.8841
 20
65.2329
 10
1530.6268
 20
64.993
 10
1529.5098
 20
64.0525
 10
1529.2658
 20
63.8606
 10
1529.0154
 20
63.6668
 10
1528.7585
 20
63.4712
 10
1528.4951
 20
63.2738
 10
1528.2249
 20
63.0744
 10
1527.948
 20
62.8732
 10
1527.6641
 20
62.6701
 10
1527.3731
 20
62.4651
 10
1525.4935
 20
61.1639
 10
1532.9492
 20
61.1639
 10
1532.9492
 20
59.8759
  0
LWPOLYLINE
  5
A6
330
1F
100
AcDbEntity
  8
Layer 1
 62
     7
100
AcDbPolyline
 90
      131
 70
     1
 43
0.0
 10
1544.3576
 20
59.8759
 10
1534.9926
 20
59.8759
 10
1534.9926
 20
61.4473
 10
1536.9019
 20
62.7951
 10
1537.1258
 20
62.9569
 10
1537.3484
 20
63.1203
 10
1537.5697
 20
63.2855
 10
1537.7898
 20
63.4523
 10
1538.0087
 20
63.6208
 10
1538.2264
 20
63.791
 10
1538.443
 20
63.9628
 10
1538.6584
 20
64.1362
 10
1539.0744
 20
64.4772
 10
1539.4563
 20
64.8008
 10
1539.804
 20
65.107
 10
1540.1174
 20
65.3958
 10
1540.3964
 20
65.6673
 10
1540.6407
 20
65.9215
 10
1540.8505
 20
66.1584
 10
1541.0254
 20
66.3779
 10
1541.1739
 20
66.5889
 10
1541.3027
 20
66.8018
 10
1541.4119
 20
67.0165
 10
1541.5014
 20
67.2331
 10
1541.5711
 20
67.4515
 10
1541.6209
 20
67.6719
 10
1541.6509
 20
67.8941
 10
1541.6609
 20
68.1183
 10
1541.6578
 20
68.2326
 10
1541.6486
 20
68.3433
 10
1541.6332
 20
68.4505
 10
1541.6115
 20
68.5541
 10
1541.5836
 20
68.6543
 10
1541.5495
 20
68.751
 10
1541.509
 20
68.8443
 10
1541.4623
 20
68.9342
 10
1541.4103
 20
69.0203
 10
1541.3535
 20
69.1026
 10
1541.2919
 20
69.1811
 10
1541.2257
 20
69.2559
 10
1541.1548
 20
69.3267
 10
1541.0793
 20
69.3938
 10
1540.9994
 20
69.457
 10
1540.9152
 20
69.5163
 10
1540.7297
 20
69.6222
 10
1540.5295
 20
69.7137
 10
1540.3151
 20
69.7911
 10
1540.0871
 20
69.8543
 10
1539.8461
 20
69.9029
 10
1539.5944
 20
69.938
 10
1539.3312
 20
69.9593
 10
1539.0555
 20
69.9665
 10
1538.7847
 20
69.9602
 10
1538.5113
 20
69.9412
 10
1538.2355
 20
69.9093
 10
1537.9574
 20
69.8645
 10
1537.6813
 20
69.811
 10
1537.4117
 20
69.7512
 10
1537.1485
 20
69.6851
 10
1536.892
 20
69.6132
 10
1536.6767
 20
69.5469
 10
1536.4672
 20
69.4739
 10
1536.263
 20
69.3939
 10
1536.0639
 20
69.3072
 10
1535.4175
 20
69.0005
 10
1535.3073
 20
69.0005
 10
1535.3073
 20
70.5828
 10
1535.4729
 20
70.6407
 10
1535.6538
 20
70.6981
 10
1535.8503
 20
70.7549
 10
1536.0623
 20
70.8114
 10
1536.2898
 20
70.8675
 10
1536.5331
 20
70.9234
 10
1536.792
 20
70.979
 10
1537.0667
 20
71.0345
 10
1537.3466
 20
71.086
 10
1537.6227
 20
71.1306
 10
1537.8949
 20
71.1684
 10
1538.1634
 20
71.1994
 10
1538.4282
 20
71.2235
 10
1538.6892
 20
71.2407
 10
1538.9466
 20
71.2511
 10
1539.2005
 20
71.2545
 10
1539.7167
 20
71.2416
 10
1540.204
 20
71.2029
 10
1540.6627
 20
71.1384
 10
1541.0927
 20
71.0481
 10
1541.4941
 20
70.932
 10
1541.8671
 20
70.7901
 10
1542.2116
 20
70.6225
 10
1542.5277
 20
70.4291
 10
1542.8094
 20
70.2129
 10
1543.0535
 20
69.9786
 10
1543.26
 20
69.7259
 10
1543.4289
 20
69.455
 10
1543.5602
 20
69.1657
 10
1543.6541
 20
68.8581
 10
1543.7103
 20
68.532
 10
1543.7291
 20
68.1875
 10
1543.7259
 20
68.026
 10
1543.7162
 20
67.8677
 10
1543.7
 20
67.7125
 10
1543.6772
 20
67.5606
 10
1543.6479
 20
67.4118
 10
1543.6118
 20
67.2661
 10
1543.5691
 20
67.1235
 10
1543.5196
 20
66.984
 10
1543.465
 20
66.847
 10
1543.4055
 20
66.7126
 10
1543.3411
 20
66.5807
 10
1543.2719
 20
66.4513
 10
1543.1978
 20
66.3244
 10
1543.1189
 20
66.2001
 10
1543.0352
 20
66.0783
 10
1542.9467
 20
65.959
 10
1542.7482
 20
65.7159
 10
1542.5306
 20
65.4738
 10
1542.2934
 20
65.2329
 10
1542.0362
 20
64.993
 10
1540.9182
 20
64.0525
 10
1540.6745
 20
63.8606
 10
1540.4242
 20
63.6668
 10
1540.1675
 20
63.4712
 10
1539.9041
 20
63.2738
 10
1539.6341
 20
63.0744
 10
1539.3573
 20
62.8732
 10
1539.0738
 20
62.6701
 10
1538.7835
 20
62.4651
 10
1536.9019
 20
61.1639
 10
1544.3576
 20
61.1639
 10
1544.3576
 20
59.8759
  0
LWPOLYLINE
  5
A7
330
1F
100
AcDbEntity
  8
Layer 1
 62
     7
100
AcDbPolyline
 90
       65
 70
     1
 43
0.0
 10
1555.8703
 20
65.4578
 10
1555.8517
 20
64.7322
 10
1555.7959
 20
64.0565
 10
1555.7028
 20
63.4306
 10
1555.5727
 20
62.8545
 10
1555.4053
 20
62.3282
 10
1555.2009
 20
61.8518
 10
1554.9594
 20
61.4254
 10
1554.6808
 20
61.0488
 10
1554.3632
 20
60.7199
 10
1554.0054
 20
60.4349
 10
1553.6074
 20
60.1938
 10
1553.1691
 20
59.9965
 10
1552.6903
 20
59.843
 10
1552.1711
 20
59.7334
 10
1551.6114
 20
59.6676
 10
1551.011
 20
59.6457
 10
1550.4036
 20
59.6681
 10
1549.8384
 20
59.7353
 10
1549.3151
 20
59.8472
 10
1548.8337
 20
60.0039
 10
1548.3941
 20
60.2052
 10
1547.9961
 20
60.4513
 10
1547.6396
 20
60.742
 10
1547.3244
 20
61.0773
 10
1547.0488
 20
61.4584
 10
1546.8103
 20
61.8864
 10
1546.6087
 20
62.3614
 10
1546.444
 20
62.8834
 10
1546.316
 20
63.4525
 10
1546.2247
 20
64.0687
 10
1546.17
 20
64.732
 10
1546.1518
 20
65.4425
 10
1546.1704
 20
66.1715
 10
1546.226
 20
66.8499
 10
1546.3188
 20
67.4777
 10
1546.4487
 20
68.0549
 10
1546.6155
 20
68.5814
 10
1546.8195
 20
69.0572
 10
1547.0604
 20
69.4822
 10
1547.3383
 20
69.8565
 10
1547.6568
 20
70.1845
 10
1548.0153
 20
70.4686
 10
1548.4139
 20
70.7089
 10
1548.8526
 20
70.9055
 10
1549.3315
 20
71.0582
 10
1549.8508
 20
71.1673
 10
1550.4106
 20
71.2327
 10
1551.011
 20
71.2545
 10
1551.6181
 20
71.2319
 10
1552.1831
 20
71.164
 10
1552.7062
 20
71.0509
 10
1553.1874
 20
70.8925
 10
1553.627
 20
70.689
 10
1554.025
 20
70.4404
 10
1554.3815
 20
70.1466
 10
1554.6966
 20
69.8077
 10
1554.9717
 20
69.4237
 10
1555.2101
 20
68.9941
 10
1555.4118
 20
68.5189
 10
1555.5769
 20
67.998
 10
1555.7052
 20
67.4315
 10
1555.7969
 20
66.8193
 10
1555.852
 20
66.1614
 10
1555.8703
 20
65.4578
  0
LWPOLYLINE
  5
A8
330
1F
100
AcDbEntity
  8
Layer 1
 62
     7
100
AcDbPolyline
 90
      129
 70
     1
 43
0.0
 10
1553.2569
 20
62.0615
 10
1553.3286
 20
62.2047
 10
1553.3947
 20
62.357
 10
1553.4554
 20
62.5183
 10
1553.5106
 20
62.6886
 10
1553.5604
 20
62.8681
 10
1553.6049
 20
63.0568
 10
1553.644
 20
63.2546
 10
1553.6779
 20
63.4617
 10
1553.7066
 20
63.6774
 10
1553.7315
 20
63.9027
 10
1553.7527
 20
64.1376
 10
1553.77
 20
64.3822
 10
1553.7836
 20
64.6364
 10
1553.7933
 20
64.9004
 10
1553.7991
 20
65.1742
 10
1553.8011
 20
65.4578
 10
1553.7991
 20
65.739
 10
1553.7933
 20
66.0109
 10
1553.7836
 20
66.2736
 10
1553.77
 20
66.5271
 10
1553.7527
 20
66.7711
 10
1553.7315
 20
67.0057
 10
1553.7066
 20
67.2309
 10
1553.6779
 20
67.4466
 10
1553.6439
 20
67.6538
 10
1553.6043
 20
67.8519
 10
1553.5593
 20
68.041
 10
1553.5087
 20
68.2211
 10
1553.4526
 20
68.3922
 10
1553.391
 20
68.5544
 10
1553.3238
 20
68.7076
 10
1553.251
 20
68.8519
 10
1553.1704
 20
68.9903
 10
1553.0826
 20
69.1199
 10
1552.9877
 20
69.2406
 10
1552.8858
 20
69.3527
 10
1552.7768
 20
69.4562
 10
1552.6608
 20
69.5512
 10
1552.5379
 20
69.6377
 10
1552.408
 20
69.7159
 10
1552.2682
 20
69.7851
 10
1552.1184
 20
69.8452
 10
1551.9586
 20
69.8962
 10
1551.7888
 20
69.9379
 10
1551.6091
 20
69.9704
 10
1551.4196
 20
69.9937
 10
1551.2202
 20
70.0077
 10
1551.011
 20
70.0124
 10
1550.804
 20
70.0077
 10
1550.6061
 20
69.9937
 10
1550.4174
 20
69.9704
 10
1550.238
 20
69.9379
 10
1550.0682
 20
69.8962
 10
1549.908
 20
69.8452
 10
1549.7575
 20
69.7851
 10
1549.617
 20
69.7159
 10
1549.4836
 20
69.6375
 10
1549.3573
 20
69.5502
 10
1549.2384
 20
69.4542
 10
1549.1266
 20
69.3493
 10
1549.0222
 20
69.2354
 10
1548.9252
 20
69.1125
 10
1548.8355
 20
68.9805
 10
1548.7532
 20
68.8395
 10
1548.6795
 20
68.6921
 10
1548.612
 20
68.5355
 10
1548.5505
 20
68.3698
 10
1548.495
 20
68.195
 10
1548.4455
 20
68.0109
 10
1548.4019
 20
67.8175
 10
1548.3641
 20
67.6149
 10
1548.3322
 20
67.4029
 10
1548.3062
 20
67.1818
 10
1548.2835
 20
66.9541
 10
1548.2641
 20
66.7195
 10
1548.248
 20
66.4781
 10
1548.2354
 20
66.2298
 10
1548.2264
 20
65.9745
 10
1548.2208
 20
65.7121
 10
1548.219
 20
65.4425
 10
1548.2205
 20
65.1569
 10
1548.225
 20
64.8831
 10
1548.2326
 20
64.6212
 10
1548.2432
 20
64.3712
 10
1548.257
 20
64.1331
 10
1548.2739
 20
63.9068
 10
1548.294
 20
63.6925
 10
1548.3173
 20
63.4901
 10
1548.3448
 20
63.2969
 10
1548.3798
 20
63.1087
 10
1548.4221
 20
62.9253
 10
1548.4717
 20
62.7469
 10
1548.5285
 20
62.5736
 10
1548.5926
 20
62.4053
 10
1548.6638
 20
62.2421
 10
1548.7422
 20
62.084
 10
1548.8196
 20
61.9444
 10
1548.9052
 20
61.813
 10
1548.9989
 20
61.6897
 10
1549.1005
 20
61.5747
 10
1549.2102
 20
61.4679
 10
1549.3277
 20
61.3694
 10
1549.453
 20
61.2793
 10
1549.5862
 20
61.1975
 10
1549.7274
 20
61.1246
 10
1549.8792
 20
61.0615
 10
1550.0416
 20
61.0082
 10
1550.2145
 20
60.9648
 10
1550.3979
 20
60.931
 10
1550.5918
 20
60.907
 10
1550.7962
 20
60.8926
 10
1551.011
 20
60.8878
 10
1551.2182
 20
60.8925
 10
1551.4161
 20
60.9065
 10
1551.6047
 20
60.9298
 10
1551.784
 20
60.9623
 10
1551.9539
 20
61.004
 10
1552.1146
 20
61.055
 10
1552.2659
 20
61.1151
 10
1552.408
 20
61.1843
 10
1552.5402
 20
61.2625
 10
1552.6651
 20
61.3496
 10
1552.7825
 20
61.4457
 10
1552.8924
 20
61.5508
 10
1552.9949
 20
61.6648
 10
1553.0898
 20
61.7879
 10
1553.1771
 20
61.9202
 10
1553.2569
 20
62.0615
  0
LWPOLYLINE
  5
A9
330
1F
100
AcDbEntity
  8
Layer 1
 62
     7
100
AcDbPolyline
 90
      174
 70
     1
 43
0.0
 10
1577.572
 20
59.8759
 10
1577.572
 20
64.7118
 10
1577.5682
 20
64.994
 10
1577.5568
 20
65.2657
 10
1577.5373
 20
65.527
 10
1577.5095
 20
65.7776
 10
1577.4933
 20
65.8969
 10
1577.4724
 20
66.0095
 10
1577.447
 20
66.1154
 10
1577.4171
 20
66.2147
 10
1577.383
 20
66.3074
 10
1577.3447
 20
66.3937
 10
1577.3024
 20
66.4735
 10
1577.2563
 20
66.5469
 10
1577.2022
 20
66.619
 10
1577.1426
 20
66.6861
 10
1577.0777
 20
66.7483
 10
1577.0075
 20
66.8056
 10
1576.9319
 20
66.858
 10
1576.8512
 20
66.9056
 10
1576.7654
 20
66.9483
 10
1576.6744
 20
66.9862
 10
1576.576
 20
67.0195
 10
1576.4691
 20
67.0484
 10
1576.3539
 20
67.073
 10
1576.2304
 20
67.0931
 10
1575.9584
 20
67.1199
 10
1575.6537
 20
67.1289
 10
1575.5039
 20
67.1247
 10
1575.3514
 20
67.1122
 10
1575.1963
 20
67.0914
 10
1575.0385
 20
67.0621
 10
1574.8781
 20
67.0244
 10
1574.715
 20
66.9784
 10
1574.5493
 20
66.9239
 10
1574.3808
 20
66.8609
 10
1574.2105
 20
66.791
 10
1574.0386
 20
66.7134
 10
1573.8649
 20
66.6283
 10
1573.6898
 20
66.5355
 10
1573.5131
 20
66.4352
 10
1573.335
 20
66.3275
 10
1573.1556
 20
66.2122
 10
1572.9749
 20
66.0894
 10
1573.0017
 20
65.7878
 10
1573.0166
 20
65.3703
 10
1573.0166
 20
59.8759
 10
1571.0924
 20
59.8759
 10
1571.0924
 20
64.7118
 10
1571.0886
 20
64.994
 10
1571.0772
 20
65.2657
 10
1571.058
 20
65.527
 10
1571.0308
 20
65.7776
 10
1571.0143
 20
65.8969
 10
1570.9932
 20
66.0095
 10
1570.9676
 20
66.1154
 10
1570.9376
 20
66.2147
 10
1570.9034
 20
66.3074
 10
1570.8651
 20
66.3937
 10
1570.8228
 20
66.4735
 10
1570.7766
 20
66.5469
 10
1570.7229
 20
66.619
 10
1570.6637
 20
66.6861
 10
1570.599
 20
66.7483
 10
1570.529
 20
66.8056
 10
1570.4537
 20
66.858
 10
1570.373
 20
66.9056
 10
1570.287
 20
66.9483
 10
1570.1958
 20
66.9862
 10
1570.097
 20
67.0195
 10
1569.9899
 20
67.0484
 10
1569.8745
 20
67.073
 10
1569.7508
 20
67.0931
 10
1569.4788
 20
67.1199
 10
1569.1741
 20
67.1289
 10
1569.0165
 20
67.1245
 10
1568.8574
 20
67.1112
 10
1568.6965
 20
67.0891
 10
1568.5338
 20
67.058
 10
1568.3693
 20
67.0179
 10
1568.203
 20
66.9688
 10
1568.0348
 20
66.9107
 10
1567.8645
 20
66.8434
 10
1567.5251
 20
66.6896
 10
1567.1908
 20
66.5167
 10
1566.8616
 20
66.3243
 10
1566.5379
 20
66.112
 10
1566.5379
 20
59.8759
 10
1564.6137
 20
59.8759
 10
1564.6137
 20
68.2334
 10
1566.5379
 20
68.2334
 10
1566.5379
 20
67.3031
 10
1566.7268
 20
67.4374
 10
1566.9151
 20
67.564
 10
1567.1029
 20
67.6828
 10
1567.2902
 20
67.7937
 10
1567.4769
 20
67.8969
 10
1567.6632
 20
67.9923
 10
1567.8489
 20
68.08
 10
1568.0342
 20
68.1598
 10
1568.2225
 20
68.2308
 10
1568.4152
 20
68.2924
 10
1568.6123
 20
68.3446
 10
1568.8138
 20
68.3874
 10
1569.0198
 20
68.4207
 10
1569.2304
 20
68.4445
 10
1569.4457
 20
68.4588
 10
1569.6656
 20
68.4636
 10
1569.9142
 20
68.4583
 10
1570.1559
 20
68.4424
 10
1570.3907
 20
68.416
 10
1570.6184
 20
68.379
 10
1570.8391
 20
68.3314
 10
1571.0528
 20
68.2733
 10
1571.2594
 20
68.2047
 10
1571.4588
 20
68.1255
 10
1571.6481
 20
68.0347
 10
1571.8258
 20
67.9303
 10
1571.9919
 20
67.8125
 10
1572.1463
 20
67.6811
 10
1572.289
 20
67.5361
 10
1572.42
 20
67.3776
 10
1572.5391
 20
67.2055
 10
1572.6463
 20
67.0197
 10
1572.8637
 20
67.1915
 10
1573.0795
 20
67.3527
 10
1573.2939
 20
67.5034
 10
1573.5068
 20
67.6435
 10
1573.7182
 20
67.7728
 10
1573.9282
 20
67.8913
 10
1574.1368
 20
67.999
 10
1574.3441
 20
68.0957
 10
1574.554
 20
68.182
 10
1574.7681
 20
68.2568
 10
1574.9865
 20
68.32
 10
1575.2093
 20
68.3717
 10
1575.4365
 20
68.4119
 10
1575.6682
 20
68.4406
 10
1575.9044
 20
68.4579
 10
1576.1452
 20
68.4636
 10
1576.3268
 20
68.461
 10
1576.5044
 20
68.4531
 10
1576.6779
 20
68.4399
 10
1576.8473
 20
68.4215
 10
1577.0125
 20
68.3979
 10
1577.1733
 20
68.3689
 10
1577.3297
 20
68.3347
 10
1577.4817
 20
68.2953
 10
1577.6298
 20
68.2499
 10
1577.7732
 20
68.1982
 10
1577.9119
 20
68.1402
 10
1578.0459
 20
68.0758
 10
1578.1751
 20
68.005
 10
1578.2996
 20
67.9275
 10
1578.4193
 20
67.8434
 10
1578.5341
 20
67.7525
 10
1578.6459
 20
67.6541
 10
1578.751
 20
67.55
 10
1578.8496
 20
67.4402
 10
1578.9417
 20
67.3246
 10
1579.0273
 20
67.2031
 10
1579.1064
 20
67.0756
 10
1579.179
 20
66.9421
 10
1579.2451
 20
66.8026
 10
1579.3037
 20
66.656
 10
1579.3546
 20
66.5004
 10
1579.3976
 20
66.3357
 10
1579.4328
 20
66.1618
 10
1579.4601
 20
65.9787
 10
1579.4797
 20
65.7864
 10
1579.4914
 20
65.5849
 10
1579.4953
 20
65.374
 10
1579.4953
 20
59.8759
 10
1577.572
 20
59.8759
  0
LWPOLYLINE
  5
AA
330
1F
100
AcDbEntity
  8
Layer 1
 62
     7
100
AcDbPolyline
 90
      176
 70
     1
 43
0.0
 10
1595.1255
 20
59.8759
 10
1595.1255
 20
64.7118
 10
1595.1216
 20
64.994
 10
1595.1098
 20
65.2657
 10
1595.0903
 20
65.527
 10
1595.0629
 20
65.7776
 10
1595.0464
 20
65.8969
 10
1595.0253
 20
66.0095
 10
1594.9997
 20
66.1154
 10
1594.9697
 20
66.2147
 10
1594.9355
 20
66.3074
 10
1594.8972
 20
66.3937
 10
1594.8549
 20
66.4735
 10
1594.8087
 20
66.5469
 10
1594.7547
 20
66.619
 10
1594.6953
 20
66.6861
 10
1594.6306
 20
66.7483
 10
1594.5606
 20
66.8056
 10
1594.4853
 20
66.858
 10
1594.4045
 20
66.9056
 10
1594.3184
 20
66.9483
 10
1594.2269
 20
66.9862
 10
1594.1285
 20
67.0195
 10
1594.0216
 20
67.0484
 10
1593.9064
 20
67.073
 10
1593.7828
 20
67.0931
 10
1593.5109
 20
67.1199
 10
1593.2062
 20
67.1289
 10
1593.0564
 20
67.1247
 10
1592.904
 20
67.1122
 10
1592.749
 20
67.0914
 10
1592.5914
 20
67.0621
 10
1592.431
 20
67.0244
 10
1592.2679
 20
66.9784
 10
1592.102
 20
66.9239
 10
1591.9333
 20
66.8609
 10
1591.763
 20
66.791
 10
1591.5912
 20
66.7134
 10
1591.4177
 20
66.6283
 10
1591.2426
 20
66.5355
 10
1591.066
 20
66.4352
 10
1590.8879
 20
66.3275
 10
1590.7084
 20
66.2122
 10
1590.5274
 20
66.0894
 10
1590.5542
 20
65.7878
 10
1590.5691
 20
65.3703
 10
1590.5691
 20
59.8759
 10
1588.6468
 20
59.8759
 10
1588.6468
 20
64.7118
 10
1588.6426
 20
64.994
 10
1588.6302
 20
65.2657
 10
1588.61
 20
65.527
 10
1588.5823
 20
65.7776
 10
1588.5662
 20
65.8969
 10
1588.5454
 20
66.0095
 10
1588.5201
 20
66.1154
 10
1588.4904
 20
66.2147
 10
1588.4565
 20
66.3074
 10
1588.4184
 20
66.3937
 10
1588.3762
 20
66.4735
 10
1588.3301
 20
66.5469
 10
1588.276
 20
66.619
 10
1588.2166
 20
66.6861
 10
1588.1517
 20
66.7483
 10
1588.0815
 20
66.8056
 10
1588.0059
 20
66.858
 10
1587.925
 20
66.9056
 10
1587.8387
 20
66.9483
 10
1587.7472
 20
66.9862
 10
1587.6488
 20
67.0195
 10
1587.5419
 20
67.0484
 10
1587.4267
 20
67.073
 10
1587.3032
 20
67.0931
 10
1587.0312
 20
67.1199
 10
1586.7265
 20
67.1289
 10
1586.5689
 20
67.1245
 10
1586.4098
 20
67.1112
 10
1586.2489
 20
67.0891
 10
1586.0862
 20
67.058
 10
1585.9217
 20
67.0179
 10
1585.7554
 20
66.9688
 10
1585.5872
 20
66.9107
 10
1585.4169
 20
66.8434
 10
1585.0774
 20
66.6896
 10
1584.7429
 20
66.5167
 10
1584.5776
 20
66.423
 10
1584.4137
 20
66.3243
 10
1584.2513
 20
66.2207
 10
1584.0904
 20
66.112
 10
1584.0904
 20
59.8759
 10
1582.1672
 20
59.8759
 10
1582.1672
 20
68.2334
 10
1584.0904
 20
68.2334
 10
1584.0904
 20
67.3031
 10
1584.2793
 20
67.4374
 10
1584.4676
 20
67.564
 10
1584.6554
 20
67.6828
 10
1584.8426
 20
67.7937
 10
1585.0294
 20
67.8969
 10
1585.2156
 20
67.9923
 10
1585.4014
 20
68.08
 10
1585.5867
 20
68.1598
 10
1585.775
 20
68.2308
 10
1585.9677
 20
68.2924
 10
1586.1647
 20
68.3446
 10
1586.3662
 20
68.3874
 10
1586.5723
 20
68.4207
 10
1586.7829
 20
68.4445
 10
1586.9981
 20
68.4588
 10
1587.218
 20
68.4636
 10
1587.4667
 20
68.4583
 10
1587.7085
 20
68.4424
 10
1587.9434
 20
68.416
 10
1588.1713
 20
68.379
 10
1588.3922
 20
68.3314
 10
1588.606
 20
68.2733
 10
1588.8127
 20
68.2047
 10
1589.0122
 20
68.1255
 10
1589.2012
 20
68.0347
 10
1589.3785
 20
67.9303
 10
1589.5443
 20
67.8125
 10
1589.6985
 20
67.6811
 10
1589.8411
 20
67.5361
 10
1589.972
 20
67.3776
 10
1590.0912
 20
67.2055
 10
1590.1987
 20
67.0197
 10
1590.4161
 20
67.1915
 10
1590.6318
 20
67.3527
 10
1590.846
 20
67.5034
 10
1591.0588
 20
67.6435
 10
1591.2702
 20
67.7728
 10
1591.4802
 20
67.8913
 10
1591.689
 20
67.999
 10
1591.8966
 20
68.0957
 10
1592.1062
 20
68.182
 10
1592.3201
 20
68.2568
 10
1592.5385
 20
68.32
 10
1592.7614
 20
68.3717
 10
1592.9887
 20
68.4119
 10
1593.2205
 20
68.4406
 10
1593.4568
 20
68.4579
 10
1593.6977
 20
68.4636
 10
1593.8793
 20
68.461
 10
1594.0569
 20
68.4531
 10
1594.2305
 20
68.4399
 10
1594.3999
 20
68.4215
 10
1594.5652
 20
68.3979
 10
1594.7262
 20
68.3689
 10
1594.8828
 20
68.3347
 10
1595.0351
 20
68.2953
 10
1595.1829
 20
68.2499
 10
1595.3262
 20
68.1982
 10
1595.4649
 20
68.1402
 10
1595.5988
 20
68.0758
 10
1595.7281
 20
68.005
 10
1595.8525
 20
67.9275
 10
1595.972
 20
67.8434
 10
1596.0866
 20
67.7525
 10
1596.1983
 20
67.6541
 10
1596.3035
 20
67.55
 10
1596.4021
 20
67.4402
 10
1596.4941
 20
67.3246
 10
1596.5795
 20
67.2031
 10
1596.6584
 20
67.0756
 10
1596.7307
 20
66.9421
 10
1596.7965
 20
66.8026
 10
1596.8558
 20
66.656
 10
1596.9071
 20
66.5004
 10
1596.9505
 20
66.3357
 10
1596.9859
 20
66.1618
 10
1597.0134
 20
65.9787
 10
1597.033
 20
65.7864
 10
1597.0448
 20
65.5849
 10
1597.0487
 20
65.374
 10
1597.0487
 20
59.8759
 10
1595.1255
 20
59.8759
  0
LWPOLYLINE
  5
AB
330
1F
100
AcDbEntity
  8
Layer 1
 62
     7
370
    20
100
AcDbPolyline
 90
        2
 70
     0
 43
0.0
 10
1703.5033
 20
-25.0839
 10
1703.5033
 20
-55.6075
  0
LWPOLYLINE
  5
AC
330
1F
100
AcDbEntity
  8
Layer 1
 62
     7
370
    20
100
AcDbPolyline
 90
        2
 70
     0
 43
0.0
 10
1319.356
 20
-25.0839
 10
1319.356
 20
-55.6075
  0
LWPOLYLINE
  5
AD
330
1F
100
AcDbEntity
  8
Layer 1
 62
     7
370
    20
100
AcDbPolyline
 90
        2
 70
     0
 43
0.0
 10
1319.356
 20
-39.0777
 10
1703.5033
 20
-39.0777
  0
LWPOLYLINE
  5
AE
330
1F
100
AcDbEntity
  8
Layer 1
 62
     7
370
    20
100
AcDbPolyline
 90
        2
 70
     0
 43
0.0
 10
1535.1733
 20
-20.4906
 10
1535.1733
 20
-51.0143
  0
LWPOLYLINE
  5
AF
330
1F
100
AcDbEntity
  8
Layer 1
 62
     7
370
    20
100
AcDbPolyline
 90
        2
 70
     0
 43
0.0
 10
1486.1767
 20
-20.4906
 10
1486.1767
 20
-51.0143
  0
LWPOLYLINE
  5
B0
330
1F
100
AcDbEntity
  8
Layer 1
 62
     7
370
    20
100
AcDbPolyline
 90
        2
 70
     0
 43
0.0
 10
1486.1767
 20
-34.4845
 10
1535.1733
 20
-34.4845
  0
LWPOLYLINE
  5
B1
330
1F
100
AcDbEntity
  8
Layer 1
 62
     7
100
AcDbPolyline
 90
       87
 70
     1
 43
0.0
 10
1491.5771
 20
-69.4477
 10
1491.5726
 20
-69.1717
 10
1491.5592
 20
-68.9088
 10
1491.5368
 20
-68.659
 10
1491.5055
 20
-68.4221
 10
1491.4652
 20
-68.1984
 10
1491.4159
 20
-67.9876
 10
1491.3575
 20
-67.7899
 10
1491.2902
 20
-67.6053
 10
1491.2163
 20
-67.4328
 10
1491.1353
 20
-67.2705
 10
1491.0473
 20
-67.1183
 10
1490.9526
 20
-66.9763
 10
1490.8511
 20
-66.8443
 10
1490.7431
 20
-66.7224
 10
1490.6286
 20
-66.6106
 10
1490.5078
 20
-66.5089
 10
1490.3952
 20
-66.4221
 10
1490.2822
 20
-66.3426
 10
1490.169
 20
-66.2703
 10
1490.0556
 20
-66.2052
 10
1489.9421
 20
-66.1472
 10
1489.8285
 20
-66.0963
 10
1489.7149
 20
-66.0525
 10
1489.6013
 20
-66.0157
 10
1489.3659
 20
-65.9571
 10
1489.1187
 20
-65.9155
 10
1488.8604
 20
-65.8906
 10
1488.5915
 20
-65.8824
 10
1488.2863
 20
-65.8926
 10
1487.9969
 20
-65.9232
 10
1487.7234
 20
-65.9741
 10
1487.4658
 20
-66.0456
 10
1487.2241
 20
-66.1375
 10
1486.9983
 20
-66.25
 10
1486.7886
 20
-66.383
 10
1486.5948
 20
-66.5366
 10
1486.4197
 20
-66.7099
 10
1486.2681
 20
-66.9016
 10
1486.1401
 20
-67.1115
 10
1486.0355
 20
-67.3398
 10
1485.9543
 20
-67.5863
 10
1485.8964
 20
-67.8512
 10
1485.8617
 20
-68.1343
 10
1485.8501
 20
-68.4358
 10
1485.8539
 20
-68.6072
 10
1485.8654
 20
-68.7708
 10
1485.8844
 20
-68.9266
 10
1485.9112
 20
-69.0747
 10
1485.9455
 20
-69.2151
 10
1485.9875
 20
-69.348
 10
1486.0371
 20
-69.4733
 10
1486.0943
 20
-69.5912
 10
1486.1602
 20
-69.7024
 10
1486.2356
 20
-69.8097
 10
1486.3206
 20
-69.9131
 10
1486.4151
 20
-70.0126
 10
1486.519
 20
-70.1082
 10
1486.6325
 20
-70.1997
 10
1486.7554
 20
-70.2872
 10
1486.8877
 20
-70.3707
 10
1486.9861
 20
-70.4266
 10
1487.0878
 20
-70.4776
 10
1487.1927
 20
-70.5235
 10
1487.3008
 20
-70.5645
 10
1487.4122
 20
-70.6006
 10
1487.5267
 20
-70.6317
 10
1487.6445
 20
-70.6581
 10
1487.7654
 20
-70.6796
 10
1488.0152
 20
-70.7147
 10
1488.2734
 20
-70.7395
 10
1488.5399
 20
-70.7542
 10
1488.8149
 20
-70.759
 10
1488.9799
 20
-70.7564
 10
1489.1481
 20
-70.7485
 10
1489.3194
 20
-70.7353
 10
1489.4937
 20
-70.7169
 10
1489.8513
 20
-70.6643
 10
1490.2208
 20
-70.5907
 10
1490.5861
 20
-70.5007
 10
1490.9269
 20
-70.3969
 10
1491.0881
 20
-70.3397
 10
1491.2433
 20
-70.2792
 10
1491.3924
 20
-70.2152
 10
1491.5354
 20
-70.1478
 10
1491.5632
 20
-69.8542
 10
1491.5771
 20
-69.4477
  0
LWPOLYLINE
  5
B2
330
1F
100
AcDbEntity
  8
Layer 1
 62
     7
100
AcDbPolyline
 90
      176
 70
     1
 43
0.0
 10
1483.7809
 20
-68.4919
 10
1483.7869
 20
-68.2793
 10
1483.8049
 20
-68.0712
 10
1483.8348
 20
-67.8675
 10
1483.8767
 20
-67.6684
 10
1483.9305
 20
-67.474
 10
1483.9962
 20
-67.2844
 10
1484.0738
 20
-67.0996
 10
1484.1632
 20
-66.9198
 10
1484.2632
 20
-66.7447
 10
1484.3721
 20
-66.5755
 10
1484.4896
 20
-66.4125
 10
1484.616
 20
-66.2556
 10
1484.7512
 20
-66.1049
 10
1484.8952
 20
-65.9605
 10
1485.048
 20
-65.8224
 10
1485.2097
 20
-65.6908
 10
1485.373
 20
-65.5704
 10
1485.5448
 20
-65.4569
 10
1485.7254
 20
-65.3501
 10
1485.9146
 20
-65.2502
 10
1486.1126
 20
-65.1571
 10
1486.3194
 20
-65.0709
 10
1486.5351
 20
-64.9916
 10
1486.7596
 20
-64.9193
 10
1486.9874
 20
-64.8536
 10
1487.2165
 20
-64.7967
 10
1487.4467
 20
-64.7488
 10
1487.6781
 20
-64.7096
 10
1487.9105
 20
-64.6792
 10
1488.1437
 20
-64.6576
 10
1488.3777
 20
-64.6446
 10
1488.6123
 20
-64.6403
 10
1488.8717
 20
-64.6444
 10
1489.1248
 20
-64.6565
 10
1489.3718
 20
-64.6768
 10
1489.6125
 20
-64.7051
 10
1489.8471
 20
-64.7414
 10
1490.0755
 20
-64.7857
 10
1490.2977
 20
-64.838
 10
1490.5137
 20
-64.8982
 10
1490.7244
 20
-64.9669
 10
1490.9276
 20
-65.0426
 10
1491.1233
 20
-65.1253
 10
1491.3116
 20
-65.215
 10
1491.4925
 20
-65.3118
 10
1491.6661
 20
-65.4156
 10
1491.8323
 20
-65.5267
 10
1491.9912
 20
-65.6449
 10
1492.1828
 20
-65.8051
 10
1492.3631
 20
-65.977
 10
1492.532
 20
-66.1607
 10
1492.6898
 20
-66.3562
 10
1492.8364
 20
-66.5635
 10
1492.972
 20
-66.7828
 10
1493.0966
 20
-67.014
 10
1493.2104
 20
-67.2571
 10
1493.3121
 20
-67.5147
 10
1493.4004
 20
-67.7888
 10
1493.4753
 20
-68.0793
 10
1493.5367
 20
-68.3863
 10
1493.5846
 20
-68.7096
 10
1493.6188
 20
-69.0493
 10
1493.6394
 20
-69.4053
 10
1493.6463
 20
-69.7777
 10
1493.6396
 20
-70.1224
 10
1493.6196
 20
-70.4625
 10
1493.5862
 20
-70.798
 10
1493.5396
 20
-71.1289
 10
1493.4797
 20
-71.455
 10
1493.4067
 20
-71.7764
 10
1493.3206
 20
-72.093
 10
1493.2214
 20
-72.4047
 10
1493.1092
 20
-72.7086
 10
1492.9843
 20
-72.9991
 10
1492.8466
 20
-73.2763
 10
1492.6963
 20
-73.5403
 10
1492.5333
 20
-73.7912
 10
1492.3578
 20
-74.029
 10
1492.1698
 20
-74.2537
 10
1491.9693
 20
-74.4656
 10
1491.7445
 20
-74.6766
 10
1491.5087
 20
-74.8746
 10
1491.262
 20
-75.0597
 10
1491.0043
 20
-75.2319
 10
1490.7357
 20
-75.3912
 10
1490.4562
 20
-75.5377
 10
1490.1657
 20
-75.6714
 10
1489.8644
 20
-75.7922
 10
1489.5468
 20
-75.8991
 10
1489.2113
 20
-75.9917
 10
1488.8579
 20
-76.0702
 10
1488.4865
 20
-76.1345
 10
1488.0971
 20
-76.1846
 10
1487.6898
 20
-76.2203
 10
1487.2645
 20
-76.2418
 10
1486.8211
 20
-76.249
 10
1485.9553
 20
-76.2155
 10
1485.7291
 20
-76.195
 10
1485.5108
 20
-76.1674
 10
1485.3002
 20
-76.1327
 10
1485.0975
 20
-76.0909
 10
1485.0975
 20
-74.6543
 10
1485.1987
 20
-74.6543
 10
1485.3439
 20
-74.7073
 10
1485.5248
 20
-74.7594
 10
1485.7412
 20
-74.8106
 10
1485.9931
 20
-74.8612
 10
1486.265
 20
-74.9047
 10
1486.5387
 20
-74.9356
 10
1486.8146
 20
-74.9541
 10
1487.0932
 20
-74.9603
 10
1487.5792
 20
-74.9452
 10
1488.0387
 20
-74.9
 10
1488.4714
 20
-74.8245
 10
1488.8773
 20
-74.7188
 10
1489.2564
 20
-74.5827
 10
1489.6086
 20
-74.4163
 10
1489.9337
 20
-74.2194
 10
1490.2317
 20
-73.9921
 10
1490.5009
 20
-73.7368
 10
1490.7395
 20
-73.4555
 10
1490.9474
 20
-73.1483
 10
1491.1245
 20
-72.815
 10
1491.2707
 20
-72.4557
 10
1491.386
 20
-72.0704
 10
1491.4703
 20
-71.659
 10
1491.5235
 20
-71.2216
 10
1491.3215
 20
-71.3197
 10
1491.1219
 20
-71.411
 10
1490.9246
 20
-71.4953
 10
1490.7297
 20
-71.5727
 10
1490.537
 20
-71.6434
 10
1490.3465
 20
-71.7072
 10
1490.158
 20
-71.7643
 10
1489.9716
 20
-71.8146
 10
1489.7852
 20
-71.8586
 10
1489.5945
 20
-71.8966
 10
1489.3996
 20
-71.9287
 10
1489.2006
 20
-71.9548
 10
1488.9975
 20
-71.9751
 10
1488.7904
 20
-71.9896
 10
1488.5792
 20
-71.9982
 10
1488.3641
 20
-72.0011
 10
1488.1565
 20
-71.999
 10
1487.9532
 20
-71.9925
 10
1487.7542
 20
-71.9819
 10
1487.5596
 20
-71.967
 10
1487.3696
 20
-71.9478
 10
1487.1843
 20
-71.9246
 10
1487.0037
 20
-71.8971
 10
1486.8281
 20
-71.8656
 10
1486.6541
 20
-71.8281
 10
1486.48
 20
-71.7826
 10
1486.3057
 20
-71.7293
 10
1486.1313
 20
-71.6679
 10
1485.9568
 20
-71.5985
 10
1485.7823
 20
-71.5211
 10
1485.6077
 20
-71.4355
 10
1485.4331
 20
-71.3418
 10
1485.2353
 20
-71.2238
 10
1485.0499
 20
-71.0982
 10
1484.877
 20
-70.965
 10
1484.7165
 20
-70.8241
 10
1484.5683
 20
-70.6755
 10
1484.4325
 20
-70.5193
 10
1484.309
 20
-70.3553
 10
1484.1979
 20
-70.1835
 10
1484.1005
 20
-70.0037
 10
1484.0159
 20
-69.8149
 10
1483.9442
 20
-69.6172
 10
1483.8855
 20
-69.4104
 10
1483.8398
 20
-69.1945
 10
1483.8071
 20
-68.9695
 10
1483.7875
 20
-68.7353
 10
1483.7809
 20
-68.4919
  0
LWPOLYLINE
  5
B3
330
1F
100
AcDbEntity
  8
Layer 1
 62
     7
100
AcDbPolyline
 90
       65
 70
     1
 43
0.0
 10
1505.0756
 20
-70.437
 10
1505.057
 20
-71.1626
 10
1505.0012
 20
-71.8383
 10
1504.9082
 20
-72.4642
 10
1504.7781
 20
-73.0403
 10
1504.6109
 20
-73.5665
 10
1504.4066
 20
-74.0429
 10
1504.1654
 20
-74.4693
 10
1503.8871
 20
-74.8459
 10
1503.5694
 20
-75.1748
 10
1503.2115
 20
-75.4598
 10
1502.8132
 20
-75.7009
 10
1502.3746
 20
-75.8982
 10
1501.8958
 20
-76.0517
 10
1501.3766
 20
-76.1613
 10
1500.8171
 20
-76.2271
 10
1500.2173
 20
-76.249
 10
1499.6096
 20
-76.2266
 10
1499.0441
 20
-76.1594
 10
1498.5207
 20
-76.0475
 10
1498.0393
 20
-75.8909
 10
1497.5997
 20
-75.6895
 10
1497.2018
 20
-75.4435
 10
1496.8455
 20
-75.1528
 10
1496.5307
 20
-74.8175
 10
1496.255
 20
-74.4365
 10
1496.0163
 20
-74.0085
 10
1495.8143
 20
-73.5336
 10
1495.6493
 20
-73.0117
 10
1495.5209
 20
-72.4427
 10
1495.4293
 20
-71.8267
 10
1495.3744
 20
-71.1634
 10
1495.3561
 20
-70.453
 10
1495.3747
 20
-69.7238
 10
1495.4306
 20
-69.0452
 10
1495.5237
 20
-68.4172
 10
1495.6538
 20
-67.84
 10
1495.821
 20
-67.3134
 10
1496.025
 20
-66.8376
 10
1496.2659
 20
-66.4126
 10
1496.5436
 20
-66.0383
 10
1496.8622
 20
-65.7103
 10
1497.2207
 20
-65.4261
 10
1497.6193
 20
-65.1858
 10
1498.058
 20
-64.9893
 10
1498.5371
 20
-64.8366
 10
1499.0566
 20
-64.7275
 10
1499.6166
 20
-64.6621
 10
1500.2173
 20
-64.6403
 10
1500.8244
 20
-64.6629
 10
1501.3894
 20
-64.7308
 10
1501.9124
 20
-64.8439
 10
1502.3935
 20
-65.0023
 10
1502.8328
 20
-65.2058
 10
1503.2305
 20
-65.4544
 10
1503.5865
 20
-65.7482
 10
1503.901
 20
-66.0871
 10
1504.1767
 20
-66.4711
 10
1504.4155
 20
-66.9007
 10
1504.6174
 20
-67.3759
 10
1504.7825
 20
-67.8968
 10
1504.9108
 20
-68.4633
 10
1505.0024
 20
-69.0756
 10
1505.0573
 20
-69.7334
 10
1505.0756
 20
-70.437
  0
LWPOLYLINE
  5
B4
330
1F
100
AcDbEntity
  8
Layer 1
 62
     7
100
AcDbPolyline
 90
      129
 70
     1
 43
0.0
 10
1502.4633
 20
-73.8333
 10
1502.535
 20
-73.69
 10
1502.6011
 20
-73.5378
 10
1502.6617
 20
-73.3765
 10
1502.7169
 20
-73.2061
 10
1502.7667
 20
-73.0267
 10
1502.8112
 20
-72.838
 10
1502.8503
 20
-72.6402
 10
1502.8842
 20
-72.4331
 10
1502.9122
 20
-72.2174
 10
1502.9367
 20
-71.9921
 10
1502.9575
 20
-71.7572
 10
1502.9746
 20
-71.5126
 10
1502.988
 20
-71.2584
 10
1502.9976
 20
-70.9944
 10
1503.0035
 20
-70.7206
 10
1503.0054
 20
-70.437
 10
1503.0035
 20
-70.1558
 10
1502.9976
 20
-69.8839
 10
1502.988
 20
-69.6212
 10
1502.9746
 20
-69.3678
 10
1502.9575
 20
-69.1237
 10
1502.9367
 20
-68.8891
 10
1502.9122
 20
-68.6639
 10
1502.8842
 20
-68.4482
 10
1502.8501
 20
-68.241
 10
1502.8105
 20
-68.0429
 10
1502.7653
 20
-67.8538
 10
1502.7146
 20
-67.6737
 10
1502.6583
 20
-67.5026
 10
1502.5965
 20
-67.3404
 10
1502.5291
 20
-67.1872
 10
1502.4563
 20
-67.0429
 10
1502.3759
 20
-66.9045
 10
1502.2883
 20
-66.7749
 10
1502.1934
 20
-66.6541
 10
1502.0913
 20
-66.5421
 10
1501.9821
 20
-66.4386
 10
1501.8658
 20
-66.3436
 10
1501.7425
 20
-66.2571
 10
1501.6123
 20
-66.1789
 10
1501.4732
 20
-66.1097
 10
1501.3238
 20
-66.0496
 10
1501.1644
 20
-65.9986
 10
1500.9949
 20
-65.9569
 10
1500.8153
 20
-65.9244
 10
1500.6259
 20
-65.9011
 10
1500.4265
 20
-65.8871
 10
1500.2173
 20
-65.8824
 10
1500.01
 20
-65.8871
 10
1499.812
 20
-65.9011
 10
1499.6233
 20
-65.9244
 10
1499.444
 20
-65.9569
 10
1499.2742
 20
-65.9986
 10
1499.1141
 20
-66.0496
 10
1498.9638
 20
-66.1097
 10
1498.8233
 20
-66.1789
 10
1498.6898
 20
-66.2573
 10
1498.5635
 20
-66.3445
 10
1498.4444
 20
-66.4406
 10
1498.3326
 20
-66.5455
 10
1498.2281
 20
-66.6594
 10
1498.131
 20
-66.7823
 10
1498.0415
 20
-66.9143
 10
1497.9595
 20
-67.0553
 10
1497.8855
 20
-67.2029
 10
1497.8176
 20
-67.3596
 10
1497.7558
 20
-67.5253
 10
1497.7001
 20
-67.7001
 10
1497.6504
 20
-67.8841
 10
1497.6068
 20
-68.0774
 10
1497.5691
 20
-68.28
 10
1497.5375
 20
-68.4919
 10
1497.5119
 20
-68.713
 10
1497.4894
 20
-68.9408
 10
1497.4701
 20
-69.1755
 10
1497.4542
 20
-69.417
 10
1497.4417
 20
-69.6654
 10
1497.4326
 20
-69.9209
 10
1497.4271
 20
-70.1834
 10
1497.4253
 20
-70.453
 10
1497.4268
 20
-70.7384
 10
1497.4313
 20
-71.012
 10
1497.4388
 20
-71.2739
 10
1497.4494
 20
-71.5239
 10
1497.463
 20
-71.7621
 10
1497.4798
 20
-71.9883
 10
1497.4996
 20
-72.2025
 10
1497.5226
 20
-72.4047
 10
1497.5502
 20
-72.5979
 10
1497.5852
 20
-72.7861
 10
1497.6276
 20
-72.9695
 10
1497.6774
 20
-73.1479
 10
1497.7343
 20
-73.3212
 10
1497.7984
 20
-73.4895
 10
1497.8695
 20
-73.6527
 10
1497.9476
 20
-73.8107
 10
1498.0253
 20
-73.9503
 10
1498.111
 20
-74.0818
 10
1498.2046
 20
-74.2051
 10
1498.3061
 20
-74.3202
 10
1498.4155
 20
-74.4271
 10
1498.5327
 20
-74.5257
 10
1498.6577
 20
-74.616
 10
1498.7905
 20
-74.698
 10
1498.9321
 20
-74.7707
 10
1499.0842
 20
-74.8336
 10
1499.2469
 20
-74.8867
 10
1499.4201
 20
-74.93
 10
1499.6038
 20
-74.9637
 10
1499.7979
 20
-74.9877
 10
1500.0024
 20
-75.0021
 10
1500.2173
 20
-75.0069
 10
1500.4241
 20
-75.0022
 10
1500.6217
 20
-74.9882
 10
1500.81
 20
-74.9649
 10
1500.9889
 20
-74.9324
 10
1501.1587
 20
-74.8907
 10
1501.3191
 20
-74.8397
 10
1501.4703
 20
-74.7796
 10
1501.6123
 20
-74.7104
 10
1501.7449
 20
-74.6322
 10
1501.8701
 20
-74.5451
 10
1501.9878
 20
-74.449
 10
1502.0981
 20
-74.344
 10
1502.2008
 20
-74.2299
 10
1502.296
 20
-74.1068
 10
1502.3835
 20
-73.9746
 10
1502.4633
 20
-73.8333
  0
LWPOLYLINE
  5
B5
330
1F
100
AcDbEntity
  8
Layer 1
 62
     7
100
AcDbPolyline
 90
      174
 70
     1
 43
0.0
 10
1526.7773
 20
-76.0188
 10
1526.7773
 20
-71.1837
 10
1526.7737
 20
-70.9011
 10
1526.7626
 20
-70.6292
 10
1526.7434
 20
-70.3679
 10
1526.7158
 20
-70.1172
 10
1526.6993
 20
-69.9981
 10
1526.6782
 20
-69.8856
 10
1526.6526
 20
-69.7797
 10
1526.6226
 20
-69.6804
 10
1526.5884
 20
-69.5875
 10
1526.5501
 20
-69.5012
 10
1526.5078
 20
-69.4213
 10
1526.4616
 20
-69.3479
 10
1526.4078
 20
-69.2758
 10
1526.3485
 20
-69.2087
 10
1526.2837
 20
-69.1465
 10
1526.2135
 20
-69.0892
 10
1526.138
 20
-69.0368
 10
1526.0571
 20
-68.9892
 10
1525.9711
 20
-68.9465
 10
1525.8798
 20
-68.9086
 10
1525.7817
 20
-68.8753
 10
1525.675
 20
-68.8463
 10
1525.5598
 20
-68.8218
 10
1525.4362
 20
-68.8017
 10
1525.1643
 20
-68.7748
 10
1524.8601
 20
-68.7658
 10
1524.7099
 20
-68.77
 10
1524.5573
 20
-68.7825
 10
1524.4022
 20
-68.8034
 10
1524.2446
 20
-68.8327
 10
1524.0844
 20
-68.8703
 10
1523.9216
 20
-68.9164
 10
1523.7562
 20
-68.9709
 10
1523.5882
 20
-69.0339
 10
1523.4175
 20
-69.1038
 10
1523.2452
 20
-69.1814
 10
1523.0712
 20
-69.2665
 10
1522.8958
 20
-69.3593
 10
1522.7188
 20
-69.4596
 10
1522.5405
 20
-69.5673
 10
1522.361
 20
-69.6826
 10
1522.1802
 20
-69.8054
 10
1522.207
 20
-70.107
 10
1522.2209
 20
-70.5244
 10
1522.2209
 20
-76.0188
 10
1520.2987
 20
-76.0188
 10
1520.2987
 20
-71.1837
 10
1520.2948
 20
-70.9011
 10
1520.283
 20
-70.6292
 10
1520.2635
 20
-70.3679
 10
1520.2361
 20
-70.1172
 10
1520.2199
 20
-69.9981
 10
1520.1991
 20
-69.8856
 10
1520.1736
 20
-69.7797
 10
1520.1438
 20
-69.6804
 10
1520.1096
 20
-69.5875
 10
1520.0713
 20
-69.5012
 10
1520.0291
 20
-69.4213
 10
1519.9829
 20
-69.3479
 10
1519.9291
 20
-69.2758
 10
1519.8697
 20
-69.2087
 10
1519.8048
 20
-69.1465
 10
1519.7345
 20
-69.0892
 10
1519.6588
 20
-69.0368
 10
1519.578
 20
-68.9892
 10
1519.4921
 20
-68.9465
 10
1519.4011
 20
-68.9086
 10
1519.3027
 20
-68.8753
 10
1519.1958
 20
-68.8463
 10
1519.0805
 20
-68.8218
 10
1518.9569
 20
-68.8017
 10
1518.6847
 20
-68.7748
 10
1518.3794
 20
-68.7658
 10
1518.2218
 20
-68.7702
 10
1518.0625
 20
-68.7836
 10
1517.9014
 20
-68.8058
 10
1517.7386
 20
-68.837
 10
1517.574
 20
-68.8771
 10
1517.4075
 20
-68.9262
 10
1517.2391
 20
-68.9843
 10
1517.0688
 20
-69.0514
 10
1516.73
 20
-69.2051
 10
1516.396
 20
-69.378
 10
1516.067
 20
-69.5705
 10
1515.7433
 20
-69.7828
 10
1515.7433
 20
-76.0188
 10
1513.819
 20
-76.0188
 10
1513.819
 20
-67.6614
 10
1515.7433
 20
-67.6614
 10
1515.7433
 20
-68.5917
 10
1515.9322
 20
-68.4574
 10
1516.1205
 20
-68.3308
 10
1516.3083
 20
-68.2121
 10
1516.4957
 20
-68.1012
 10
1516.6825
 20
-67.998
 10
1516.869
 20
-67.9028
 10
1517.055
 20
-67.8153
 10
1517.2406
 20
-67.7357
 10
1517.4283
 20
-67.6647
 10
1517.6207
 20
-67.603
 10
1517.8176
 20
-67.5507
 10
1518.0191
 20
-67.5078
 10
1518.2251
 20
-67.4743
 10
1518.4356
 20
-67.4504
 10
1518.6505
 20
-67.436
 10
1518.8699
 20
-67.4312
 10
1519.1186
 20
-67.4365
 10
1519.3604
 20
-67.4524
 10
1519.5953
 20
-67.4788
 10
1519.8232
 20
-67.5158
 10
1520.0441
 20
-67.5633
 10
1520.2579
 20
-67.6214
 10
1520.4646
 20
-67.69
 10
1520.6641
 20
-67.7692
 10
1520.8534
 20
-67.8601
 10
1521.0311
 20
-67.9644
 10
1521.1973
 20
-68.0823
 10
1521.3518
 20
-68.2137
 10
1521.4946
 20
-68.3587
 10
1521.6257
 20
-68.5172
 10
1521.745
 20
-68.6893
 10
1521.8526
 20
-68.8751
 10
1522.07
 20
-68.7033
 10
1522.2858
 20
-68.542
 10
1522.5002
 20
-68.3914
 10
1522.7131
 20
-68.2514
 10
1522.9245
 20
-68.1222
 10
1523.1345
 20
-68.0038
 10
1523.3431
 20
-67.8963
 10
1523.5504
 20
-67.7998
 10
1523.76
 20
-67.7133
 10
1523.9739
 20
-67.6383
 10
1524.1921
 20
-67.575
 10
1524.4149
 20
-67.5232
 10
1524.6421
 20
-67.4829
 10
1524.8739
 20
-67.4542
 10
1525.1104
 20
-67.4369
 10
1525.3515
 20
-67.4312
 10
1525.5328
 20
-67.4338
 10
1525.7101
 20
-67.4417
 10
1525.8835
 20
-67.4549
 10
1526.0527
 20
-67.4734
 10
1526.2178
 20
-67.4971
 10
1526.3786
 20
-67.5262
 10
1526.535
 20
-67.5605
 10
1526.687
 20
-67.6002
 10
1526.8351
 20
-67.6454
 10
1526.9786
 20
-67.6969
 10
1527.1174
 20
-67.7547
 10
1527.2515
 20
-67.819
 10
1527.3806
 20
-67.8899
 10
1527.5049
 20
-67.9673
 10
1527.6242
 20
-68.0514
 10
1527.7385
 20
-68.1422
 10
1527.8503
 20
-68.2408
 10
1527.9557
 20
-68.345
 10
1528.0546
 20
-68.4549
 10
1528.147
 20
-68.5706
 10
1528.2327
 20
-68.6921
 10
1528.3119
 20
-68.8196
 10
1528.3845
 20
-68.9531
 10
1528.4504
 20
-69.0929
 10
1528.5094
 20
-69.2392
 10
1528.5604
 20
-69.3947
 10
1528.6036
 20
-69.5593
 10
1528.6389
 20
-69.7332
 10
1528.6664
 20
-69.9163
 10
1528.6859
 20
-70.1087
 10
1528.6977
 20
-70.3104
 10
1528.7016
 20
-70.5215
 10
1528.7016
 20
-76.0188
 10
1526.7773
 20
-76.0188
  0
LWPOLYLINE
  5
B6
330
1F
100
AcDbEntity
  8
Layer 1
 62
     7
100
AcDbPolyline
 90
      174
 70
     1
 43
0.0
 10
1544.3298
 20
-76.0188
 10
1544.3298
 20
-71.1837
 10
1544.326
 20
-70.9011
 10
1544.3146
 20
-70.6292
 10
1544.2954
 20
-70.3679
 10
1544.2682
 20
-70.1172
 10
1544.2517
 20
-69.9981
 10
1544.2306
 20
-69.8856
 10
1544.205
 20
-69.7797
 10
1544.175
 20
-69.6804
 10
1544.1408
 20
-69.5875
 10
1544.1025
 20
-69.5012
 10
1544.0602
 20
-69.4213
 10
1544.0141
 20
-69.3479
 10
1543.9603
 20
-69.2758
 10
1543.9011
 20
-69.2087
 10
1543.8365
 20
-69.1465
 10
1543.7664
 20
-69.0892
 10
1543.6911
 20
-69.0368
 10
1543.6104
 20
-68.9892
 10
1543.5244
 20
-68.9465
 10
1543.4332
 20
-68.9086
 10
1543.3344
 20
-68.8753
 10
1543.2274
 20
-68.8463
 10
1543.112
 20
-68.8218
 10
1542.9884
 20
-68.8017
 10
1542.7167
 20
-68.7748
 10
1542.4125
 20
-68.7658
 10
1542.2624
 20
-68.77
 10
1542.1099
 20
-68.7825
 10
1541.9549
 20
-68.8034
 10
1541.7973
 20
-68.8327
 10
1541.6371
 20
-68.8703
 10
1541.4741
 20
-68.9164
 10
1541.3083
 20
-68.9709
 10
1541.1396
 20
-69.0339
 10
1540.9693
 20
-69.1038
 10
1540.7972
 20
-69.1814
 10
1540.6234
 20
-69.2665
 10
1540.4482
 20
-69.3593
 10
1540.2714
 20
-69.4596
 10
1540.0934
 20
-69.5673
 10
1539.9141
 20
-69.6826
 10
1539.7337
 20
-69.8054
 10
1539.7595
 20
-70.107
 10
1539.7754
 20
-70.5244
 10
1539.7754
 20
-76.0188
 10
1537.8511
 20
-76.0188
 10
1537.8511
 20
-71.1837
 10
1537.8473
 20
-70.9011
 10
1537.8359
 20
-70.6292
 10
1537.8164
 20
-70.3679
 10
1537.7886
 20
-70.1172
 10
1537.7724
 20
-69.9981
 10
1537.7515
 20
-69.8856
 10
1537.7261
 20
-69.7797
 10
1537.6962
 20
-69.6804
 10
1537.6621
 20
-69.5875
 10
1537.6238
 20
-69.5012
 10
1537.5815
 20
-69.4213
 10
1537.5354
 20
-69.3479
 10
1537.4814
 20
-69.2758
 10
1537.422
 20
-69.2087
 10
1537.3573
 20
-69.1465
 10
1537.2873
 20
-69.0892
 10
1537.212
 20
-69.0368
 10
1537.1312
 20
-68.9892
 10
1537.0451
 20
-68.9465
 10
1536.9536
 20
-68.9086
 10
1536.8551
 20
-68.8753
 10
1536.7482
 20
-68.8463
 10
1536.6328
 20
-68.8218
 10
1536.5091
 20
-68.8017
 10
1536.2372
 20
-68.7748
 10
1535.9329
 20
-68.7658
 10
1535.7751
 20
-68.7702
 10
1535.6157
 20
-68.7836
 10
1535.4548
 20
-68.8058
 10
1535.2922
 20
-68.837
 10
1535.1279
 20
-68.8771
 10
1534.9616
 20
-68.9262
 10
1534.7934
 20
-68.9843
 10
1534.6232
 20
-69.0514
 10
1534.2837
 20
-69.2051
 10
1533.9491
 20
-69.378
 10
1533.6196
 20
-69.5705
 10
1533.2957
 20
-69.7828
 10
1533.2957
 20
-76.0188
 10
1531.3735
 20
-76.0188
 10
1531.3735
 20
-67.6614
 10
1533.2957
 20
-67.6614
 10
1533.2957
 20
-68.5917
 10
1533.4846
 20
-68.4574
 10
1533.6729
 20
-68.3308
 10
1533.8607
 20
-68.2121
 10
1534.0481
 20
-68.1012
 10
1534.2349
 20
-67.998
 10
1534.4214
 20
-67.9028
 10
1534.6074
 20
-67.8153
 10
1534.793
 20
-67.7357
 10
1534.981
 20
-67.6647
 10
1535.1736
 20
-67.603
 10
1535.3706
 20
-67.5507
 10
1535.5721
 20
-67.5078
 10
1535.7781
 20
-67.4743
 10
1535.9886
 20
-67.4504
 10
1536.2037
 20
-67.436
 10
1536.4233
 20
-67.4312
 10
1536.6717
 20
-67.4365
 10
1536.9134
 20
-67.4524
 10
1537.1482
 20
-67.4788
 10
1537.3762
 20
-67.5158
 10
1537.5971
 20
-67.5633
 10
1537.8108
 20
-67.6214
 10
1538.0173
 20
-67.69
 10
1538.2165
 20
-67.7692
 10
1538.4061
 20
-67.8601
 10
1538.584
 20
-67.9644
 10
1538.7501
 20
-68.0823
 10
1538.9045
 20
-68.2137
 10
1539.0471
 20
-68.3587
 10
1539.1779
 20
-68.5172
 10
1539.2968
 20
-68.6893
 10
1539.404
 20
-68.8751
 10
1539.6217
 20
-68.7033
 10
1539.8377
 20
-68.542
 10
1540.0521
 20
-68.3914
 10
1540.265
 20
-68.2514
 10
1540.4764
 20
-68.1222
 10
1540.6865
 20
-68.0038
 10
1540.8953
 20
-67.8963
 10
1541.1029
 20
-67.7998
 10
1541.3124
 20
-67.7133
 10
1541.5263
 20
-67.6383
 10
1541.7446
 20
-67.575
 10
1541.9673
 20
-67.5232
 10
1542.1946
 20
-67.4829
 10
1542.4264
 20
-67.4542
 10
1542.6628
 20
-67.4369
 10
1542.904
 20
-67.4312
 10
1543.0856
 20
-67.4338
 10
1543.2632
 20
-67.4417
 10
1543.4367
 20
-67.4549
 10
1543.606
 20
-67.4734
 10
1543.771
 20
-67.4971
 10
1543.9316
 20
-67.5262
 10
1544.0878
 20
-67.5605
 10
1544.2394
 20
-67.6002
 10
1544.3876
 20
-67.6454
 10
1544.5311
 20
-67.6969
 10
1544.67
 20
-67.7547
 10
1544.8042
 20
-67.819
 10
1544.9336
 20
-67.8899
 10
1545.0582
 20
-67.9673
 10
1545.178
 20
-68.0514
 10
1545.2929
 20
-68.1422
 10
1545.4044
 20
-68.2408
 10
1545.5094
 20
-68.345
 10
1545.6079
 20
-68.4549
 10
1545.7
 20
-68.5706
 10
1545.7855
 20
-68.6921
 10
1545.8645
 20
-68.8196
 10
1545.9369
 20
-68.9531
 10
1546.0028
 20
-69.0929
 10
1546.0618
 20
-69.2392
 10
1546.1128
 20
-69.3947
 10
1546.156
 20
-69.5593
 10
1546.1913
 20
-69.7332
 10
1546.2188
 20
-69.9163
 10
1546.2383
 20
-70.1087
 10
1546.2501
 20
-70.3104
 10
1546.254
 20
-70.5215
 10
1546.254
 20
-76.0188
 10
1544.3298
 20
-76.0188
  0
LWPOLYLINE
  5
B7
330
1F
100
AcDbEntity
  8
Layer 1
 62
     7
100
AcDbPolyline
 90
      166
 70
     1
 43
0.0
 10
1593.8615
 20
-32.6705
 10
1593.856
 20
-32.871
 10
1593.8395
 20
-33.0676
 10
1593.8121
 20
-33.2605
 10
1593.7737
 20
-33.4495
 10
1593.7244
 20
-33.6349
 10
1593.6642
 20
-33.8165
 10
1593.593
 20
-33.9946
 10
1593.511
 20
-34.169
 10
1593.419
 20
-34.3382
 10
1593.3179
 20
-34.5015
 10
1593.2079
 20
-34.6588
 10
1593.0889
 20
-34.8103
 10
1592.9612
 20
-34.9558
 10
1592.8248
 20
-35.0954
 10
1592.6797
 20
-35.2289
 10
1592.5261
 20
-35.3565
 10
1592.3602
 20
-35.481
 10
1592.1849
 20
-35.5986
 10
1592.0
 20
-35.7093
 10
1591.8056
 20
-35.8132
 10
1591.6014
 20
-35.9102
 10
1591.3874
 20
-36.0004
 10
1591.1635
 20
-36.0837
 10
1590.9295
 20
-36.1601
 10
1590.6869
 20
-36.228
 10
1590.4374
 20
-36.2869
 10
1590.1808
 20
-36.3369
 10
1589.9171
 20
-36.3778
 10
1589.6463
 20
-36.4096
 10
1589.3683
 20
-36.4324
 10
1589.0832
 20
-36.4461
 10
1588.7908
 20
-36.4507
 10
1588.5182
 20
-36.448
 10
1588.2471
 20
-36.4397
 10
1587.9772
 20
-36.426
 10
1587.7085
 20
-36.4068
 10
1587.441
 20
-36.382
 10
1587.1745
 20
-36.3517
 10
1586.9089
 20
-36.3159
 10
1586.6441
 20
-36.2744
 10
1586.3847
 20
-36.2287
 10
1586.1338
 20
-36.1796
 10
1585.8915
 20
-36.127
 10
1585.6578
 20
-36.071
 10
1585.433
 20
-36.0114
 10
1585.217
 20
-35.9484
 10
1585.0101
 20
-35.8819
 10
1584.8122
 20
-35.8118
 10
1584.8122
 20
-34.2273
 10
1584.9552
 20
-34.2273
 10
1585.6284
 20
-34.5209
 10
1586.5995
 20
-34.8276
 10
1587.6996
 20
-35.076
 10
1587.9583
 20
-35.1144
 10
1588.2313
 20
-35.1415
 10
1588.5192
 20
-35.1575
 10
1588.8226
 20
-35.1627
 10
1588.9757
 20
-35.1602
 10
1589.1276
 20
-35.1526
 10
1589.2783
 20
-35.14
 10
1589.428
 20
-35.1224
 10
1589.5766
 20
-35.0997
 10
1589.7243
 20
-35.072
 10
1589.871
 20
-35.0394
 10
1590.017
 20
-35.0017
 10
1590.1608
 20
-34.9582
 10
1590.299
 20
-34.9085
 10
1590.4317
 20
-34.8527
 10
1590.5589
 20
-34.7906
 10
1590.6808
 20
-34.7224
 10
1590.7976
 20
-34.6479
 10
1590.9092
 20
-34.5671
 10
1591.0159
 20
-34.4801
 10
1591.1089
 20
-34.3959
 10
1591.1958
 20
-34.3084
 10
1591.2768
 20
-34.2175
 10
1591.352
 20
-34.123
 10
1591.4213
 20
-34.025
 10
1591.485
 20
-33.9233
 10
1591.5431
 20
-33.8179
 10
1591.5957
 20
-33.7086
 10
1591.6421
 20
-33.5957
 10
1591.6823
 20
-33.4779
 10
1591.7163
 20
-33.3551
 10
1591.744
 20
-33.2274
 10
1591.7656
 20
-33.0948
 10
1591.781
 20
-32.9573
 10
1591.7902
 20
-32.8149
 10
1591.7933
 20
-32.6676
 10
1591.7899
 20
-32.5226
 10
1591.7797
 20
-32.3843
 10
1591.7626
 20
-32.2526
 10
1591.7386
 20
-32.1277
 10
1591.7076
 20
-32.0094
 10
1591.6697
 20
-31.8977
 10
1591.6248
 20
-31.7927
 10
1591.5729
 20
-31.6943
 10
1591.5154
 20
-31.6006
 10
1591.4517
 20
-31.5112
 10
1591.3816
 20
-31.4261
 10
1591.3053
 20
-31.3453
 10
1591.2226
 20
-31.2686
 10
1591.1336
 20
-31.1961
 10
1591.0382
 20
-31.1277
 10
1590.9364
 20
-31.0634
 10
1590.8235
 20
-30.995
 10
1590.7043
 20
-30.9318
 10
1590.579
 20
-30.8739
 10
1590.4475
 20
-30.8212
 10
1590.31
 20
-30.7737
 10
1590.1664
 20
-30.7313
 10
1590.0167
 20
-30.6941
 10
1589.8611
 20
-30.662
 10
1589.5327
 20
-30.6116
 10
1589.1862
 20
-30.5754
 10
1588.8215
 20
-30.5535
 10
1588.4383
 20
-30.5462
 10
1588.2318
 20
-30.5477
 10
1588.025
 20
-30.5521
 10
1587.8178
 20
-30.5594
 10
1587.6102
 20
-30.5698
 10
1587.4023
 20
-30.5831
 10
1587.194
 20
-30.5994
 10
1586.9853
 20
-30.6186
 10
1586.7762
 20
-30.6409
 10
1585.4407
 20
-30.823
 10
1585.4407
 20
-25.0722
 10
1593.7781
 20
-25.0722
 10
1593.7781
 20
-26.3762
 10
1587.4047
 20
-26.3762
 10
1587.4047
 20
-29.3478
 10
1588.1275
 20
-29.3048
 10
1588.7809
 20
-29.2888
 10
1589.066
 20
-29.2911
 10
1589.3399
 20
-29.2979
 10
1589.6025
 20
-29.3092
 10
1589.8541
 20
-29.325
 10
1590.0946
 20
-29.3453
 10
1590.3241
 20
-29.3699
 10
1590.5429
 20
-29.3989
 10
1590.7508
 20
-29.4323
 10
1590.9516
 20
-29.472
 10
1591.1503
 20
-29.52
 10
1591.3471
 20
-29.5764
 10
1591.5419
 20
-29.6412
 10
1591.7347
 20
-29.7144
 10
1591.9256
 20
-29.796
 10
1592.1146
 20
-29.886
 10
1592.3017
 20
-29.9845
 10
1592.4846
 20
-30.0931
 10
1592.6565
 20
-30.2079
 10
1592.8175
 20
-30.3291
 10
1592.9675
 20
-30.4567
 10
1593.1066
 20
-30.5907
 10
1593.2348
 20
-30.7312
 10
1593.352
 20
-30.8783
 10
1593.4584
 20
-31.0321
 10
1593.553
 20
-31.1954
 10
1593.6349
 20
-31.3706
 10
1593.7042
 20
-31.5576
 10
1593.7609
 20
-31.7565
 10
1593.8049
 20
-31.9672
 10
1593.8364
 20
-32.1898
 10
1593.8552
 20
-32.4243
 10
1593.8615
 20
-32.6705
  0
LWPOLYLINE
  5
B8
330
1F
100
AcDbEntity
  8
Layer 1
 62
     7
100
AcDbPolyline
 90
       27
 70
     1
 43
0.0
 10
1604.6642
 20
-36.2205
 10
1597.2463
 20
-36.2205
 10
1597.2463
 20
-35.0855
 10
1600.0036
 20
-35.0855
 10
1600.0036
 20
-27.603
 10
1597.2463
 20
-27.603
 10
1597.2463
 20
-26.5904
 10
1597.6238
 20
-26.5852
 10
1597.9759
 20
-26.5698
 10
1598.3024
 20
-26.5441
 10
1598.6035
 20
-26.5083
 10
1598.879
 20
-26.4622
 10
1599.1289
 20
-26.406
 10
1599.3532
 20
-26.3397
 10
1599.5518
 20
-26.2633
 10
1599.7261
 20
-26.1726
 10
1599.8803
 20
-26.0636
 10
1600.0145
 20
-25.9361
 10
1600.1286
 20
-25.7904
 10
1600.2225
 20
-25.6265
 10
1600.2962
 20
-25.4445
 10
1600.3497
 20
-25.2444
 10
1600.3829
 20
-25.0263
 10
1601.9685
 20
-25.0263
 10
1601.9685
 20
-35.0855
 10
1604.6642
 20
-35.0855
 10
1604.6642
 20
-36.2205
  0
LWPOLYLINE
  5
B9
330
1F
100
AcDbEntity
  8
Layer 1
 62
     7
100
AcDbPolyline
 90
       65
 70
     1
 43
0.0
 10
1616.9305
 20
-30.6387
 10
1616.9119
 20
-31.3645
 10
1616.8562
 20
-32.0403
 10
1616.7634
 20
-32.6662
 10
1616.6334
 20
-33.2423
 10
1616.4662
 20
-33.7684
 10
1616.262
 20
-34.2447
 10
1616.0205
 20
-34.6711
 10
1615.742
 20
-35.0476
 10
1615.4244
 20
-35.3765
 10
1615.0667
 20
-35.6615
 10
1614.6687
 20
-35.9026
 10
1614.2303
 20
-36.0999
 10
1613.7516
 20
-36.2534
 10
1613.2324
 20
-36.363
 10
1612.6726
 20
-36.4288
 10
1612.0723
 20
-36.4507
 10
1611.4649
 20
-36.4283
 10
1610.8996
 20
-36.3611
 10
1610.3763
 20
-36.2492
 10
1609.8949
 20
-36.0926
 10
1609.4553
 20
-35.8912
 10
1609.0573
 20
-35.6452
 10
1608.7008
 20
-35.3545
 10
1608.3856
 20
-35.0192
 10
1608.1099
 20
-34.6384
 10
1607.8712
 20
-34.2105
 10
1607.6692
 20
-33.7356
 10
1607.5042
 20
-33.2137
 10
1607.3758
 20
-32.6446
 10
1607.2842
 20
-32.0285
 10
1607.2293
 20
-31.3652
 10
1607.211
 20
-30.6547
 10
1607.2297
 20
-29.9255
 10
1607.2856
 20
-29.247
 10
1607.3787
 20
-28.6192
 10
1607.5089
 20
-28.042
 10
1607.6762
 20
-27.5156
 10
1607.8804
 20
-27.0399
 10
1608.1215
 20
-26.6149
 10
1608.3995
 20
-26.2407
 10
1608.7177
 20
-25.9125
 10
1609.076
 20
-25.6282
 10
1609.4744
 20
-25.3877
 10
1609.9131
 20
-25.1911
 10
1610.3921
 20
-25.0383
 10
1610.9116
 20
-24.9292
 10
1611.4716
 20
-24.8638
 10
1612.0723
 20
-24.842
 10
1612.6794
 20
-24.8646
 10
1613.2443
 20
-24.9325
 10
1613.7673
 20
-25.0456
 10
1614.2485
 20
-25.204
 10
1614.6878
 20
-25.4075
 10
1615.0854
 20
-25.6561
 10
1615.4414
 20
-25.9499
 10
1615.7559
 20
-26.2888
 10
1616.0316
 20
-26.6728
 10
1616.2704
 20
-27.1024
 10
1616.4723
 20
-27.5776
 10
1616.6374
 20
-28.0985
 10
1616.7657
 20
-28.665
 10
1616.8573
 20
-29.2773
 10
1616.9122
 20
-29.9351
 10
1616.9305
 20
-30.6387
  0
LWPOLYLINE
  5
BA
330
1F
100
AcDbEntity
  8
Layer 1
 62
     7
100
AcDbPolyline
 90
      129
 70
     1
 43
0.0
 10
1614.3182
 20
-34.0357
 10
1614.3899
 20
-33.8922
 10
1614.456
 20
-33.7398
 10
1614.5167
 20
-33.5784
 10
1614.5719
 20
-33.4079
 10
1614.6217
 20
-33.2284
 10
1614.6662
 20
-33.0397
 10
1614.7053
 20
-32.8419
 10
1614.7392
 20
-32.6348
 10
1614.7679
 20
-32.4191
 10
1614.7928
 20
-32.1938
 10
1614.8139
 20
-31.9589
 10
1614.8313
 20
-31.7143
 10
1614.8448
 20
-31.4601
 10
1614.8545
 20
-31.1961
 10
1614.8603
 20
-30.9223
 10
1614.8623
 20
-30.6387
 10
1614.8603
 20
-30.3575
 10
1614.8545
 20
-30.0856
 10
1614.8448
 20
-29.8229
 10
1614.8313
 20
-29.5695
 10
1614.8139
 20
-29.3254
 10
1614.7928
 20
-29.0908
 10
1614.7679
 20
-28.8656
 10
1614.7392
 20
-28.6499
 10
1614.7051
 20
-28.4427
 10
1614.6655
 20
-28.2446
 10
1614.6203
 20
-28.0555
 10
1614.5695
 20
-27.8754
 10
1614.5132
 20
-27.7043
 10
1614.4514
 20
-27.5421
 10
1614.3841
 20
-27.3889
 10
1614.3112
 20
-27.2446
 10
1614.2309
 20
-27.1062
 10
1614.1434
 20
-26.9766
 10
1614.0487
 20
-26.8558
 10
1613.9468
 20
-26.7438
 10
1613.8379
 20
-26.6403
 10
1613.722
 20
-26.5453
 10
1613.5991
 20
-26.4588
 10
1613.4693
 20
-26.3806
 10
1613.3295
 20
-26.3114
 10
1613.1796
 20
-26.2513
 10
1613.0198
 20
-26.2003
 10
1612.8501
 20
-26.1586
 10
1612.6704
 20
-26.1261
 10
1612.4809
 20
-26.1028
 10
1612.2815
 20
-26.0888
 10
1612.0723
 20
-26.0841
 10
1611.865
 20
-26.0888
 10
1611.6669
 20
-26.1028
 10
1611.4782
 20
-26.1261
 10
1611.2989
 20
-26.1586
 10
1611.1291
 20
-26.2003
 10
1610.969
 20
-26.2513
 10
1610.8187
 20
-26.3114
 10
1610.6782
 20
-26.3806
 10
1610.5448
 20
-26.459
 10
1610.4185
 20
-26.5463
 10
1610.2996
 20
-26.6424
 10
1610.1878
 20
-26.7475
 10
1610.0834
 20
-26.8614
 10
1609.9864
 20
-26.9843
 10
1609.8967
 20
-27.1162
 10
1609.8144
 20
-27.257
 10
1609.7404
 20
-27.4046
 10
1609.6725
 20
-27.5613
 10
1609.6108
 20
-27.727
 10
1609.5552
 20
-27.9019
 10
1609.5056
 20
-28.086
 10
1609.4621
 20
-28.2794
 10
1609.4247
 20
-28.4821
 10
1609.3934
 20
-28.6943
 10
1609.3671
 20
-28.9152
 10
1609.3443
 20
-29.1428
 10
1609.3248
 20
-29.3773
 10
1609.3089
 20
-29.6188
 10
1609.2964
 20
-29.8672
 10
1609.2874
 20
-30.1226
 10
1609.282
 20
-30.3851
 10
1609.2802
 20
-30.6547
 10
1609.2817
 20
-30.9401
 10
1609.2862
 20
-31.2137
 10
1609.2937
 20
-31.4756
 10
1609.3043
 20
-31.7257
 10
1609.3179
 20
-31.9639
 10
1609.3347
 20
-32.1903
 10
1609.3545
 20
-32.4047
 10
1609.3775
 20
-32.6071
 10
1609.4054
 20
-32.8
 10
1609.4406
 20
-32.9881
 10
1609.4831
 20
-33.1714
 10
1609.5328
 20
-33.3497
 10
1609.5897
 20
-33.5229
 10
1609.6538
 20
-33.6912
 10
1609.7251
 20
-33.8544
 10
1609.8035
 20
-34.0124
 10
1609.8809
 20
-34.152
 10
1609.9663
 20
-34.2835
 10
1610.0598
 20
-34.4068
 10
1610.1612
 20
-34.5219
 10
1610.2705
 20
-34.6288
 10
1610.3877
 20
-34.7274
 10
1610.5127
 20
-34.8177
 10
1610.6455
 20
-34.8997
 10
1610.7871
 20
-34.9724
 10
1610.9392
 20
-35.0353
 10
1611.1019
 20
-35.0884
 10
1611.2751
 20
-35.1317
 10
1611.4588
 20
-35.1654
 10
1611.6529
 20
-35.1894
 10
1611.8574
 20
-35.2038
 10
1612.0723
 20
-35.2086
 10
1612.2792
 20
-35.2039
 10
1612.4768
 20
-35.1899
 10
1612.6653
 20
-35.1666
 10
1612.8445
 20
-35.1341
 10
1613.0145
 20
-35.0924
 10
1613.1753
 20
-35.0414
 10
1613.3269
 20
-34.9813
 10
1613.4693
 20
-34.9121
 10
1613.6015
 20
-34.8339
 10
1613.7263
 20
-34.7468
 10
1613.8437
 20
-34.6507
 10
1613.9537
 20
-34.5458
 10
1614.0561
 20
-34.4318
 10
1614.1511
 20
-34.3088
 10
1614.2384
 20
-34.1768
 10
1614.3182
 20
-34.0357
  0
LWPOLYLINE
  5
BB
330
1F
100
AcDbEntity
  8
Layer 1
 62
     7
100
AcDbPolyline
 90
      174
 70
     1
 43
0.0
 10
1638.6323
 20
-36.2205
 10
1638.6323
 20
-31.3854
 10
1638.6287
 20
-31.1028
 10
1638.6176
 20
-30.8309
 10
1638.5988
 20
-30.5698
 10
1638.5717
 20
-30.3196
 10
1638.5549
 20
-30.2003
 10
1638.5337
 20
-30.0876
 10
1638.508
 20
-29.9816
 10
1638.478
 20
-29.8821
 10
1638.4438
 20
-29.7893
 10
1638.4054
 20
-29.7029
 10
1638.3629
 20
-29.623
 10
1638.3165
 20
-29.5496
 10
1638.2627
 20
-29.4775
 10
1638.2034
 20
-29.4104
 10
1638.1387
 20
-29.3482
 10
1638.0686
 20
-29.2909
 10
1637.9931
 20
-29.2385
 10
1637.9125
 20
-29.1909
 10
1637.8266
 20
-29.1482
 10
1637.7357
 20
-29.1103
 10
1637.6373
 20
-29.077
 10
1637.5304
 20
-29.048
 10
1637.4152
 20
-29.0235
 10
1637.2916
 20
-29.0034
 10
1637.0197
 20
-28.9765
 10
1636.715
 20
-28.9675
 10
1636.5648
 20
-28.9717
 10
1636.4122
 20
-28.9842
 10
1636.2571
 20
-29.0051
 10
1636.0995
 20
-29.0344
 10
1635.9394
 20
-29.072
 10
1635.7766
 20
-29.1181
 10
1635.6112
 20
-29.1726
 10
1635.4431
 20
-29.2356
 10
1635.2724
 20
-29.3055
 10
1635.1001
 20
-29.3831
 10
1634.9262
 20
-29.4682
 10
1634.7508
 20
-29.561
 10
1634.574
 20
-29.6613
 10
1634.3959
 20
-29.769
 10
1634.2166
 20
-29.8843
 10
1634.0362
 20
-30.0071
 10
1634.062
 20
-30.3087
 10
1634.0779
 20
-30.7261
 10
1634.0779
 20
-36.2205
 10
1632.1536
 20
-36.2205
 10
1632.1536
 20
-31.3854
 10
1632.1499
 20
-31.1028
 10
1632.1385
 20
-30.8309
 10
1632.1193
 20
-30.5698
 10
1632.0921
 20
-30.3196
 10
1632.0756
 20
-30.2003
 10
1632.0544
 20
-30.0876
 10
1632.0288
 20
-29.9816
 10
1631.9989
 20
-29.8821
 10
1631.9647
 20
-29.7893
 10
1631.9263
 20
-29.7029
 10
1631.8841
 20
-29.623
 10
1631.8379
 20
-29.5496
 10
1631.7841
 20
-29.4775
 10
1631.7249
 20
-29.4104
 10
1631.6602
 20
-29.3482
 10
1631.5901
 20
-29.2909
 10
1631.5146
 20
-29.2385
 10
1631.4338
 20
-29.1909
 10
1631.3475
 20
-29.1482
 10
1631.256
 20
-29.1103
 10
1631.1579
 20
-29.077
 10
1631.0512
 20
-29.048
 10
1630.9359
 20
-29.0235
 10
1630.8123
 20
-29.0034
 10
1630.5402
 20
-28.9765
 10
1630.2353
 20
-28.9675
 10
1630.0775
 20
-28.9719
 10
1629.9181
 20
-28.9853
 10
1629.7572
 20
-29.0075
 10
1629.5946
 20
-29.0387
 10
1629.4303
 20
-29.0788
 10
1629.2641
 20
-29.1279
 10
1629.0959
 20
-29.186
 10
1628.9257
 20
-29.2531
 10
1628.5863
 20
-29.4069
 10
1628.2519
 20
-29.58
 10
1627.9225
 20
-29.7725
 10
1627.5982
 20
-29.9845
 10
1627.5982
 20
-36.2205
 10
1625.675
 20
-36.2205
 10
1625.675
 20
-27.8638
 10
1627.5982
 20
-27.8638
 10
1627.5982
 20
-28.7941
 10
1627.7874
 20
-28.6595
 10
1627.976
 20
-28.5328
 10
1628.1639
 20
-28.414
 10
1628.3513
 20
-28.3029
 10
1628.5381
 20
-28.1998
 10
1628.7244
 20
-28.1045
 10
1628.9102
 20
-28.017
 10
1629.0955
 20
-27.9374
 10
1629.2833
 20
-27.8664
 10
1629.4757
 20
-27.8048
 10
1629.6727
 20
-27.7526
 10
1629.8743
 20
-27.7098
 10
1630.0806
 20
-27.6765
 10
1630.2914
 20
-27.6527
 10
1630.5068
 20
-27.6384
 10
1630.7268
 20
-27.6336
 10
1630.9748
 20
-27.6389
 10
1631.2163
 20
-27.6546
 10
1631.4509
 20
-27.681
 10
1631.6787
 20
-27.7178
 10
1631.8996
 20
-27.7653
 10
1632.1133
 20
-27.8232
 10
1632.3198
 20
-27.8918
 10
1632.519
 20
-27.9709
 10
1632.7087
 20
-28.062
 10
1632.8866
 20
-28.1665
 10
1633.0529
 20
-28.2845
 10
1633.2075
 20
-28.4159
 10
1633.3502
 20
-28.5608
 10
1633.4812
 20
-28.7193
 10
1633.6003
 20
-28.8913
 10
1633.7075
 20
-29.0768
 10
1633.9249
 20
-28.905
 10
1634.1407
 20
-28.7437
 10
1634.3551
 20
-28.5931
 10
1634.568
 20
-28.4531
 10
1634.7794
 20
-28.3239
 10
1634.9894
 20
-28.2055
 10
1635.1981
 20
-28.098
 10
1635.4054
 20
-28.0015
 10
1635.615
 20
-27.915
 10
1635.8289
 20
-27.8402
 10
1636.0473
 20
-27.7769
 10
1636.2702
 20
-27.7252
 10
1636.4975
 20
-27.6851
 10
1636.7293
 20
-27.6565
 10
1636.9656
 20
-27.6393
 10
1637.2065
 20
-27.6336
 10
1637.3881
 20
-27.6362
 10
1637.5657
 20
-27.644
 10
1637.7392
 20
-27.6571
 10
1637.9085
 20
-27.6754
 10
1638.0735
 20
-27.699
 10
1638.2341
 20
-27.728
 10
1638.3903
 20
-27.7623
 10
1638.5419
 20
-27.8019
 10
1638.6901
 20
-27.8471
 10
1638.8336
 20
-27.8986
 10
1638.9724
 20
-27.9564
 10
1639.1065
 20
-28.0207
 10
1639.2358
 20
-28.0916
 10
1639.3603
 20
-28.169
 10
1639.4798
 20
-28.2531
 10
1639.5944
 20
-28.3439
 10
1639.7065
 20
-28.4425
 10
1639.8119
 20
-28.5467
 10
1639.9106
 20
-28.6566
 10
1640.0027
 20
-28.7723
 10
1640.0882
 20
-28.8938
 10
1640.1671
 20
-29.0213
 10
1640.2395
 20
-29.1548
 10
1640.3053
 20
-29.2946
 10
1640.3643
 20
-29.4409
 10
1640.4153
 20
-29.5964
 10
1640.4585
 20
-29.761
 10
1640.4938
 20
-29.9349
 10
1640.5213
 20
-30.118
 10
1640.5408
 20
-30.3104
 10
1640.5526
 20
-30.5121
 10
1640.5565
 20
-30.7232
 10
1640.5565
 20
-36.2205
 10
1638.6323
 20
-36.2205
  0
LWPOLYLINE
  5
BC
330
1F
100
AcDbEntity
  8
Layer 1
 62
     7
100
AcDbPolyline
 90
      174
 70
     1
 43
0.0
 10
1656.1867
 20
-36.2205
 10
1656.1867
 20
-31.3854
 10
1656.1826
 20
-31.1028
 10
1656.1706
 20
-30.8309
 10
1656.1507
 20
-30.5698
 10
1656.1232
 20
-30.3196
 10
1656.107
 20
-30.2003
 10
1656.0861
 20
-30.0876
 10
1656.0607
 20
-29.9816
 10
1656.0308
 20
-29.8821
 10
1655.9967
 20
-29.7893
 10
1655.9584
 20
-29.7029
 10
1655.9161
 20
-29.623
 10
1655.87
 20
-29.5496
 10
1655.8159
 20
-29.4775
 10
1655.7565
 20
-29.4104
 10
1655.6917
 20
-29.3482
 10
1655.6215
 20
-29.2909
 10
1655.5461
 20
-29.2385
 10
1655.4654
 20
-29.1909
 10
1655.3793
 20
-29.1482
 10
1655.2881
 20
-29.1103
 10
1655.1894
 20
-29.077
 10
1655.0824
 20
-29.048
 10
1654.9672
 20
-29.0235
 10
1654.8437
 20
-29.0034
 10
1654.572
 20
-28.9765
 10
1654.2674
 20
-28.9675
 10
1654.1176
 20
-28.9717
 10
1653.9652
 20
-28.9842
 10
1653.8102
 20
-29.0051
 10
1653.6526
 20
-29.0344
 10
1653.4922
 20
-29.072
 10
1653.3291
 20
-29.1181
 10
1653.1632
 20
-29.1726
 10
1652.9945
 20
-29.2356
 10
1652.8242
 20
-29.3055
 10
1652.6523
 20
-29.3831
 10
1652.4786
 20
-29.4682
 10
1652.3035
 20
-29.561
 10
1652.1268
 20
-29.6613
 10
1651.9487
 20
-29.769
 10
1651.7693
 20
-29.8843
 10
1651.5886
 20
-30.0071
 10
1651.6154
 20
-30.3087
 10
1651.6303
 20
-30.7261
 10
1651.6303
 20
-36.2205
 10
1649.7061
 20
-36.2205
 10
1649.7061
 20
-31.3854
 10
1649.7023
 20
-31.1028
 10
1649.6908
 20
-30.8309
 10
1649.6713
 20
-30.5698
 10
1649.6435
 20
-30.3196
 10
1649.6273
 20
-30.2003
 10
1649.6065
 20
-30.0876
 10
1649.581
 20
-29.9816
 10
1649.5512
 20
-29.8821
 10
1649.517
 20
-29.7893
 10
1649.4787
 20
-29.7029
 10
1649.4365
 20
-29.623
 10
1649.3903
 20
-29.5496
 10
1649.3363
 20
-29.4775
 10
1649.2769
 20
-29.4104
 10
1649.2123
 20
-29.3482
 10
1649.1424
 20
-29.2909
 10
1649.0671
 20
-29.2385
 10
1648.9865
 20
-29.1909
 10
1648.9007
 20
-29.1482
 10
1648.8095
 20
-29.1103
 10
1648.7107
 20
-29.077
 10
1648.6035
 20
-29.048
 10
1648.488
 20
-29.0235
 10
1648.3642
 20
-29.0034
 10
1648.0921
 20
-28.9765
 10
1647.7878
 20
-28.9675
 10
1647.6302
 20
-28.9719
 10
1647.4711
 20
-28.9853
 10
1647.3102
 20
-29.0075
 10
1647.1475
 20
-29.0387
 10
1646.983
 20
-29.0788
 10
1646.8167
 20
-29.1279
 10
1646.6485
 20
-29.186
 10
1646.4782
 20
-29.2531
 10
1646.1387
 20
-29.4069
 10
1645.8041
 20
-29.58
 10
1645.4749
 20
-29.7725
 10
1645.1516
 20
-29.9845
 10
1645.1516
 20
-36.2205
 10
1643.2284
 20
-36.2205
 10
1643.2284
 20
-27.8638
 10
1645.1516
 20
-27.8638
 10
1645.1516
 20
-28.7941
 10
1645.3405
 20
-28.6595
 10
1645.5288
 20
-28.5328
 10
1645.7166
 20
-28.414
 10
1645.9039
 20
-28.3029
 10
1646.0906
 20
-28.1998
 10
1646.2769
 20
-28.1045
 10
1646.4626
 20
-28.017
 10
1646.6479
 20
-27.9374
 10
1646.8362
 20
-27.8664
 10
1647.0289
 20
-27.8048
 10
1647.226
 20
-27.7526
 10
1647.4275
 20
-27.7098
 10
1647.6335
 20
-27.6765
 10
1647.8441
 20
-27.6527
 10
1648.0594
 20
-27.6384
 10
1648.2793
 20
-27.6336
 10
1648.5279
 20
-27.6389
 10
1648.7696
 20
-27.6546
 10
1649.0044
 20
-27.681
 10
1649.2321
 20
-27.7178
 10
1649.4528
 20
-27.7653
 10
1649.6665
 20
-27.8232
 10
1649.873
 20
-27.8918
 10
1650.0724
 20
-27.9709
 10
1650.2617
 20
-28.062
 10
1650.4393
 20
-28.1665
 10
1650.6053
 20
-28.2845
 10
1650.7597
 20
-28.4159
 10
1650.9023
 20
-28.5608
 10
1651.0332
 20
-28.7193
 10
1651.1525
 20
-28.8913
 10
1651.26
 20
-29.0768
 10
1651.4774
 20
-28.905
 10
1651.6931
 20
-28.7437
 10
1651.9073
 20
-28.5931
 10
1652.1201
 20
-28.4531
 10
1652.3314
 20
-28.3239
 10
1652.5415
 20
-28.2055
 10
1652.7502
 20
-28.098
 10
1652.9578
 20
-28.0015
 10
1653.1674
 20
-27.915
 10
1653.3814
 20
-27.8402
 10
1653.5998
 20
-27.7769
 10
1653.8227
 20
-27.7252
 10
1654.05
 20
-27.6851
 10
1654.2818
 20
-27.6565
 10
1654.5181
 20
-27.6393
 10
1654.7589
 20
-27.6336
 10
1654.9405
 20
-27.6362
 10
1655.1181
 20
-27.644
 10
1655.2917
 20
-27.6571
 10
1655.4611
 20
-27.6754
 10
1655.6264
 20
-27.699
 10
1655.7874
 20
-27.728
 10
1655.9441
 20
-27.7623
 10
1656.0964
 20
-27.8019
 10
1656.2442
 20
-27.8471
 10
1656.3873
 20
-27.8986
 10
1656.5258
 20
-27.9564
 10
1656.6597
 20
-28.0207
 10
1656.7889
 20
-28.0916
 10
1656.9133
 20
-28.169
 10
1657.033
 20
-28.2531
 10
1657.1478
 20
-28.3439
 10
1657.2596
 20
-28.4425
 10
1657.3647
 20
-28.5467
 10
1657.4633
 20
-28.6566
 10
1657.5553
 20
-28.7723
 10
1657.6407
 20
-28.8938
 10
1657.7196
 20
-29.0213
 10
1657.792
 20
-29.1548
 10
1657.8578
 20
-29.2946
 10
1657.9168
 20
-29.4409
 10
1657.9678
 20
-29.5964
 10
1658.011
 20
-29.761
 10
1658.0463
 20
-29.9349
 10
1658.0738
 20
-30.118
 10
1658.0933
 20
-30.3104
 10
1658.1051
 20
-30.5121
 10
1658.109
 20
-30.7232
 10
1658.109
 20
-36.2205
 10
1656.1867
 20
-36.2205
  0
LWPOLYLINE
  5
BD
330
1F
100
AcDbEntity
  8
Layer 1
 62
     7
100
AcDbPolyline
 90
       13
 70
     1
 43
0.0
 10
1776.2638
 20
98.07
 10
1776.2638
 20
96.8542
 10
1768.8221
 20
96.8542
 10
1768.8221
 20
92.6806
 10
1776.2638
 20
92.6806
 10
1776.2638
 20
91.464
 10
1761.0675
 20
91.464
 10
1761.0675
 20
92.6806
 10
1767.0249
 20
92.6806
 10
1767.0249
 20
96.8542
 10
1761.0675
 20
96.8542
 10
1761.0675
 20
98.07
 10
1776.2638
 20
98.07
  0
LWPOLYLINE
  5
BE
330
1F
100
AcDbEntity
  8
Layer 1
 62
     7
100
AcDbPolyline
 90
       70
 70
     1
 43
0.0
 10
1796.3363
 20
79.7933
 10
1796.0855
 20
79.7855
 10
1795.8453
 20
79.7621
 10
1795.6157
 20
79.7231
 10
1795.3968
 20
79.6684
 10
1795.1883
 20
79.5979
 10
1794.9903
 20
79.5118
 10
1794.8027
 20
79.4098
 10
1794.6255
 20
79.2921
 10
1794.4651
 20
79.1614
 10
1794.3259
 20
79.0185
 10
1794.2078
 20
78.8634
 10
1794.1111
 20
78.696
 10
1794.0356
 20
78.5164
 10
1793.9817
 20
78.3246
 10
1793.9492
 20
78.1206
 10
1793.9384
 20
77.9043
 10
1793.9481
 20
77.705
 10
1793.9772
 20
77.5153
 10
1794.0257
 20
77.3349
 10
1794.0934
 20
77.1639
 10
1794.1804
 20
77.002
 10
1794.2865
 20
76.8492
 10
1794.4117
 20
76.7054
 10
1794.556
 20
76.5704
 10
1794.7155
 20
76.4491
 10
1794.8889
 20
76.3439
 10
1795.0759
 20
76.2546
 10
1795.2767
 20
76.1815
 10
1795.4912
 20
76.1245
 10
1795.7195
 20
76.0837
 10
1795.9614
 20
76.0592
 10
1796.2171
 20
76.051
 10
1796.4029
 20
76.0552
 10
1796.5813
 20
76.0678
 10
1796.7524
 20
76.0886
 10
1796.9161
 20
76.1178
 10
1797.0726
 20
76.1553
 10
1797.2219
 20
76.201
 10
1797.3639
 20
76.2549
 10
1797.4989
 20
76.3169
 10
1797.6277
 20
76.3874
 10
1797.7534
 20
76.4663
 10
1797.8759
 20
76.5536
 10
1797.9953
 20
76.6492
 10
1798.1114
 20
76.7531
 10
1798.2243
 20
76.8655
 10
1798.3339
 20
76.9862
 10
1798.4402
 20
77.1153
 10
1798.9198
 20
77.8205
 10
1799.066
 20
78.0525
 10
1799.1948
 20
78.2741
 10
1799.3065
 20
78.4849
 10
1799.4013
 20
78.6845
 10
1799.2294
 20
78.84
 10
1799.0564
 20
78.9825
 10
1798.8822
 20
79.112
 10
1798.7068
 20
79.2284
 10
1798.5303
 20
79.3318
 10
1798.3528
 20
79.422
 10
1798.1741
 20
79.4991
 10
1797.9944
 20
79.5631
 10
1797.8093
 20
79.6171
 10
1797.618
 20
79.6639
 10
1797.4205
 20
79.7035
 10
1797.2167
 20
79.7358
 10
1797.0065
 20
79.761
 10
1796.7897
 20
79.7789
 10
1796.5664
 20
79.7897
 10
1796.3363
 20
79.7933
  0
LWPOLYLINE
  5
BF
330
1F
100
AcDbEntity
  8
Layer 1
 62
     7
100
AcDbPolyline
 90
       70
 70
     1
 43
0.0
 10
1803.9647
 20
80.0235
 10
1803.7365
 20
80.0193
 10
1803.5202
 20
80.0068
 10
1803.3159
 20
79.9858
 10
1803.1237
 20
79.9563
 10
1802.9436
 20
79.9183
 10
1802.7756
 20
79.8717
 10
1802.6198
 20
79.8164
 10
1802.4763
 20
79.7525
 10
1802.338
 20
79.6776
 10
1802.1992
 20
79.5868
 10
1802.0598
 20
79.4802
 10
1801.9198
 20
79.3577
 10
1801.7791
 20
79.2195
 10
1801.6375
 20
79.0654
 10
1801.4949
 20
78.8956
 10
1801.3514
 20
78.71
 10
1801.2531
 20
78.5711
 10
1801.1506
 20
78.4119
 10
1801.0439
 20
78.2316
 10
1800.9334
 20
78.0296
 10
1800.4012
 20
77.0709
 10
1800.546
 20
76.9205
 10
1800.6988
 20
76.779
 10
1800.8597
 20
76.6466
 10
1801.0288
 20
76.5232
 10
1801.2062
 20
76.4089
 10
1801.3918
 20
76.3038
 10
1801.5859
 20
76.2077
 10
1801.7883
 20
76.1209
 10
1801.997
 20
76.0436
 10
1802.2127
 20
75.9765
 10
1802.4354
 20
75.9198
 10
1802.6654
 20
75.8734
 10
1802.9025
 20
75.8373
 10
1803.147
 20
75.8115
 10
1803.3987
 20
75.7961
 10
1803.6579
 20
75.7909
 10
1803.9952
 20
75.8005
 10
1804.3176
 20
75.8292
 10
1804.625
 20
75.8771
 10
1804.9174
 20
75.944
 10
1805.1947
 20
76.0299
 10
1805.4568
 20
76.1348
 10
1805.7038
 20
76.2587
 10
1805.9356
 20
76.4014
 10
1806.1464
 20
76.5595
 10
1806.329
 20
76.7273
 10
1806.4835
 20
76.9048
 10
1806.6098
 20
77.092
 10
1806.708
 20
77.2889
 10
1806.7781
 20
77.4955
 10
1806.8202
 20
77.7118
 10
1806.8342
 20
77.9378
 10
1806.8221
 20
78.1678
 10
1806.786
 20
78.3863
 10
1806.7259
 20
78.5933
 10
1806.6417
 20
78.7886
 10
1806.5336
 20
78.9723
 10
1806.4015
 20
79.1443
 10
1806.2455
 20
79.3046
 10
1806.0657
 20
79.4531
 10
1805.8634
 20
79.5872
 10
1805.6439
 20
79.7033
 10
1805.407
 20
79.8013
 10
1805.153
 20
79.8814
 10
1804.8817
 20
79.9437
 10
1804.5932
 20
79.9881
 10
1804.2875
 20
80.0146
 10
1803.9647
 20
80.0235
  0
LWPOLYLINE
  5
C0
330
1F
100
AcDbEntity
  8
Layer 1
 62
     7
100
AcDbPolyline
 90
      147
 70
     1
 43
0.0
 10
1808.3603
 20
77.9072
 10
1808.3551
 20
77.7017
 10
1808.3395
 20
77.5008
 10
1808.3134
 20
77.3047
 10
1808.2767
 20
77.1132
 10
1808.2294
 20
76.9265
 10
1808.1713
 20
76.7443
 10
1808.1025
 20
76.5669
 10
1808.0227
 20
76.3941
 10
1807.9348
 20
76.2265
 10
1807.8372
 20
76.0652
 10
1807.7301
 20
75.9103
 10
1807.6135
 20
75.7617
 10
1807.4875
 20
75.6195
 10
1807.3523
 20
75.4837
 10
1807.208
 20
75.3543
 10
1807.0546
 20
75.2314
 10
1806.8967
 20
75.117
 10
1806.7319
 20
75.0098
 10
1806.5603
 20
74.9097
 10
1806.3818
 20
74.8168
 10
1806.1963
 20
74.7309
 10
1806.0039
 20
74.6521
 10
1805.8045
 20
74.5802
 10
1805.598
 20
74.5153
 10
1805.3849
 20
74.4587
 10
1805.1693
 20
74.4095
 10
1804.9509
 20
74.3678
 10
1804.7298
 20
74.3336
 10
1804.5056
 20
74.307
 10
1804.2783
 20
74.288
 10
1804.0477
 20
74.2765
 10
1803.8138
 20
74.2727
 10
1803.5079
 20
74.2803
 10
1803.2083
 20
74.3029
 10
1802.9149
 20
74.3407
 10
1802.6277
 20
74.3937
 10
1802.3465
 20
74.4619
 10
1802.0714
 20
74.5453
 10
1801.8023
 20
74.644
 10
1801.5391
 20
74.7579
 10
1801.2875
 20
74.8865
 10
1801.049
 20
75.0288
 10
1800.8234
 20
75.1848
 10
1800.611
 20
75.3545
 10
1800.4116
 20
75.5381
 10
1800.2254
 20
75.7354
 10
1800.0525
 20
75.9467
 10
1799.8928
 20
76.1719
 10
1799.8303
 20
76.1719
 10
1799.6649
 20
75.9714
 10
1799.4958
 20
75.7847
 10
1799.3228
 20
75.6116
 10
1799.1462
 20
75.452
 10
1798.9658
 20
75.3058
 10
1798.7817
 20
75.1731
 10
1798.5939
 20
75.0536
 10
1798.4025
 20
74.9473
 10
1798.2014
 20
74.8538
 10
1797.9883
 20
74.7729
 10
1797.7634
 20
74.7044
 10
1797.5266
 20
74.6483
 10
1797.2781
 20
74.6048
 10
1797.0178
 20
74.5737
 10
1796.7459
 20
74.555
 10
1796.4624
 20
74.5488
 10
1796.0413
 20
74.5637
 10
1795.6382
 20
74.6082
 10
1795.2531
 20
74.6825
 10
1794.886
 20
74.7865
 10
1794.5369
 20
74.9202
 10
1794.2059
 20
75.0836
 10
1793.8929
 20
75.2767
 10
1793.5979
 20
75.4995
 10
1793.3301
 20
75.7452
 10
1793.098
 20
76.0069
 10
1792.9016
 20
76.2846
 10
1792.7409
 20
76.5783
 10
1792.6158
 20
76.888
 10
1792.5265
 20
77.2135
 10
1792.4729
 20
77.555
 10
1792.455
 20
77.9123
 10
1792.472
 20
78.2824
 10
1792.5229
 20
78.6339
 10
1792.6078
 20
78.9666
 10
1792.7267
 20
79.2805
 10
1792.8795
 20
79.5756
 10
1793.0662
 20
79.8519
 10
1793.2868
 20
80.1093
 10
1793.5413
 20
80.3477
 10
1793.8239
 20
80.5626
 10
1794.1251
 20
80.749
 10
1794.4451
 20
80.9067
 10
1794.7837
 20
81.0359
 10
1795.1411
 20
81.1363
 10
1795.5174
 20
81.2081
 10
1795.9124
 20
81.2512
 10
1796.3263
 20
81.2656
 10
1796.5818
 20
81.2588
 10
1796.8366
 20
81.2383
 10
1797.0907
 20
81.2041
 10
1797.3441
 20
81.1563
 10
1797.5967
 20
81.0949
 10
1797.8486
 20
81.0197
 10
1798.0996
 20
80.9309
 10
1798.3499
 20
80.8285
 10
1798.5932
 20
80.7131
 10
1798.8228
 20
80.5855
 10
1799.0386
 20
80.4458
 10
1799.2408
 20
80.2939
 10
1799.4292
 20
80.1298
 10
1799.604
 20
79.9537
 10
1799.7652
 20
79.7655
 10
1799.9127
 20
79.5653
 10
1799.9713
 20
79.5653
 10
1800.1326
 20
79.8015
 10
1800.3016
 20
80.0229
 10
1800.4783
 20
80.2294
 10
1800.6631
 20
80.4212
 10
1800.8559
 20
80.5981
 10
1801.057
 20
80.7603
 10
1801.2664
 20
80.9078
 10
1801.4844
 20
81.0405
 10
1801.7152
 20
81.1582
 10
1801.9617
 20
81.2602
 10
1802.2238
 20
81.3463
 10
1802.5018
 20
81.4168
 10
1802.7956
 20
81.4715
 10
1803.1054
 20
81.5105
 10
1803.4312
 20
81.5339
 10
1803.7731
 20
81.5417
 10
1804.2514
 20
81.5255
 10
1804.7099
 20
81.477
 10
1805.1486
 20
81.3961
 10
1805.5675
 20
81.2828
 10
1805.9666
 20
81.137
 10
1806.3459
 20
80.9587
 10
1806.7052
 20
80.7478
 10
1807.0447
 20
80.5043
 10
1807.3529
 20
80.2365
 10
1807.6201
 20
79.9525
 10
1807.8462
 20
79.6524
 10
1808.0313
 20
79.3361
 10
1808.1752
 20
79.0034
 10
1808.278
 20
78.6544
 10
1808.3397
 20
78.2891
 10
1808.3603
 20
77.9072
  0
LWPOLYLINE
  5
C1
330
1F
100
AcDbEntity
  8
Layer 1
 62
     7
100
AcDbPolyline
 90
        5
 70
     1
 43
0.0
 10
1808.0048
 20
85.3117
 10
1808.0048
 20
83.5181
 10
1805.0996
 20
83.5181
 10
1805.0996
 20
85.3117
 10
1808.0048
 20
85.3117
  0
LWPOLYLINE
  5
C2
330
1F
100
AcDbEntity
  8
Layer 1
 62
     7
100
AcDbPolyline
 90
      170
 70
     1
 43
0.0
 10
1803.1664
 20
94.308
 10
1803.4396
 20
94.3039
 10
1803.7076
 20
94.2918
 10
1803.9704
 20
94.2715
 10
1804.2281
 20
94.2433
 10
1804.4806
 20
94.207
 10
1804.728
 20
94.1627
 10
1804.9704
 20
94.1104
 10
1805.2078
 20
94.0502
 10
1805.439
 20
93.9827
 10
1805.6621
 20
93.9085
 10
1805.8769
 20
93.8277
 10
1806.0836
 20
93.7404
 10
1806.282
 20
93.6466
 10
1806.4723
 20
93.5463
 10
1806.6543
 20
93.4397
 10
1806.8282
 20
93.3267
 10
1806.9971
 20
93.2055
 10
1807.1569
 20
93.0771
 10
1807.3075
 20
92.9417
 10
1807.4489
 20
92.799
 10
1807.581
 20
92.6492
 10
1807.7038
 20
92.4921
 10
1807.8173
 20
92.3277
 10
1807.9214
 20
92.156
 10
1808.0143
 20
91.9781
 10
1808.0949
 20
91.7951
 10
1808.1631
 20
91.6069
 10
1808.219
 20
91.4135
 10
1808.2626
 20
91.2148
 10
1808.2937
 20
91.0109
 10
1808.3124
 20
90.8015
 10
1808.3186
 20
90.5868
 10
1808.3149
 20
90.387
 10
1808.3037
 20
90.1882
 10
1808.285
 20
89.9902
 10
1808.2588
 20
89.7931
 10
1808.225
 20
89.5968
 10
1808.1837
 20
89.4013
 10
1808.1348
 20
89.2065
 10
1808.0783
 20
89.0125
 10
1808.016
 20
88.8222
 10
1807.9492
 20
88.6381
 10
1807.8776
 20
88.4603
 10
1807.8014
 20
88.2889
 10
1807.7203
 20
88.1239
 10
1807.6344
 20
87.9654
 10
1807.5436
 20
87.8136
 10
1807.4478
 20
87.6684
 10
1805.2892
 20
87.6684
 10
1805.2892
 20
87.7733
 10
1805.3801
 20
87.8684
 10
1805.4769
 20
87.9822
 10
1805.5796
 20
88.1149
 10
1805.6884
 20
88.2665
 10
1806.1074
 20
88.979
 10
1806.2101
 20
89.1949
 10
1806.3007
 20
89.4013
 10
1806.3791
 20
89.5985
 10
1806.445
 20
89.7869
 10
1806.4974
 20
89.9763
 10
1806.5342
 20
90.1763
 10
1806.556
 20
90.3872
 10
1806.5631
 20
90.6094
 10
1806.5597
 20
90.722
 10
1806.5495
 20
90.8337
 10
1806.5324
 20
90.9445
 10
1806.5084
 20
91.0545
 10
1806.4774
 20
91.1637
 10
1806.4395
 20
91.272
 10
1806.3946
 20
91.3796
 10
1806.3427
 20
91.4865
 10
1806.284
 20
91.5919
 10
1806.2168
 20
91.6932
 10
1806.141
 20
91.7907
 10
1806.0566
 20
91.8842
 10
1805.9636
 20
91.9739
 10
1805.862
 20
92.0597
 10
1805.7517
 20
92.1418
 10
1805.6328
 20
92.2201
 10
1805.518
 20
92.2881
 10
1805.3987
 20
92.3518
 10
1805.2746
 20
92.4111
 10
1805.1458
 20
92.4661
 10
1805.0121
 20
92.5169
 10
1804.8735
 20
92.5636
 10
1804.7299
 20
92.6063
 10
1804.5813
 20
92.6449
 10
1804.4275
 20
92.6789
 10
1804.2669
 20
92.7084
 10
1804.0996
 20
92.7333
 10
1803.9256
 20
92.7537
 10
1803.5577
 20
92.7808
 10
1803.1634
 20
92.7898
 10
1802.9657
 20
92.7873
 10
1802.777
 20
92.7797
 10
1802.5974
 20
92.7671
 10
1802.4268
 20
92.7495
 10
1802.2655
 20
92.7268
 10
1802.1133
 20
92.6991
 10
1801.9704
 20
92.6665
 10
1801.8369
 20
92.6288
 10
1801.7091
 20
92.5864
 10
1801.5872
 20
92.5393
 10
1801.4711
 20
92.4877
 10
1801.3608
 20
92.4316
 10
1801.2563
 20
92.3708
 10
1801.1575
 20
92.3055
 10
1801.0645
 20
92.2356
 10
1800.9771
 20
92.1611
 10
1800.8838
 20
92.0785
 10
1800.7976
 20
91.9912
 10
1800.7185
 20
91.8994
 10
1800.6464
 20
91.8029
 10
1800.5815
 20
91.7018
 10
1800.5236
 20
91.5962
 10
1800.4727
 20
91.4861
 10
1800.429
 20
91.3714
 10
1800.3923
 20
91.2528
 10
1800.3603
 20
91.1309
 10
1800.3332
 20
91.0056
 10
1800.3109
 20
90.8769
 10
1800.2936
 20
90.7449
 10
1800.2811
 20
90.6096
 10
1800.2736
 20
90.4709
 10
1800.2711
 20
90.3289
 10
1800.2791
 20
90.0256
 10
1800.3034
 20
89.7211
 10
1800.344
 20
89.4156
 10
1800.4012
 20
89.1094
 10
1800.6484
 20
88.1289
 10
1792.8115
 20
88.1289
 10
1792.8115
 20
94.2468
 10
1794.5868
 20
94.2468
 10
1794.5868
 20
89.5698
 10
1798.6378
 20
89.5698
 10
1798.5792
 20
90.1009
 10
1798.5584
 20
90.5788
 10
1798.5615
 20
90.7885
 10
1798.5708
 20
90.9898
 10
1798.5861
 20
91.1827
 10
1798.6075
 20
91.3675
 10
1798.6349
 20
91.5441
 10
1798.6681
 20
91.7126
 10
1798.7072
 20
91.873
 10
1798.752
 20
92.0256
 10
1798.8064
 20
92.1727
 10
1798.8722
 20
92.3183
 10
1798.9492
 20
92.4624
 10
1799.0377
 20
92.6052
 10
1799.1377
 20
92.7465
 10
1799.2491
 20
92.8866
 10
1799.372
 20
93.0253
 10
1799.5066
 20
93.1628
 10
1799.6543
 20
93.2968
 10
1799.8105
 20
93.423
 10
1799.9755
 20
93.5411
 10
1800.1493
 20
93.6514
 10
1800.3319
 20
93.7535
 10
1800.5234
 20
93.8476
 10
1800.7239
 20
93.9336
 10
1800.9334
 20
94.0115
 10
1801.1557
 20
94.0809
 10
1801.3944
 20
94.1411
 10
1801.6495
 20
94.1921
 10
1801.9207
 20
94.2338
 10
1802.2081
 20
94.2663
 10
1802.5116
 20
94.2894
 10
1802.831
 20
94.3034
 10
1803.1664
 20
94.308
  0
LWPOLYLINE
  5
C3
330
1F
100
AcDbEntity
  8
Layer 1
 62
     7
100
AcDbPolyline
 90
      172
 70
     1
 43
0.0
 10
1808.0048
 20
110.4153
 10
1801.4139
 20
110.4153
 10
1799.9623
 20
110.3701
 10
1799.6457
 20
110.3422
 10
1799.3658
 20
110.3014
 10
1799.2395
 20
110.2763
 10
1799.122
 20
110.2481
 10
1799.0135
 20
110.217
 10
1798.9138
 20
110.1829
 10
1798.8156
 20
110.1435
 10
1798.7241
 20
110.1
 10
1798.6393
 20
110.0526
 10
1798.5611
 20
110.0012
 10
1798.4896
 20
109.9459
 10
1798.4246
 20
109.8867
 10
1798.3661
 20
109.8236
 10
1798.3141
 20
109.7567
 10
1798.269
 20
109.6845
 10
1798.2297
 20
109.6062
 10
1798.1962
 20
109.5217
 10
1798.1688
 20
109.4312
 10
1798.1473
 20
109.3345
 10
1798.1319
 20
109.2317
 10
1798.1226
 20
109.1228
 10
1798.1195
 20
109.0078
 10
1798.1252
 20
108.8977
 10
1798.1424
 20
108.7858
 10
1798.171
 20
108.6721
 10
1798.2111
 20
108.5565
 10
1798.2626
 20
108.439
 10
1798.3256
 20
108.3196
 10
1798.4
 20
108.1981
 10
1798.4859
 20
108.0746
 10
1798.5812
 20
107.9494
 10
1798.6868
 20
107.8231
 10
1798.8027
 20
107.6957
 10
1798.929
 20
107.5672
 10
1799.0656
 20
107.4376
 10
1799.2125
 20
107.3069
 10
1799.3698
 20
107.1751
 10
1799.5374
 20
107.0423
 10
1799.9474
 20
107.062
 10
1800.5164
 20
107.0729
 10
1808.0048
 20
107.0729
 10
1808.0048
 20
105.6618
 10
1801.4139
 20
105.6618
 10
1799.9623
 20
105.6159
 10
1799.6457
 20
105.5884
 10
1799.3658
 20
105.5478
 10
1799.2395
 20
105.5227
 10
1799.122
 20
105.4946
 10
1799.0135
 20
105.4635
 10
1798.9138
 20
105.4294
 10
1798.8156
 20
105.39
 10
1798.7241
 20
105.3465
 10
1798.6393
 20
105.2991
 10
1798.5611
 20
105.2476
 10
1798.4896
 20
105.1923
 10
1798.4246
 20
105.1329
 10
1798.3661
 20
105.0697
 10
1798.3141
 20
105.0025
 10
1798.269
 20
104.9305
 10
1798.2297
 20
104.8522
 10
1798.1962
 20
104.7677
 10
1798.1688
 20
104.677
 10
1798.1473
 20
104.5801
 10
1798.1319
 20
104.4773
 10
1798.1226
 20
104.3684
 10
1798.1195
 20
104.2536
 10
1798.1255
 20
104.138
 10
1798.1436
 20
104.0212
 10
1798.1739
 20
103.9031
 10
1798.2163
 20
103.7838
 10
1798.2711
 20
103.6631
 10
1798.3382
 20
103.5411
 10
1798.4177
 20
103.4176
 10
1798.5097
 20
103.2927
 10
1798.6109
 20
103.1677
 10
1798.7187
 20
103.0437
 10
1798.8331
 20
102.9205
 10
1798.9542
 20
102.7983
 10
1799.082
 20
102.677
 10
1799.2167
 20
102.5566
 10
1799.3582
 20
102.4372
 10
1799.5066
 20
102.3187
 10
1808.0048
 20
102.3187
 10
1808.0048
 20
100.9083
 10
1796.6143
 20
100.9083
 10
1796.6143
 20
102.3187
 10
1797.8822
 20
102.3187
 10
1797.6994
 20
102.4575
 10
1797.5271
 20
102.5959
 10
1797.3652
 20
102.7338
 10
1797.214
 20
102.8714
 10
1797.0734
 20
103.0085
 10
1796.9434
 20
103.1453
 10
1796.8241
 20
103.2818
 10
1796.7156
 20
103.418
 10
1796.6185
 20
103.5557
 10
1796.5344
 20
103.6968
 10
1796.4632
 20
103.8412
 10
1796.405
 20
103.9891
 10
1796.3597
 20
104.1403
 10
1796.3274
 20
104.2948
 10
1796.308
 20
104.4528
 10
1796.3015
 20
104.6142
 10
1796.3087
 20
104.7964
 10
1796.3302
 20
104.9738
 10
1796.366
 20
105.1461
 10
1796.4162
 20
105.3133
 10
1796.4807
 20
105.4754
 10
1796.5595
 20
105.6322
 10
1796.6527
 20
105.7837
 10
1796.7602
 20
105.9299
 10
1796.8847
 20
106.0688
 10
1797.0273
 20
106.1992
 10
1797.1882
 20
106.3211
 10
1797.3674
 20
106.4345
 10
1797.565
 20
106.5392
 10
1797.7812
 20
106.6354
 10
1798.0159
 20
106.723
 10
1798.2694
 20
106.8019
 10
1798.035
 20
106.9612
 10
1797.815
 20
107.1194
 10
1797.6096
 20
107.2765
 10
1797.4188
 20
107.4326
 10
1797.2425
 20
107.5877
 10
1797.0809
 20
107.7417
 10
1796.934
 20
107.8948
 10
1796.8019
 20
108.0469
 10
1796.6846
 20
108.2007
 10
1796.583
 20
108.3577
 10
1796.497
 20
108.5179
 10
1796.4266
 20
108.6814
 10
1796.3719
 20
108.8482
 10
1796.3328
 20
109.0183
 10
1796.3093
 20
109.1917
 10
1796.3015
 20
109.3684
 10
1796.3051
 20
109.5019
 10
1796.3158
 20
109.6323
 10
1796.3337
 20
109.7596
 10
1796.3587
 20
109.8839
 10
1796.3909
 20
110.005
 10
1796.4301
 20
110.1229
 10
1796.4765
 20
110.2376
 10
1796.5299
 20
110.349
 10
1796.5921
 20
110.4577
 10
1796.6626
 20
110.5629
 10
1796.7417
 20
110.6647
 10
1796.8294
 20
110.763
 10
1796.9258
 20
110.8578
 10
1797.0313
 20
110.9491
 10
1797.1458
 20
111.0369
 10
1797.2696
 20
111.1212
 10
1797.4038
 20
111.2032
 10
1797.5458
 20
111.2804
 10
1797.6956
 20
111.3528
 10
1797.8534
 20
111.4204
 10
1798.0192
 20
111.4832
 10
1798.1931
 20
111.541
 10
1798.3751
 20
111.594
 10
1798.5653
 20
111.6421
 10
1798.7651
 20
111.6854
 10
1798.9772
 20
111.7228
 10
1799.2017
 20
111.7545
 10
1799.4386
 20
111.7804
 10
1799.6879
 20
111.8005
 10
1799.9499
 20
111.8149
 10
1800.2243
 20
111.8235
 10
1800.5114
 20
111.8264
 10
1808.0048
 20
111.8264
 10
1808.0048
 20
110.4153
  0
LWPOLYLINE
  5
C4
330
1F
100
AcDbEntity
  8
Layer 1
 62
     7
100
AcDbPolyline
 90
      172
 70
     1
 43
0.0
 10
1808.0048
 20
123.2946
 10
1801.4139
 20
123.2946
 10
1799.9623
 20
123.2487
 10
1799.6457
 20
123.2212
 10
1799.3658
 20
123.1806
 10
1799.2395
 20
123.1555
 10
1799.122
 20
123.1274
 10
1799.0135
 20
123.0963
 10
1798.9138
 20
123.0622
 10
1798.8156
 20
123.0227
 10
1798.7241
 20
122.9792
 10
1798.6393
 20
122.9317
 10
1798.5611
 20
122.8801
 10
1798.4896
 20
122.8247
 10
1798.4246
 20
122.7654
 10
1798.3661
 20
122.7022
 10
1798.3141
 20
122.6353
 10
1798.269
 20
122.5631
 10
1798.2297
 20
122.4847
 10
1798.1962
 20
122.4003
 10
1798.1688
 20
122.3097
 10
1798.1473
 20
122.213
 10
1798.1319
 20
122.1102
 10
1798.1226
 20
122.0014
 10
1798.1195
 20
121.8864
 10
1798.1252
 20
121.7765
 10
1798.1424
 20
121.6646
 10
1798.171
 20
121.5509
 10
1798.2111
 20
121.4353
 10
1798.2626
 20
121.3177
 10
1798.3256
 20
121.1982
 10
1798.4
 20
121.0767
 10
1798.4859
 20
120.9531
 10
1798.5812
 20
120.828
 10
1798.6868
 20
120.7017
 10
1798.8027
 20
120.5742
 10
1798.929
 20
120.4457
 10
1799.0656
 20
120.3161
 10
1799.2125
 20
120.1854
 10
1799.3698
 20
120.0536
 10
1799.5374
 20
119.9208
 10
1799.9474
 20
119.9412
 10
1800.5164
 20
119.9514
 10
1808.0048
 20
119.9514
 10
1808.0048
 20
118.5403
 10
1801.4139
 20
118.5403
 10
1799.9623
 20
118.4944
 10
1799.6457
 20
118.4669
 10
1799.3658
 20
118.4263
 10
1799.2395
 20
118.4012
 10
1799.122
 20
118.3731
 10
1799.0135
 20
118.342
 10
1798.9138
 20
118.3079
 10
1798.8156
 20
118.2685
 10
1798.7241
 20
118.225
 10
1798.6393
 20
118.1776
 10
1798.5611
 20
118.1262
 10
1798.4896
 20
118.0709
 10
1798.4246
 20
118.0118
 10
1798.3661
 20
117.9487
 10
1798.3141
 20
117.8818
 10
1798.269
 20
117.8095
 10
1798.2297
 20
117.731
 10
1798.1962
 20
117.6463
 10
1798.1688
 20
117.5556
 10
1798.1473
 20
117.4587
 10
1798.1319
 20
117.3558
 10
1798.1226
 20
117.2469
 10
1798.1195
 20
117.1321
 10
1798.1255
 20
117.0167
 10
1798.1436
 20
116.9
 10
1798.1739
 20
116.782
 10
1798.2163
 20
116.6626
 10
1798.2711
 20
116.5418
 10
1798.3382
 20
116.4197
 10
1798.4177
 20
116.2962
 10
1798.5097
 20
116.1712
 10
1798.6109
 20
116.0462
 10
1798.7187
 20
115.9222
 10
1798.8331
 20
115.7991
 10
1798.9542
 20
115.6769
 10
1799.082
 20
115.5557
 10
1799.2167
 20
115.4354
 10
1799.3582
 20
115.3162
 10
1799.5066
 20
115.1979
 10
1808.0048
 20
115.1979
 10
1808.0048
 20
113.7868
 10
1796.6143
 20
113.7868
 10
1796.6143
 20
115.1979
 10
1797.8822
 20
115.1979
 10
1797.6994
 20
115.3365
 10
1797.5271
 20
115.4747
 10
1797.3652
 20
115.6125
 10
1797.214
 20
115.7499
 10
1797.0734
 20
115.887
 10
1796.9434
 20
116.0238
 10
1796.8241
 20
116.1603
 10
1796.7156
 20
116.2965
 10
1796.6185
 20
116.4345
 10
1796.5344
 20
116.5757
 10
1796.4632
 20
116.7203
 10
1796.405
 20
116.8681
 10
1796.3597
 20
117.0193
 10
1796.3274
 20
117.1737
 10
1796.308
 20
117.3316
 10
1796.3015
 20
117.4927
 10
1796.3087
 20
117.6752
 10
1796.3302
 20
117.8526
 10
1796.366
 20
118.0249
 10
1796.4162
 20
118.1922
 10
1796.4807
 20
118.3543
 10
1796.5595
 20
118.5111
 10
1796.6527
 20
118.6628
 10
1796.7602
 20
118.8091
 10
1796.8847
 20
118.9478
 10
1797.0273
 20
119.0781
 10
1797.1882
 20
119.1998
 10
1797.3674
 20
119.3131
 10
1797.565
 20
119.4178
 10
1797.7812
 20
119.514
 10
1798.0159
 20
119.6015
 10
1798.2694
 20
119.6804
 10
1798.035
 20
119.8399
 10
1797.815
 20
119.9982
 10
1797.6096
 20
120.1553
 10
1797.4188
 20
120.3114
 10
1797.2425
 20
120.4664
 10
1797.0809
 20
120.6204
 10
1796.934
 20
120.7734
 10
1796.8019
 20
120.9255
 10
1796.6846
 20
121.0795
 10
1796.583
 20
121.2366
 10
1796.497
 20
121.3968
 10
1796.4266
 20
121.5603
 10
1796.3719
 20
121.727
 10
1796.3328
 20
121.897
 10
1796.3093
 20
122.0703
 10
1796.3015
 20
122.247
 10
1796.3051
 20
122.3804
 10
1796.3158
 20
122.5108
 10
1796.3337
 20
122.6382
 10
1796.3587
 20
122.7625
 10
1796.3909
 20
122.8837
 10
1796.4301
 20
123.0017
 10
1796.4765
 20
123.1166
 10
1796.5299
 20
123.2283
 10
1796.5921
 20
123.3369
 10
1796.6626
 20
123.4421
 10
1796.7417
 20
123.5437
 10
1796.8294
 20
123.6419
 10
1796.9258
 20
123.7366
 10
1797.0313
 20
123.8278
 10
1797.1458
 20
123.9155
 10
1797.2696
 20
123.9998
 10
1797.4038
 20
124.0818
 10
1797.5458
 20
124.1591
 10
1797.6956
 20
124.2315
 10
1797.8534
 20
124.2991
 10
1798.0192
 20
124.3619
 10
1798.1931
 20
124.4199
 10
1798.3751
 20
124.4731
 10
1798.5653
 20
124.5214
 10
1798.7651
 20
124.5644
 10
1798.9772
 20
124.6017
 10
1799.2017
 20
124.6332
 10
1799.4386
 20
124.6591
 10
1799.6879
 20
124.6791
 10
1799.9499
 20
124.6934
 10
1800.2243
 20
124.702
 10
1800.5114
 20
124.7049
 10
1808.0048
 20
124.7049
 10
1808.0048
 20
123.2946
  0
ENDSEC
  0
SECTION
  2
OBJECTS
  0
DICTIONARY
  5
C
330
0
100
AcDbDictionary
281
     1
  3
ACAD_DETAILVIEWSTYLE
350
CC
  3
ACAD_GROUP
350
D
  3
ACAD_LAYOUT
350
1A
  3
ACAD_MATERIAL
350
43
  3
ACAD_MLEADERSTYLE
350
5B
  3
ACAD_MLINESTYLE
350
17
  3
ACAD_PLOTSETTINGS
350
19
  3
ACAD_PLOTSTYLENAME
350
E
  3
ACAD_SCALELIST
350
47
  3
ACAD_SECTIONVIEWSTYLE
350
CD
  3
ACAD_TABLESTYLE
350
59
  3
ACAD_VISUALSTYLE
350
2A
  3
ACDB_RECOMPOSE_DATA
350
C9
  3
AcDbVariableDictionary
350
C5
  0
SUN
  5
5D
330
29
100
AcDbSun
 90
        1
290
     0
 63
     7
421
 16777215
 40
1.0
291
     1
 91
  2455826
 92
 54000000
292
     0
 70
     2
 71
   256
280
     1
  0
DICTIONARY
  5
CC
102
{ACAD_REACTORS
330
C
102
}
330
C
100
AcDbDictionary
281
     1
  0
DICTIONARY
  5
D
102
{ACAD_REACTORS
330
C
102
}
330
C
100
AcDbDictionary
281
     1
  0
DICTIONARY
  5
1A
102
{ACAD_REACTORS
330
C
102
}
330
C
100
AcDbDictionary
281
     1
  3
Layout1
350
1E
  3
Layout2
350
26
  3
Model
350
22
  0
DICTIONARY
  5
43
102
{ACAD_REACTORS
330
C
102
}
330
C
100
AcDbDictionary
281
     1
  3
ByBlock
350
45
  3
ByLayer
350
44
  3
Global
350
46
  0
DICTIONARY
  5
5B
102
{ACAD_REACTORS
330
C
102
}
330
C
100
AcDbDictionary
281
     1
  3
Standard
350
5C
  0
DICTIONARY
  5
17
102
{ACAD_REACTORS
330
C
102
}
330
C
100
AcDbDictionary
281
     1
  3
Standard
350
18
  0
DICTIONARY
  5
19
102
{ACAD_REACTORS
330
C
102
}
330
C
100
AcDbDictionary
281
     1
  0
ACDBDICTIONARYWDFLT
  5
E
102
{ACAD_REACTORS
330
C
102
}
330
C
100
AcDbDictionary
281
     1
  3
Normal
350
F
100
AcDbDictionaryWithDefault
340
F
  0
DICTIONARY
  5
47
102
{ACAD_REACTORS
330
C
102
}
330
C
100
AcDbDictionary
281
     1
  3
A0
350
48
  3
A1
350
49
  3
A2
350
4A
  3
A3
350
4B
  3
A4
350
4C
  3
A5
350
4D
  3
A6
350
4E
  3
A7
350
4F
  3
A8
350
50
  3
A9
350
51
  3
B1
350
52
  3
B2
350
53
  3
B3
350
54
  3
B4
350
55
  3
B5
350
56
  3
B6
350
57
  3
B7
350
58
  0
DICTIONARY
  5
CD
102
{ACAD_REACTORS
330
C
102
}
330
C
100
AcDbDictionary
281
     1
  0
DICTIONARY
  5
59
102
{ACAD_REACTORS
330
C
102
}
330
C
100
AcDbDictionary
281
     1
  3
Standard
350
5A
  0
DICTIONARY
  5
2A
102
{ACAD_REACTORS
330
C
102
}
330
C
100
AcDbDictionary
281
     1
  3
2dWireframe
350
2F
  3
Basic
350
32
  3
Brighten
350
36
  3
ColorChange
350
3A
  3
Conceptual
350
34
  3
Dim
350
35
  3
EdgeColorOff
350
3D
  3
Facepattern
350
39
  3
Flat
350
2B
  3
FlatWithEdges
350
2C
  3
Gouraud
350
2D
  3
GouraudWithEdges
350
2E
  3
Hidden
350
31
  3
JitterOff
350
3B
  3
Linepattern
350
38
  3
OverhangOff
350
3C
  3
Realistic
350
33
  3
Shaded
350
42
  3
Shaded with edges
350
41
  3
Shades of Gray
350
3E
  3
Sketchy
350
3F
  3
Thicken
350
37
  3
Wireframe
350
30
  3
X-Ray
350
40
  0
XRECORD
  5
C9
102
{ACAD_REACTORS
330
C
102
}
330
C
100
AcDbXrecord
280
     1
 90
        1
330
5A
  0
DICTIONARY
  5
C5
102
{ACAD_REACTORS
330
C
102
}
330
C
100
AcDbDictionary
281
     1
  3
CANNOSCALE
350
C6
  3
CMLEADERSTYLE
350
CB
  3
CTABLESTYLE
350
CA
  0
LAYOUT
  5
1E
102
{ACAD_REACTORS
330
1A
102
}
330
1A
100
AcDbPlotSettings
  1

  2
none_device
  4

  6

 40
0.0
 41
0.0
 42
0.0
 43
0.0
 44
0.0
 45
0.0
 46
0.0
 47
0.0
 48
0.0
 49
0.0
140
0.0
141
0.0
142
1.0
143
1.0
 70
   688
 72
     0
 73
     0
 74
     5
  7

 75
    16
 76
     0
 77
     2
 78
   300
147
1.0
148
0.0
149
0.0
100
AcDbLayout
  1
Layout1
 70
     1
 71
     1
 10
0.0
 20
0.0
 11
12.0
 21
9.0
 12
0.0
 22
0.0
 32
0.0
 14
1.000000000000000E+20
 24
1.000000000000000E+20
 34
1.000000000000000E+20
 15
-1.000000000000000E+20
 25
-1.000000000000000E+20
 35
-1.000000000000000E+20
146
0.0
 13
0.0
 23
0.0
 33
0.0
 16
1.0
 26
0.0
 36
0.0
 17
0.0
 27
1.0
 37
0.0
 76
     0
330
1B
  0
LAYOUT
  5
26
102
{ACAD_REACTORS
330
1A
102
}
330
1A
100
AcDbPlotSettings
  1

  2
none_device
  4

  6

 40
0.0
 41
0.0
 42
0.0
 43
0.0
 44
0.0
 45
0.0
 46
0.0
 47
0.0
 48
0.0
 49
0.0
140
0.0
141
0.0
142
1.0
143
1.0
 70
   688
 72
     0
 73
     0
 74
     5
  7

 75
    16
 76
     0
 77
     2
 78
   300
147
1.0
148
0.0
149
0.0
100
AcDbLayout
  1
Layout2
 70
     1
 71
     2
 10
0.0
 20
0.0
 11
0.0
 21
0.0
 12
0.0
 22
0.0
 32
0.0
 14
0.0
 24
0.0
 34
0.0
 15
0.0
 25
0.0
 35
0.0
146
0.0
 13
0.0
 23
0.0
 33
0.0
 16
1.0
 26
0.0
 36
0.0
 17
0.0
 27
1.0
 37
0.0
 76
     0
330
23
  0
LAYOUT
  5
22
102
{ACAD_REACTORS
330
1A
102
}
330
1A
100
AcDbPlotSettings
  1

  2
none_device
  4
Letter_(8.50_x_11.00_Inches)
  6

 40
6.35
 41
6.35
 42
6.35000508
 43
6.35000508
 44
215.9
 45
279.4
 46
0.0
 47
0.0
 48
0.0
 49
0.0
140
0.0
141
0.0
142
1.0
143
1.0
 70
  1712
 72
     0
 73
     0
 74
     0
  7

 75
     0
 76
     0
 77
     2
 78
   300
147
1.0
148
0.0
149
0.0
100
AcDbLayout
  1
Model
 70
     1
 71
     0
 10
0.0
 20
0.0
 11
12.0
 21
9.0
 12
0.0
 22
0.0
 32
0.0
 14
484.9806
 24
-319.5607
 34
0.0
 15
1884.8865
 25
395.7053
 35
0.0
146
0.0
 13
0.0
 23
0.0
 33
0.0
 16
1.0
 26
0.0
 36
0.0
 17
0.0
 27
1.0
 37
0.0
 76
     0
330
1F
331
29
  0
MATERIAL
  5
45
102
{ACAD_REACTORS
330
43
102
}
330
43
100
AcDbMaterial
  1
ByBlock
 72
     1
 94
      127
  0
MATERIAL
  5
44
102
{ACAD_REACTORS
330
43
102
}
330
43
100
AcDbMaterial
  1
ByLayer
 72
     1
 94
      127
  0
MATERIAL
  5
46
102
{ACAD_REACTORS
330
43
102
}
330
43
100
AcDbMaterial
  1
Global
 72
     1
 94
      127
  0
MLEADERSTYLE
  5
5C
102
{ACAD_REACTORS
330
5B
102
}
330
5B
100
AcDbMLeaderStyle
179
     2
170
     2
171
     1
172
     0
 90
        2
 40
0.0
 41
0.0
173
     1
 91
-1056964608
340
14
 92
       -2
290
     1
 42
0.09
291
     1
 43
0.36
  3
Standard
341
0
 44
0.18
300

342
11
174
     1
178
     6
175
     1
176
     0
 93
-1056964608
 45
0.18
292
     0
297
     0
 46
0.18
343
0
 94
-1056964608
 47
1.0
 49
1.0
140
1.0
293
     1
141
0.0
294
     1
177
     0
142
1.0
295
     0
296
     0
143
0.125
271
     0
272
     9
273
     9
298
     0
  0
MLINESTYLE
  5
18
102
{ACAD_REACTORS
330
17
102
}
330
17
100
AcDbMlineStyle
  2
Standard
 70
     0
  3

 62
   256
 51
90.0
 52
90.0
 71
     2
 49
0.5
 62
   256
  6
BYLAYER
 49
-0.5
 62
   256
  6
BYLAYER
  0
ACDBPLACEHOLDER
  5
F
102
{ACAD_REACTORS
330
E
102
}
330
E
  0
SCALE
  5
48
102
{ACAD_REACTORS
330
47
102
}
330
47
100
AcDbScale
 70
     0
300
1:1
140
1.0
141
1.0
290
     1
  0
SCALE
  5
49
102
{ACAD_REACTORS
330
47
102
}
330
47
100
AcDbScale
 70
     0
300
1/128" = 1'-0"
140
0.0078125
141
12.0
290
     0
  0
SCALE
  5
4A
102
{ACAD_REACTORS
330
47
102
}
330
47
100
AcDbScale
 70
     0
300
1/64" = 1'-0"
140
0.015625
141
12.0
290
     0
  0
SCALE
  5
4B
102
{ACAD_REACTORS
330
47
102
}
330
47
100
AcDbScale
 70
     0
300
1/32" = 1'-0"
140
0.03125
141
12.0
290
     0
  0
SCALE
  5
4C
102
{ACAD_REACTORS
330
47
102
}
330
47
100
AcDbScale
 70
     0
300
1/16" = 1'-0"
140
0.0625
141
12.0
290
     0
  0
SCALE
  5
4D
102
{ACAD_REACTORS
330
47
102
}
330
47
100
AcDbScale
 70
     0
300
3/32" = 1'-0"
140
0.09375
141
12.0
290
     0
  0
SCALE
  5
4E
102
{ACAD_REACTORS
330
47
102
}
330
47
100
AcDbScale
 70
     0
300
1/8" = 1'-0"
140
0.125
141
12.0
290
     0
  0
SCALE
  5
4F
102
{ACAD_REACTORS
330
47
102
}
330
47
100
AcDbScale
 70
     0
300
3/16" = 1'-0"
140
0.1875
141
12.0
290
     0
  0
SCALE
  5
50
102
{ACAD_REACTORS
330
47
102
}
330
47
100
AcDbScale
 70
     0
300
1/4" = 1'-0"
140
0.25
141
12.0
290
     0
  0
SCALE
  5
51
102
{ACAD_REACTORS
330
47
102
}
330
47
100
AcDbScale
 70
     0
300
3/8" = 1'-0"
140
0.375
141
12.0
290
     0
  0
SCALE
  5
52
102
{ACAD_REACTORS
330
47
102
}
330
47
100
AcDbScale
 70
     0
300
1/2" = 1'-0"
140
0.5
141
12.0
290
     0
  0
SCALE
  5
53
102
{ACAD_REACTORS
330
47
102
}
330
47
100
AcDbScale
 70
     0
300
3/4" = 1'-0"
140
0.75
141
12.0
290
     0
  0
SCALE
  5
54
102
{ACAD_REACTORS
330
47
102
}
330
47
100
AcDbScale
 70
     0
300
1" = 1'-0"
140
1.0
141
12.0
290
     0
  0
SCALE
  5
55
102
{ACAD_REACTORS
330
47
102
}
330
47
100
AcDbScale
 70
     0
300
1-1/2" = 1'-0"
140
1.5
141
12.0
290
     0
  0
SCALE
  5
56
102
{ACAD_REACTORS
330
47
102
}
330
47
100
AcDbScale
 70
     0
300
3" = 1'-0"
140
3.0
141
12.0
290
     0
  0
SCALE
  5
57
102
{ACAD_REACTORS
330
47
102
}
330
47
100
AcDbScale
 70
     0
300
6" = 1'-0"
140
6.0
141
12.0
290
     0
  0
SCALE
  5
58
102
{ACAD_REACTORS
330
47
102
}
330
47
100
AcDbScale
 70
     0
300
1'-0" = 1'-0"
140
12.0
141
12.0
290
     0
  0
TABLESTYLE
  5
5A
102
{ACAD_REACTORS
330
59
102
}
102
{ACAD_XDICTIONARY
360
C7
102
}
330
59
100
AcDbTableStyle
  3
Standard
 70
     0
 71
     0
 40
0.06
 41
0.06
280
     0
281
     0
  7
Standard
140
0.18
170
     2
 62
     0
 63
   257
283
     0
 90
        4
 91
        0
  1

274
    -2
284
     1
 64
     0
275
    -2
285
     1
 65
     0
276
    -2
286
     1
 66
     0
277
    -2
287
     1
 67
     0
278
    -2
288
     1
 68
     0
279
    -2
289
     1
 69
     0
  7
Standard
140
0.25
170
     5
 62
     0
 63
   257
283
     0
 90
        4
 91
        0
  1

274
    -2
284
     1
 64
     0
275
    -2
285
     1
 65
     0
276
    -2
286
     1
 66
     0
277
    -2
287
     1
 67
     0
278
    -2
288
     1
 68
     0
279
    -2
289
     1
 69
     0
  7
Standard
140
0.18
170
     5
 62
     0
 63
   257
283
     0
 90
        4
 91
        0
  1

274
    -2
284
     1
 64
     0
275
    -2
285
     1
 65
     0
276
    -2
286
     1
 66
     0
277
    -2
287
     1
 67
     0
278
    -2
288
     1
 68
     0
279
    -2
289
     1
 69
     0
  0
VISUALSTYLE
  5
2F
102
{ACAD_REACTORS
330
2A
102
}
330
2A
100
AcDbVisualStyle
  2
2dWireframe
 70
     4
177
     3
291
     0
 70
    58
 90
        0
176
     1
 90
        2
176
     1
 90
        0
176
     1
 90
        0
176
     1
 40
0.6
176
     1
 40
30.0
176
     1
 62
     7
420
 16777215
176
     1
 90
        1
176
     1
 90
        4
176
     1
 62
     7
176
     1
 62
   257
176
     1
 90
        1
176
     1
 90
        1
176
     1
 40
1.0
176
     1
 90
        0
176
     1
 62
   257
176
     1
 40
1.0
176
     1
 90
        1
176
     1
 90
        6
176
     1
 90
        2
176
     1
 62
     7
176
     1
 90
        5
176
     1
 90
        0
176
     1
 90
        0
176
     1
290
     0
176
     1
 90
        1
176
     1
 40
0.0
176
     1
 90
        0
176
     1
290
     1
176
     1
290
     1
176
     1
290
     0
176
     1
290
     0
176
     1
290
     0
176
     1
290
     0
176
     1
290
     0
176
     1
290
     0
176
     1
290
     0
176
     1
 90
       50
176
     1
 40
0.0
176
     1
 40
1.0
176
     1
 90
        0
176
     1
 62
    18
420
        0
176
     1
 90
       50
176
     1
 90
        3
176
     1
 62
     5
420
      255
176
     1
290
     0
176
     1
 90
       50
176
     1
 90
       50
176
     1
 90
       50
176
     1
290
     0
176
     1
 90
       50
176
     1
 62
   256
176
     0
 40
1.0
176
     0
 90
        2
176
     1
  1
strokes_ogs.tif
176
     1
290
     0
176
     1
 40
1.0
176
     1
 40
1.0
176
     1
  0
VISUALSTYLE
  5
32
102
{ACAD_REACTORS
330
2A
102
}
330
2A
100
AcDbVisualStyle
  2
Basic
 70
     7
177
     3
291
     1
 70
    58
 90
        1
176
     1
 90
        0
176
     1
 90
        1
176
     1
 90
        0
176
     1
 40
0.6
176
     1
 40
30.0
176
     1
 62
     7
420
 16777215
176
     1
 90
        0
176
     1
 90
        4
176
     1
 62
     7
176
     1
 62
   257
176
     1
 90
        1
176
     1
 90
        1
176
     1
 40
1.0
176
     1
 90
        8
176
     1
 62
     7
176
     1
 40
1.0
176
     1
 90
        1
176
     1
 90
        6
176
     1
 90
        2
176
     1
 62
     7
176
     1
 90
        5
176
     1
 90
        0
176
     1
 90
        0
176
     1
290
     0
176
     1
 90
        1
176
     1
 40
0.0
176
     1
 90
        0
176
     1
290
     0
176
     1
290
     1
176
     1
290
     1
176
     1
290
     0
176
     1
290
     0
176
     1
290
     0
176
     1
290
     0
176
     1
290
     0
176
     1
290
     0
176
     1
 90
       50
176
     1
 40
0.0
176
     1
 40
1.0
176
     1
 90
        0
176
     1
 62
    18
420
        0
176
     1
 90
       50
176
     1
 90
        3
176
     1
 62
     5
420
      255
176
     1
290
     0
176
     1
 90
       50
176
     1
 90
       50
176
     1
 90
       50
176
     1
290
     0
176
     1
 90
       50
176
     1
 62
   256
176
     0
 40
1.0
176
     0
 90
        2
176
     1
  1
strokes_ogs.tif
176
     1
290
     0
176
     1
 40
1.0
176
     1
 40
1.0
176
     1
  0
VISUALSTYLE
  5
36
102
{ACAD_REACTORS
330
2A
102
}
330
2A
100
AcDbVisualStyle
  2
Brighten
 70
    12
177
     3
291
     1
 70
    58
 90
        2
176
     1
 90
        2
176
     1
 90
        0
176
     1
 90
        0
176
     1
 40
0.6
176
     1
 40
30.0
176
     1
 62
     7
420
 16777215
176
     1
 90
        1
176
     1
 90
        4
176
     1
 62
     7
176
     1
 62
   257
176
     1
 90
        1
176
     1
 90
        1
176
     1
 40
1.0
176
     1
 90
        8
176
     1
 62
     7
176
     1
 40
1.0
176
     1
 90
        1
176
     1
 90
        6
176
     1
 90
        2
176
     1
 62
     7
176
     1
 90
        5
176
     1
 90
        0
176
     1
 90
        0
176
     1
290
     0
176
     1
 90
        1
176
     1
 40
50.0
176
     1
 90
        0
176
     1
290
     0
176
     1
290
     1
176
     1
290
     1
176
     1
290
     0
176
     1
290
     0
176
     1
290
     0
176
     1
290
     0
176
     1
290
     0
176
     1
290
     0
176
     1
 90
       50
176
     1
 40
0.0
176
     1
 40
1.0
176
     1
 90
        0
176
     1
 62
    18
420
        0
176
     1
 90
       50
176
     1
 90
        3
176
     1
 62
     5
420
      255
176
     1
290
     0
176
     1
 90
       50
176
     1
 90
       50
176
     1
 90
       50
176
     1
290
     0
176
     1
 90
       50
176
     1
 62
   256
176
     0
 40
1.0
176
     0
 90
        2
176
     1
  1
strokes_ogs.tif
176
     1
290
     0
176
     1
 40
1.0
176
     1
 40
1.0
176
     1
  0
VISUALSTYLE
  5
3A
102
{ACAD_REACTORS
330
2A
102
}
330
2A
100
AcDbVisualStyle
  2
ColorChange
 70
    16
177
     3
291
     1
 70
    58
 90
        2
176
     1
 90
        2
176
     1
 90
        3
176
     1
 90
        0
176
     1
 40
0.6
176
     1
 40
30.0
176
     1
 62
     8
420
  8421504
176
     1
 90
        1
176
     1
 90
        4
176
     1
 62
     7
176
     1
 62
   257
176
     1
 90
        1
176
     1
 90
        1
176
     1
 40
1.0
176
     1
 90
        8
176
     1
 62
     8
420
  8421504
176
     1
 40
1.0
176
     1
 90
        1
176
     1
 90
        6
176
     1
 90
        2
176
     1
 62
     7
176
     1
 90
        5
176
     1
 90
        0
176
     1
 90
        0
176
     1
290
     0
176
     1
 90
        1
176
     1
 40
0.0
176
     1
 90
        0
176
     1
290
     0
176
     1
290
     1
176
     1
290
     1
176
     1
290
     0
176
     1
290
     0
176
     1
290
     0
176
     1
290
     0
176
     1
290
     0
176
     1
290
     0
176
     1
 90
       50
176
     1
 40
0.0
176
     1
 40
1.0
176
     1
 90
        0
176
     1
 62
    18
420
        0
176
     1
 90
       50
176
     1
 90
        3
176
     1
 62
     5
420
      255
176
     1
290
     0
176
     1
 90
       50
176
     1
 90
       50
176
     1
 90
       50
176
     1
290
     0
176
     1
 90
       50
176
     1
 62
   256
176
     0
 40
1.0
176
     0
 90
        2
176
     1
  1
strokes_ogs.tif
176
     1
290
     0
176
     1
 40
1.0
176
     1
 40
1.0
176
     1
  0
VISUALSTYLE
  5
34
102
{ACAD_REACTORS
330
2A
102
}
330
2A
100
AcDbVisualStyle
  2
Conceptual
 70
     9
177
     3
291
     0
 70
    58
 90
        3
176
     1
 90
        2
176
     1
 90
        0
176
     1
 90
        0
176
     1
 40
0.6
176
     1
 40
30.0
176
     1
 62
     7
420
 16777215
176
     1
 90
        2
176
     1
 90
        2
176
     1
 62
     7
176
     1
 62
   257
176
     1
 90
        1
176
     1
 90
        1
176
     1
 40
179.0
176
     1
 90
        8
176
     1
 62
     7
176
     1
 40
1.0
176
     1
 90
        1
176
     1
 90
        6
176
     1
 90
        2
176
     1
 62
     7
176
     1
 90
        3
176
     1
 90
        0
176
     1
 90
        0
176
     1
290
     0
176
     1
 90
        1
176
     1
 40
0.0
176
     1
 90
        0
176
     1
290
     0
176
     1
290
     1
176
     1
290
     1
176
     1
290
     0
176
     1
290
     0
176
     1
290
     0
176
     1
290
     0
176
     1
290
     0
176
     1
290
     0
176
     1
 90
       50
176
     1
 40
0.0
176
     1
 40
1.0
176
     1
 90
        0
176
     1
 62
    18
420
        0
176
     1
 90
       50
176
     1
 90
        3
176
     1
 62
     5
420
      255
176
     1
290
     0
176
     1
 90
       50
176
     1
 90
       50
176
     1
 90
       50
176
     1
290
     0
176
     1
 90
       50
176
     1
 62
   256
176
     0
 40
1.0
176
     0
 90
        2
176
     1
  1
strokes_ogs.tif
176
     1
290
     0
176
     1
 40
1.0
176
     1
 40
1.0
176
     1
  0
VISUALSTYLE
  5
35
102
{ACAD_REACTORS
330
2A
102
}
330
2A
100
AcDbVisualStyle
  2
Dim
 70
    11
177
     3
291
     1
 70
    58
 90
        2
176
     1
 90
        2
176
     1
 90
        0
176
     1
 90
        0
176
     1
 40
0.6
176
     1
 40
30.0
176
     1
 62
     7
420
 16777215
176
     1
 90
        1
176
     1
 90
        4
176
     1
 62
     7
176
     1
 62
   257
176
     1
 90
        1
176
     1
 90
        1
176
     1
 40
1.0
176
     1
 90
        8
176
     1
 62
     7
176
     1
 40
1.0
176
     1
 90
        1
176
     1
 90
        6
176
     1
 90
        2
176
     1
 62
     7
176
     1
 90
        5
176
     1
 90
        0
176
     1
 90
        0
176
     1
290
     0
176
     1
 90
        1
176
     1
 40
-50.0
176
     1
 90
        0
176
     1
290
     0
176
     1
290
     1
176
     1
290
     1
176
     1
290
     0
176
     1
290
     0
176
     1
290
     0
176
     1
290
     0
176
     1
290
     0
176
     1
290
     0
176
     1
 90
       50
176
     1
 40
0.0
176
     1
 40
1.0
176
     1
 90
        0
176
     1
 62
    18
420
        0
176
     1
 90
       50
176
     1
 90
        3
176
     1
 62
     5
420
      255
176
     1
290
     0
176
     1
 90
       50
176
     1
 90
       50
176
     1
 90
       50
176
     1
290
     0
176
     1
 90
       50
176
     1
 62
   256
176
     0
 40
1.0
176
     0
 90
        2
176
     1
  1
strokes_ogs.tif
176
     1
290
     0
176
     1
 40
1.0
176
     1
 40
1.0
176
     1
  0
VISUALSTYLE
  5
3D
102
{ACAD_REACTORS
330
2A
102
}
330
2A
100
AcDbVisualStyle
  2
EdgeColorOff
 70
    22
177
     3
291
     1
 70
    58
 90
        2
176
     0
 90
        2
176
     0
 90
        0
176
     0
 90
        0
176
     0
 40
0.6
176
     0
 40
30.0
176
     0
 62
     7
420
 16777215
176
     0
 90
        1
176
     0
 90
        4
176
     0
 62
     7
176
     0
 62
   257
176
     0
 90
        1
176
     0
 90
        1
176
     0
 40
1.0
176
     0
 90
        8
176
     2
 62
     7
176
     0
 40
1.0
176
     0
 90
        1
176
     0
 90
        6
176
     0
 90
        2
176
     0
 62
     7
176
     0
 90
        5
176
     0
 90
        0
176
     0
 90
        0
176
     0
290
     0
176
     0
 90
        1
176
     0
 40
0.0
176
     0
 90
        0
176
     0
290
     0
176
     0
290
     1
176
     0
290
     1
176
     0
290
     0
176
     0
290
     0
176
     0
290
     0
176
     0
290
     0
176
     0
290
     0
176
     0
290
     0
176
     0
 90
       50
176
     0
 40
0.0
176
     0
 40
1.0
176
     0
 90
        0
176
     0
 62
    18
420
        0
176
     0
 90
       50
176
     0
 90
        3
176
     0
 62
     5
420
      255
176
     0
290
     0
176
     0
 90
       50
176
     0
 90
       50
176
     0
 90
       50
176
     0
290
     0
176
     0
 90
       50
176
     0
 62
   256
176
     0
 40
1.0
176
     0
 90
        2
176
     0
  1
strokes_ogs.tif
176
     0
290
     0
176
     0
 40
1.0
176
     0
 40
1.0
176
     0
  0
VISUALSTYLE
  5
39
102
{ACAD_REACTORS
330
2A
102
}
330
2A
100
AcDbVisualStyle
  2
Facepattern
 70
    15
177
     3
291
     1
 70
    58
 90
        2
176
     1
 90
        2
176
     1
 90
        0
176
     1
 90
        0
176
     1
 40
0.6
176
     1
 40
30.0
176
     1
 62
     7
420
 16777215
176
     1
 90
        1
176
     1
 90
        4
176
     1
 62
     7
176
     1
 62
   257
176
     1
 90
        1
176
     1
 90
        1
176
     1
 40
1.0
176
     1
 90
        8
176
     1
 62
     7
176
     1
 40
1.0
176
     1
 90
        1
176
     1
 90
        6
176
     1
 90
        2
176
     1
 62
     7
176
     1
 90
        5
176
     1
 90
        0
176
     1
 90
        0
176
     1
290
     0
176
     1
 90
        1
176
     1
 40
0.0
176
     1
 90
        0
176
     1
290
     0
176
     1
290
     1
176
     1
290
     1
176
     1
290
     0
176
     1
290
     0
176
     1
290
     0
176
     1
290
     0
176
     1
290
     0
176
     1
290
     0
176
     1
 90
       50
176
     1
 40
0.0
176
     1
 40
1.0
176
     1
 90
        0
176
     1
 62
    18
420
        0
176
     1
 90
       50
176
     1
 90
        3
176
     1
 62
     5
420
      255
176
     1
290
     0
176
     1
 90
       50
176
     1
 90
       50
176
     1
 90
       50
176
     1
290
     0
176
     1
 90
       50
176
     1
 62
   256
176
     0
 40
1.0
176
     0
 90
        2
176
     1
  1
strokes_ogs.tif
176
     1
290
     0
176
     1
 40
1.0
176
     1
 40
1.0
176
     1
  0
VISUALSTYLE
  5
2B
102
{ACAD_REACTORS
330
2A
102
}
330
2A
100
AcDbVisualStyle
  2
Flat
 70
     0
177
     3
291
     1
 70
    58
 90
        2
176
     1
 90
        1
176
     1
 90
        1
176
     1
 90
        2
176
     1
 40
0.6
176
     1
 40
30.0
176
     1
 62
     7
420
 16777215
176
     1
 90
        0
176
     1
 90
        0
176
     1
 62
     7
176
     1
 62
   257
176
     1
 90
        1
176
     1
 90
        1
176
     1
 40
1.0
176
     1
 90
        8
176
     1
 62
     7
176
     1
 40
1.0
176
     1
 90
        1
176
     1
 90
        6
176
     1
 90
        2
176
     1
 62
     7
176
     1
 90
        5
176
     1
 90
        0
176
     1
 90
        0
176
     1
290
     0
176
     1
 90
       13
176
     1
 40
0.0
176
     1
 90
        0
176
     1
290
     0
176
     1
290
     1
176
     1
290
     1
176
     1
290
     0
176
     1
290
     0
176
     1
290
     0
176
     1
290
     0
176
     1
290
     0
176
     1
290
     0
176
     1
 90
       50
176
     1
 40
0.0
176
     1
 40
1.0
176
     1
 90
        0
176
     1
 62
    18
420
        0
176
     1
 90
       50
176
     1
 90
        3
176
     1
 62
     5
420
      255
176
     1
290
     0
176
     1
 90
       50
176
     1
 90
       50
176
     1
 90
       50
176
     1
290
     0
176
     1
 90
       50
176
     1
 62
   256
176
     0
 40
1.0
176
     0
 90
        2
176
     1
  1
strokes_ogs.tif
176
     1
290
     0
176
     1
 40
1.0
176
     1
 40
1.0
176
     1
  0
VISUALSTYLE
  5
2C
102
{ACAD_REACTORS
330
2A
102
}
330
2A
100
AcDbVisualStyle
  2
FlatWithEdges
 70
     1
177
     3
291
     1
 70
    58
 90
        2
176
     1
 90
        1
176
     1
 90
        1
176
     1
 90
        2
176
     1
 40
0.6
176
     1
 40
30.0
176
     1
 62
     7
420
 16777215
176
     1
 90
        1
176
     1
 90
        0
176
     1
 62
     7
176
     1
 62
   257
176
     1
 90
        1
176
     1
 90
        1
176
     1
 40
1.0
176
     1
 90
        0
176
     1
 62
   257
176
     1
 40
1.0
176
     1
 90
        1
176
     1
 90
        6
176
     1
 90
        2
176
     1
 62
     7
176
     1
 90
        5
176
     1
 90
        0
176
     1
 90
        0
176
     1
290
     0
176
     1
 90
       13
176
     1
 40
0.0
176
     1
 90
        0
176
     1
290
     0
176
     1
290
     1
176
     1
290
     1
176
     1
290
     0
176
     1
290
     0
176
     1
290
     0
176
     1
290
     0
176
     1
290
     0
176
     1
290
     0
176
     1
 90
       50
176
     1
 40
0.0
176
     1
 40
1.0
176
     1
 90
        0
176
     1
 62
    18
420
        0
176
     1
 90
       50
176
     1
 90
        3
176
     1
 62
     5
420
      255
176
     1
290
     0
176
     1
 90
       50
176
     1
 90
       50
176
     1
 90
       50
176
     1
290
     0
176
     1
 90
       50
176
     1
 62
   256
176
     0
 40
1.0
176
     0
 90
        2
176
     1
  1
strokes_ogs.tif
176
     1
290
     0
176
     1
 40
1.0
176
     1
 40
1.0
176
     1
  0
VISUALSTYLE
  5
2D
102
{ACAD_REACTORS
330
2A
102
}
330
2A
100
AcDbVisualStyle
  2
Gouraud
 70
     2
177
     3
291
     1
 70
    58
 90
        2
176
     1
 90
        2
176
     1
 90
        1
176
     1
 90
        2
176
     1
 40
0.6
176
     1
 40
30.0
176
     1
 62
     7
420
 16777215
176
     1
 90
        0
176
     1
 90
        0
176
     1
 62
     7
176
     1
 62
   257
176
     1
 90
        1
176
     1
 90
        1
176
     1
 40
1.0
176
     1
 90
        0
176
     1
 62
     7
176
     1
 40
1.0
176
     1
 90
        1
176
     1
 90
        6
176
     1
 90
        2
176
     1
 62
     7
176
     1
 90
        5
176
     1
 90
        0
176
     1
 90
        0
176
     1
290
     0
176
     1
 90
       13
176
     1
 40
0.0
176
     1
 90
        0
176
     1
290
     0
176
     1
290
     1
176
     1
290
     1
176
     1
290
     0
176
     1
290
     0
176
     1
290
     0
176
     1
290
     0
176
     1
290
     0
176
     1
290
     0
176
     1
 90
       50
176
     1
 40
0.0
176
     1
 40
1.0
176
     1
 90
        0
176
     1
 62
    18
420
        0
176
     1
 90
       50
176
     1
 90
        3
176
     1
 62
     5
420
      255
176
     1
290
     0
176
     1
 90
       50
176
     1
 90
       50
176
     1
 90
       50
176
     1
290
     0
176
     1
 90
       50
176
     1
 62
   256
176
     0
 40
1.0
176
     0
 90
        2
176
     1
  1
strokes_ogs.tif
176
     1
290
     0
176
     1
 40
1.0
176
     1
 40
1.0
176
     1
  0
VISUALSTYLE
  5
2E
102
{ACAD_REACTORS
330
2A
102
}
330
2A
100
AcDbVisualStyle
  2
GouraudWithEdges
 70
     3
177
     3
291
     1
 70
    58
 90
        2
176
     1
 90
        2
176
     1
 90
        1
176
     1
 90
        2
176
     1
 40
0.6
176
     1
 40
30.0
176
     1
 62
     7
420
 16777215
176
     1
 90
        1
176
     1
 90
        0
176
     1
 62
     7
176
     1
 62
   257
176
     1
 90
        1
176
     1
 90
        1
176
     1
 40
1.0
176
     1
 90
        0
176
     1
 62
   257
176
     1
 40
1.0
176
     1
 90
        1
176
     1
 90
        6
176
     1
 90
        2
176
     1
 62
     7
176
     1
 90
        5
176
     1
 90
        0
176
     1
 90
        0
176
     1
290
     0
176
     1
 90
       13
176
     1
 40
0.0
176
     1
 90
        0
176
     1
290
     0
176
     1
290
     1
176
     1
290
     1
176
     1
290
     0
176
     1
290
     0
176
     1
290
     0
176
     1
290
     0
176
     1
290
     0
176
     1
290
     0
176
     1
 90
       50
176
     1
 40
0.0
176
     1
 40
1.0
176
     1
 90
        0
176
     1
 62
    18
420
        0
176
     1
 90
       50
176
     1
 90
        3
176
     1
 62
     5
420
      255
176
     1
290
     0
176
     1
 90
       50
176
     1
 90
       50
176
     1
 90
       50
176
     1
290
     0
176
     1
 90
       50
176
     1
 62
   256
176
     0
 40
1.0
176
     0
 90
        2
176
     1
  1
strokes_ogs.tif
176
     1
290
     0
176
     1
 40
1.0
176
     1
 40
1.0
176
     1
  0
VISUALSTYLE
  5
31
102
{ACAD_REACTORS
330
2A
102
}
330
2A
100
AcDbVisualStyle
  2
Hidden
 70
     6
177
     3
291
     0
 70
    58
 90
        1
176
     1
 90
        2
176
     1
 90
        2
176
     1
 90
        0
176
     1
 40
0.6
176
     1
 40
30.0
176
     1
 62
     7
420
 16777215
176
     1
 90
        2
176
     1
 90
        2
176
     1
 62
     7
176
     1
 62
   257
176
     1
 90
        2
176
     1
 90
        1
176
     1
 40
40.0
176
     1
 90
        0
176
     1
 62
   257
176
     1
 40
1.0
176
     1
 90
        1
176
     1
 90
        6
176
     1
 90
        2
176
     1
 62
     7
176
     1
 90
        3
176
     1
 90
        0
176
     1
 90
        0
176
     1
290
     0
176
     1
 90
        1
176
     1
 40
0.0
176
     1
 90
        0
176
     1
290
     0
176
     1
290
     1
176
     1
290
     1
176
     1
290
     0
176
     1
290
     0
176
     1
290
     0
176
     1
290
     0
176
     1
290
     0
176
     1
290
     0
176
     1
 90
       50
176
     1
 40
0.0
176
     1
 40
1.0
176
     1
 90
        0
176
     1
 62
    18
420
        0
176
     1
 90
       50
176
     1
 90
        3
176
     1
 62
     5
420
      255
176
     1
290
     0
176
     1
 90
       50
176
     1
 90
       50
176
     1
 90
       50
176
     1
290
     0
176
     1
 90
       50
176
     1
 62
   256
176
     0
 40
1.0
176
     0
 90
        2
176
     1
  1
strokes_ogs.tif
176
     1
290
     0
176
     1
 40
1.0
176
     1
 40
1.0
176
     1
  0
VISUALSTYLE
  5
3B
102
{ACAD_REACTORS
330
2A
102
}
330
2A
100
AcDbVisualStyle
  2
JitterOff
 70
    20
177
     3
291
     1
 70
    58
 90
        2
176
     0
 90
        2
176
     0
 90
        0
176
     0
 90
        0
176
     0
 40
0.6
176
     0
 40
30.0
176
     0
 62
     7
420
 16777215
176
     0
 90
        1
176
     0
 90
        4
176
     0
 62
     7
176
     0
 62
   257
176
     0
 90
        1
176
     0
 90
        1
176
     0
 40
1.0
176
     0
 90
       10
176
     2
 62
     7
176
     0
 40
1.0
176
     0
 90
        1
176
     0
 90
        6
176
     0
 90
        2
176
     0
 62
     7
176
     0
 90
        5
176
     0
 90
        0
176
     0
 90
        0
176
     0
290
     0
176
     0
 90
        1
176
     0
 40
0.0
176
     0
 90
        0
176
     0
290
     0
176
     0
290
     1
176
     0
290
     1
176
     0
290
     0
176
     0
290
     0
176
     0
290
     0
176
     0
290
     0
176
     0
290
     0
176
     0
290
     0
176
     0
 90
       50
176
     0
 40
0.0
176
     0
 40
1.0
176
     0
 90
        0
176
     0
 62
    18
420
        0
176
     0
 90
       50
176
     0
 90
        3
176
     0
 62
     5
420
      255
176
     0
290
     0
176
     0
 90
       50
176
     0
 90
       50
176
     0
 90
       50
176
     0
290
     0
176
     0
 90
       50
176
     0
 62
   256
176
     0
 40
1.0
176
     0
 90
        2
176
     0
  1
strokes_ogs.tif
176
     0
290
     0
176
     0
 40
1.0
176
     0
 40
1.0
176
     0
  0
VISUALSTYLE
  5
38
102
{ACAD_REACTORS
330
2A
102
}
330
2A
100
AcDbVisualStyle
  2
Linepattern
 70
    14
177
     3
291
     1
 70
    58
 90
        2
176
     1
 90
        2
176
     1
 90
        0
176
     1
 90
        0
176
     1
 40
0.6
176
     1
 40
30.0
176
     1
 62
     7
420
 16777215
176
     1
 90
        1
176
     1
 90
        4
176
     1
 62
     7
176
     1
 62
   257
176
     1
 90
        7
176
     1
 90
        7
176
     1
 40
1.0
176
     1
 90
        8
176
     1
 62
     7
176
     1
 40
1.0
176
     1
 90
        1
176
     1
 90
        6
176
     1
 90
        2
176
     1
 62
     7
176
     1
 90
        5
176
     1
 90
        0
176
     1
 90
        0
176
     1
290
     0
176
     1
 90
        1
176
     1
 40
0.0
176
     1
 90
        0
176
     1
290
     0
176
     1
290
     1
176
     1
290
     1
176
     1
290
     0
176
     1
290
     0
176
     1
290
     0
176
     1
290
     0
176
     1
290
     0
176
     1
290
     0
176
     1
 90
       50
176
     1
 40
0.0
176
     1
 40
1.0
176
     1
 90
        0
176
     1
 62
    18
420
        0
176
     1
 90
       50
176
     1
 90
        3
176
     1
 62
     5
420
      255
176
     1
290
     0
176
     1
 90
       50
176
     1
 90
       50
176
     1
 90
       50
176
     1
290
     0
176
     1
 90
       50
176
     1
 62
   256
176
     0
 40
1.0
176
     0
 90
        2
176
     1
  1
strokes_ogs.tif
176
     1
290
     0
176
     1
 40
1.0
176
     1
 40
1.0
176
     1
  0
VISUALSTYLE
  5
3C
102
{ACAD_REACTORS
330
2A
102
}
330
2A
100
AcDbVisualStyle
  2
OverhangOff
 70
    21
177
     3
291
     1
 70
    58
 90
        2
176
     0
 90
        2
176
     0
 90
        0
176
     0
 90
        0
176
     0
 40
0.6
176
     0
 40
30.0
176
     0
 62
     7
420
 16777215
176
     0
 90
        1
176
     0
 90
        4
176
     0
 62
     7
176
     0
 62
   257
176
     0
 90
        1
176
     0
 90
        1
176
     0
 40
1.0
176
     0
 90
        9
176
     2
 62
     7
176
     0
 40
1.0
176
     0
 90
        1
176
     0
 90
        6
176
     0
 90
        2
176
     0
 62
     7
176
     0
 90
        5
176
     0
 90
        0
176
     0
 90
        0
176
     0
290
     0
176
     0
 90
        1
176
     0
 40
0.0
176
     0
 90
        0
176
     0
290
     0
176
     0
290
     1
176
     0
290
     1
176
     0
290
     0
176
     0
290
     0
176
     0
290
     0
176
     0
290
     0
176
     0
290
     0
176
     0
290
     0
176
     0
 90
       50
176
     0
 40
0.0
176
     0
 40
1.0
176
     0
 90
        0
176
     0
 62
    18
420
        0
176
     0
 90
       50
176
     0
 90
        3
176
     0
 62
     5
420
      255
176
     0
290
     0
176
     0
 90
       50
176
     0
 90
       50
176
     0
 90
       50
176
     0
290
     0
176
     0
 90
       50
176
     0
 62
   256
176
     0
 40
1.0
176
     0
 90
        2
176
     0
  1
strokes_ogs.tif
176
     0
290
     0
176
     0
 40
1.0
176
     0
 40
1.0
176
     0
  0
VISUALSTYLE
  5
33
102
{ACAD_REACTORS
330
2A
102
}
330
2A
100
AcDbVisualStyle
  2
Realistic
 70
     8
177
     3
291
     0
 70
    58
 90
        2
176
     1
 90
        3
176
     1
 90
        0
176
     1
 90
        2
176
     1
 40
0.6
176
     1
 40
30.0
176
     1
 62
     7
420
 16777215
176
     1
 90
        0
176
     1
 90
        0
176
     1
 62
     7
176
     1
 62
   257
176
     1
 90
        1
176
     1
 90
        1
176
     1
 40
1.0
176
     1
 90
        8
176
     1
 62
   257
176
     1
 40
1.0
176
     1
 90
        1
176
     1
 90
        6
176
     1
 90
        2
176
     1
 62
     7
176
     1
 90
        3
176
     1
 90
        0
176
     1
 90
        0
176
     1
290
     0
176
     1
 90
       13
176
     1
 40
0.0
176
     1
 90
        0
176
     1
290
     0
176
     1
290
     1
176
     1
290
     1
176
     1
290
     0
176
     1
290
     0
176
     1
290
     0
176
     1
290
     0
176
     1
290
     0
176
     1
290
     0
176
     1
 90
       50
176
     1
 40
0.0
176
     1
 40
1.0
176
     1
 90
        0
176
     1
 62
    18
420
        0
176
     1
 90
       50
176
     1
 90
        3
176
     1
 62
     5
420
      255
176
     1
290
     0
176
     1
 90
       50
176
     1
 90
       50
176
     1
 90
       50
176
     1
290
     0
176
     1
 90
       50
176
     1
 62
   256
176
     0
 40
1.0
176
     0
 90
        2
176
     1
  1
strokes_ogs.tif
176
     1
290
     0
176
     1
 40
1.0
176
     1
 40
1.0
176
     1
  0
VISUALSTYLE
  5
42
102
{ACAD_REACTORS
330
2A
102
}
330
2A
100
AcDbVisualStyle
  2
Shaded
 70
    27
177
     3
291
     0
 70
    58
 90
        2
176
     1
 90
        2
176
     1
 90
        1
176
     1
 90
        2
176
     1
 40
0.6
176
     1
 40
30.0
176
     1
 62
     7
420
 16777215
176
     1
 90
        0
176
     1
 90
        4
176
     1
 62
     7
176
     1
 62
   257
176
     1
 90
        1
176
     1
 90
        1
176
     1
 40
1.0
176
     1
 90
        8
176
     1
 62
   257
176
     1
 40
1.0
176
     1
 90
        1
176
     1
 90
        6
176
     1
 90
        2
176
     1
 62
     8
420
  7895160
176
     1
 90
        3
176
     1
 90
        0
176
     1
 90
        0
176
     1
290
     0
176
     1
 90
        5
176
     1
 40
0.0
176
     1
 90
        0
176
     1
290
     0
176
     1
290
     1
176
     1
290
     1
176
     1
290
     0
176
     1
290
     0
176
     1
290
     0
176
     1
290
     0
176
     1
290
     0
176
     1
290
     0
176
     1
 90
       50
176
     1
 40
0.0
176
     1
 40
1.0
176
     1
 90
        0
176
     1
 62
    18
420
        0
176
     1
 90
       50
176
     1
 90
        3
176
     1
 62
     5
420
      255
176
     1
290
     0
176
     1
 90
       50
176
     1
 90
       50
176
     1
 90
       50
176
     1
290
     0
176
     1
 90
       50
176
     1
 62
   256
176
     0
 40
1.0
176
     0
 90
        2
176
     1
  1
strokes_ogs.tif
176
     1
290
     0
176
     1
 40
1.0
176
     1
 40
1.0
176
     1
  0
VISUALSTYLE
  5
41
102
{ACAD_REACTORS
330
2A
102
}
330
2A
100
AcDbVisualStyle
  2
Shaded with edges
 70
    26
177
     3
291
     0
 70
    58
 90
        2
176
     1
 90
        2
176
     1
 90
        1
176
     1
 90
        2
176
     1
 40
0.6
176
     1
 40
30.0
176
     1
 62
     7
420
 16777215
176
     1
 90
        1
176
     1
 90
       10
176
     1
 62
     7
176
     1
 62
   257
176
     1
 90
        2
176
     1
 90
        1
176
     1
 40
1.0
176
     1
 90
        8
176
     1
 62
   257
176
     1
 40
1.0
176
     1
 90
        1
176
     1
 90
        6
176
     1
 90
        2
176
     1
 62
     7
176
     1
 90
        3
176
     1
 90
        0
176
     1
 90
        0
176
     1
290
     0
176
     1
 90
        5
176
     1
 40
0.0
176
     1
 90
        0
176
     1
290
     0
176
     1
290
     1
176
     1
290
     1
176
     1
290
     0
176
     1
290
     0
176
     1
290
     0
176
     1
290
     0
176
     1
290
     0
176
     1
290
     0
176
     1
 90
       50
176
     1
 40
0.0
176
     1
 40
1.0
176
     1
 90
        0
176
     1
 62
    18
420
        0
176
     1
 90
       50
176
     1
 90
        3
176
     1
 62
     5
420
      255
176
     1
290
     0
176
     1
 90
       50
176
     1
 90
       50
176
     1
 90
       50
176
     1
290
     0
176
     1
 90
       50
176
     1
 62
   256
176
     0
 40
1.0
176
     0
 90
        2
176
     1
  1
strokes_ogs.tif
176
     1
290
     0
176
     1
 40
1.0
176
     1
 40
1.0
176
     1
  0
VISUALSTYLE
  5
3E
102
{ACAD_REACTORS
330
2A
102
}
330
2A
100
AcDbVisualStyle
  2
Shades of Gray
 70
    23
177
     3
291
     0
 70
    58
 90
        2
176
     1
 90
        2
176
     1
 90
        3
176
     1
 90
        0
176
     1
 40
0.6
176
     1
 40
30.0
176
     1
 62
     7
420
 16777215
176
     1
 90
        2
176
     1
 90
        2
176
     1
 62
     7
176
     1
 62
     7
176
     1
 90
        1
176
     1
 90
        1
176
     1
 40
40.0
176
     1
 90
        8
176
     1
 62
     7
176
     1
 40
1.0
176
     1
 90
        1
176
     1
 90
        6
176
     1
 90
        2
176
     1
 62
     7
176
     1
 90
        3
176
     1
 90
        0
176
     1
 90
        0
176
     1
290
     0
176
     1
 90
        1
176
     1
 40
0.0
176
     1
 90
        0
176
     1
290
     0
176
     1
290
     1
176
     1
290
     1
176
     1
290
     0
176
     1
290
     0
176
     1
290
     0
176
     1
290
     0
176
     1
290
     0
176
     1
290
     0
176
     1
 90
       50
176
     1
 40
0.0
176
     1
 40
1.0
176
     1
 90
        0
176
     1
 62
    18
420
        0
176
     1
 90
       50
176
     1
 90
        3
176
     1
 62
     5
420
      255
176
     1
290
     0
176
     1
 90
       50
176
     1
 90
       50
176
     1
 90
       50
176
     1
290
     0
176
     1
 90
       50
176
     1
 62
   256
176
     0
 40
1.0
176
     0
 90
        2
176
     1
  1
strokes_ogs.tif
176
     1
290
     0
176
     1
 40
1.0
176
     1
 40
1.0
176
     1
  0
VISUALSTYLE
  5
3F
102
{ACAD_REACTORS
330
2A
102
}
330
2A
100
AcDbVisualStyle
  2
Sketchy
 70
    24
177
     3
291
     0
 70
    58
 90
        1
176
     1
 90
        2
176
     1
 90
        2
176
     1
 90
        0
176
     1
 40
0.6
176
     1
 40
30.0
176
     1
 62
     7
420
 16777215
176
     1
 90
        2
176
     1
 90
        2
176
     1
 62
     7
176
     1
 62
     7
176
     1
 90
        1
176
     1
 90
        1
176
     1
 40
40.0
176
     1
 90
       11
176
     1
 62
     7
176
     1
 40
1.0
176
     1
 90
        1
176
     1
 90
        6
176
     1
 90
        2
176
     1
 62
     7
176
     1
 90
        6
176
     1
 90
        0
176
     1
 90
        0
176
     1
290
     0
176
     1
 90
        1
176
     1
 40
0.0
176
     1
 90
        0
176
     1
290
     0
176
     1
290
     1
176
     1
290
     1
176
     1
290
     0
176
     1
290
     0
176
     1
290
     0
176
     1
290
     0
176
     1
290
     0
176
     1
290
     0
176
     1
 90
       50
176
     1
 40
0.0
176
     1
 40
1.0
176
     1
 90
        0
176
     1
 62
    18
420
        0
176
     1
 90
       50
176
     1
 90
        3
176
     1
 62
     5
420
      255
176
     1
290
     0
176
     1
 90
       50
176
     1
 90
       50
176
     1
 90
       50
176
     1
290
     0
176
     1
 90
       50
176
     1
 62
   256
176
     0
 40
1.0
176
     0
 90
        2
176
     1
  1
strokes_ogs.tif
176
     1
290
     0
176
     1
 40
1.0
176
     1
 40
1.0
176
     1
  0
VISUALSTYLE
  5
37
102
{ACAD_REACTORS
330
2A
102
}
330
2A
100
AcDbVisualStyle
  2
Thicken
 70
    13
177
     3
291
     1
 70
    58
 90
        2
176
     1
 90
        2
176
     1
 90
        0
176
     1
 90
        0
176
     1
 40
0.6
176
     1
 40
30.0
176
     1
 62
     7
420
 16777215
176
     1
 90
        1
176
     1
 90
        4
176
     1
 62
     7
176
     1
 62
   257
176
     1
 90
        1
176
     1
 90
        1
176
     1
 40
1.0
176
     1
 90
       12
176
     1
 62
     7
176
     1
 40
1.0
176
     1
 90
        1
176
     1
 90
        6
176
     1
 90
        2
176
     1
 62
     7
176
     1
 90
        5
176
     1
 90
        0
176
     1
 90
        0
176
     1
290
     0
176
     1
 90
        1
176
     1
 40
0.0
176
     1
 90
        0
176
     1
290
     0
176
     1
290
     1
176
     1
290
     1
176
     1
290
     0
176
     1
290
     0
176
     1
290
     0
176
     1
290
     0
176
     1
290
     0
176
     1
290
     0
176
     1
 90
       50
176
     1
 40
0.0
176
     1
 40
1.0
176
     1
 90
        0
176
     1
 62
    18
420
        0
176
     1
 90
       50
176
     1
 90
        3
176
     1
 62
     5
420
      255
176
     1
290
     0
176
     1
 90
       50
176
     1
 90
       50
176
     1
 90
       50
176
     1
290
     0
176
     1
 90
       50
176
     1
 62
   256
176
     0
 40
1.0
176
     0
 90
        2
176
     1
  1
strokes_ogs.tif
176
     1
290
     0
176
     1
 40
1.0
176
     1
 40
1.0
176
     1
  0
VISUALSTYLE
  5
30
102
{ACAD_REACTORS
330
2A
102
}
330
2A
100
AcDbVisualStyle
  2
Wireframe
 70
     5
177
     3
291
     0
 70
    58
 90
        0
176
     1
 90
        2
176
     1
 90
        0
176
     1
 90
        0
176
     1
 40
0.6
176
     1
 40
30.0
176
     1
 62
     7
420
 16777215
176
     1
 90
        1
176
     1
 90
        4
176
     1
 62
     7
176
     1
 62
   257
176
     1
 90
        1
176
     1
 90
        1
176
     1
 40
1.0
176
     1
 90
        0
176
     1
 62
   257
176
     1
 40
1.0
176
     1
 90
        1
176
     1
 90
        6
176
     1
 90
        2
176
     1
 62
     7
176
     1
 90
        3
176
     1
 90
        0
176
     1
 90
        0
176
     1
290
     0
176
     1
 90
        1
176
     1
 40
0.0
176
     1
 90
        0
176
     1
290
     0
176
     1
290
     1
176
     1
290
     1
176
     1
290
     0
176
     1
290
     0
176
     1
290
     0
176
     1
290
     0
176
     1
290
     0
176
     1
290
     0
176
     1
 90
       50
176
     1
 40
0.0
176
     1
 40
1.0
176
     1
 90
        0
176
     1
 62
    18
420
        0
176
     1
 90
       50
176
     1
 90
        3
176
     1
 62
     5
420
      255
176
     1
290
     0
176
     1
 90
       50
176
     1
 90
       50
176
     1
 90
       50
176
     1
290
     0
176
     1
 90
       50
176
     1
 62
   256
176
     0
 40
1.0
176
     0
 90
        2
176
     1
  1
strokes_ogs.tif
176
     1
290
     0
176
     1
 40
1.0
176
     1
 40
1.0
176
     1
  0
VISUALSTYLE
  5
40
102
{ACAD_REACTORS
330
2A
102
}
330
2A
100
AcDbVisualStyle
  2
X-Ray
 70
    25
177
     3
291
     0
 70
    58
 90
        2
176
     1
 90
        2
176
     1
 90
        1
176
     1
 90
        1
176
     1
 40
0.5
176
     1
 40
30.0
176
     1
 62
     7
420
 16777215
176
     1
 90
        1
176
     1
 90
        0
176
     1
 62
     7
176
     1
 62
   257
176
     1
 90
        1
176
     1
 90
        1
176
     1
 40
1.0
176
     1
 90
        8
176
     1
 62
     7
176
     1
 40
1.0
176
     1
 90
        1
176
     1
 90
        6
176
     1
 90
        2
176
     1
 62
     7
176
     1
 90
        3
176
     1
 90
        0
176
     1
 90
        0
176
     1
290
     0
176
     1
 90
       13
176
     1
 40
0.0
176
     1
 90
        0
176
     1
290
     0
176
     1
290
     1
176
     1
290
     1
176
     1
290
     0
176
     1
290
     0
176
     1
290
     0
176
     1
290
     0
176
     1
290
     0
176
     1
290
     0
176
     1
 90
       50
176
     1
 40
0.0
176
     1
 40
1.0
176
     1
 90
        0
176
     1
 62
    18
420
        0
176
     1
 90
       50
176
     1
 90
        3
176
     1
 62
     5
420
      255
176
     1
290
     0
176
     1
 90
       50
176
     1
 90
       50
176
     1
 90
       50
176
     1
290
     0
176
     1
 90
       50
176
     1
 62
   256
176
     0
 40
1.0
176
     0
 90
        2
176
     1
  1
strokes_ogs.tif
176
     1
290
     0
176
     1
 40
1.0
176
     1
 40
1.0
176
     1
  0
DICTIONARYVAR
  5
C6
102
{ACAD_REACTORS
330
C5
102
}
330
C5
100
DictionaryVariables
280
     0
  1
1:1
  0
DICTIONARYVAR
  5
CB
102
{ACAD_REACTORS
330
C5
102
}
330
C5
100
DictionaryVariables
280
     0
  1
Standard
  0
DICTIONARYVAR
  5
CA
102
{ACAD_REACTORS
330
C5
102
}
330
C5
100
DictionaryVariables
280
     0
  1
Standard
  0
DICTIONARY
  5
C7
330
5A
100
AcDbDictionary
280
     1
281
     1
  3
ACAD_ROUNDTRIP_2008_TABLESTYLE_CELLSTYLEMAP
360
C8
  0
CELLSTYLEMAP
  5
C8
102
{ACAD_REACTORS
330
C7
102
}
330
C7
100
AcDbCellStyleMap
 90
        3
300
CELLSTYLE
  1
TABLEFORMAT_BEGIN
 90
        5
170
     1
 91
        0
 92
    32768
 62
   257
 93
        1
300
CONTENTFORMAT
  1
CONTENTFORMAT_BEGIN
 90
        0
 91
        0
 92
        4
 93
        0
300

 40
0.0
140
1.0
 94
        5
 62
     0
340
11
144
0.25
309
CONTENTFORMAT_END
171
     1
301
MARGIN
  1
CELLMARGIN_BEGIN
 40
0.06
 40
0.06
 40
0.06
 40
0.06
 40
0.06
 40
0.06
309
CELLMARGIN_END
 94
        6
 95
        1
302
GRIDFORMAT
  1
GRIDFORMAT_BEGIN
 90
        0
 91
        1
 62
     0
 92
       -2
340
14
 93
        0
 40
0.045
309
GRIDFORMAT_END
 95
        2
302
GRIDFORMAT
  1
GRIDFORMAT_BEGIN
 90
        0
 91
        1
 62
     0
 92
       -2
340
14
 93
        0
 40
0.045
309
GRIDFORMAT_END
 95
        4
302
GRIDFORMAT
  1
GRIDFORMAT_BEGIN
 90
        0
 91
        1
 62
     0
 92
       -2
340
14
 93
        0
 40
0.045
309
GRIDFORMAT_END
 95
        8
302
GRIDFORMAT
  1
GRIDFORMAT_BEGIN
 90
        0
 91
        1
 62
     0
 92
       -2
340
14
 93
        0
 40
0.045
309
GRIDFORMAT_END
 95
       16
302
GRIDFORMAT
  1
GRIDFORMAT_BEGIN
 90
        0
 91
        1
 62
     0
 92
       -2
340
14
 93
        0
 40
0.045
309
GRIDFORMAT_END
 95
       32
302
GRIDFORMAT
  1
GRIDFORMAT_BEGIN
 90
        0
 91
        1
 62
     0
 92
       -2
340
14
 93
        0
 40
0.045
309
GRIDFORMAT_END
309
TABLEFORMAT_END
  1
CELLSTYLE_BEGIN
 90
        1
 91
        1
300
_TITLE
309
CELLSTYLE_END
300
CELLSTYLE
  1
TABLEFORMAT_BEGIN
 90
        5
170
     1
 91
        0
 92
        0
 62
   257
 93
        1
300
CONTENTFORMAT
  1
CONTENTFORMAT_BEGIN
 90
        0
 91
        0
 92
        4
 93
        0
300

 40
0.0
140
1.0
 94
        5
 62
     0
340
11
144
0.18
309
CONTENTFORMAT_END
171
     1
301
MARGIN
  1
CELLMARGIN_BEGIN
 40
0.06
 40
0.06
 40
0.06
 40
0.06
 40
0.06
 40
0.06
309
CELLMARGIN_END
 94
        6
 95
        1
302
GRIDFORMAT
  1
GRIDFORMAT_BEGIN
 90
        0
 91
        1
 62
     0
 92
       -2
340
14
 93
        0
 40
0.045
309
GRIDFORMAT_END
 95
        2
302
GRIDFORMAT
  1
GRIDFORMAT_BEGIN
 90
        0
 91
        1
 62
     0
 92
       -2
340
14
 93
        0
 40
0.045
309
GRIDFORMAT_END
 95
        4
302
GRIDFORMAT
  1
GRIDFORMAT_BEGIN
 90
        0
 91
        1
 62
     0
 92
       -2
340
14
 93
        0
 40
0.045
309
GRIDFORMAT_END
 95
        8
302
GRIDFORMAT
  1
GRIDFORMAT_BEGIN
 90
        0
 91
        1
 62
     0
 92
       -2
340
14
 93
        0
 40
0.045
309
GRIDFORMAT_END
 95
       16
302
GRIDFORMAT
  1
GRIDFORMAT_BEGIN
 90
        0
 91
        1
 62
     0
 92
       -2
340
14
 93
        0
 40
0.045
309
GRIDFORMAT_END
 95
       32
302
GRIDFORMAT
  1
GRIDFORMAT_BEGIN
 90
        0
 91
        1
 62
     0
 92
       -2
340
14
 93
        0
 40
0.045
309
GRIDFORMAT_END
309
TABLEFORMAT_END
  1
CELLSTYLE_BEGIN
 90
        2
 91
        1
300
_HEADER
309
CELLSTYLE_END
300
CELLSTYLE
  1
TABLEFORMAT_BEGIN
 90
        5
170
     1
 91
        0
 92
        0
 62
   257
 93
        1
300
CONTENTFORMAT
  1
CONTENTFORMAT_BEGIN
 90
        0
 91
        0
 92
        4
 93
        0
300

 40
0.0
140
1.0
 94
        2
 62
     0
340
11
144
0.18
309
CONTENTFORMAT_END
171
     1
301
MARGIN
  1
CELLMARGIN_BEGIN
 40
0.06
 40
0.06
 40
0.06
 40
0.06
 40
0.06
 40
0.06
309
CELLMARGIN_END
 94
        6
 95
        1
302
GRIDFORMAT
  1
GRIDFORMAT_BEGIN
 90
        0
 91
        1
 62
     0
 92
       -2
340
14
 93
        0
 40
0.045
309
GRIDFORMAT_END
 95
        2
302
GRIDFORMAT
  1
GRIDFORMAT_BEGIN
 90
        0
 91
        1
 62
     0
 92
       -2
340
14
 93
        0
 40
0.045
309
GRIDFORMAT_END
 95
        4
302
GRIDFORMAT
  1
GRIDFORMAT_BEGIN
 90
        0
 91
        1
 62
     0
 92
       -2
340
14
 93
        0
 40
0.045
309
GRIDFORMAT_END
 95
        8
302
GRIDFORMAT
  1
GRIDFORMAT_BEGIN
 90
        0
 91
        1
 62
     0
 92
       -2
340
14
 93
        0
 40
0.045
309
GRIDFORMAT_END
 95
       16
302
GRIDFORMAT
  1
GRIDFORMAT_BEGIN
 90
        0
 91
        1
 62
     0
 92
       -2
340
14
 93
        0
 40
0.045
309
GRIDFORMAT_END
 95
       32
302
GRIDFORMAT
  1
GRIDFORMAT_BEGIN
 90
        0
 91
        1
 62
     0
 92
       -2
340
14
 93
        0
 40
0.045
309
GRIDFORMAT_END
309
TABLEFORMAT_END
  1
CELLSTYLE_BEGIN
 90
        3
 91
        2
300
_DATA
309
CELLSTYLE_END
  0
ENDSEC
  0
EOF
