  0
SECTION
  2
HEADER
  9
$ACADVER
  1
AC1027
  9
$ACADMAINTVER
 70
   105
  9
$DWGCODEPAGE
  3
ANSI_1252
  9
$LASTSAVEDBY
  1
Office Desk
  9
$REQUIREDVERSIONS
160
                 0
  9
$INSBASE
 10
0.0
 20
0.0
 30
0.0
  9
$EXTMIN
 10
353.9137
 20
-318.6142
 30
0.0
  9
$EXTMAX
 10
1753.8196
 20
396.6518
 30
0.0
  9
$LIMMIN
 10
0.0
 20
0.0
  9
$LIMMAX
 10
12.0
 20
9.0
  9
$ORTHOMODE
 70
     0
  9
$REGENMODE
 70
     1
  9
$FILLMODE
 70
     1
  9
$QTEXTMODE
 70
     0
  9
$MIRRTEXT
 70
     1
  9
$LTSCALE
 40
1.0
  9
$ATTMODE
 70
     1
  9
$TEXTSIZE
 40
0.2
  9
$TRACEWID
 40
0.05
  9
$TEXTSTYLE
  7
Standard
  9
$CLAYER
  8
0
  9
$CELTYPE
  6
ByLayer
  9
$CECOLOR
 62
   256
  9
$CELTSCALE
 40
1.0
  9
$DISPSILH
 70
     0
  9
$DIMSCALE
 40
1.0
  9
$DIMASZ
 40
0.18
  9
$DIMEXO
 40
0.0625
  9
$DIMDLI
 40
0.38
  9
$DIMRND
 40
0.0
  9
$DIMDLE
 40
0.0
  9
$DIMEXE
 40
0.18
  9
$DIMTP
 40
0.0
  9
$DIMTM
 40
0.0
  9
$DIMTXT
 40
0.18
  9
$DIMCEN
 40
0.09
  9
$DIMTSZ
 40
0.0
  9
$DIMTOL
 70
     0
  9
$DIMLIM
 70
     0
  9
$DIMTIH
 70
     1
  9
$DIMTOH
 70
     1
  9
$DIMSE1
 70
     0
  9
$DIMSE2
 70
     0
  9
$DIMTAD
 70
     0
  9
$DIMZIN
 70
     0
  9
$DIMBLK
  1

  9
$DIMASO
 70
     1
  9
$DIMSHO
 70
     1
  9
$DIMPOST
  1

  9
$DIMAPOST
  1

  9
$DIMALT
 70
     0
  9
$DIMALTD
 70
     2
  9
$DIMALTF
 40
25.4
  9
$DIMLFAC
 40
1.0
  9
$DIMTOFL
 70
     0
  9
$DIMTVP
 40
0.0
  9
$DIMTIX
 70
     0
  9
$DIMSOXD
 70
     0
  9
$DIMSAH
 70
     0
  9
$DIMBLK1
  1

  9
$DIMBLK2
  1

  9
$DIMSTYLE
  2
Standard
  9
$DIMCLRD
 70
     0
  9
$DIMCLRE
 70
     0
  9
$DIMCLRT
 70
     0
  9
$DIMTFAC
 40
1.0
  9
$DIMGAP
 40
0.09
  9
$DIMJUST
 70
     0
  9
$DIMSD1
 70
     0
  9
$DIMSD2
 70
     0
  9
$DIMTOLJ
 70
     1
  9
$DIMTZIN
 70
     0
  9
$DIMALTZ
 70
     0
  9
$DIMALTTZ
 70
     0
  9
$DIMUPT
 70
     0
  9
$DIMDEC
 70
     4
  9
$DIMTDEC
 70
     4
  9
$DIMALTU
 70
     2
  9
$DIMALTTD
 70
     2
  9
$DIMTXSTY
  7
Standard
  9
$DIMAUNIT
 70
     0
  9
$DIMADEC
 70
     0
  9
$DIMALTRND
 40
0.0
  9
$DIMAZIN
 70
     0
  9
$DIMDSEP
 70
    46
  9
$DIMATFIT
 70
     3
  9
$DIMFRAC
 70
     0
  9
$DIMLDRBLK
  1

  9
$DIMLUNIT
 70
     2
  9
$DIMLWD
 70
    -2
  9
$DIMLWE
 70
    -2
  9
$DIMTMOVE
 70
     0
  9
$DIMFXL
 40
1.0
  9
$DIMFXLON
 70
     0
  9
$DIMJOGANG
 40
0.7853981633974483
  9
$DIMTFILL
 70
     0
  9
$DIMTFILLCLR
 70
     0
  9
$DIMARCSYM
 70
     0
  9
$DIMLTYPE
  6

  9
$DIMLTEX1
  6

  9
$DIMLTEX2
  6

  9
$DIMTXTDIRECTION
 70
     0
  9
$LUNITS
 70
     2
  9
$LUPREC
 70
     4
  9
$SKETCHINC
 40
0.1
  9
$FILLETRAD
 40
0.0
  9
$AUNITS
 70
     0
  9
$AUPREC
 70
     0
  9
$MENU
  1
.
  9
$ELEVATION
 40
0.0
  9
$PELEVATION
 40
0.0
  9
$THICKNESS
 40
0.0
  9
$LIMCHECK
 70
     0
  9
$CHAMFERA
 40
0.0
  9
$CHAMFERB
 40
0.0
  9
$CHAMFERC
 40
0.0
  9
$CHAMFERD
 40
0.0
  9
$SKPOLY
 70
     0
  9
$TDCREATE
 40
2461009.627373924
  9
$TDUCREATE
 40
2461009.398207257
  9
$TDUPDATE
 40
2461009.627374121
  9
$TDUUPDATE
 40
2461009.398207454
  9
$TDINDWG
 40
0.0000000116
  9
$TDUSRTIMER
 40
0.0000000116
  9
$USRTIMER
 70
     1
  9
$ANGBASE
 50
0.0
  9
$ANGDIR
 70
     0
  9
$PDMODE
 70
     0
  9
$PDSIZE
 40
0.0
  9
$PLINEWID
 40
0.0
  9
$SPLFRAME
 70
     0
  9
$SPLINETYPE
 70
     6
  9
$SPLINESEGS
 70
     8
  9
$HANDSEED
  5
103
  9
$SURFTAB1
 70
     6
  9
$SURFTAB2
 70
     6
  9
$SURFTYPE
 70
     6
  9
$SURFU
 70
     6
  9
$SURFV
 70
     6
  9
$UCSBASE
  2

  9
$UCSNAME
  2

  9
$UCSORG
 10
0.0
 20
0.0
 30
0.0
  9
$UCSXDIR
 10
1.0
 20
0.0
 30
0.0
  9
$UCSYDIR
 10
0.0
 20
1.0
 30
0.0
  9
$UCSORTHOREF
  2

  9
$UCSORTHOVIEW
 70
     0
  9
$UCSORGTOP
 10
0.0
 20
0.0
 30
0.0
  9
$UCSORGBOTTOM
 10
0.0
 20
0.0
 30
0.0
  9
$UCSORGLEFT
 10
0.0
 20
0.0
 30
0.0
  9
$UCSORGRIGHT
 10
0.0
 20
0.0
 30
0.0
  9
$UCSORGFRONT
 10
0.0
 20
0.0
 30
0.0
  9
$UCSORGBACK
 10
0.0
 20
0.0
 30
0.0
  9
$PUCSBASE
  2

  9
$PUCSNAME
  2

  9
$PUCSORG
 10
0.0
 20
0.0
 30
0.0
  9
$PUCSXDIR
 10
1.0
 20
0.0
 30
0.0
  9
$PUCSYDIR
 10
0.0
 20
1.0
 30
0.0
  9
$PUCSORTHOREF
  2

  9
$PUCSORTHOVIEW
 70
     0
  9
$PUCSORGTOP
 10
0.0
 20
0.0
 30
0.0
  9
$PUCSORGBOTTOM
 10
0.0
 20
0.0
 30
0.0
  9
$PUCSORGLEFT
 10
0.0
 20
0.0
 30
0.0
  9
$PUCSORGRIGHT
 10
0.0
 20
0.0
 30
0.0
  9
$PUCSORGFRONT
 10
0.0
 20
0.0
 30
0.0
  9
$PUCSORGBACK
 10
0.0
 20
0.0
 30
0.0
  9
$USERI1
 70
     0
  9
$USERI2
 70
     0
  9
$USERI3
 70
     0
  9
$USERI4
 70
     0
  9
$USERI5
 70
     0
  9
$USERR1
 40
0.0
  9
$USERR2
 40
0.0
  9
$USERR3
 40
0.0
  9
$USERR4
 40
0.0
  9
$USERR5
 40
0.0
  9
$WORLDVIEW
 70
     1
  9
$SHADEDGE
 70
     3
  9
$SHADEDIF
 70
    70
  9
$TILEMODE
 70
     1
  9
$MAXACTVP
 70
    64
  9
$PINSBASE
 10
0.0
 20
0.0
 30
0.0
  9
$PLIMCHECK
 70
     0
  9
$PEXTMIN
 10
1.000000000000000E+20
 20
1.000000000000000E+20
 30
1.000000000000000E+20
  9
$PEXTMAX
 10
-1.000000000000000E+20
 20
-1.000000000000000E+20
 30
-1.000000000000000E+20
  9
$PLIMMIN
 10
0.0
 20
0.0
  9
$PLIMMAX
 10
12.0
 20
9.0
  9
$UNITMODE
 70
     0
  9
$VISRETAIN
 70
     1
  9
$PLINEGEN
 70
     0
  9
$PSLTSCALE
 70
     1
  9
$TREEDEPTH
 70
  3020
  9
$CMLSTYLE
  2
Standard
  9
$CMLJUST
 70
     0
  9
$CMLSCALE
 40
1.0
  9
$PROXYGRAPHICS
 70
     1
  9
$MEASUREMENT
 70
     0
  9
$CELWEIGHT
370
    -1
  9
$ENDCAPS
280
     0
  9
$JOINSTYLE
280
     0
  9
$LWDISPLAY
290
     0
  9
$INSUNITS
 70
     4
  9
$HYPERLINKBASE
  1

  9
$STYLESHEET
  1

  9
$XEDIT
290
     1
  9
$CEPSNTYPE
380
     0
  9
$PSTYLEMODE
290
     1
  9
$FINGERPRINTGUID
  2
{c91861f3-7112-43dc-8dac-c4c4f3165b81}
  9
$VERSIONGUID
  2
{FAEB1C32-E019-11D5-929B-00C0DF256EC4}
  9
$EXTNAMES
290
     1
  9
$PSVPSCALE
 40
0.0
  9
$OLESTARTUP
290
     0
  9
$SORTENTS
280
   127
  9
$INDEXCTL
280
     0
  9
$HIDETEXT
280
     1
  9
$XCLIPFRAME
280
     2
  9
$HALOGAP
280
     0
  9
$OBSCOLOR
 70
   257
  9
$OBSLTYPE
280
     0
  9
$INTERSECTIONDISPLAY
280
     0
  9
$INTERSECTIONCOLOR
 70
   257
  9
$DIMASSOC
280
     2
  9
$PROJECTNAME
  1

  9
$CAMERADISPLAY
290
     0
  9
$LENSLENGTH
 40
50.0
  9
$CAMERAHEIGHT
 40
0.0
  9
$STEPSPERSEC
 40
2.0
  9
$STEPSIZE
 40
6.0
  9
$3DDWFPREC
 40
2.0
  9
$PSOLWIDTH
 40
0.25
  9
$PSOLHEIGHT
 40
4.0
  9
$LOFTANG1
 40
1.570796326794897
  9
$LOFTANG2
 40
1.570796326794897
  9
$LOFTMAG1
 40
0.0
  9
$LOFTMAG2
 40
0.0
  9
$LOFTPARAM
 70
     7
  9
$LOFTNORMALS
280
     1
  9
$LATITUDE
 40
37.795
  9
$LONGITUDE
 40
-122.394
  9
$NORTHDIRECTION
 40
0.0
  9
$TIMEZONE
 70
 -8000
  9
$LIGHTGLYPHDISPLAY
280
     1
  9
$TILEMODELIGHTSYNCH
280
     1
  9
$CMATERIAL
347
44
  9
$SOLIDHIST
280
     0
  9
$SHOWHIST
280
     1
  9
$DWFFRAME
280
     2
  9
$DGNFRAME
280
     2
  9
$REALWORLDSCALE
290
     1
  9
$INTERFERECOLOR
 62
   256
  9
$CSHADOW
280
     0
  9
$SHADOWPLANELOCATION
 40
0.0
  0
ENDSEC
  0
SECTION
  2
CLASSES
  0
CLASS
  1
ACDBDICTIONARYWDFLT
  2
AcDbDictionaryWithDefault
  3
ObjectDBX Classes
 90
        0
 91
        3
280
     0
281
     0
  0
CLASS
  1
VISUALSTYLE
  2
AcDbVisualStyle
  3
ObjectDBX Classes
 90
     4095
 91
        3
280
     0
281
     0
  0
CLASS
  1
MATERIAL
  2
AcDbMaterial
  3
ObjectDBX Classes
 90
     1153
 91
        3
280
     0
281
     0
  0
CLASS
  1
SCALE
  2
AcDbScale
  3
ObjectDBX Classes
 90
     1153
 91
        3
280
     0
281
     0
  0
CLASS
  1
TABLESTYLE
  2
AcDbTableStyle
  3
ObjectDBX Classes
 90
     4095
 91
        3
280
     0
281
     0
  0
CLASS
  1
MLEADERSTYLE
  2
AcDbMLeaderStyle
  3
ACDB_MLEADERSTYLE_CLASS
 90
     4095
 91
        3
280
     0
281
     0
  0
CLASS
  1
SUN
  2
AcDbSun
  3
SCENEOE
 90
     1153
 91
        3
280
     0
281
     0
  0
CLASS
  1
DICTIONARYVAR
  2
AcDbDictionaryVar
  3
ObjectDBX Classes
 90
        0
 91
        3
280
     0
281
     0
  0
CLASS
  1
CELLSTYLEMAP
  2
AcDbCellStyleMap
  3
ObjectDBX Classes
 90
     1152
 91
        3
280
     0
281
     0
  0
ENDSEC
  0
SECTION
  2
TABLES
  0
TABLE
  2
VPORT
  5
8
330
0
100
AcDbSymbolTable
 70
     1
  0
VPORT
  5
29
330
8
100
AcDbSymbolTableRecord
100
AcDbViewportTableRecord
  2
*Active
 70
     0
 10
0.0
 20
0.0
 11
1.0
 21
1.0
 12
10.42990654205607
 22
4.5
 13
0.0
 23
0.0
 14
0.5
 24
0.5
 15
0.5
 25
0.5
 16
0.0
 26
0.0
 36
1.0
 17
0.0
 27
0.0
 37
0.0
 40
9.0
 41
1.972972972850329
 42
50.0
 43
0.0
 44
0.0
 50
0.0
 51
0.0
 71
     0
 72
   100
 73
     1
 74
     3
 75
     0
 76
     0
 77
     0
 78
     0
281
     0
 65
     1
110
0.0
120
0.0
130
0.0
111
1.0
121
0.0
131
0.0
112
0.0
122
1.0
132
0.0
 79
     0
146
0.0
348
2F
 60
     3
 61
     5
292
     1
282
     1
141
0.0
142
0.0
 63
   250
361
5D
  0
ENDTAB
  0
TABLE
  2
LTYPE
  5
5
330
0
100
AcDbSymbolTable
 70
     2
  0
LTYPE
  5
14
330
5
100
AcDbSymbolTableRecord
100
AcDbLinetypeTableRecord
  2
ByBlock
 70
     0
  3

 72
    65
 73
     0
 40
0.0
  0
LTYPE
  5
15
330
5
100
AcDbSymbolTableRecord
100
AcDbLinetypeTableRecord
  2
ByLayer
 70
     0
  3

 72
    65
 73
     0
 40
0.0
  0
LTYPE
  5
16
330
5
100
AcDbSymbolTableRecord
100
AcDbLinetypeTableRecord
  2
Continuous
 70
     0
  3
Solid line
 72
    65
 73
     0
 40
0.0
  0
LTYPE
  5
D3
330
5
100
AcDbSymbolTableRecord
100
AcDbLinetypeTableRecord
  2
New Line1
 70
     0
  3

 72
    65
 73
     2
 40
0.2
 49
0.1
 74
     4
 75
     0
340
0
 46
1.0
 50
0.0
 44
0.0
 45
0.0
 49
-0.1
 74
     4
 75
     0
340
0
 46
1.0
 50
0.0
 44
0.0
 45
0.0
  0
ENDTAB
  0
TABLE
  2
LAYER
  5
2
330
0
100
AcDbSymbolTable
 70
     2
  0
LAYER
  5
10
330
2
100
AcDbSymbolTableRecord
100
AcDbLayerTableRecord
  2
0
 70
     0
 62
     7
  6
Continuous
370
    -3
390
F
347
46
348
0
  0
LAYER
  5
5F
330
2
100
AcDbSymbolTableRecord
100
AcDbLayerTableRecord
  2
Layer 1
 70
     0
 62
     7
  6
Continuous
370
    -3
390
F
347
46
348
0
  0
ENDTAB
  0
TABLE
  2
STYLE
  5
3
330
0
100
AcDbSymbolTable
 70
     1
  0
STYLE
  5
11
330
3
100
AcDbSymbolTableRecord
100
AcDbTextStyleTableRecord
  2
Standard
 70
     0
 40
0.0
 41
1.0
 50
0.0
 71
     0
 42
0.2
  3
txt
  4

  0
ENDTAB
  0
TABLE
  2
VIEW
  5
6
330
0
100
AcDbSymbolTable
 70
     0
  0
ENDTAB
  0
TABLE
  2
UCS
  5
7
330
0
100
AcDbSymbolTable
 70
     0
  0
ENDTAB
  0
TABLE
  2
APPID
  5
9
330
0
100
AcDbSymbolTable
 70
     2
  0
APPID
  5
12
330
9
100
AcDbSymbolTableRecord
100
AcDbRegAppTableRecord
  2
ACAD
 70
     0
  0
APPID
  5
5E
330
9
100
AcDbSymbolTableRecord
100
AcDbRegAppTableRecord
  2
ODA
 70
     0
  0
ENDTAB
  0
TABLE
  2
DIMSTYLE
  5
A
330
0
100
AcDbSymbolTable
 70
     1
100
AcDbDimStyleTable
  0
DIMSTYLE
105
27
330
A
100
AcDbSymbolTableRecord
100
AcDbDimStyleTableRecord
  2
Standard
 70
     0
178
     0
340
11
  0
ENDTAB
  0
TABLE
  2
BLOCK_RECORD
  5
1
330
0
100
AcDbSymbolTable
 70
     1
  0
BLOCK_RECORD
  5
1F
330
1
100
AcDbSymbolTableRecord
100
AcDbBlockTableRecord
  2
*Model_Space
340
22
 70
     0
280
     1
281
     0
  0
BLOCK_RECORD
  5
1B
330
1
100
AcDbSymbolTableRecord
100
AcDbBlockTableRecord
  2
*Paper_Space
340
1E
 70
     0
280
     1
281
     0
  0
BLOCK_RECORD
  5
23
330
1
100
AcDbSymbolTableRecord
100
AcDbBlockTableRecord
  2
*Paper_Space0
340
26
 70
     0
280
     1
281
     0
  0
ENDTAB
  0
ENDSEC
  0
SECTION
  2
BLOCKS
  0
BLOCK
  5
20
330
1F
100
AcDbEntity
  8
0
100
AcDbBlockBegin
  2
*Model_Space
 70
     0
 10
0.0
 20
0.0
 30
0.0
  3
*Model_Space
  1

  0
ENDBLK
  5
21
330
1F
100
AcDbEntity
  8
0
100
AcDbBlockEnd
  0
BLOCK
  5
1C
330
1B
100
AcDbEntity
 67
     1
  8
0
100
AcDbBlockBegin
  2
*Paper_Space
 70
     0
 10
0.0
 20
0.0
 30
0.0
  3
*Paper_Space
  1

  0
ENDBLK
  5
1D
330
1B
100
AcDbEntity
 67
     1
  8
0
100
AcDbBlockEnd
  0
BLOCK
  5
24
330
23
100
AcDbEntity
  8
0
100
AcDbBlockBegin
  2
*Paper_Space0
 70
     0
 10
0.0
 20
0.0
 30
0.0
  3
*Paper_Space0
  1

  0
ENDBLK
  5
25
330
23
100
AcDbEntity
  8
0
100
AcDbBlockEnd
  0
ENDSEC
  0
SECTION
  2
ENTITIES
  0
LWPOLYLINE
  5
60
330
1F
100
AcDbEntity
  8
Layer 1
 62
   250
370
    18
100
AcDbPolyline
 90
        5
 70
     1
 43
0.0
 10
354.0019
 20
-318.526
 10
1753.7313
 20
-318.526
 10
1753.7313
 20
396.5636
 10
354.0019
 20
396.5636
 10
354.0019
 20
-318.526
  0
LWPOLYLINE
  5
61
330
1F
100
AcDbEntity
  8
Layer 1
 62
     7
370
    18
100
AcDbPolyline
 90
        2
 70
     0
 43
0.0
 10
464.8874
 20
247.994
 10
1042.953
 20
247.994
  0
LWPOLYLINE
  5
62
330
1F
100
AcDbEntity
  8
Layer 1
 62
     7
370
    18
100
AcDbPolyline
 90
        2
 70
     0
 43
0.0
 10
1158.2859
 20
179.9933
 10
1158.2859
 20
-140.2834
  0
LWPOLYLINE
  5
63
330
1F
100
AcDbEntity
  8
Layer 1
 62
     7
370
    18
100
AcDbPolyline
 90
        2
 70
     0
 43
0.0
 10
463.1092
 20
260.3338
 10
463.1092
 20
164.5527
  0
LWPOLYLINE
  5
64
330
1F
100
AcDbEntity
  8
Layer 1
 62
     7
370
    18
100
AcDbPolyline
 90
        2
 70
     0
 43
0.0
 10
1042.5672
 20
260.3338
 10
1042.5672
 20
169.0967
  0
LWPOLYLINE
  5
65
330
1F
100
AcDbEntity
  8
Layer 1
 62
     7
370
    18
100
AcDbPolyline
 90
        2
 70
     0
 43
0.0
 10
1167.3375
 20
181.0664
 10
1047.1153
 20
181.0664
  0
LWPOLYLINE
  5
66
330
1F
100
AcDbEntity
  8
Layer 1
 62
     7
370
    18
100
AcDbPolyline
 90
        2
 70
     0
 43
0.0
 10
1167.3375
 20
-140.3945
 10
1045.1699
 20
-140.3945
  0
LWPOLYLINE
  5
67
330
1F
100
AcDbEntity
  8
Layer 1
 62
     7
100
AcDbPolyline
 90
       12
 70
     1
 43
0.0
 10
1194.0602
 20
0.848
 10
1188.6428
 20
0.848
 10
1188.6428
 20
-8.3263
 10
1186.0782
 20
-8.3263
 10
1171.3757
 20
1.3213
 10
1171.3757
 20
3.4445
 10
1186.0782
 20
3.4445
 10
1186.0782
 20
6.3063
 10
1188.6428
 20
6.3063
 10
1188.6428
 20
3.4445
 10
1194.0602
 20
3.4445
 10
1194.0602
 20
0.848
  0
LWPOLYLINE
  5
68
330
1F
100
AcDbEntity
  8
Layer 1
 62
     7
100
AcDbPolyline
 90
        4
 70
     1
 43
0.0
 10
1186.0782
 20
0.848
 10
1175.8709
 20
0.848
 10
1186.0782
 20
-5.776
 10
1186.0782
 20
0.848
  0
LWPOLYLINE
  5
69
330
1F
100
AcDbEntity
  8
Layer 1
 62
     7
100
AcDbPolyline
 90
      129
 70
     1
 43
0.0
 10
1181.7635
 20
12.9642
 10
1181.596
 20
12.5732
 10
1181.4116
 20
12.2084
 10
1181.2102
 20
11.8699
 10
1180.9921
 20
11.5576
 10
1180.7573
 20
11.2714
 10
1180.5059
 20
11.0114
 10
1180.2381
 20
10.7775
 10
1179.9538
 20
10.5696
 10
1179.6506
 20
10.3879
 10
1179.3334
 20
10.2303
 10
1179.0021
 20
10.0967
 10
1178.6566
 20
9.9874
 10
1178.2968
 20
9.9022
 10
1177.9226
 20
9.8413
 10
1177.534
 20
9.8047
 10
1177.1309
 20
9.7925
 10
1176.5244
 20
9.8183
 10
1175.9427
 20
9.8957
 10
1175.3859
 20
10.0247
 10
1174.8539
 20
10.2054
 10
1174.3466
 20
10.4376
 10
1173.8638
 20
10.7214
 10
1173.4056
 20
11.0569
 10
1172.9718
 20
11.4439
 10
1172.576
 20
11.8754
 10
1172.2329
 20
12.3408
 10
1171.9427
 20
12.8402
 10
1171.7052
 20
13.3736
 10
1171.5205
 20
13.9411
 10
1171.3885
 20
14.5428
 10
1171.3094
 20
15.1788
 10
1171.283
 20
15.8491
 10
1171.31
 20
16.5223
 10
1171.391
 20
17.1621
 10
1171.5259
 20
17.7684
 10
1171.7147
 20
18.3412
 10
1171.9574
 20
18.8803
 10
1172.2539
 20
19.3856
 10
1172.6042
 20
19.857
 10
1173.0082
 20
20.2944
 10
1173.4514
 20
20.6885
 10
1173.9179
 20
21.0301
 10
1174.4079
 20
21.3192
 10
1174.9214
 20
21.5558
 10
1175.4584
 20
21.7399
 10
1176.0192
 20
21.8714
 10
1176.6037
 20
21.9503
 10
1177.212
 20
21.9766
 10
1177.5995
 20
21.9646
 10
1177.9748
 20
21.9286
 10
1178.3375
 20
21.8686
 10
1178.6874
 20
21.7846
 10
1179.0244
 20
21.6766
 10
1179.3482
 20
21.5446
 10
1179.6586
 20
21.3887
 10
1179.9555
 20
21.2087
 10
1180.2406
 20
21.0048
 10
1180.5088
 20
20.7758
 10
1180.7599
 20
20.5218
 10
1180.9942
 20
20.2427
 10
1181.2116
 20
19.9384
 10
1181.4123
 20
19.6089
 10
1181.5962
 20
19.2542
 10
1181.7635
 20
18.8743
 10
1181.9465
 20
19.3442
 10
1182.1554
 20
19.7848
 10
1182.3903
 20
20.1963
 10
1182.6513
 20
20.5787
 10
1182.9386
 20
20.9321
 10
1183.2522
 20
21.2566
 10
1183.5922
 20
21.5523
 10
1183.9589
 20
21.8193
 10
1184.3467
 20
22.0563
 10
1184.7527
 20
22.2618
 10
1185.1771
 20
22.4359
 10
1185.6197
 20
22.5785
 10
1186.0808
 20
22.6894
 10
1186.5603
 20
22.7688
 10
1187.0583
 20
22.8164
 10
1187.5749
 20
22.8323
 10
1188.2873
 20
22.8023
 10
1188.9704
 20
22.7124
 10
1189.6244
 20
22.5628
 10
1190.2492
 20
22.3534
 10
1190.8451
 20
22.0843
 10
1191.4119
 20
21.7558
 10
1191.9499
 20
21.3678
 10
1192.4591
 20
20.9204
 10
1192.9236
 20
20.4219
 10
1193.3262
 20
19.8861
 10
1193.6668
 20
19.3131
 10
1193.9455
 20
18.7026
 10
1194.1623
 20
18.0545
 10
1194.3171
 20
17.3689
 10
1194.41
 20
16.6456
 10
1194.441
 20
15.8845
 10
1194.41
 20
15.1234
 10
1194.3171
 20
14.4002
 10
1194.1621
 20
13.7146
 10
1193.9451
 20
13.0667
 10
1193.666
 20
12.4564
 10
1193.3248
 20
11.8836
 10
1192.9214
 20
11.3482
 10
1192.4558
 20
10.8502
 10
1191.9427
 20
10.4024
 10
1191.3991
 20
10.0142
 10
1190.825
 20
9.6856
 10
1190.2205
 20
9.4167
 10
1189.5854
 20
9.2074
 10
1188.9199
 20
9.0579
 10
1188.2238
 20
8.9682
 10
1187.4971
 20
8.9383
 10
1186.9557
 20
8.9546
 10
1186.4367
 20
9.0036
 10
1185.9401
 20
9.0853
 10
1185.466
 20
9.1997
 10
1185.0144
 20
9.3467
 10
1184.5853
 20
9.5264
 10
1184.1788
 20
9.7387
 10
1183.795
 20
9.9837
 10
1183.4358
 20
10.2594
 10
1183.1069
 20
10.5628
 10
1182.8082
 20
10.8938
 10
1182.5396
 20
11.2525
 10
1182.3009
 20
11.6389
 10
1182.0921
 20
12.0529
 10
1181.913
 20
12.4947
 10
1181.7635
 20
12.9642
  0
LWPOLYLINE
  5
6A
330
1F
100
AcDbEntity
  8
Layer 1
 62
     7
100
AcDbPolyline
 90
       65
 70
     1
 43
0.0
 10
1177.0315
 20
12.4476
 10
1177.4263
 20
12.4626
 10
1177.8021
 20
12.5074
 10
1178.1592
 20
12.5821
 10
1178.4976
 20
12.6866
 10
1178.8174
 20
12.8209
 10
1179.1186
 20
12.9849
 10
1179.4013
 20
13.1787
 10
1179.6657
 20
13.4021
 10
1179.9056
 20
13.6508
 10
1180.1139
 20
13.9181
 10
1180.2902
 20
14.2041
 10
1180.4347
 20
14.5088
 10
1180.5473
 20
14.8321
 10
1180.6277
 20
15.174
 10
1180.6761
 20
15.5346
 10
1180.6922
 20
15.9138
 10
1180.6764
 20
16.2829
 10
1180.6288
 20
16.6342
 10
1180.5495
 20
16.9676
 10
1180.4385
 20
17.2834
 10
1180.2956
 20
17.5817
 10
1180.1209
 20
17.8627
 10
1179.9142
 20
18.1265
 10
1179.6756
 20
18.3732
 10
1179.4156
 20
18.5959
 10
1179.1411
 20
18.7887
 10
1178.8521
 20
18.9517
 10
1178.5486
 20
19.0849
 10
1178.2306
 20
19.1885
 10
1177.8982
 20
19.2624
 10
1177.5515
 20
19.3066
 10
1177.1905
 20
19.3214
 10
1176.8145
 20
19.3061
 10
1176.4538
 20
19.2604
 10
1176.1083
 20
19.184
 10
1175.778
 20
19.077
 10
1175.4628
 20
18.9394
 10
1175.1628
 20
18.7711
 10
1174.8777
 20
18.5721
 10
1174.6076
 20
18.3423
 10
1174.3636
 20
18.0913
 10
1174.152
 20
17.8241
 10
1173.9727
 20
17.5407
 10
1173.8259
 20
17.2412
 10
1173.7116
 20
16.9258
 10
1173.6299
 20
16.5944
 10
1173.5809
 20
16.2473
 10
1173.5645
 20
15.8845
 10
1173.5805
 20
15.5186
 10
1173.6285
 20
15.1692
 10
1173.7084
 20
14.8362
 10
1173.8203
 20
14.5196
 10
1173.9642
 20
14.2193
 10
1174.1401
 20
13.9353
 10
1174.3479
 20
13.6675
 10
1174.5877
 20
13.416
 10
1174.8491
 20
13.1898
 10
1175.123
 20
12.9934
 10
1175.4094
 20
12.827
 10
1175.7084
 20
12.6907
 10
1176.0201
 20
12.5845
 10
1176.3444
 20
12.5085
 10
1176.6816
 20
12.4628
 10
1177.0315
 20
12.4476
  0
LWPOLYLINE
  5
6B
330
1F
100
AcDbEntity
  8
Layer 1
 62
     7
100
AcDbPolyline
 90
       73
 70
     1
 43
0.0
 10
1187.5169
 20
11.5919
 10
1187.8147
 20
11.6
 10
1188.1097
 20
11.6243
 10
1188.4019
 20
11.6647
 10
1188.6915
 20
11.7212
 10
1188.9784
 20
11.7939
 10
1189.263
 20
11.8827
 10
1189.5451
 20
11.9875
 10
1189.825
 20
12.1084
 10
1190.0947
 20
12.2457
 10
1190.349
 20
12.3996
 10
1190.5876
 20
12.5701
 10
1190.8107
 20
12.7572
 10
1191.0182
 20
12.9609
 10
1191.2101
 20
13.1813
 10
1191.3863
 20
13.4183
 10
1191.5469
 20
13.6719
 10
1191.6897
 20
13.9341
 10
1191.8137
 20
14.2014
 10
1191.919
 20
14.4736
 10
1192.0053
 20
14.7506
 10
1192.0726
 20
15.0324
 10
1192.1208
 20
15.3187
 10
1192.1498
 20
15.6095
 10
1192.1595
 20
15.9046
 10
1192.1393
 20
16.3623
 10
1192.0789
 20
16.7989
 10
1191.9784
 20
17.2143
 10
1191.8379
 20
17.6088
 10
1191.6574
 20
17.9822
 10
1191.4373
 20
18.3348
 10
1191.1774
 20
18.6666
 10
1190.878
 20
18.9776
 10
1190.5456
 20
19.2589
 10
1190.1916
 20
19.5026
 10
1189.8159
 20
19.7088
 10
1189.4187
 20
19.8775
 10
1188.9998
 20
20.0086
 10
1188.5592
 20
20.1023
 10
1188.097
 20
20.1585
 10
1187.613
 20
20.1772
 10
1187.121
 20
20.1578
 10
1186.6507
 20
20.0998
 10
1186.2021
 20
20.0032
 10
1185.7754
 20
19.868
 10
1185.3705
 20
19.6944
 10
1184.9874
 20
19.4825
 10
1184.6261
 20
19.2322
 10
1184.2867
 20
18.9437
 10
1183.9782
 20
18.6232
 10
1183.7108
 20
18.2828
 10
1183.4846
 20
17.9224
 10
1183.2995
 20
17.5421
 10
1183.1555
 20
17.1418
 10
1183.0527
 20
16.7216
 10
1182.991
 20
16.2814
 10
1182.9704
 20
15.8213
 10
1182.9908
 20
15.3703
 10
1183.052
 20
14.94
 10
1183.1538
 20
14.5303
 10
1183.2962
 20
14.1411
 10
1183.4791
 20
13.7722
 10
1183.7025
 20
13.4236
 10
1183.9662
 20
13.0952
 10
1184.2702
 20
12.7869
 10
1184.6055
 20
12.5067
 10
1184.9609
 20
12.2639
 10
1185.3365
 20
12.0585
 10
1185.7321
 20
11.8905
 10
1186.1479
 20
11.7598
 10
1186.584
 20
11.6665
 10
1187.0403
 20
11.6106
 10
1187.5169
 20
11.5919
  0
LWPOLYLINE
  5
6C
330
1F
100
AcDbEntity
  8
Layer 1
 62
     7
100
AcDbPolyline
 90
       97
 70
     1
 43
0.0
 10
1182.8661
 20
25.3749
 10
1181.8867
 20
25.3868
 10
1180.9552
 20
25.4226
 10
1180.0719
 20
25.4824
 10
1179.2371
 20
25.5661
 10
1178.4512
 20
25.6738
 10
1177.7143
 20
25.8055
 10
1177.0269
 20
25.9613
 10
1176.3891
 20
26.1412
 10
1175.791
 20
26.3464
 10
1175.2287
 20
26.5747
 10
1174.702
 20
26.8261
 10
1174.2111
 20
27.1007
 10
1173.7558
 20
27.3986
 10
1173.3363
 20
27.7198
 10
1172.9524
 20
28.0644
 10
1172.6042
 20
28.4325
 10
1172.2941
 20
28.823
 10
1172.0255
 20
29.2382
 10
1171.7984
 20
29.6781
 10
1171.6127
 20
30.1427
 10
1171.4684
 20
30.6319
 10
1171.3654
 20
31.1457
 10
1171.3036
 20
31.6841
 10
1171.283
 20
32.2471
 10
1171.2943
 20
32.6651
 10
1171.3285
 20
33.0702
 10
1171.3854
 20
33.4625
 10
1171.4653
 20
33.842
 10
1171.5683
 20
34.2087
 10
1171.6944
 20
34.5627
 10
1171.8438
 20
34.9039
 10
1172.0165
 20
35.2323
 10
1172.2105
 20
35.5462
 10
1172.425
 20
35.8462
 10
1172.6599
 20
36.132
 10
1172.9151
 20
36.4037
 10
1173.1907
 20
36.6611
 10
1173.4866
 20
36.904
 10
1173.8027
 20
37.1324
 10
1174.139
 20
37.3462
 10
1174.4932
 20
37.5476
 10
1174.8667
 20
37.7377
 10
1175.2593
 20
37.9166
 10
1175.671
 20
38.0844
 10
1176.1018
 20
38.241
 10
1176.5517
 20
38.3865
 10
1177.0206
 20
38.521
 10
1177.5084
 20
38.6445
 10
1178.0269
 20
38.757
 10
1178.5888
 20
38.8542
 10
1179.1941
 20
38.9362
 10
1179.8427
 20
39.003
 10
1180.5343
 20
39.0547
 10
1181.2688
 20
39.0916
 10
1182.0461
 20
39.1136
 10
1182.8661
 20
39.1209
 10
1183.8406
 20
39.109
 10
1184.7674
 20
39.0732
 10
1185.6463
 20
39.0137
 10
1186.4772
 20
38.9303
 10
1187.2599
 20
38.8231
 10
1187.9944
 20
38.6922
 10
1188.6806
 20
38.5376
 10
1189.3183
 20
38.3592
 10
1189.9158
 20
38.1576
 10
1190.4779
 20
37.932
 10
1191.0046
 20
37.6825
 10
1191.4959
 20
37.4092
 10
1191.9521
 20
37.1122
 10
1192.373
 20
36.7914
 10
1192.7589
 20
36.4469
 10
1193.1098
 20
36.0788
 10
1193.4213
 20
35.688
 10
1193.6915
 20
35.2719
 10
1193.9203
 20
34.8307
 10
1194.1076
 20
34.3642
 10
1194.2534
 20
33.8725
 10
1194.3576
 20
33.3558
 10
1194.4201
 20
32.814
 10
1194.441
 20
32.2471
 10
1194.4045
 20
31.5064
 10
1194.2951
 20
30.8063
 10
1194.1128
 20
30.1467
 10
1193.8576
 20
29.5278
 10
1193.5295
 20
28.9496
 10
1193.1285
 20
28.4121
 10
1192.6547
 20
27.9154
 10
1192.1081
 20
27.4596
 10
1191.3395
 20
26.9703
 10
1190.4606
 20
26.5464
 10
1189.4712
 20
26.1881
 10
1188.3713
 20
25.8951
 10
1187.1609
 20
25.6674
 10
1185.8399
 20
25.5048
 10
1184.4083
 20
25.4074
 10
1182.8661
 20
25.3749
  0
LWPOLYLINE
  5
6D
330
1F
100
AcDbEntity
  8
Layer 1
 62
     7
100
AcDbPolyline
 90
       65
 70
     1
 43
0.0
 10
1182.8777
 20
28.0301
 10
1184.2186
 20
28.049
 10
1185.4424
 20
28.1056
 10
1186.5488
 20
28.2002
 10
1187.5378
 20
28.3327
 10
1188.4092
 20
28.5032
 10
1189.1629
 20
28.7118
 10
1189.7988
 20
28.9585
 10
1190.3167
 20
29.2435
 10
1190.7491
 20
29.5571
 10
1191.1236
 20
29.8885
 10
1191.4404
 20
30.2375
 10
1191.6994
 20
30.6042
 10
1191.9008
 20
30.9886
 10
1192.0446
 20
31.3905
 10
1192.1308
 20
31.8101
 10
1192.1595
 20
32.2471
 10
1192.1305
 20
32.6847
 10
1192.0435
 20
33.1048
 10
1191.8987
 20
33.5073
 10
1191.6961
 20
33.892
 10
1191.4358
 20
34.2589
 10
1191.118
 20
34.608
 10
1190.7427
 20
34.9391
 10
1190.3101
 20
35.2523
 10
1189.7888
 20
35.5373
 10
1189.1511
 20
35.7841
 10
1188.397
 20
35.9927
 10
1187.5265
 20
36.1632
 10
1186.5393
 20
36.2957
 10
1185.4355
 20
36.3902
 10
1184.215
 20
36.4469
 10
1182.8777
 20
36.4658
 10
1181.5363
 20
36.4469
 10
1180.3123
 20
36.3902
 10
1179.2058
 20
36.2957
 10
1178.2168
 20
36.1632
 10
1177.3454
 20
35.9927
 10
1176.5916
 20
35.7841
 10
1175.9554
 20
35.5373
 10
1175.4371
 20
35.2523
 10
1175.0048
 20
34.9402
 10
1174.6304
 20
34.6089
 10
1174.3139
 20
34.2583
 10
1174.0552
 20
33.8885
 10
1173.8542
 20
33.4997
 10
1173.7107
 20
33.0918
 10
1173.6247
 20
32.6651
 10
1173.596
 20
32.2194
 10
1173.6214
 20
31.7836
 10
1173.6977
 20
31.3703
 10
1173.8248
 20
30.9794
 10
1174.0027
 20
30.611
 10
1174.2312
 20
30.2651
 10
1174.5103
 20
29.9416
 10
1174.84
 20
29.6407
 10
1175.2202
 20
29.3623
 10
1175.7925
 20
29.0492
 10
1176.4749
 20
28.7781
 10
1177.2674
 20
28.5491
 10
1178.1698
 20
28.362
 10
1179.1821
 20
28.2166
 10
1180.3043
 20
28.1129
 10
1181.5362
 20
28.0508
 10
1182.8777
 20
28.0301
  0
LWPOLYLINE
  5
6E
330
1F
100
AcDbEntity
  8
Layer 1
 62
     7
100
AcDbPolyline
 90
      148
 70
     1
 43
0.0
 10
1194.0602
 20
42.49
 10
1177.6193
 20
42.49
 10
1177.6193
 20
44.8213
 10
1179.9422
 20
44.8213
 10
1179.6483
 20
45.0076
 10
1179.369
 20
45.2092
 10
1179.1042
 20
45.426
 10
1178.8542
 20
45.6578
 10
1178.619
 20
45.9047
 10
1178.3988
 20
46.1665
 10
1178.1935
 20
46.4433
 10
1178.0034
 20
46.7348
 10
1177.8307
 20
47.0378
 10
1177.6814
 20
47.3512
 10
1177.5552
 20
47.6752
 10
1177.4523
 20
48.0096
 10
1177.3723
 20
48.3546
 10
1177.3154
 20
48.7101
 10
1177.2813
 20
49.0763
 10
1177.2699
 20
49.4532
 10
1177.2818
 20
49.8676
 10
1177.3173
 20
50.2632
 10
1177.3764
 20
50.6397
 10
1177.4591
 20
50.9972
 10
1177.5652
 20
51.3356
 10
1177.6946
 20
51.6547
 10
1177.8474
 20
51.9545
 10
1178.0233
 20
52.2348
 10
1178.223
 20
52.4961
 10
1178.4411
 20
52.7374
 10
1178.6776
 20
52.9589
 10
1178.9327
 20
53.1603
 10
1179.2066
 20
53.3416
 10
1179.4994
 20
53.5028
 10
1179.8113
 20
53.6437
 10
1180.1425
 20
53.7643
 10
1179.4686
 20
54.2385
 10
1178.8848
 20
54.7465
 10
1178.3911
 20
55.2884
 10
1177.9873
 20
55.8642
 10
1177.6733
 20
56.4741
 10
1177.4491
 20
57.118
 10
1177.3147
 20
57.7962
 10
1177.2699
 20
58.5087
 10
1177.2909
 20
59.0641
 10
1177.3541
 20
59.5867
 10
1177.4595
 20
60.0762
 10
1177.6073
 20
60.5327
 10
1177.7973
 20
60.9559
 10
1178.0299
 20
61.346
 10
1178.3049
 20
61.7026
 10
1178.6226
 20
62.0258
 10
1178.9833
 20
62.3143
 10
1179.3899
 20
62.5646
 10
1179.8422
 20
62.7766
 10
1180.3402
 20
62.9502
 10
1180.8837
 20
63.0853
 10
1181.4727
 20
63.1819
 10
1182.1071
 20
63.2399
 10
1182.7867
 20
63.2593
 10
1194.0602
 20
63.2593
 10
1194.0602
 20
60.6628
 10
1183.7105
 20
60.6628
 10
1183.3089
 20
60.6587
 10
1182.9361
 20
60.6464
 10
1182.5921
 20
60.6261
 10
1182.2771
 20
60.5978
 10
1181.9911
 20
60.5617
 10
1181.7342
 20
60.5177
 10
1181.5065
 20
60.4661
 10
1181.3081
 20
60.4068
 10
1181.129
 20
60.3375
 10
1180.959
 20
60.2554
 10
1180.7982
 20
60.1605
 10
1180.6463
 20
60.0525
 10
1180.5032
 20
59.9314
 10
1180.3689
 20
59.7971
 10
1180.2432
 20
59.6492
 10
1180.126
 20
59.4878
 10
1180.0201
 20
59.3182
 10
1179.9285
 20
59.1413
 10
1179.8511
 20
58.9571
 10
1179.7878
 20
58.7657
 10
1179.7387
 20
58.5671
 10
1179.7036
 20
58.3614
 10
1179.6826
 20
58.1487
 10
1179.6756
 20
57.929
 10
1179.6937
 20
57.5323
 10
1179.7481
 20
57.153
 10
1179.8385
 20
56.791
 10
1179.965
 20
56.4463
 10
1180.1272
 20
56.1188
 10
1180.3252
 20
55.8086
 10
1180.5589
 20
55.5157
 10
1180.828
 20
55.2399
 10
1181.1383
 20
54.9891
 10
1181.4918
 20
54.772
 10
1181.8884
 20
54.5886
 10
1182.3283
 20
54.4387
 10
1182.8114
 20
54.3223
 10
1183.3377
 20
54.2392
 10
1183.9073
 20
54.1895
 10
1184.5202
 20
54.1729
 10
1194.0602
 20
54.1729
 10
1194.0602
 20
51.5764
 10
1183.3877
 20
51.5764
 10
1182.9394
 20
51.5665
 10
1182.5198
 20
51.5368
 10
1182.1287
 20
51.4873
 10
1181.7664
 20
51.418
 10
1181.4327
 20
51.3288
 10
1181.1279
 20
51.2199
 10
1180.8518
 20
51.0912
 10
1180.6045
 20
50.9427
 10
1180.3882
 20
50.7716
 10
1180.2002
 20
50.575
 10
1180.0406
 20
50.3532
 10
1179.9097
 20
50.1062
 10
1179.8075
 20
49.834
 10
1179.7344
 20
49.5367
 10
1179.6903
 20
49.2145
 10
1179.6756
 20
48.8673
 10
1179.6854
 20
48.5969
 10
1179.7146
 20
48.3316
 10
1179.7633
 20
48.0714
 10
1179.8313
 20
47.8163
 10
1179.9185
 20
47.5663
 10
1180.0249
 20
47.3215
 10
1180.1504
 20
47.0819
 10
1180.2949
 20
46.8474
 10
1180.4579
 20
46.623
 10
1180.6389
 20
46.4146
 10
1180.838
 20
46.2222
 10
1181.0552
 20
46.0458
 10
1181.2906
 20
45.8853
 10
1181.5442
 20
45.7409
 10
1181.8161
 20
45.6124
 10
1182.1062
 20
45.4998
 10
1182.4196
 20
45.4027
 10
1182.7663
 20
45.3186
 10
1183.1462
 20
45.2473
 10
1183.5591
 20
45.1889
 10
1184.0048
 20
45.1435
 10
1184.4834
 20
45.111
 10
1184.9946
 20
45.0915
 10
1185.5384
 20
45.085
 10
1194.0602
 20
45.085
 10
1194.0602
 20
42.49
  0
LWPOLYLINE
  5
6F
330
1F
100
AcDbEntity
  8
Layer 1
 62
     7
100
AcDbPolyline
 90
      148
 70
     1
 43
0.0
 10
1194.0602
 20
67.0632
 10
1177.6193
 20
67.0632
 10
1177.6193
 20
69.3945
 10
1179.9422
 20
69.3945
 10
1179.6483
 20
69.5808
 10
1179.369
 20
69.7824
 10
1179.1042
 20
69.9992
 10
1178.8542
 20
70.231
 10
1178.619
 20
70.4779
 10
1178.3988
 20
70.7397
 10
1178.1935
 20
71.0165
 10
1178.0034
 20
71.308
 10
1177.8307
 20
71.6115
 10
1177.6814
 20
71.9253
 10
1177.5552
 20
72.2494
 10
1177.4523
 20
72.5839
 10
1177.3723
 20
72.9288
 10
1177.3154
 20
73.2842
 10
1177.2813
 20
73.65
 10
1177.2699
 20
74.0264
 10
1177.2818
 20
74.4408
 10
1177.3173
 20
74.8364
 10
1177.3764
 20
75.213
 10
1177.4591
 20
75.5706
 10
1177.5652
 20
75.9091
 10
1177.6946
 20
76.2285
 10
1177.8474
 20
76.5287
 10
1178.0233
 20
76.8095
 10
1178.223
 20
77.0708
 10
1178.4411
 20
77.3122
 10
1178.6776
 20
77.5336
 10
1178.9327
 20
77.7351
 10
1179.2066
 20
77.9164
 10
1179.4994
 20
78.0776
 10
1179.8113
 20
78.2185
 10
1180.1425
 20
78.3391
 10
1179.4686
 20
78.8132
 10
1178.8848
 20
79.3211
 10
1178.3911
 20
79.8627
 10
1177.9873
 20
80.4384
 10
1177.6733
 20
81.0481
 10
1177.4491
 20
81.6921
 10
1177.3147
 20
82.3705
 10
1177.2699
 20
83.0835
 10
1177.2909
 20
83.6385
 10
1177.3541
 20
84.1608
 10
1177.4595
 20
84.6502
 10
1177.6073
 20
85.1067
 10
1177.7973
 20
85.5299
 10
1178.0299
 20
85.9199
 10
1178.3049
 20
86.2763
 10
1178.6226
 20
86.599
 10
1178.9833
 20
86.888
 10
1179.3899
 20
87.1385
 10
1179.8422
 20
87.3505
 10
1180.3402
 20
87.524
 10
1180.8837
 20
87.6589
 10
1181.4727
 20
87.7553
 10
1182.1071
 20
87.8132
 10
1182.7867
 20
87.8325
 10
1194.0602
 20
87.8325
 10
1194.0602
 20
85.236
 10
1183.7105
 20
85.236
 10
1183.3089
 20
85.2319
 10
1182.9361
 20
85.2197
 10
1182.5921
 20
85.1994
 10
1182.2771
 20
85.1712
 10
1181.9911
 20
85.1353
 10
1181.7342
 20
85.0916
 10
1181.5065
 20
85.0403
 10
1181.3081
 20
84.9816
 10
1181.129
 20
84.9122
 10
1180.959
 20
84.83
 10
1180.7982
 20
84.7349
 10
1180.6463
 20
84.6268
 10
1180.5032
 20
84.5056
 10
1180.3689
 20
84.3712
 10
1180.2432
 20
84.2236
 10
1180.126
 20
84.0626
 10
1180.0201
 20
83.8929
 10
1179.9285
 20
83.7158
 10
1179.8511
 20
83.5314
 10
1179.7878
 20
83.3399
 10
1179.7387
 20
83.1412
 10
1179.7036
 20
82.9355
 10
1179.6826
 20
82.723
 10
1179.6756
 20
82.5037
 10
1179.6937
 20
82.1066
 10
1179.7481
 20
81.727
 10
1179.8385
 20
81.3649
 10
1179.965
 20
81.0202
 10
1180.1272
 20
80.6927
 10
1180.3252
 20
80.3825
 10
1180.5589
 20
80.0893
 10
1180.828
 20
79.8131
 10
1181.1383
 20
79.5627
 10
1181.4918
 20
79.3459
 10
1181.8884
 20
79.1625
 10
1182.3283
 20
79.0125
 10
1182.8114
 20
78.8959
 10
1183.3377
 20
78.8127
 10
1183.9073
 20
78.7627
 10
1184.5202
 20
78.7461
 10
1194.0602
 20
78.7461
 10
1194.0602
 20
76.1496
 10
1183.3877
 20
76.1496
 10
1182.9394
 20
76.1397
 10
1182.5198
 20
76.11
 10
1182.1287
 20
76.0605
 10
1181.7664
 20
75.9913
 10
1181.4327
 20
75.9024
 10
1181.1279
 20
75.7937
 10
1180.8518
 20
75.6654
 10
1180.6045
 20
75.5174
 10
1180.3882
 20
75.3458
 10
1180.2002
 20
75.1489
 10
1180.0406
 20
74.9269
 10
1179.9097
 20
74.6798
 10
1179.8075
 20
74.4076
 10
1179.7344
 20
74.1106
 10
1179.6903
 20
73.7887
 10
1179.6756
 20
73.442
 10
1179.6854
 20
73.1712
 10
1179.7146
 20
72.9056
 10
1179.7633
 20
72.6453
 10
1179.8313
 20
72.3902
 10
1179.9185
 20
72.1403
 10
1180.0249
 20
71.8954
 10
1180.1504
 20
71.6555
 10
1180.2949
 20
71.4206
 10
1180.4579
 20
71.1962
 10
1180.6389
 20
70.988
 10
1180.838
 20
70.7958
 10
1181.0552
 20
70.6196
 10
1181.2906
 20
70.4592
 10
1181.5442
 20
70.3148
 10
1181.8161
 20
70.186
 10
1182.1062
 20
70.073
 10
1182.4196
 20
69.9764
 10
1182.7663
 20
69.8926
 10
1183.1462
 20
69.8216
 10
1183.5591
 20
69.7634
 10
1184.0048
 20
69.7181
 10
1184.4834
 20
69.6857
 10
1184.9946
 20
69.6662
 10
1185.5384
 20
69.6597
 10
1194.0602
 20
69.6597
 10
1194.0602
 20
67.0632
  0
LWPOLYLINE
  5
70
330
1F
100
AcDbEntity
  8
Layer 1
 62
     7
370
    18
100
AcDbPolyline
 90
       37
 70
     1
 43
0.0
 10
469.3826
 20
179.7466
 10
1036.3683
 20
179.7466
 10
1037.6771
 20
179.6226
 10
1038.8983
 20
179.2673
 10
1040.0053
 20
178.7056
 10
1040.9711
 20
177.9626
 10
1041.7689
 20
177.0632
 10
1042.372
 20
176.0323
 10
1042.7536
 20
174.8949
 10
1042.8867
 20
173.6761
 10
1042.8867
 20
-134.0588
 10
1042.7536
 20
-135.2795
 10
1042.372
 20
-136.4178
 10
1041.7689
 20
-137.449
 10
1040.9711
 20
-138.3484
 10
1040.0053
 20
-139.091
 10
1038.8983
 20
-139.6521
 10
1037.6771
 20
-140.007
 10
1036.3683
 20
-140.1308
 10
469.3826
 20
-140.1308
 10
468.0723
 20
-140.007
 10
466.8502
 20
-139.6521
 10
465.7429
 20
-139.091
 10
464.7771
 20
-138.3484
 10
463.9795
 20
-137.449
 10
463.3767
 20
-136.4178
 10
462.9955
 20
-135.2795
 10
462.8625
 20
-134.0588
 10
462.8625
 20
173.6761
 10
462.9955
 20
174.8949
 10
463.3767
 20
176.0323
 10
463.9795
 20
177.0632
 10
464.7771
 20
177.9626
 10
465.7429
 20
178.7056
 10
466.8502
 20
179.2673
 10
468.0723
 20
179.6226
 10
469.3826
 20
179.7466
  0
LWPOLYLINE
  5
71
330
1F
100
AcDbEntity
  8
Layer 1
 62
     7
370
    18
100
AcDbPolyline
 90
       37
 70
     1
 43
0.0
 10
475.7487
 20
171.8413
 10
1030.0006
 20
171.8413
 10
1031.2455
 20
171.7236
 10
1032.4066
 20
171.3862
 10
1033.4585
 20
170.8528
 10
1034.3759
 20
170.147
 10
1035.1336
 20
169.2923
 10
1035.7061
 20
168.3124
 10
1036.0682
 20
167.2309
 10
1036.1945
 20
166.0715
 10
1036.1945
 20
-126.4572
 10
1036.0682
 20
-127.6167
 10
1035.7061
 20
-128.6984
 10
1035.1336
 20
-129.6785
 10
1034.3759
 20
-130.5335
 10
1033.4585
 20
-131.2396
 10
1032.4066
 20
-131.7733
 10
1031.2455
 20
-132.1108
 10
1030.0006
 20
-132.2286
 10
475.7487
 20
-132.2286
 10
474.5032
 20
-132.1108
 10
473.3415
 20
-131.7733
 10
472.289
 20
-131.2396
 10
471.3711
 20
-130.5335
 10
470.613
 20
-129.6785
 10
470.0402
 20
-128.6984
 10
469.6779
 20
-127.6167
 10
469.5515
 20
-126.4572
 10
469.5515
 20
166.0715
 10
469.6779
 20
167.2309
 10
470.0402
 20
168.3124
 10
470.613
 20
169.2923
 10
471.3711
 20
170.147
 10
472.289
 20
170.8528
 10
473.3415
 20
171.3862
 10
474.5032
 20
171.7236
 10
475.7487
 20
171.8413
  0
LWPOLYLINE
  5
72
330
1F
100
AcDbEntity
  8
Layer 1
 62
     7
370
    18
100
AcDbPolyline
 90
       37
 70
     1
 43
0.0
 10
490.6597
 20
140.4883
 10
524.5898
 20
150.4201
 10
563.4379
 20
155.1613
 10
605.5353
 20
155.766
 10
649.2131
 20
153.2884
 10
692.8028
 20
148.7827
 10
734.6354
 20
143.3032
 10
773.0423
 20
137.904
 10
806.3547
 20
133.6392
 10
1009.5066
 20
133.6392
 10
1012.1619
 20
133.4169
 10
1014.4108
 20
132.8581
 10
1016.2591
 20
131.9652
 10
1017.7126
 20
130.7407
 10
1018.7768
 20
129.1869
 10
1019.4577
 20
127.3063
 10
1019.761
 20
125.1014
 10
1019.6923
 20
122.5746
 10
1019.6923
 20
-111.9357
 10
1019.5767
 20
-112.9934
 10
1019.2455
 20
-113.9805
 10
1018.7219
 20
-114.8752
 10
1018.0292
 20
-115.6559
 10
1017.1905
 20
-116.3008
 10
1016.2292
 20
-116.7883
 10
1015.1684
 20
-117.0967
 10
1014.0315
 20
-117.2043
 10
496.3188
 20
-117.2043
 10
495.1815
 20
-117.0967
 10
494.1207
 20
-116.7883
 10
493.1596
 20
-116.3008
 10
492.3214
 20
-115.6559
 10
491.6291
 20
-114.8752
 10
491.106
 20
-113.9805
 10
490.7751
 20
-112.9934
 10
490.6597
 20
-111.9357
 10
490.6597
 20
140.4883
  0
LWPOLYLINE
  5
73
330
1F
100
AcDbEntity
  8
Layer 1
 62
     7
370
    18
100
AcDbPolyline
 90
       37
 70
     1
 43
0.0
 10
519.091
 20
127.4732
 10
549.3743
 20
135.9521
 10
584.0474
 20
139.1687
 10
621.6209
 20
138.2738
 10
660.6053
 20
134.4181
 10
699.5111
 20
128.7524
 10
736.8489
 20
122.4274
 10
771.1293
 20
116.5939
 10
800.8628
 20
112.4027
 10
989.5374
 20
112.4027
 10
991.9066
 20
112.2043
 10
993.9137
 20
111.7056
 10
995.5636
 20
110.9085
 10
996.8611
 20
109.8154
 10
997.8112
 20
108.4281
 10
998.4187
 20
106.749
 10
998.6885
 20
104.7802
 10
998.6254
 20
102.5237
 10
998.6254
 20
-97.8242
 10
998.5224
 20
-98.7674
 10
998.2271
 20
-99.6482
 10
997.7603
 20
-100.447
 10
997.1426
 20
-101.1443
 10
996.3947
 20
-101.7206
 10
995.5374
 20
-102.1564
 10
994.5914
 20
-102.4322
 10
993.5773
 20
-102.5285
 10
524.1392
 20
-102.5285
 10
523.1265
 20
-102.4325
 10
522.1812
 20
-102.1573
 10
521.3239
 20
-101.7222
 10
520.5758
 20
-101.1466
 10
519.9575
 20
-100.4497
 10
519.49
 20
-99.6508
 10
519.1942
 20
-98.7692
 10
519.091
 20
-97.8242
 10
519.091
 20
127.4732
  0
LWPOLYLINE
  5
74
330
1F
100
AcDbEntity
  8
Layer 1
 62
     7
370
    18
100
AcDbPolyline
 90
       17
 70
     0
 43
0.0
 10
788.2648
 20
113.3509
 10
788.0293
 20
109.7896
 10
787.3362
 20
100.1762
 10
786.2054
 20
86.1164
 10
784.6568
 20
69.216
 10
782.7106
 20
51.0807
 10
780.3865
 20
33.3162
 10
777.7046
 20
17.5282
 10
774.6849
 20
5.3225
 10
771.4823
 20
-5.8809
 10
768.3193
 20
-19.233
 10
765.3153
 20
-33.9927
 10
762.5897
 20
-49.4193
 10
760.262
 20
-64.7717
 10
758.4515
 20
-79.3092
 10
757.2776
 20
-92.2908
 10
756.8598
 20
-102.9757
  0
LWPOLYLINE
  5
75
330
1F
100
AcDbEntity
  8
Layer 1
 62
     7
370
    18
100
AcDbPolyline
 90
       17
 70
     0
 43
0.0
 10
808.0717
 20
113.3509
 10
807.8361
 20
109.7896
 10
807.1428
 20
100.1762
 10
806.0118
 20
86.1164
 10
804.4629
 20
69.216
 10
802.5163
 20
51.0807
 10
800.192
 20
33.3162
 10
797.5099
 20
17.5282
 10
794.4901
 20
5.3225
 10
791.2747
 20
-5.8697
 10
788.0791
 20
-19.192
 10
785.0292
 20
-33.9096
 10
782.2511
 20
-49.2878
 10
779.871
 20
-64.5918
 10
778.0148
 20
-79.0867
 10
776.8087
 20
-92.0379
 10
776.3786
 20
-102.7105
  0
LWPOLYLINE
  5
76
330
1F
100
AcDbEntity
  8
Layer 1
 62
     7
370
    18
100
AcDbPolyline
 90
       33
 70
     1
 43
0.0
 10
835.5162
 20
105.9745
 10
837.1699
 20
105.8192
 10
838.7103
 20
105.374
 10
840.1044
 20
104.6695
 10
841.3192
 20
103.7364
 10
842.3214
 20
102.6057
 10
843.0783
 20
101.3079
 10
843.5566
 20
99.8739
 10
843.7234
 20
98.3344
 10
843.5566
 20
96.7945
 10
843.0783
 20
95.3602
 10
842.3214
 20
94.0624
 10
841.3192
 20
92.9318
 10
840.1044
 20
91.9989
 10
838.7103
 20
91.2946
 10
837.1699
 20
90.8495
 10
835.5162
 20
90.6943
 10
833.8631
 20
90.8495
 10
832.3233
 20
91.2946
 10
830.9298
 20
91.9989
 10
829.7155
 20
92.9318
 10
828.7137
 20
94.0624
 10
827.9571
 20
95.3602
 10
827.479
 20
96.7945
 10
827.3123
 20
98.3344
 10
827.479
 20
99.8739
 10
827.9571
 20
101.3079
 10
828.7137
 20
102.6057
 10
829.7155
 20
103.7364
 10
830.9298
 20
104.6695
 10
832.3233
 20
105.374
 10
833.8631
 20
105.8192
 10
835.5162
 20
105.9745
  0
LWPOLYLINE
  5
77
330
1F
100
AcDbEntity
  8
Layer 1
 62
     7
370
    18
100
AcDbPolyline
 90
       33
 70
     1
 43
0.0
 10
864.9426
 20
105.9745
 10
866.5953
 20
105.8192
 10
868.1351
 20
105.374
 10
869.5288
 20
104.6695
 10
870.7435
 20
103.7364
 10
871.7458
 20
102.6057
 10
872.5028
 20
101.3079
 10
872.9813
 20
99.8739
 10
873.1481
 20
98.3344
 10
872.9813
 20
96.7945
 10
872.5028
 20
95.3602
 10
871.7458
 20
94.0624
 10
870.7435
 20
92.9318
 10
869.5288
 20
91.9989
 10
868.1351
 20
91.2946
 10
866.5953
 20
90.8495
 10
864.9426
 20
90.6943
 10
863.2898
 20
90.8495
 10
861.7498
 20
91.2946
 10
860.3558
 20
91.9989
 10
859.1409
 20
92.9318
 10
858.1382
 20
94.0624
 10
857.381
 20
95.3602
 10
856.9023
 20
96.7945
 10
856.7354
 20
98.3344
 10
856.9023
 20
99.8739
 10
857.381
 20
101.3079
 10
858.1382
 20
102.6057
 10
859.1409
 20
103.7364
 10
860.3558
 20
104.6695
 10
861.7498
 20
105.374
 10
863.2898
 20
105.8192
 10
864.9426
 20
105.9745
  0
LWPOLYLINE
  5
78
330
1F
100
AcDbEntity
  8
Layer 1
 62
     7
370
    18
100
AcDbPolyline
 90
       33
 70
     1
 43
0.0
 10
894.9319
 20
105.9745
 10
896.5856
 20
105.8192
 10
898.126
 20
105.374
 10
899.5201
 20
104.6695
 10
900.7349
 20
103.7364
 10
901.7371
 20
102.6057
 10
902.494
 20
101.3079
 10
902.9723
 20
99.8739
 10
903.1391
 20
98.3344
 10
902.9723
 20
96.7945
 10
902.494
 20
95.3602
 10
901.7371
 20
94.0624
 10
900.7349
 20
92.9318
 10
899.5201
 20
91.9989
 10
898.126
 20
91.2946
 10
896.5856
 20
90.8495
 10
894.9319
 20
90.6943
 10
893.2789
 20
90.8495
 10
891.7393
 20
91.2946
 10
890.346
 20
91.9989
 10
889.1321
 20
92.9318
 10
888.1305
 20
94.0624
 10
887.3743
 20
95.3602
 10
886.8963
 20
96.7945
 10
886.7297
 20
98.3344
 10
886.8963
 20
99.8739
 10
887.3743
 20
101.3079
 10
888.1305
 20
102.6057
 10
889.1321
 20
103.7364
 10
890.346
 20
104.6695
 10
891.7393
 20
105.374
 10
893.2789
 20
105.8192
 10
894.9319
 20
105.9745
  0
LWPOLYLINE
  5
79
330
1F
100
AcDbEntity
  8
Layer 1
 62
     7
370
    18
100
AcDbPolyline
 90
       33
 70
     1
 43
0.0
 10
924.3583
 20
105.9745
 10
926.0115
 20
105.8192
 10
927.5515
 20
105.374
 10
928.9453
 20
104.6695
 10
930.1598
 20
103.7364
 10
931.1619
 20
102.6057
 10
931.9187
 20
101.3079
 10
932.397
 20
99.8739
 10
932.5638
 20
98.3344
 10
932.397
 20
96.7945
 10
931.9187
 20
95.3602
 10
931.1619
 20
94.0624
 10
930.1598
 20
92.9318
 10
928.9453
 20
91.9989
 10
927.5515
 20
91.2946
 10
926.0115
 20
90.8495
 10
924.3583
 20
90.6943
 10
922.7057
 20
90.8495
 10
921.1663
 20
91.2946
 10
919.7731
 20
91.9989
 10
918.5591
 20
92.9318
 10
917.5573
 20
94.0624
 10
916.8009
 20
95.3602
 10
916.3228
 20
96.7945
 10
916.1561
 20
98.3344
 10
916.3228
 20
99.8739
 10
916.8009
 20
101.3079
 10
917.5573
 20
102.6057
 10
918.5591
 20
103.7364
 10
919.7731
 20
104.6695
 10
921.1663
 20
105.374
 10
922.7057
 20
105.8192
 10
924.3583
 20
105.9745
  0
LWPOLYLINE
  5
7A
330
1F
100
AcDbEntity
  8
Layer 1
 62
     7
370
    18
100
AcDbPolyline
 90
       33
 70
     1
 43
0.0
 10
954.3509
 20
105.9745
 10
956.0035
 20
105.8192
 10
957.5429
 20
105.374
 10
958.9361
 20
104.6695
 10
960.1502
 20
103.7364
 10
961.1519
 20
102.6057
 10
961.9084
 20
101.3079
 10
962.3865
 20
99.8739
 10
962.5532
 20
98.3344
 10
962.3865
 20
96.7945
 10
961.9084
 20
95.3602
 10
961.1519
 20
94.0624
 10
960.1502
 20
92.9318
 10
958.9361
 20
91.9989
 10
957.5429
 20
91.2946
 10
956.0035
 20
90.8495
 10
954.3509
 20
90.6943
 10
952.6968
 20
90.8495
 10
951.1563
 20
91.2946
 10
949.7625
 20
91.9989
 10
948.5482
 20
92.9318
 10
947.5464
 20
94.0624
 10
946.79
 20
95.3602
 10
946.312
 20
96.7945
 10
946.1454
 20
98.3344
 10
946.312
 20
99.8739
 10
946.79
 20
101.3079
 10
947.5464
 20
102.6057
 10
948.5482
 20
103.7364
 10
949.7625
 20
104.6695
 10
951.1563
 20
105.374
 10
952.6968
 20
105.8192
 10
954.3509
 20
105.9745
  0
LWPOLYLINE
  5
7B
330
1F
100
AcDbEntity
  8
Layer 1
 62
     7
370
    18
100
AcDbPolyline
 90
       33
 70
     1
 43
0.0
 10
982.6481
 20
105.9745
 10
984.3007
 20
105.8192
 10
985.8401
 20
105.374
 10
987.2333
 20
104.6695
 10
988.4474
 20
103.7364
 10
989.4491
 20
102.6057
 10
990.2056
 20
101.3079
 10
990.6837
 20
99.8739
 10
990.8504
 20
98.3344
 10
990.6837
 20
96.7945
 10
990.2056
 20
95.3602
 10
989.4491
 20
94.0624
 10
988.4474
 20
92.9318
 10
987.2333
 20
91.9989
 10
985.8401
 20
91.2946
 10
984.3007
 20
90.8495
 10
982.6481
 20
90.6943
 10
980.9929
 20
90.8495
 10
979.4516
 20
91.2946
 10
978.0572
 20
91.9989
 10
976.8425
 20
92.9318
 10
975.8405
 20
94.0624
 10
975.084
 20
95.3602
 10
974.606
 20
96.7945
 10
974.4393
 20
98.3344
 10
974.606
 20
99.8739
 10
975.084
 20
101.3079
 10
975.8405
 20
102.6057
 10
976.8425
 20
103.7364
 10
978.0572
 20
104.6695
 10
979.4516
 20
105.374
 10
980.9929
 20
105.8192
 10
982.6481
 20
105.9745
  0
LWPOLYLINE
  5
7C
330
1F
100
AcDbEntity
  8
Layer 1
 62
     7
370
    18
100
AcDbPolyline
 90
       33
 70
     1
 43
0.0
 10
982.6481
 20
75.9368
 10
984.3007
 20
75.7815
 10
985.8401
 20
75.3363
 10
987.2333
 20
74.6318
 10
988.4474
 20
73.6987
 10
989.4491
 20
72.568
 10
990.2056
 20
71.2702
 10
990.6837
 20
69.8362
 10
990.8504
 20
68.2967
 10
990.6837
 20
66.7561
 10
990.2056
 20
65.3212
 10
989.4491
 20
64.0226
 10
988.4474
 20
62.8912
 10
987.2333
 20
61.9577
 10
985.8401
 20
61.2528
 10
984.3007
 20
60.8073
 10
982.6481
 20
60.652
 10
980.9929
 20
60.8073
 10
979.4516
 20
61.2528
 10
978.0572
 20
61.9577
 10
976.8425
 20
62.8912
 10
975.8405
 20
64.0226
 10
975.084
 20
65.3212
 10
974.606
 20
66.7561
 10
974.4393
 20
68.2967
 10
974.606
 20
69.8362
 10
975.084
 20
71.2702
 10
975.8405
 20
72.568
 10
976.8425
 20
73.6987
 10
978.0572
 20
74.6318
 10
979.4516
 20
75.3363
 10
980.9929
 20
75.7815
 10
982.6481
 20
75.9368
  0
LWPOLYLINE
  5
7D
330
1F
100
AcDbEntity
  8
Layer 1
 62
     7
370
    18
100
AcDbPolyline
 90
       33
 70
     1
 43
0.0
 10
982.6481
 20
45.9022
 10
984.3007
 20
45.7468
 10
985.8401
 20
45.3012
 10
987.2333
 20
44.5962
 10
988.4474
 20
43.6626
 10
989.4491
 20
42.5312
 10
990.2056
 20
41.233
 10
990.6837
 20
39.7986
 10
990.8504
 20
38.259
 10
990.6837
 20
36.7195
 10
990.2056
 20
35.2855
 10
989.4491
 20
33.9877
 10
988.4474
 20
32.857
 10
987.2333
 20
31.9239
 10
985.8401
 20
31.2194
 10
984.3007
 20
30.7742
 10
982.6481
 20
30.6189
 10
980.9929
 20
30.7742
 10
979.4516
 20
31.2194
 10
978.0572
 20
31.9239
 10
976.8425
 20
32.857
 10
975.8405
 20
33.9877
 10
975.084
 20
35.2855
 10
974.606
 20
36.7195
 10
974.4393
 20
38.259
 10
974.606
 20
39.7986
 10
975.084
 20
41.233
 10
975.8405
 20
42.5312
 10
976.8425
 20
43.6626
 10
978.0572
 20
44.5962
 10
979.4516
 20
45.3012
 10
980.9929
 20
45.7468
 10
982.6481
 20
45.9022
  0
LWPOLYLINE
  5
7E
330
1F
100
AcDbEntity
  8
Layer 1
 62
     7
370
    18
100
AcDbPolyline
 90
       33
 70
     1
 43
0.0
 10
982.6481
 20
15.8599
 10
984.3007
 20
15.7048
 10
985.8401
 20
15.2599
 10
987.2333
 20
14.5558
 10
988.4474
 20
13.6234
 10
989.4491
 20
12.4931
 10
990.2056
 20
11.1959
 10
990.6837
 20
9.7622
 10
990.8504
 20
8.2228
 10
990.6837
 20
6.6823
 10
990.2056
 20
5.2475
 10
989.4491
 20
3.9492
 10
988.4474
 20
2.8181
 10
987.2333
 20
1.8849
 10
985.8401
 20
1.1803
 10
984.3007
 20
0.735
 10
982.6481
 20
0.5797
 10
980.9929
 20
0.735
 10
979.4516
 20
1.1803
 10
978.0572
 20
1.8849
 10
976.8425
 20
2.8181
 10
975.8405
 20
3.9492
 10
975.084
 20
5.2475
 10
974.606
 20
6.6823
 10
974.4393
 20
8.2228
 10
974.606
 20
9.7622
 10
975.084
 20
11.1959
 10
975.8405
 20
12.4931
 10
976.8425
 20
13.6234
 10
978.0572
 20
14.5558
 10
979.4516
 20
15.2599
 10
980.9929
 20
15.7048
 10
982.6481
 20
15.8599
  0
LWPOLYLINE
  5
7F
330
1F
100
AcDbEntity
  8
Layer 1
 62
     7
370
    18
100
AcDbPolyline
 90
       33
 70
     1
 43
0.0
 10
982.6481
 20
-14.1763
 10
984.3007
 20
-14.3315
 10
985.8401
 20
-14.7766
 10
987.2333
 20
-15.4809
 10
988.4474
 20
-16.4138
 10
989.4491
 20
-17.5444
 10
990.2056
 20
-18.8422
 10
990.6837
 20
-20.2765
 10
990.8504
 20
-21.8164
 10
990.6837
 20
-23.3558
 10
990.2056
 20
-24.7897
 10
989.4491
 20
-26.0872
 10
988.4474
 20
-27.2177
 10
987.2333
 20
-28.1504
 10
985.8401
 20
-28.8547
 10
984.3007
 20
-29.2998
 10
982.6481
 20
-29.455
 10
980.9929
 20
-29.2998
 10
979.4516
 20
-28.8547
 10
978.0572
 20
-28.1504
 10
976.8425
 20
-27.2177
 10
975.8405
 20
-26.0872
 10
975.084
 20
-24.7897
 10
974.606
 20
-23.3558
 10
974.4393
 20
-21.8164
 10
974.606
 20
-20.2765
 10
975.084
 20
-18.8422
 10
975.8405
 20
-17.5444
 10
976.8425
 20
-16.4138
 10
978.0572
 20
-15.4809
 10
979.4516
 20
-14.7766
 10
980.9929
 20
-14.3315
 10
982.6481
 20
-14.1763
  0
LWPOLYLINE
  5
80
330
1F
100
AcDbEntity
  8
Layer 1
 62
     7
370
    18
100
AcDbPolyline
 90
       33
 70
     1
 43
0.0
 10
982.6481
 20
-44.214
 10
984.3007
 20
-44.3692
 10
985.8401
 20
-44.8143
 10
987.2333
 20
-45.5187
 10
988.4474
 20
-46.4517
 10
989.4491
 20
-47.5825
 10
990.2056
 20
-48.8806
 10
990.6837
 20
-50.3152
 10
990.8504
 20
-51.8556
 10
990.6837
 20
-53.3951
 10
990.2056
 20
-54.8291
 10
989.4491
 20
-56.1269
 10
988.4474
 20
-57.2577
 10
987.2333
 20
-58.1907
 10
985.8401
 20
-58.8952
 10
984.3007
 20
-59.3404
 10
982.6481
 20
-59.4957
 10
980.9929
 20
-59.3404
 10
979.4516
 20
-58.8952
 10
978.0572
 20
-58.1907
 10
976.8425
 20
-57.2577
 10
975.8405
 20
-56.1269
 10
975.084
 20
-54.8291
 10
974.606
 20
-53.3951
 10
974.4393
 20
-51.8556
 10
974.606
 20
-50.3152
 10
975.084
 20
-48.8806
 10
975.8405
 20
-47.5825
 10
976.8425
 20
-46.4517
 10
978.0572
 20
-45.5187
 10
979.4516
 20
-44.8143
 10
980.9929
 20
-44.3692
 10
982.6481
 20
-44.214
  0
LWPOLYLINE
  5
81
330
1F
100
AcDbEntity
  8
Layer 1
 62
     7
370
    18
100
AcDbPolyline
 90
       33
 70
     1
 43
0.0
 10
982.6481
 20
-77.411
 10
984.3007
 20
-77.5662
 10
985.8401
 20
-78.0114
 10
987.2333
 20
-78.7158
 10
988.4474
 20
-79.6489
 10
989.4491
 20
-80.7799
 10
990.2056
 20
-82.0783
 10
990.6837
 20
-83.5133
 10
990.8504
 20
-85.0542
 10
990.6837
 20
-86.5936
 10
990.2056
 20
-88.0275
 10
989.4491
 20
-89.325
 10
988.4474
 20
-90.4555
 10
987.2333
 20
-91.3883
 10
985.8401
 20
-92.0925
 10
984.3007
 20
-92.5376
 10
982.6481
 20
-92.6928
 10
980.9929
 20
-92.5376
 10
979.4516
 20
-92.0925
 10
978.0572
 20
-91.3883
 10
976.8425
 20
-90.4555
 10
975.8405
 20
-89.325
 10
975.084
 20
-88.0275
 10
974.606
 20
-86.5936
 10
974.4393
 20
-85.0542
 10
974.606
 20
-83.5133
 10
975.084
 20
-82.0783
 10
975.8405
 20
-80.7799
 10
976.8425
 20
-79.6489
 10
978.0572
 20
-78.7158
 10
979.4516
 20
-78.0114
 10
980.9929
 20
-77.5662
 10
982.6481
 20
-77.411
  0
LWPOLYLINE
  5
82
330
1F
100
AcDbEntity
  8
Layer 1
 62
     7
370
    18
100
AcDbPolyline
 90
       33
 70
     1
 43
0.0
 10
833.8175
 20
75.9368
 10
835.4707
 20
75.7815
 10
837.0109
 20
75.3363
 10
838.405
 20
74.6318
 10
839.6198
 20
73.6987
 10
840.6223
 20
72.568
 10
841.3793
 20
71.2702
 10
841.8578
 20
69.8362
 10
842.0247
 20
68.2967
 10
841.8578
 20
66.7561
 10
841.3793
 20
65.3212
 10
840.6223
 20
64.0226
 10
839.6198
 20
62.8912
 10
838.405
 20
61.9577
 10
837.0109
 20
61.2528
 10
835.4707
 20
60.8073
 10
833.8175
 20
60.652
 10
832.1649
 20
60.8073
 10
830.6253
 20
61.2528
 10
829.2318
 20
61.9577
 10
828.0174
 20
62.8912
 10
827.0154
 20
64.0226
 10
826.2587
 20
65.3212
 10
825.7804
 20
66.7561
 10
825.6136
 20
68.2967
 10
825.7804
 20
69.8362
 10
826.2587
 20
71.2702
 10
827.0154
 20
72.568
 10
828.0174
 20
73.6987
 10
829.2318
 20
74.6318
 10
830.6253
 20
75.3363
 10
832.1649
 20
75.7815
 10
833.8175
 20
75.9368
  0
LWPOLYLINE
  5
83
330
1F
100
AcDbEntity
  8
Layer 1
 62
     7
370
    18
100
AcDbPolyline
 90
       33
 70
     1
 43
0.0
 10
829.8571
 20
46.4264
 10
831.5097
 20
46.2711
 10
833.0493
 20
45.8258
 10
834.4428
 20
45.1212
 10
835.6572
 20
44.188
 10
836.6592
 20
43.0569
 10
837.4159
 20
41.7586
 10
837.8942
 20
40.3238
 10
838.061
 20
38.7833
 10
837.8942
 20
37.2434
 10
837.4159
 20
35.8091
 10
836.6592
 20
34.5113
 10
835.6572
 20
33.3806
 10
834.4428
 20
32.4478
 10
833.0493
 20
31.7434
 10
831.5097
 20
31.2983
 10
829.8571
 20
31.1431
 10
828.2029
 20
31.2983
 10
826.6622
 20
31.7434
 10
825.2681
 20
32.4478
 10
824.0535
 20
33.3806
 10
823.0514
 20
34.5113
 10
822.2948
 20
35.8091
 10
821.8166
 20
37.2434
 10
821.6499
 20
38.7833
 10
821.8166
 20
40.3238
 10
822.2948
 20
41.7586
 10
823.0514
 20
43.0569
 10
824.0535
 20
44.188
 10
825.2681
 20
45.1212
 10
826.6622
 20
45.8258
 10
828.2029
 20
46.2711
 10
829.8571
 20
46.4264
  0
LWPOLYLINE
  5
84
330
1F
100
AcDbEntity
  8
Layer 1
 62
     7
370
    18
100
AcDbPolyline
 90
       33
 70
     1
 43
0.0
 10
823.6317
 20
15.8599
 10
825.2856
 20
15.7048
 10
826.8264
 20
15.2598
 10
828.221
 20
14.5556
 10
829.4363
 20
13.6228
 10
830.4392
 20
12.492
 10
831.1966
 20
11.1939
 10
831.6753
 20
9.7591
 10
831.8422
 20
8.2182
 10
831.6753
 20
6.6791
 10
831.1966
 20
5.2453
 10
830.4392
 20
3.9476
 10
829.4363
 20
2.8167
 10
828.221
 20
1.8835
 10
826.8264
 20
1.1788
 10
825.2856
 20
0.7334
 10
823.6317
 20
0.5781
 10
821.9788
 20
0.7334
 10
820.4393
 20
1.1788
 10
819.0463
 20
1.8835
 10
817.8327
 20
2.8167
 10
816.8315
 20
3.9476
 10
816.0755
 20
5.2453
 10
815.5978
 20
6.6791
 10
815.4312
 20
8.2182
 10
815.5978
 20
9.7591
 10
816.0755
 20
11.1939
 10
816.8315
 20
12.492
 10
817.8327
 20
13.6228
 10
819.0463
 20
14.5556
 10
820.4393
 20
15.2598
 10
821.9788
 20
15.7048
 10
823.6317
 20
15.8599
  0
LWPOLYLINE
  5
85
330
1F
100
AcDbEntity
  8
Layer 1
 62
     7
370
    18
100
AcDbPolyline
 90
       33
 70
     1
 43
0.0
 10
815.706
 20
-15.231
 10
817.3612
 20
-15.3863
 10
818.9025
 20
-15.8315
 10
820.297
 20
-16.536
 10
821.5117
 20
-17.469
 10
822.5137
 20
-18.5998
 10
823.2702
 20
-19.8976
 10
823.7482
 20
-21.3316
 10
823.9149
 20
-22.8711
 10
823.7482
 20
-24.4116
 10
823.2702
 20
-25.8464
 10
822.5137
 20
-27.1447
 10
821.5117
 20
-28.2758
 10
820.297
 20
-29.209
 10
818.9025
 20
-29.9136
 10
817.3612
 20
-30.3589
 10
815.706
 20
-30.5142
 10
814.0534
 20
-30.3589
 10
812.514
 20
-29.9136
 10
811.1208
 20
-29.209
 10
809.9068
 20
-28.2758
 10
808.905
 20
-27.1447
 10
808.1486
 20
-25.8464
 10
807.6705
 20
-24.4116
 10
807.5038
 20
-22.8711
 10
807.6705
 20
-21.3316
 10
808.1486
 20
-19.8976
 10
808.905
 20
-18.5998
 10
809.9068
 20
-17.469
 10
811.1208
 20
-16.536
 10
812.514
 20
-15.8315
 10
814.0534
 20
-15.3863
 10
815.706
 20
-15.231
  0
LWPOLYLINE
  5
86
330
1F
100
AcDbEntity
  8
Layer 1
 62
     7
370
    18
100
AcDbPolyline
 90
       33
 70
     1
 43
0.0
 10
810.0519
 20
-46.3218
 10
811.7058
 20
-46.477
 10
813.2457
 20
-46.9221
 10
814.6387
 20
-47.6266
 10
815.8521
 20
-48.5597
 10
816.853
 20
-49.6907
 10
817.6086
 20
-50.989
 10
818.086
 20
-52.424
 10
818.2524
 20
-53.965
 10
818.086
 20
-55.5049
 10
817.6086
 20
-56.9391
 10
816.853
 20
-58.2369
 10
815.8521
 20
-59.3676
 10
814.6387
 20
-60.3004
 10
813.2457
 20
-61.0048
 10
811.7058
 20
-61.4499
 10
810.0519
 20
-61.6051
 10
808.3984
 20
-61.4499
 10
806.8585
 20
-61.0048
 10
805.4652
 20
-60.3004
 10
804.2514
 20
-59.3676
 10
803.25
 20
-58.2369
 10
802.494
 20
-56.9391
 10
802.0162
 20
-55.5049
 10
801.8496
 20
-53.965
 10
802.0162
 20
-52.424
 10
802.494
 20
-50.989
 10
803.25
 20
-49.6907
 10
804.2514
 20
-48.5597
 10
805.4652
 20
-47.6266
 10
806.8585
 20
-46.9221
 10
808.3984
 20
-46.477
 10
810.0519
 20
-46.3218
  0
LWPOLYLINE
  5
87
330
1F
100
AcDbEntity
  8
Layer 1
 62
     7
370
    18
100
AcDbPolyline
 90
       33
 70
     1
 43
0.0
 10
805.5285
 20
-75.3063
 10
807.1811
 20
-75.4616
 10
808.7205
 20
-75.9069
 10
810.1137
 20
-76.6115
 10
811.3278
 20
-77.5448
 10
812.3295
 20
-78.6759
 10
813.086
 20
-79.9742
 10
813.5641
 20
-81.409
 10
813.7308
 20
-82.9495
 10
813.5641
 20
-84.4894
 10
813.086
 20
-85.9237
 10
812.3295
 20
-87.2215
 10
811.3278
 20
-88.3521
 10
810.1137
 20
-89.285
 10
808.7205
 20
-89.9893
 10
807.1811
 20
-90.4344
 10
805.5285
 20
-90.5896
 10
803.8728
 20
-90.4344
 10
802.3313
 20
-89.9893
 10
800.9369
 20
-89.285
 10
799.7223
 20
-88.3521
 10
798.7204
 20
-87.2215
 10
797.9641
 20
-85.9237
 10
797.4863
 20
-84.4894
 10
797.3197
 20
-82.9495
 10
797.4863
 20
-81.409
 10
797.9641
 20
-79.9742
 10
798.7204
 20
-78.6759
 10
799.7223
 20
-77.5448
 10
800.9369
 20
-76.6115
 10
802.3313
 20
-75.9069
 10
803.8728
 20
-75.4616
 10
805.5285
 20
-75.3063
  0
LWPOLYLINE
  5
88
330
1F
100
AcDbEntity
  8
Layer 1
 62
     7
370
    18
100
AcDbPolyline
 90
       33
 70
     1
 43
0.0
 10
947.5626
 20
-77.411
 10
949.2152
 20
-77.5662
 10
950.7546
 20
-78.0114
 10
952.1478
 20
-78.7158
 10
953.3619
 20
-79.6489
 10
954.3636
 20
-80.7799
 10
955.1201
 20
-82.0783
 10
955.5982
 20
-83.5133
 10
955.7649
 20
-85.0542
 10
955.5982
 20
-86.5936
 10
955.1201
 20
-88.0275
 10
954.3636
 20
-89.325
 10
953.3619
 20
-90.4555
 10
952.1478
 20
-91.3883
 10
950.7546
 20
-92.0925
 10
949.2152
 20
-92.5376
 10
947.5626
 20
-92.6928
 10
945.9079
 20
-92.5376
 10
944.3671
 20
-92.0925
 10
942.9729
 20
-91.3883
 10
941.7584
 20
-90.4555
 10
940.7565
 20
-89.325
 10
940.0001
 20
-88.0275
 10
939.5221
 20
-86.5936
 10
939.3554
 20
-85.0542
 10
939.5221
 20
-83.5133
 10
940.0001
 20
-82.0783
 10
940.7565
 20
-80.7799
 10
941.7584
 20
-79.6489
 10
942.9729
 20
-78.7158
 10
944.3671
 20
-78.0114
 10
945.9079
 20
-77.5662
 10
947.5626
 20
-77.411
  0
LWPOLYLINE
  5
89
330
1F
100
AcDbEntity
  8
Layer 1
 62
     7
370
    18
100
AcDbPolyline
 90
       33
 70
     1
 43
0.0
 10
911.343
 20
-77.411
 10
912.9966
 20
-77.5662
 10
914.5366
 20
-78.0114
 10
915.9302
 20
-78.7158
 10
917.1443
 20
-79.6489
 10
918.146
 20
-80.7799
 10
918.9023
 20
-82.0783
 10
919.3803
 20
-83.5133
 10
919.5469
 20
-85.0542
 10
919.3803
 20
-86.5936
 10
918.9023
 20
-88.0275
 10
918.146
 20
-89.325
 10
917.1443
 20
-90.4555
 10
915.9302
 20
-91.3883
 10
914.5366
 20
-92.0925
 10
912.9966
 20
-92.5376
 10
911.343
 20
-92.6928
 10
909.6894
 20
-92.5376
 10
908.1494
 20
-92.0925
 10
906.7558
 20
-91.3883
 10
905.5417
 20
-90.4555
 10
904.54
 20
-89.325
 10
903.7837
 20
-88.0275
 10
903.3057
 20
-86.5936
 10
903.1391
 20
-85.0542
 10
903.3057
 20
-83.5133
 10
903.7837
 20
-82.0783
 10
904.54
 20
-80.7799
 10
905.5417
 20
-79.6489
 10
906.7558
 20
-78.7158
 10
908.1494
 20
-78.0114
 10
909.6894
 20
-77.5662
 10
911.343
 20
-77.411
  0
LWPOLYLINE
  5
8A
330
1F
100
AcDbEntity
  8
Layer 1
 62
     7
370
    18
100
AcDbPolyline
 90
       33
 70
     1
 43
0.0
 10
876.8271
 20
-77.411
 10
878.4806
 20
-77.5662
 10
880.0204
 20
-78.0114
 10
881.4137
 20
-78.7158
 10
882.6275
 20
-79.6489
 10
883.6289
 20
-80.7799
 10
884.3849
 20
-82.0783
 10
884.8627
 20
-83.5133
 10
885.0293
 20
-85.0542
 10
884.8627
 20
-86.5936
 10
884.3849
 20
-88.0275
 10
883.6289
 20
-89.325
 10
882.6275
 20
-90.4555
 10
881.4137
 20
-91.3883
 10
880.0204
 20
-92.0925
 10
878.4806
 20
-92.5376
 10
876.8271
 20
-92.6928
 10
875.1733
 20
-92.5376
 10
873.6327
 20
-92.0925
 10
872.2383
 20
-91.3883
 10
871.0233
 20
-90.4555
 10
870.0207
 20
-89.325
 10
869.2636
 20
-88.0275
 10
868.7851
 20
-86.5936
 10
868.6182
 20
-85.0542
 10
868.7851
 20
-83.5133
 10
869.2636
 20
-82.0783
 10
870.0207
 20
-80.7799
 10
871.0233
 20
-79.6489
 10
872.2383
 20
-78.7158
 10
873.6327
 20
-78.0114
 10
875.1733
 20
-77.5662
 10
876.8271
 20
-77.411
  0
LWPOLYLINE
  5
8B
330
1F
100
AcDbEntity
  8
Layer 1
 62
     7
370
    18
100
AcDbPolyline
 90
       33
 70
     1
 43
0.0
 10
841.1737
 20
-77.411
 10
842.8277
 20
-77.5662
 10
844.368
 20
-78.0114
 10
845.7616
 20
-78.7158
 10
846.9756
 20
-79.6489
 10
847.977
 20
-80.7799
 10
848.7331
 20
-82.0783
 10
849.2109
 20
-83.5133
 10
849.3775
 20
-85.0542
 10
849.2109
 20
-86.5936
 10
848.7331
 20
-88.0275
 10
847.977
 20
-89.325
 10
846.9756
 20
-90.4555
 10
845.7616
 20
-91.3883
 10
844.368
 20
-92.0925
 10
842.8277
 20
-92.5376
 10
841.1737
 20
-92.6928
 10
839.5207
 20
-92.5376
 10
837.9813
 20
-92.0925
 10
836.5883
 20
-91.3883
 10
835.3747
 20
-90.4555
 10
834.3734
 20
-89.325
 10
833.6174
 20
-88.0275
 10
833.1397
 20
-86.5936
 10
832.9731
 20
-85.0542
 10
833.1397
 20
-83.5133
 10
833.6174
 20
-82.0783
 10
834.3734
 20
-80.7799
 10
835.3747
 20
-79.6489
 10
836.5883
 20
-78.7158
 10
837.9813
 20
-78.0114
 10
839.5207
 20
-77.5662
 10
841.1737
 20
-77.411
  0
LWPOLYLINE
  5
8C
330
1F
100
AcDbEntity
  8
Layer 1
 62
     7
370
    18
100
AcDbPolyline
 90
       33
 70
     1
 43
0.0
 10
844.0049
 20
-46.3218
 10
845.6585
 20
-46.477
 10
847.1988
 20
-46.9221
 10
848.5926
 20
-47.6266
 10
849.807
 20
-48.5597
 10
850.809
 20
-49.6907
 10
851.5655
 20
-50.989
 10
852.0437
 20
-52.424
 10
852.2104
 20
-53.965
 10
852.0437
 20
-55.5049
 10
851.5655
 20
-56.9391
 10
850.809
 20
-58.2369
 10
849.807
 20
-59.3676
 10
848.5926
 20
-60.3004
 10
847.1988
 20
-61.0048
 10
845.6585
 20
-61.4499
 10
844.0049
 20
-61.6051
 10
842.3519
 20
-61.4499
 10
840.8122
 20
-61.0048
 10
839.4189
 20
-60.3004
 10
838.205
 20
-59.3676
 10
837.2034
 20
-58.2369
 10
836.4472
 20
-56.9391
 10
835.9692
 20
-55.5049
 10
835.8026
 20
-53.965
 10
835.9692
 20
-52.424
 10
836.4472
 20
-50.989
 10
837.2034
 20
-49.6907
 10
838.205
 20
-48.5597
 10
839.4189
 20
-47.6266
 10
840.8122
 20
-46.9221
 10
842.3519
 20
-46.477
 10
844.0049
 20
-46.3218
  0
LWPOLYLINE
  5
8D
330
1F
100
AcDbEntity
  8
Layer 1
 62
     7
370
    18
100
AcDbPolyline
 90
       33
 70
     1
 43
0.0
 10
879.0887
 20
-46.3218
 10
880.7428
 20
-46.477
 10
882.2833
 20
-46.9221
 10
883.6772
 20
-47.6266
 10
884.8915
 20
-48.5597
 10
885.8933
 20
-49.6907
 10
886.6497
 20
-50.989
 10
887.1277
 20
-52.424
 10
887.2943
 20
-53.965
 10
887.1277
 20
-55.5049
 10
886.6497
 20
-56.9391
 10
885.8933
 20
-58.2369
 10
884.8915
 20
-59.3676
 10
883.6772
 20
-60.3004
 10
882.2833
 20
-61.0048
 10
880.7428
 20
-61.4499
 10
879.0887
 20
-61.6051
 10
877.4352
 20
-61.4499
 10
875.8953
 20
-61.0048
 10
874.502
 20
-60.3004
 10
873.2883
 20
-59.3676
 10
872.2869
 20
-58.2369
 10
871.5308
 20
-56.9391
 10
871.0531
 20
-55.5049
 10
870.8865
 20
-53.965
 10
871.0531
 20
-52.424
 10
871.5308
 20
-50.989
 10
872.2869
 20
-49.6907
 10
873.2883
 20
-48.5597
 10
874.502
 20
-47.6266
 10
875.8953
 20
-46.9221
 10
877.4352
 20
-46.477
 10
879.0887
 20
-46.3218
  0
LWPOLYLINE
  5
8E
330
1F
100
AcDbEntity
  8
Layer 1
 62
     7
370
    18
100
AcDbPolyline
 90
       33
 70
     1
 43
0.0
 10
914.7355
 20
-46.3218
 10
916.3887
 20
-46.477
 10
917.9289
 20
-46.9221
 10
919.323
 20
-47.6266
 10
920.5378
 20
-48.5597
 10
921.5403
 20
-49.6907
 10
922.2973
 20
-50.989
 10
922.7758
 20
-52.424
 10
922.9427
 20
-53.965
 10
922.7758
 20
-55.5049
 10
922.2973
 20
-56.9391
 10
921.5403
 20
-58.2369
 10
920.5378
 20
-59.3676
 10
919.323
 20
-60.3004
 10
917.9289
 20
-61.0048
 10
916.3887
 20
-61.4499
 10
914.7355
 20
-61.6051
 10
913.0829
 20
-61.4499
 10
911.5435
 20
-61.0048
 10
910.1503
 20
-60.3004
 10
908.9363
 20
-59.3676
 10
907.9345
 20
-58.2369
 10
907.1781
 20
-56.9391
 10
906.7
 20
-55.5049
 10
906.5333
 20
-53.965
 10
906.7
 20
-52.424
 10
907.1781
 20
-50.989
 10
907.9345
 20
-49.6907
 10
908.9363
 20
-48.5597
 10
910.1503
 20
-47.6266
 10
911.5435
 20
-46.9221
 10
913.0829
 20
-46.477
 10
914.7355
 20
-46.3218
  0
LWPOLYLINE
  5
8F
330
1F
100
AcDbEntity
  8
Layer 1
 62
     7
370
    18
100
AcDbPolyline
 90
       33
 70
     1
 43
0.0
 10
948.6951
 20
-46.3218
 10
950.3481
 20
-46.477
 10
951.8878
 20
-46.9221
 10
953.2811
 20
-47.6266
 10
954.495
 20
-48.5597
 10
955.4966
 20
-49.6907
 10
956.2528
 20
-50.989
 10
956.7308
 20
-52.424
 10
956.8974
 20
-53.965
 10
956.7308
 20
-55.5049
 10
956.2528
 20
-56.9391
 10
955.4966
 20
-58.2369
 10
954.495
 20
-59.3676
 10
953.2811
 20
-60.3004
 10
951.8878
 20
-61.0048
 10
950.3481
 20
-61.4499
 10
948.6951
 20
-61.6051
 10
947.0398
 20
-61.4499
 10
945.4984
 20
-61.0048
 10
944.1037
 20
-60.3004
 10
942.8887
 20
-59.3676
 10
941.8863
 20
-58.2369
 10
941.1295
 20
-56.9391
 10
940.6513
 20
-55.5049
 10
940.4846
 20
-53.965
 10
940.6513
 20
-52.424
 10
941.1295
 20
-50.989
 10
941.8863
 20
-49.6907
 10
942.8887
 20
-48.5597
 10
944.1037
 20
-47.6266
 10
945.4984
 20
-46.9221
 10
947.0398
 20
-46.477
 10
948.6951
 20
-46.3218
  0
LWPOLYLINE
  5
90
330
1F
100
AcDbEntity
  8
Layer 1
 62
     7
370
    18
100
AcDbPolyline
 90
       33
 70
     1
 43
0.0
 10
849.659
 20
-15.231
 10
851.3142
 20
-15.3863
 10
852.8553
 20
-15.8315
 10
854.2494
 20
-16.536
 10
855.4638
 20
-17.469
 10
856.4656
 20
-18.5998
 10
857.2218
 20
-19.8976
 10
857.6996
 20
-21.3316
 10
857.8662
 20
-22.8711
 10
857.6996
 20
-24.4116
 10
857.2218
 20
-25.8464
 10
856.4656
 20
-27.1447
 10
855.4638
 20
-28.2758
 10
854.2494
 20
-29.209
 10
852.8553
 20
-29.9136
 10
851.3142
 20
-30.3589
 10
849.659
 20
-30.5142
 10
848.006
 20
-30.3589
 10
846.4664
 20
-29.9136
 10
845.0731
 20
-29.209
 10
843.8592
 20
-28.2758
 10
842.8576
 20
-27.1447
 10
842.1014
 20
-25.8464
 10
841.6234
 20
-24.4116
 10
841.4568
 20
-22.8711
 10
841.6234
 20
-21.3316
 10
842.1014
 20
-19.8976
 10
842.8576
 20
-18.5998
 10
843.8592
 20
-17.469
 10
845.0731
 20
-16.536
 10
846.4664
 20
-15.8315
 10
848.006
 20
-15.3863
 10
849.659
 20
-15.231
  0
LWPOLYLINE
  5
91
330
1F
100
AcDbEntity
  8
Layer 1
 62
     7
370
    18
100
AcDbPolyline
 90
       33
 70
     1
 43
0.0
 10
882.4845
 20
-15.231
 10
884.1376
 20
-15.3863
 10
885.6774
 20
-15.8315
 10
887.0709
 20
-16.536
 10
888.2852
 20
-17.469
 10
889.287
 20
-18.5998
 10
890.0436
 20
-19.8976
 10
890.5217
 20
-21.3316
 10
890.6884
 20
-22.8711
 10
890.5217
 20
-24.4116
 10
890.0436
 20
-25.8464
 10
889.287
 20
-27.1447
 10
888.2852
 20
-28.2758
 10
887.0709
 20
-29.209
 10
885.6774
 20
-29.9136
 10
884.1376
 20
-30.3589
 10
882.4845
 20
-30.5142
 10
880.8293
 20
-30.3589
 10
879.2882
 20
-29.9136
 10
877.8941
 20
-29.209
 10
876.6797
 20
-28.2758
 10
875.6779
 20
-27.1447
 10
874.9217
 20
-25.8464
 10
874.4439
 20
-24.4116
 10
874.2773
 20
-22.8711
 10
874.4439
 20
-21.3316
 10
874.9217
 20
-19.8976
 10
875.6779
 20
-18.5998
 10
876.6797
 20
-17.469
 10
877.8941
 20
-16.536
 10
879.2882
 20
-15.8315
 10
880.8293
 20
-15.3863
 10
882.4845
 20
-15.231
  0
LWPOLYLINE
  5
92
330
1F
100
AcDbEntity
  8
Layer 1
 62
     7
370
    18
100
AcDbPolyline
 90
       33
 70
     1
 43
0.0
 10
916.4342
 20
-15.231
 10
918.0879
 20
-15.3863
 10
919.6283
 20
-15.8315
 10
921.0224
 20
-16.536
 10
922.2372
 20
-17.469
 10
923.2394
 20
-18.5998
 10
923.9963
 20
-19.8976
 10
924.4746
 20
-21.3316
 10
924.6414
 20
-22.8711
 10
924.4746
 20
-24.4116
 10
923.9963
 20
-25.8464
 10
923.2394
 20
-27.1447
 10
922.2372
 20
-28.2758
 10
921.0224
 20
-29.209
 10
919.6283
 20
-29.9136
 10
918.0879
 20
-30.3589
 10
916.4342
 20
-30.5142
 10
914.7811
 20
-30.3589
 10
913.2413
 20
-29.9136
 10
911.8478
 20
-29.209
 10
910.6335
 20
-28.2758
 10
909.6317
 20
-27.1447
 10
908.8751
 20
-25.8464
 10
908.397
 20
-24.4116
 10
908.2303
 20
-22.8711
 10
908.397
 20
-21.3316
 10
908.8751
 20
-19.8976
 10
909.6317
 20
-18.5998
 10
910.6335
 20
-17.469
 10
911.8478
 20
-16.536
 10
913.2413
 20
-15.8315
 10
914.7811
 20
-15.3863
 10
916.4342
 20
-15.231
  0
LWPOLYLINE
  5
93
330
1F
100
AcDbEntity
  8
Layer 1
 62
     7
370
    18
100
AcDbPolyline
 90
       33
 70
     1
 43
0.0
 10
949.2564
 20
-15.231
 10
950.91
 20
-15.3863
 10
952.45
 20
-15.8315
 10
953.8436
 20
-16.536
 10
955.0577
 20
-17.469
 10
956.0594
 20
-18.5998
 10
956.8157
 20
-19.8976
 10
957.2937
 20
-21.3316
 10
957.4603
 20
-22.8711
 10
957.2937
 20
-24.4116
 10
956.8157
 20
-25.8464
 10
956.0594
 20
-27.1447
 10
955.0577
 20
-28.2758
 10
953.8436
 20
-29.209
 10
952.45
 20
-29.9136
 10
950.91
 20
-30.3589
 10
949.2564
 20
-30.5142
 10
947.6028
 20
-30.3589
 10
946.0625
 20
-29.9136
 10
944.6687
 20
-29.209
 10
943.4543
 20
-28.2758
 10
942.4523
 20
-27.1447
 10
941.6958
 20
-25.8464
 10
941.2176
 20
-24.4116
 10
941.0509
 20
-22.8711
 10
941.2176
 20
-21.3316
 10
941.6958
 20
-19.8976
 10
942.4523
 20
-18.5998
 10
943.4543
 20
-17.469
 10
944.6687
 20
-16.536
 10
946.0625
 20
-15.8315
 10
947.6028
 20
-15.3863
 10
949.2564
 20
-15.231
  0
LWPOLYLINE
  5
94
330
1F
100
AcDbEntity
  8
Layer 1
 62
     7
370
    18
100
AcDbPolyline
 90
       33
 70
     1
 43
0.0
 10
854.7568
 20
15.8599
 10
856.4103
 20
15.7048
 10
857.9502
 20
15.2598
 10
859.3435
 20
14.5556
 10
860.5573
 20
13.6228
 10
861.5587
 20
12.492
 10
862.3147
 20
11.1939
 10
862.7925
 20
9.7591
 10
862.9591
 20
8.2182
 10
862.7925
 20
6.6791
 10
862.3147
 20
5.2453
 10
861.5587
 20
3.9476
 10
860.5573
 20
2.8167
 10
859.3435
 20
1.8835
 10
857.9502
 20
1.1788
 10
856.4103
 20
0.7334
 10
854.7568
 20
0.5781
 10
853.1036
 20
0.7334
 10
851.5634
 20
1.1788
 10
850.1693
 20
1.8835
 10
848.9545
 20
2.8167
 10
847.952
 20
3.9476
 10
847.195
 20
5.2453
 10
846.7165
 20
6.6791
 10
846.5496
 20
8.2182
 10
846.7165
 20
9.7591
 10
847.195
 20
11.1939
 10
847.952
 20
12.492
 10
848.9545
 20
13.6228
 10
850.1693
 20
14.5556
 10
851.5634
 20
15.2598
 10
853.1036
 20
15.7048
 10
854.7568
 20
15.8599
  0
LWPOLYLINE
  5
95
330
1F
100
AcDbEntity
  8
Layer 1
 62
     7
370
    18
100
AcDbPolyline
 90
       33
 70
     1
 43
0.0
 10
888.7082
 20
15.8599
 10
890.3617
 20
15.7048
 10
891.9016
 20
15.2598
 10
893.2949
 20
14.5556
 10
894.5087
 20
13.6228
 10
895.51
 20
12.492
 10
896.2661
 20
11.1939
 10
896.7438
 20
9.7591
 10
896.9104
 20
8.2182
 10
896.7438
 20
6.6791
 10
896.2661
 20
5.2453
 10
895.51
 20
3.9476
 10
894.5087
 20
2.8167
 10
893.2949
 20
1.8835
 10
891.9016
 20
1.1788
 10
890.3617
 20
0.7334
 10
888.7082
 20
0.5781
 10
887.0554
 20
0.7334
 10
885.5154
 20
1.1788
 10
884.1214
 20
1.8835
 10
882.9065
 20
2.8167
 10
881.9038
 20
3.9476
 10
881.1466
 20
5.2453
 10
880.6679
 20
6.6791
 10
880.501
 20
8.2182
 10
880.6679
 20
9.7591
 10
881.1466
 20
11.1939
 10
881.9038
 20
12.492
 10
882.9065
 20
13.6228
 10
884.1214
 20
14.5556
 10
885.5154
 20
15.2598
 10
887.0554
 20
15.7048
 10
888.7082
 20
15.8599
  0
LWPOLYLINE
  5
96
330
1F
100
AcDbEntity
  8
Layer 1
 62
     7
370
    18
100
AcDbPolyline
 90
       33
 70
     1
 43
0.0
 10
919.83
 20
15.8599
 10
921.4849
 20
15.7048
 10
923.0263
 20
15.2598
 10
924.4213
 20
14.5556
 10
925.6367
 20
13.6228
 10
926.6395
 20
12.492
 10
927.3968
 20
11.1939
 10
927.8753
 20
9.7591
 10
928.0422
 20
8.2182
 10
927.8753
 20
6.6791
 10
927.3968
 20
5.2453
 10
926.6395
 20
3.9476
 10
925.6367
 20
2.8167
 10
924.4213
 20
1.8835
 10
923.0263
 20
1.1788
 10
921.4849
 20
0.7334
 10
919.83
 20
0.5781
 10
918.1774
 20
0.7334
 10
916.638
 20
1.1788
 10
915.2448
 20
1.8835
 10
914.0308
 20
2.8167
 10
913.029
 20
3.9476
 10
912.2726
 20
5.2453
 10
911.7945
 20
6.6791
 10
911.6278
 20
8.2182
 10
911.7945
 20
9.7591
 10
912.2726
 20
11.1939
 10
913.029
 20
12.492
 10
914.0308
 20
13.6228
 10
915.2448
 20
14.5556
 10
916.638
 20
15.2598
 10
918.1774
 20
15.7048
 10
919.83
 20
15.8599
  0
LWPOLYLINE
  5
97
330
1F
100
AcDbEntity
  8
Layer 1
 62
     7
370
    18
100
AcDbPolyline
 90
       33
 70
     1
 43
0.0
 10
950.9551
 20
15.8599
 10
952.6092
 20
15.7048
 10
954.1497
 20
15.2598
 10
955.5436
 20
14.5556
 10
956.7579
 20
13.6228
 10
957.7597
 20
12.492
 10
958.5161
 20
11.1939
 10
958.9941
 20
9.7591
 10
959.1607
 20
8.2182
 10
958.9941
 20
6.6791
 10
958.5161
 20
5.2453
 10
957.7597
 20
3.9476
 10
956.7579
 20
2.8167
 10
955.5436
 20
1.8835
 10
954.1497
 20
1.1788
 10
952.6092
 20
0.7334
 10
950.9551
 20
0.5781
 10
949.3021
 20
0.7334
 10
947.7625
 20
1.1788
 10
946.3692
 20
1.8835
 10
945.1553
 20
2.8167
 10
944.1537
 20
3.9476
 10
943.3975
 20
5.2453
 10
942.9195
 20
6.6791
 10
942.7529
 20
8.2182
 10
942.9195
 20
9.7591
 10
943.3975
 20
11.1939
 10
944.1537
 20
12.492
 10
945.1553
 20
13.6228
 10
946.3692
 20
14.5556
 10
947.7625
 20
15.2598
 10
949.3021
 20
15.7048
 10
950.9551
 20
15.8599
  0
LWPOLYLINE
  5
98
330
1F
100
AcDbEntity
  8
Layer 1
 62
     7
370
    18
100
AcDbPolyline
 90
       33
 70
     1
 43
0.0
 10
860.9839
 20
46.4264
 10
862.636
 20
46.2711
 10
864.1754
 20
45.8258
 10
865.5689
 20
45.1212
 10
866.7833
 20
44.188
 10
867.7855
 20
43.0569
 10
868.5424
 20
41.7586
 10
869.0209
 20
40.3238
 10
869.1877
 20
38.7833
 10
869.0209
 20
37.2434
 10
868.5424
 20
35.8091
 10
867.7855
 20
34.5113
 10
866.7833
 20
33.3806
 10
865.5689
 20
32.4478
 10
864.1754
 20
31.7434
 10
862.636
 20
31.2983
 10
860.9839
 20
31.1431
 10
859.3306
 20
31.2983
 10
857.7902
 20
31.7434
 10
856.3958
 20
32.4478
 10
855.1807
 20
33.3806
 10
854.1779
 20
34.5113
 10
853.4206
 20
35.8091
 10
852.9419
 20
37.2434
 10
852.775
 20
38.7833
 10
852.9419
 20
40.3238
 10
853.4206
 20
41.7586
 10
854.1779
 20
43.0569
 10
855.1807
 20
44.188
 10
856.3958
 20
45.1212
 10
857.7902
 20
45.8258
 10
859.3306
 20
46.2711
 10
860.9839
 20
46.4264
  0
LWPOLYLINE
  5
99
330
1F
100
AcDbEntity
  8
Layer 1
 62
     7
370
    18
100
AcDbPolyline
 90
       33
 70
     1
 43
0.0
 10
890.9715
 20
46.4264
 10
892.6252
 20
46.2711
 10
894.1656
 20
45.8258
 10
895.5597
 20
45.1212
 10
896.7745
 20
44.188
 10
897.7767
 20
43.0569
 10
898.5336
 20
41.7586
 10
899.0119
 20
40.3238
 10
899.1787
 20
38.7833
 10
899.0119
 20
37.2434
 10
898.5336
 20
35.8091
 10
897.7767
 20
34.5113
 10
896.7745
 20
33.3806
 10
895.5597
 20
32.4478
 10
894.1656
 20
31.7434
 10
892.6252
 20
31.2983
 10
890.9715
 20
31.1431
 10
889.3179
 20
31.2983
 10
887.7779
 20
31.7434
 10
886.3843
 20
32.4478
 10
885.1702
 20
33.3806
 10
884.1685
 20
34.5113
 10
883.4122
 20
35.8091
 10
882.9342
 20
37.2434
 10
882.7676
 20
38.7833
 10
882.9342
 20
40.3238
 10
883.4122
 20
41.7586
 10
884.1685
 20
43.0569
 10
885.1702
 20
44.188
 10
886.3843
 20
45.1212
 10
887.7779
 20
45.8258
 10
889.3179
 20
46.2711
 10
890.9715
 20
46.4264
  0
LWPOLYLINE
  5
9A
330
1F
100
AcDbEntity
  8
Layer 1
 62
     7
370
    18
100
AcDbPolyline
 90
       33
 70
     1
 43
0.0
 10
922.6629
 20
46.4264
 10
924.316
 20
46.2711
 10
925.8558
 20
45.8258
 10
927.2493
 20
45.1212
 10
928.4636
 20
44.188
 10
929.4654
 20
43.0569
 10
930.222
 20
41.7586
 10
930.7001
 20
40.3238
 10
930.8668
 20
38.7833
 10
930.7001
 20
37.2434
 10
930.222
 20
35.8091
 10
929.4654
 20
34.5113
 10
928.4636
 20
33.3806
 10
927.2493
 20
32.4478
 10
925.8558
 20
31.7434
 10
924.316
 20
31.2983
 10
922.6629
 20
31.1431
 10
921.0091
 20
31.2983
 10
919.4685
 20
31.7434
 10
918.0741
 20
32.4478
 10
916.8591
 20
33.3806
 10
915.8565
 20
34.5113
 10
915.0994
 20
35.8091
 10
914.6209
 20
37.2434
 10
914.454
 20
38.7833
 10
914.6209
 20
40.3238
 10
915.0994
 20
41.7586
 10
915.8565
 20
43.0569
 10
916.8591
 20
44.188
 10
918.0741
 20
45.1212
 10
919.4685
 20
45.8258
 10
921.0091
 20
46.2711
 10
922.6629
 20
46.4264
  0
LWPOLYLINE
  5
9B
330
1F
100
AcDbEntity
  8
Layer 1
 62
     7
370
    18
100
AcDbPolyline
 90
       33
 70
     1
 43
0.0
 10
954.3509
 20
46.4264
 10
956.0035
 20
46.2711
 10
957.5429
 20
45.8258
 10
958.9361
 20
45.1212
 10
960.1502
 20
44.188
 10
961.1519
 20
43.0569
 10
961.9084
 20
41.7586
 10
962.3865
 20
40.3238
 10
962.5532
 20
38.7833
 10
962.3865
 20
37.2434
 10
961.9084
 20
35.8091
 10
961.1519
 20
34.5113
 10
960.1502
 20
33.3806
 10
958.9361
 20
32.4478
 10
957.5429
 20
31.7434
 10
956.0035
 20
31.2983
 10
954.3509
 20
31.1431
 10
952.6968
 20
31.2983
 10
951.1563
 20
31.7434
 10
949.7625
 20
32.4478
 10
948.5482
 20
33.3806
 10
947.5464
 20
34.5113
 10
946.79
 20
35.8091
 10
946.312
 20
37.2434
 10
946.1454
 20
38.7833
 10
946.312
 20
40.3238
 10
946.79
 20
41.7586
 10
947.5464
 20
43.0569
 10
948.5482
 20
44.188
 10
949.7625
 20
45.1212
 10
951.1563
 20
45.8258
 10
952.6968
 20
46.2711
 10
954.3509
 20
46.4264
  0
LWPOLYLINE
  5
9C
330
1F
100
AcDbEntity
  8
Layer 1
 62
     7
370
    18
100
AcDbPolyline
 90
       33
 70
     1
 43
0.0
 10
862.676
 20
75.9368
 10
864.3318
 20
75.7815
 10
865.8734
 20
75.3363
 10
867.2682
 20
74.6318
 10
868.4831
 20
73.6987
 10
869.4852
 20
72.568
 10
870.2418
 20
71.2702
 10
870.7198
 20
69.8362
 10
870.8865
 20
68.2967
 10
870.7198
 20
66.7561
 10
870.2418
 20
65.3212
 10
869.4852
 20
64.0226
 10
868.4831
 20
62.8912
 10
867.2682
 20
61.9577
 10
865.8734
 20
61.2528
 10
864.3318
 20
60.8073
 10
862.676
 20
60.652
 10
861.0236
 20
60.8073
 10
859.4845
 20
61.2528
 10
858.0918
 20
61.9577
 10
856.8784
 20
62.8912
 10
855.8772
 20
64.0226
 10
855.1213
 20
65.3212
 10
854.6436
 20
66.7561
 10
854.477
 20
68.2967
 10
854.6436
 20
69.8362
 10
855.1213
 20
71.2702
 10
855.8772
 20
72.568
 10
856.8784
 20
73.6987
 10
858.0918
 20
74.6318
 10
859.4845
 20
75.3363
 10
861.0236
 20
75.7815
 10
862.676
 20
75.9368
  0
LWPOLYLINE
  5
9D
330
1F
100
AcDbEntity
  8
Layer 1
 62
     7
370
    18
100
AcDbPolyline
 90
       33
 70
     1
 43
0.0
 10
893.2348
 20
75.9368
 10
894.8876
 20
75.7815
 10
896.4276
 20
75.3363
 10
897.8216
 20
74.6318
 10
899.0365
 20
73.6987
 10
900.0392
 20
72.568
 10
900.7964
 20
71.2702
 10
901.2751
 20
69.8362
 10
901.442
 20
68.2967
 10
901.2751
 20
66.7561
 10
900.7964
 20
65.3212
 10
900.0392
 20
64.0226
 10
899.0365
 20
62.8912
 10
897.8216
 20
61.9577
 10
896.4276
 20
61.2528
 10
894.8876
 20
60.8073
 10
893.2348
 20
60.652
 10
891.5812
 20
60.8073
 10
890.0409
 20
61.2528
 10
888.6471
 20
61.9577
 10
887.4327
 20
62.8912
 10
886.4307
 20
64.0226
 10
885.6742
 20
65.3212
 10
885.196
 20
66.7561
 10
885.0293
 20
68.2967
 10
885.196
 20
69.8362
 10
885.6742
 20
71.2702
 10
886.4307
 20
72.568
 10
887.4327
 20
73.6987
 10
888.6471
 20
74.6318
 10
890.0409
 20
75.3363
 10
891.5812
 20
75.7815
 10
893.2348
 20
75.9368
  0
LWPOLYLINE
  5
9E
330
1F
100
AcDbEntity
  8
Layer 1
 62
     7
370
    18
100
AcDbPolyline
 90
       33
 70
     1
 43
0.0
 10
923.7937
 20
75.9368
 10
925.4467
 20
75.7815
 10
926.9863
 20
75.3363
 10
928.3796
 20
74.6318
 10
929.5935
 20
73.6987
 10
930.5951
 20
72.568
 10
931.3513
 20
71.2702
 10
931.8293
 20
69.8362
 10
931.9959
 20
68.2967
 10
931.8293
 20
66.7561
 10
931.3513
 20
65.3212
 10
930.5951
 20
64.0226
 10
929.5935
 20
62.8912
 10
928.3796
 20
61.9577
 10
926.9863
 20
61.2528
 10
925.4467
 20
60.8073
 10
923.7937
 20
60.652
 10
922.1405
 20
60.8073
 10
920.6003
 20
61.2528
 10
919.2062
 20
61.9577
 10
917.9914
 20
62.8912
 10
916.9889
 20
64.0226
 10
916.2319
 20
65.3212
 10
915.7534
 20
66.7561
 10
915.5865
 20
68.2967
 10
915.7534
 20
69.8362
 10
916.2319
 20
71.2702
 10
916.9889
 20
72.568
 10
917.9914
 20
73.6987
 10
919.2062
 20
74.6318
 10
920.6003
 20
75.3363
 10
922.1405
 20
75.7815
 10
923.7937
 20
75.9368
  0
LWPOLYLINE
  5
9F
330
1F
100
AcDbEntity
  8
Layer 1
 62
     7
370
    18
100
AcDbPolyline
 90
       33
 70
     1
 43
0.0
 10
953.7814
 20
75.9368
 10
955.4361
 20
75.7815
 10
956.9769
 20
75.3363
 10
958.3711
 20
74.6318
 10
959.5856
 20
73.6987
 10
960.5875
 20
72.568
 10
961.3439
 20
71.2702
 10
961.8219
 20
69.8362
 10
961.9886
 20
68.2967
 10
961.8219
 20
66.7561
 10
961.3439
 20
65.3212
 10
960.5875
 20
64.0226
 10
959.5856
 20
62.8912
 10
958.3711
 20
61.9577
 10
956.9769
 20
61.2528
 10
955.4361
 20
60.8073
 10
953.7814
 20
60.652
 10
952.1288
 20
60.8073
 10
950.5892
 20
61.2528
 10
949.1957
 20
61.9577
 10
947.9813
 20
62.8912
 10
946.9793
 20
64.0226
 10
946.2226
 20
65.3212
 10
945.7443
 20
66.7561
 10
945.5775
 20
68.2967
 10
945.7443
 20
69.8362
 10
946.2226
 20
71.2702
 10
946.9793
 20
72.568
 10
947.9813
 20
73.6987
 10
949.1957
 20
74.6318
 10
950.5892
 20
75.3363
 10
952.1288
 20
75.7815
 10
953.7814
 20
75.9368
  0
LWPOLYLINE
  5
A0
330
1F
100
AcDbEntity
  8
Layer 1
 62
     7
370
    18
100
AcDbPolyline
 90
       33
 70
     1
 43
0.0
 10
698.8581
 20
45.6894
 10
707.1895
 20
44.9072
 10
714.9492
 20
42.6639
 10
721.971
 20
39.1142
 10
728.0887
 20
34.4129
 10
733.1361
 20
28.7149
 10
736.9472
 20
22.1749
 10
739.3556
 20
14.9477
 10
740.1954
 20
7.1882
 10
739.3556
 20
-0.5697
 10
736.9472
 20
-7.7955
 10
733.1361
 20
-14.3345
 10
728.0887
 20
-20.0317
 10
721.971
 20
-24.7323
 10
714.9492
 20
-28.2816
 10
707.1895
 20
-30.5247
 10
698.8581
 20
-31.3068
 10
690.5264
 20
-30.5247
 10
682.7662
 20
-28.2816
 10
675.7436
 20
-24.7323
 10
669.625
 20
-20.0317
 10
664.5767
 20
-14.3345
 10
660.7648
 20
-7.7955
 10
658.3558
 20
-0.5697
 10
657.5158
 20
7.1882
 10
658.3558
 20
14.9477
 10
660.7648
 20
22.1749
 10
664.5767
 20
28.7149
 10
669.625
 20
34.4129
 10
675.7436
 20
39.1142
 10
682.7662
 20
42.6639
 10
690.5264
 20
44.9072
 10
698.8581
 20
45.6894
  0
LWPOLYLINE
  5
A1
330
1F
100
AcDbEntity
  8
Layer 1
 62
     7
370
    18
100
AcDbPolyline
 90
       33
 70
     1
 43
0.0
 10
698.8581
 20
37.7841
 10
705.4782
 20
37.1626
 10
711.6443
 20
35.3799
 10
717.2244
 20
32.5592
 10
722.0862
 20
28.8234
 10
726.0977
 20
24.2953
 10
729.1267
 20
19.0982
 10
731.0409
 20
13.3548
 10
731.7084
 20
7.1882
 10
731.0409
 20
1.0232
 10
729.1267
 20
-4.7188
 10
726.0977
 20
-9.9149
 10
722.0862
 20
-14.4421
 10
717.2244
 20
-18.1773
 10
711.6443
 20
-20.9976
 10
705.4782
 20
-22.78
 10
698.8581
 20
-23.4015
 10
692.2369
 20
-22.78
 10
686.07
 20
-20.9976
 10
680.4893
 20
-18.1773
 10
675.627
 20
-14.4421
 10
671.6153
 20
-9.9149
 10
668.5862
 20
-4.7188
 10
666.6719
 20
1.0232
 10
666.0044
 20
7.1882
 10
666.6719
 20
13.3548
 10
668.5862
 20
19.0982
 10
671.6153
 20
24.2953
 10
675.627
 20
28.8234
 10
680.4893
 20
32.5592
 10
686.07
 20
35.3799
 10
692.2369
 20
37.1626
 10
698.8581
 20
37.7841
  0
LWPOLYLINE
  5
A2
330
1F
100
AcDbEntity
  8
Layer 1
 62
     7
100
AcDbPolyline
 90
       12
 70
     1
 43
0.0
 10
398.7033
 20
-3.8764
 10
398.7033
 20
-6.1954
 10
405.9485
 20
-6.1954
 10
405.9485
 20
-8.7334
 10
398.7033
 20
-8.7334
 10
398.7033
 20
-17.3989
 10
395.7313
 20
-17.3989
 10
384.8784
 20
-8.6255
 10
384.8784
 20
-6.1954
 10
396.4433
 20
-6.1954
 10
396.4433
 20
-3.8764
 10
398.7033
 20
-3.8764
  0
LWPOLYLINE
  5
A3
330
1F
100
AcDbEntity
  8
Layer 1
 62
     7
100
AcDbPolyline
 90
        4
 70
     1
 43
0.0
 10
396.4433
 20
-8.7334
 10
388.2228
 20
-8.7334
 10
396.4433
 20
-15.3343
 10
396.4433
 20
-8.7334
  0
LWPOLYLINE
  5
A4
330
1F
100
AcDbEntity
  8
Layer 1
 62
     7
100
AcDbPolyline
 90
       27
 70
     1
 43
0.0
 10
405.9485
 20
11.0353
 10
405.9485
 20
1.4524
 10
403.8044
 20
1.4524
 10
403.8044
 20
5.0142
 10
389.66
 20
5.0142
 10
389.66
 20
1.4524
 10
387.7477
 20
1.4524
 10
387.7379
 20
1.9401
 10
387.7087
 20
2.3948
 10
387.66
 20
2.8166
 10
387.592
 20
3.2053
 10
387.5048
 20
3.561
 10
387.3984
 20
3.8837
 10
387.2729
 20
4.1733
 10
387.1284
 20
4.4298
 10
386.957
 20
4.6551
 10
386.751
 20
4.8547
 10
386.5103
 20
5.0283
 10
386.235
 20
5.176
 10
385.9251
 20
5.2977
 10
385.5808
 20
5.3933
 10
385.2021
 20
5.4628
 10
384.789
 20
5.506
 10
384.789
 20
7.5521
 10
403.8044
 20
7.5521
 10
403.8044
 20
11.0353
 10
405.9485
 20
11.0353
  0
LWPOLYLINE
  5
A5
330
1F
100
AcDbEntity
  8
Layer 1
 62
     7
100
AcDbPolyline
 90
       65
 70
     1
 43
0.0
 10
395.3985
 20
28.5636
 10
396.7696
 20
28.5395
 10
398.0468
 20
28.4674
 10
399.2299
 20
28.3473
 10
400.3188
 20
28.1793
 10
401.3135
 20
27.9634
 10
402.2139
 20
27.6997
 10
403.02
 20
27.3884
 10
403.7316
 20
27.0294
 10
404.3538
 20
26.6184
 10
404.893
 20
26.1556
 10
405.3491
 20
25.6409
 10
405.7223
 20
25.0743
 10
406.0125
 20
24.4556
 10
406.2198
 20
23.7848
 10
406.3442
 20
23.0618
 10
406.3856
 20
22.2865
 10
406.3433
 20
21.502
 10
406.2164
 20
20.772
 10
406.005
 20
20.0962
 10
405.7091
 20
19.4747
 10
405.3286
 20
18.9071
 10
404.8636
 20
18.3934
 10
404.3142
 20
17.9333
 10
403.6803
 20
17.5267
 10
402.9597
 20
17.1712
 10
402.1504
 20
16.8631
 10
401.2522
 20
16.6026
 10
400.2652
 20
16.3895
 10
399.1893
 20
16.2239
 10
398.0246
 20
16.1056
 10
396.771
 20
16.0346
 10
395.4284
 20
16.011
 10
394.0501
 20
16.0351
 10
392.7676
 20
16.1072
 10
391.5809
 20
16.2273
 10
390.4899
 20
16.3953
 10
389.4947
 20
16.6112
 10
388.5952
 20
16.8748
 10
387.7916
 20
17.1862
 10
387.0837
 20
17.5452
 10
386.4634
 20
17.9556
 10
385.9263
 20
18.418
 10
385.472
 20
18.9325
 10
385.1007
 20
19.4989
 10
384.812
 20
20.1175
 10
384.606
 20
20.7883
 10
384.4825
 20
21.5112
 10
384.4413
 20
22.2865
 10
384.4841
 20
23.0711
 10
384.6125
 20
23.8013
 10
384.8264
 20
24.4772
 10
385.1257
 20
25.0991
 10
385.5103
 20
25.667
 10
385.98
 20
26.181
 10
386.5349
 20
26.6412
 10
387.1748
 20
27.0479
 10
387.9008
 20
27.4034
 10
388.7131
 20
27.7115
 10
389.6115
 20
27.972
 10
390.5962
 20
28.1851
 10
391.6673
 20
28.3507
 10
392.8246
 20
28.469
 10
394.0684
 20
28.54
 10
395.3985
 20
28.5636
  0
LWPOLYLINE
  5
A6
330
1F
100
AcDbEntity
  8
Layer 1
 62
     7
100
AcDbPolyline
 90
      129
 70
     1
 43
0.0
 10
401.8193
 20
25.1883
 10
401.5483
 20
25.2808
 10
401.2603
 20
25.3664
 10
400.9553
 20
25.445
 10
400.6332
 20
25.5168
 10
400.2938
 20
25.5815
 10
399.9369
 20
25.6393
 10
399.5624
 20
25.6902
 10
399.1702
 20
25.7342
 10
398.7631
 20
25.7702
 10
398.3378
 20
25.8017
 10
397.8942
 20
25.8286
 10
397.4321
 20
25.8509
 10
396.9516
 20
25.8685
 10
396.4526
 20
25.8811
 10
395.9349
 20
25.8888
 10
395.3985
 20
25.8914
 10
394.8675
 20
25.8888
 10
394.3535
 20
25.8811
 10
393.8569
 20
25.8685
 10
393.3778
 20
25.8509
 10
392.9164
 20
25.8286
 10
392.4728
 20
25.8017
 10
392.0474
 20
25.7702
 10
391.6402
 20
25.7342
 10
391.2488
 20
25.6901
 10
390.8743
 20
25.6388
 10
390.5168
 20
25.5802
 10
390.1761
 20
25.5144
 10
389.8524
 20
25.4414
 10
389.5456
 20
25.3612
 10
389.2557
 20
25.2738
 10
388.9828
 20
25.1791
 10
388.7211
 20
25.075
 10
388.476
 20
24.9618
 10
388.2476
 20
24.8394
 10
388.0356
 20
24.7079
 10
387.8399
 20
24.5673
 10
387.6606
 20
24.4178
 10
387.4974
 20
24.2594
 10
387.3503
 20
24.0921
 10
387.2193
 20
23.911
 10
387.1057
 20
23.7171
 10
387.0095
 20
23.5105
 10
386.9308
 20
23.291
 10
386.8695
 20
23.0589
 10
386.8258
 20
22.8141
 10
386.7995
 20
22.5566
 10
386.7907
 20
22.2865
 10
386.7995
 20
22.019
 10
386.8258
 20
21.7634
 10
386.8695
 20
21.5199
 10
386.9308
 20
21.2885
 10
387.0095
 20
21.0695
 10
387.1057
 20
20.8628
 10
387.2193
 20
20.6686
 10
387.3503
 20
20.4871
 10
387.4978
 20
20.3147
 10
387.6623
 20
20.1516
 10
387.8438
 20
19.9978
 10
388.0422
 20
19.8534
 10
388.2576
 20
19.7185
 10
388.49
 20
19.5933
 10
388.7395
 20
19.4779
 10
389.006
 20
19.3723
 10
389.2848
 20
19.2768
 10
389.5809
 20
19.189
 10
389.8944
 20
19.1091
 10
390.2254
 20
19.037
 10
390.5737
 20
18.9726
 10
390.9394
 20
18.9161
 10
391.3224
 20
18.8674
 10
391.7229
 20
18.8265
 10
392.1403
 20
18.7938
 10
392.5706
 20
18.7651
 10
393.0138
 20
18.7405
 10
393.4701
 20
18.7201
 10
393.9396
 20
18.7041
 10
394.4224
 20
18.6925
 10
394.9186
 20
18.6855
 10
395.4284
 20
18.6831
 10
395.9679
 20
18.6851
 10
396.4851
 20
18.6909
 10
396.9799
 20
18.7007
 10
397.4524
 20
18.7143
 10
397.9026
 20
18.7319
 10
398.3304
 20
18.7533
 10
398.7358
 20
18.7787
 10
399.1189
 20
18.808
 10
399.4839
 20
18.8435
 10
399.8398
 20
18.8886
 10
400.1866
 20
18.9432
 10
400.5241
 20
19.0075
 10
400.8521
 20
19.0811
 10
401.1705
 20
19.1642
 10
401.4792
 20
19.2566
 10
401.7779
 20
19.3584
 10
402.0415
 20
19.458
 10
402.2897
 20
19.5682
 10
402.5224
 20
19.6889
 10
402.7396
 20
19.8201
 10
402.9412
 20
19.9615
 10
403.1271
 20
20.1132
 10
403.2973
 20
20.2751
 10
403.4518
 20
20.447
 10
403.5891
 20
20.6296
 10
403.7079
 20
20.8259
 10
403.8084
 20
21.0358
 10
403.8905
 20
21.2592
 10
403.9543
 20
21.496
 10
403.9998
 20
21.7463
 10
404.0271
 20
22.0098
 10
404.0362
 20
22.2865
 10
404.0274
 20
22.5536
 10
404.0011
 20
22.8091
 10
403.9573
 20
23.0528
 10
403.8959
 20
23.2847
 10
403.817
 20
23.5047
 10
403.7205
 20
23.7126
 10
403.6065
 20
23.9084
 10
403.475
 20
24.0921
 10
403.327
 20
24.2622
 10
403.1622
 20
24.4232
 10
402.9808
 20
24.5749
 10
402.7825
 20
24.7171
 10
402.5672
 20
24.8497
 10
402.335
 20
24.9726
 10
402.0857
 20
25.0855
 10
401.8193
 20
25.1883
  0
LWPOLYLINE
  5
A7
330
1F
100
AcDbEntity
  8
Layer 1
 62
     7
100
AcDbPolyline
 90
      190
 70
     1
 43
0.0
 10
405.9485
 20
49.8433
 10
396.8092
 20
49.8433
 10
396.5398
 20
49.842
 10
396.2755
 20
49.8381
 10
396.0162
 20
49.8317
 10
395.762
 20
49.8227
 10
395.5127
 20
49.8111
 10
395.2683
 20
49.7971
 10
395.0288
 20
49.7806
 10
394.7942
 20
49.7616
 10
394.5688
 20
49.7407
 10
394.3559
 20
49.7137
 10
394.1553
 20
49.681
 10
393.9672
 20
49.6425
 10
393.7915
 20
49.5983
 10
393.6282
 20
49.5486
 10
393.4773
 20
49.4935
 10
393.3389
 20
49.4331
 10
393.2032
 20
49.3645
 10
393.0766
 20
49.2885
 10
392.9591
 20
49.2051
 10
392.8509
 20
49.1145
 10
392.7518
 20
49.0169
 10
392.6618
 20
48.9125
 10
392.581
 20
48.8014
 10
392.5094
 20
48.6838
 10
392.446
 20
48.5564
 10
392.3911
 20
48.4181
 10
392.3447
 20
48.2692
 10
392.3068
 20
48.1096
 10
392.2773
 20
47.9393
 10
392.2563
 20
47.7585
 10
392.2437
 20
47.5672
 10
392.2395
 20
47.3654
 10
392.2474
 20
47.1714
 10
392.2712
 20
46.9744
 10
392.3108
 20
46.7743
 10
392.3664
 20
46.571
 10
392.4378
 20
46.3643
 10
392.5252
 20
46.1542
 10
392.6285
 20
45.9406
 10
392.7478
 20
45.7233
 10
392.8794
 20
45.5026
 10
393.0258
 20
45.2801
 10
393.1868
 20
45.0557
 10
393.3623
 20
44.8294
 10
393.5521
 20
44.6012
 10
393.7562
 20
44.3711
 10
393.9744
 20
44.1392
 10
394.2065
 20
43.9054
 10
394.7744
 20
43.9409
 10
395.5625
 20
43.9594
 10
405.9485
 20
43.9594
 10
405.9485
 20
41.4754
 10
396.8092
 20
41.4754
 10
396.5398
 20
41.4741
 10
396.2755
 20
41.4702
 10
396.0162
 20
41.4638
 10
395.762
 20
41.4548
 10
395.5127
 20
41.4432
 10
395.2683
 20
41.4292
 10
395.0288
 20
41.4127
 10
394.7942
 20
41.3937
 10
394.5688
 20
41.3723
 10
394.3559
 20
41.3452
 10
394.1553
 20
41.3125
 10
393.9672
 20
41.2742
 10
393.7915
 20
41.2304
 10
393.6282
 20
41.1812
 10
393.4773
 20
41.1266
 10
393.3389
 20
41.0668
 10
393.2032
 20
40.9969
 10
393.0766
 20
40.9202
 10
392.9591
 20
40.8366
 10
392.8509
 20
40.7461
 10
392.7518
 20
40.6487
 10
392.6618
 20
40.5443
 10
392.581
 20
40.4329
 10
392.5094
 20
40.3144
 10
392.446
 20
40.1875
 10
392.3911
 20
40.0497
 10
392.3447
 20
39.901
 10
392.3068
 20
39.7416
 10
392.2773
 20
39.5714
 10
392.2563
 20
39.3907
 10
392.2437
 20
39.1994
 10
392.2395
 20
38.9976
 10
392.2479
 20
38.7936
 10
392.2731
 20
38.5876
 10
392.3151
 20
38.3794
 10
392.374
 20
38.169
 10
392.4499
 20
37.9564
 10
392.5427
 20
37.7415
 10
392.6525
 20
37.5243
 10
392.7793
 20
37.3046
 10
392.9208
 20
37.0845
 10
393.071
 20
36.8661
 10
393.23
 20
36.6493
 10
393.3979
 20
36.4342
 10
393.5749
 20
36.2208
 10
393.7611
 20
36.0092
 10
393.9567
 20
35.7994
 10
394.1618
 20
35.5915
 10
405.9485
 20
35.5915
 10
405.9485
 20
33.1075
 10
390.1534
 20
33.1075
 10
390.1534
 20
35.5915
 10
391.91
 20
35.5915
 10
391.657
 20
35.8352
 10
391.4184
 20
36.0784
 10
391.1942
 20
36.3209
 10
390.9845
 20
36.5629
 10
390.7894
 20
36.8043
 10
390.609
 20
37.0452
 10
390.4433
 20
37.2854
 10
390.2924
 20
37.5251
 10
390.1583
 20
37.7679
 10
390.0417
 20
38.0165
 10
389.9428
 20
38.2709
 10
389.8616
 20
38.5311
 10
389.7982
 20
38.7971
 10
389.7528
 20
39.0689
 10
389.7254
 20
39.3465
 10
389.7163
 20
39.6298
 10
389.7262
 20
39.9513
 10
389.7561
 20
40.2638
 10
389.8059
 20
40.5671
 10
389.8756
 20
40.8614
 10
389.9654
 20
41.1465
 10
390.0753
 20
41.4225
 10
390.2052
 20
41.6894
 10
390.3553
 20
41.9472
 10
390.5271
 20
42.1913
 10
390.7244
 20
42.4207
 10
390.9474
 20
42.6351
 10
391.196
 20
42.8346
 10
391.4702
 20
43.019
 10
391.77
 20
43.1883
 10
392.0954
 20
43.3425
 10
392.4465
 20
43.4814
 10
392.1217
 20
43.7624
 10
391.8168
 20
44.0412
 10
391.5319
 20
44.3179
 10
391.2672
 20
44.5925
 10
391.0228
 20
44.8652
 10
390.799
 20
45.136
 10
390.5957
 20
45.405
 10
390.4133
 20
45.6724
 10
390.2498
 20
45.9435
 10
390.1081
 20
46.2201
 10
389.9883
 20
46.5023
 10
389.8904
 20
46.7903
 10
389.8142
 20
47.0841
 10
389.7598
 20
47.3837
 10
389.7272
 20
47.6892
 10
389.7163
 20
48.0007
 10
389.7213
 20
48.2352
 10
389.7364
 20
48.4644
 10
389.7614
 20
48.6883
 10
389.7964
 20
48.9068
 10
389.8412
 20
49.1199
 10
389.8958
 20
49.3275
 10
389.9601
 20
49.5296
 10
390.0341
 20
49.7261
 10
390.12
 20
49.9178
 10
390.2178
 20
50.1033
 10
390.3274
 20
50.2826
 10
390.4491
 20
50.4556
 10
390.583
 20
50.6223
 10
390.7291
 20
50.7827
 10
390.8878
 20
50.9368
 10
391.059
 20
51.0845
 10
391.2465
 20
51.2289
 10
391.4441
 20
51.3649
 10
391.652
 20
51.4925
 10
391.8707
 20
51.6117
 10
392.1004
 20
51.7223
 10
392.3414
 20
51.8246
 10
392.5941
 20
51.9183
 10
392.8587
 20
52.0035
 10
393.1349
 20
52.0794
 10
393.4285
 20
52.1451
 10
393.7395
 20
52.2008
 10
394.068
 20
52.2463
 10
394.4141
 20
52.2817
 10
394.7779
 20
52.3071
 10
395.1596
 20
52.3222
 10
395.5591
 20
52.3273
 10
405.9485
 20
52.3273
 10
405.9485
 20
49.8433
  0
LWPOLYLINE
  5
A8
330
1F
100
AcDbEntity
  8
Layer 1
 62
     7
100
AcDbPolyline
 90
      190
 70
     1
 43
0.0
 10
405.9485
 20
74.2022
 10
396.8092
 20
74.2022
 10
396.5398
 20
74.2009
 10
396.2755
 20
74.197
 10
396.0162
 20
74.1906
 10
395.762
 20
74.1816
 10
395.5127
 20
74.17
 10
395.2683
 20
74.156
 10
395.0288
 20
74.1395
 10
394.7942
 20
74.1205
 10
394.5688
 20
74.0996
 10
394.3559
 20
74.0726
 10
394.1553
 20
74.0399
 10
393.9672
 20
74.0014
 10
393.7915
 20
73.9572
 10
393.6282
 20
73.9075
 10
393.4773
 20
73.8524
 10
393.3389
 20
73.792
 10
393.2032
 20
73.7234
 10
393.0766
 20
73.6474
 10
392.9591
 20
73.564
 10
392.8509
 20
73.4734
 10
392.7518
 20
73.3758
 10
392.6618
 20
73.2714
 10
392.581
 20
73.1603
 10
392.5094
 20
73.0427
 10
392.446
 20
72.9153
 10
392.3911
 20
72.777
 10
392.3447
 20
72.628
 10
392.3068
 20
72.4683
 10
392.2773
 20
72.2979
 10
392.2563
 20
72.1168
 10
392.2437
 20
71.9251
 10
392.2395
 20
71.7228
 10
392.2474
 20
71.5293
 10
392.2712
 20
71.3327
 10
392.3108
 20
71.1328
 10
392.3664
 20
70.9297
 10
392.4378
 20
70.7231
 10
392.5252
 20
70.5131
 10
392.6285
 20
70.2995
 10
392.7478
 20
70.0822
 10
392.8794
 20
69.8615
 10
393.0258
 20
69.639
 10
393.1868
 20
69.4146
 10
393.3623
 20
69.1883
 10
393.5521
 20
68.9601
 10
393.7562
 20
68.73
 10
393.9744
 20
68.4981
 10
394.2065
 20
68.2643
 10
394.7744
 20
68.2998
 10
395.5625
 20
68.3183
 10
405.9485
 20
68.3183
 10
405.9485
 20
65.8343
 10
396.8092
 20
65.8343
 10
396.5398
 20
65.833
 10
396.2755
 20
65.8291
 10
396.0162
 20
65.8227
 10
395.762
 20
65.8137
 10
395.5127
 20
65.8021
 10
395.2683
 20
65.7881
 10
395.0288
 20
65.7716
 10
394.7942
 20
65.7526
 10
394.5688
 20
65.7312
 10
394.3559
 20
65.7041
 10
394.1553
 20
65.6713
 10
393.9672
 20
65.6329
 10
393.7915
 20
65.5889
 10
393.6282
 20
65.5394
 10
393.4773
 20
65.4845
 10
393.3389
 20
65.4241
 10
393.2032
 20
65.3547
 10
393.0766
 20
65.2782
 10
392.9591
 20
65.1947
 10
392.8509
 20
65.1042
 10
392.7518
 20
65.0068
 10
392.6618
 20
64.9024
 10
392.581
 20
64.7912
 10
392.5094
 20
64.6732
 10
392.446
 20
64.5463
 10
392.3911
 20
64.4085
 10
392.3447
 20
64.2598
 10
392.3068
 20
64.1004
 10
392.2773
 20
63.9303
 10
392.2563
 20
63.7496
 10
392.2437
 20
63.5583
 10
392.2395
 20
63.3565
 10
392.2479
 20
63.1525
 10
392.2731
 20
62.9465
 10
392.3151
 20
62.7383
 10
392.374
 20
62.5279
 10
392.4499
 20
62.3153
 10
392.5427
 20
62.1004
 10
392.6525
 20
61.8832
 10
392.7793
 20
61.6635
 10
392.9208
 20
61.4434
 10
393.071
 20
61.225
 10
393.23
 20
61.0082
 10
393.3979
 20
60.7931
 10
393.5749
 20
60.5797
 10
393.7611
 20
60.3681
 10
393.9567
 20
60.1583
 10
394.1618
 20
59.9504
 10
405.9485
 20
59.9504
 10
405.9485
 20
57.4664
 10
390.1534
 20
57.4664
 10
390.1534
 20
59.9504
 10
391.91
 20
59.9504
 10
391.657
 20
60.1941
 10
391.4184
 20
60.4373
 10
391.1942
 20
60.6798
 10
390.9845
 20
60.9218
 10
390.7894
 20
61.1632
 10
390.609
 20
61.4041
 10
390.4433
 20
61.6443
 10
390.2924
 20
61.884
 10
390.1583
 20
62.1268
 10
390.0417
 20
62.3754
 10
389.9428
 20
62.6298
 10
389.8616
 20
62.89
 10
389.7982
 20
63.156
 10
389.7528
 20
63.4278
 10
389.7254
 20
63.7053
 10
389.7163
 20
63.9886
 10
389.7262
 20
64.3102
 10
389.7561
 20
64.6227
 10
389.8059
 20
64.926
 10
389.8756
 20
65.2203
 10
389.9654
 20
65.5054
 10
390.0753
 20
65.7814
 10
390.2052
 20
66.0483
 10
390.3553
 20
66.3061
 10
390.5271
 20
66.5502
 10
390.7244
 20
66.7796
 10
390.9474
 20
66.994
 10
391.196
 20
67.1935
 10
391.4702
 20
67.3779
 10
391.77
 20
67.5472
 10
392.0954
 20
67.7014
 10
392.4465
 20
67.8403
 10
392.1217
 20
68.1213
 10
391.8168
 20
68.4001
 10
391.5319
 20
68.6768
 10
391.2672
 20
68.9514
 10
391.0228
 20
69.2241
 10
390.799
 20
69.4949
 10
390.5957
 20
69.7639
 10
390.4133
 20
70.0313
 10
390.2498
 20
70.3024
 10
390.1081
 20
70.579
 10
389.9883
 20
70.8612
 10
389.8904
 20
71.149
 10
389.8142
 20
71.4426
 10
389.7598
 20
71.7419
 10
389.7272
 20
72.0471
 10
389.7163
 20
72.3581
 10
389.7213
 20
72.5931
 10
389.7364
 20
72.8226
 10
389.7614
 20
73.0468
 10
389.7964
 20
73.2655
 10
389.8412
 20
73.4787
 10
389.8958
 20
73.6864
 10
389.9601
 20
73.8885
 10
390.0341
 20
74.085
 10
390.12
 20
74.2763
 10
390.2178
 20
74.4616
 10
390.3274
 20
74.6408
 10
390.4491
 20
74.8139
 10
390.583
 20
74.9808
 10
390.7291
 20
75.1414
 10
390.8878
 20
75.2956
 10
391.059
 20
75.4434
 10
391.2465
 20
75.5878
 10
391.4441
 20
75.7238
 10
391.652
 20
75.8514
 10
391.8707
 20
75.9706
 10
392.1004
 20
76.0812
 10
392.3414
 20
76.1835
 10
392.5941
 20
76.2772
 10
392.8587
 20
76.3624
 10
393.1349
 20
76.4383
 10
393.4285
 20
76.504
 10
393.7395
 20
76.5597
 10
394.068
 20
76.6052
 10
394.4141
 20
76.6406
 10
394.7779
 20
76.666
 10
395.1596
 20
76.6811
 10
395.5591
 20
76.6862
 10
405.9485
 20
76.6862
 10
405.9485
 20
74.2022
  0
LWPOLYLINE
  5
A9
330
1F
100
AcDbEntity
  8
Layer 1
 62
     7
370
    18
100
AcDbPolyline
 90
        2
 70
     0
 43
0.0
 10
565.8193
 20
156.3652
 10
403.4683
 20
156.3652
  0
LWPOLYLINE
  5
AA
330
1F
100
AcDbEntity
  8
Layer 1
 62
     7
370
    18
100
AcDbPolyline
 90
        2
 70
     0
 43
0.0
 10
565.8193
 20
-117.2275
 10
403.4683
 20
-117.2275
  0
LWPOLYLINE
  5
AB
330
1F
100
AcDbEntity
  8
Layer 1
 62
     7
370
    18
100
AcDbPolyline
 90
        2
 70
     0
 43
0.0
 10
413.962
 20
-112.9749
 10
413.962
 20
149.1384
  0
LWPOLYLINE
  5
AC
330
1F
100
AcDbEntity
  8
Layer 1
 62
     7
370
    18
100
AcDbPolyline
 90
        2
 70
     0
 43
0.0
 10
752.3829
 20
-167.3807
 10
495.3105
 20
-167.3807
  0
LWPOLYLINE
  5
AD
330
1F
100
AcDbEntity
  8
Layer 1
 62
     7
370
    18
100
AcDbPolyline
 90
        2
 70
     0
 43
0.0
 10
488.9262
 20
-192.2377
 10
488.9262
 20
-87.364
  0
LWPOLYLINE
  5
AE
330
1F
100
AcDbEntity
  8
Layer 1
 62
     7
370
    18
100
AcDbPolyline
 90
        2
 70
     0
 43
0.0
 10
755.7058
 20
-192.2377
 10
755.7058
 20
-87.364
  0
LWPOLYLINE
  5
AF
330
1F
100
AcDbEntity
  8
Layer 1
 62
     7
100
AcDbPolyline
 90
       12
 70
     1
 43
0.0
 10
582.2022
 20
-191.3279
 10
579.7088
 20
-191.3279
 10
579.7088
 20
-198.0768
 10
576.9852
 20
-198.0768
 10
576.9852
 20
-191.3279
 10
567.6803
 20
-191.3279
 10
567.6803
 20
-188.5602
 10
577.0994
 20
-178.4516
 10
579.7088
 20
-178.4516
 10
579.7088
 20
-189.2217
 10
582.2022
 20
-189.2217
 10
582.2022
 20
-191.3279
  0
LWPOLYLINE
  5
B0
330
1F
100
AcDbEntity
  8
Layer 1
 62
     7
100
AcDbPolyline
 90
        4
 70
     1
 43
0.0
 10
576.9852
 20
-189.2217
 10
576.9852
 20
-181.5693
 10
569.8972
 20
-189.2217
 10
576.9852
 20
-189.2217
  0
LWPOLYLINE
  5
B1
330
1F
100
AcDbEntity
  8
Layer 1
 62
     7
100
AcDbPolyline
 90
       65
 70
     1
 43
0.0
 10
599.4031
 20
-188.2503
 10
599.3773
 20
-189.5272
 10
599.2998
 20
-190.7166
 10
599.1707
 20
-191.8184
 10
598.99
 20
-192.8325
 10
598.7578
 20
-193.7588
 10
598.4741
 20
-194.5974
 10
598.1389
 20
-195.348
 10
597.7524
 20
-196.0107
 10
597.3117
 20
-196.5901
 10
596.8153
 20
-197.0923
 10
596.263
 20
-197.5171
 10
595.6548
 20
-197.8646
 10
594.9905
 20
-198.1349
 10
594.2699
 20
-198.3279
 10
593.493
 20
-198.4437
 10
592.6595
 20
-198.4823
 10
591.8176
 20
-198.4429
 10
591.0342
 20
-198.3246
 10
590.3089
 20
-198.1275
 10
589.6416
 20
-197.8517
 10
589.0323
 20
-197.4973
 10
588.4807
 20
-197.0643
 10
587.9867
 20
-196.5528
 10
587.5501
 20
-195.9629
 10
587.1687
 20
-195.2915
 10
586.838
 20
-194.5377
 10
586.558
 20
-193.7013
 10
586.3288
 20
-192.7823
 10
586.1504
 20
-191.7805
 10
586.023
 20
-190.6957
 10
585.9464
 20
-189.5277
 10
585.9209
 20
-188.2765
 10
585.9468
 20
-186.9934
 10
586.0244
 20
-185.7993
 10
586.1537
 20
-184.6942
 10
586.3344
 20
-183.6784
 10
586.5665
 20
-182.7518
 10
586.8499
 20
-181.9146
 10
587.1844
 20
-181.1668
 10
587.5699
 20
-180.5085
 10
588.0106
 20
-179.9308
 10
588.507
 20
-179.4303
 10
589.0591
 20
-179.007
 10
589.6671
 20
-178.6609
 10
590.331
 20
-178.3918
 10
591.051
 20
-178.1996
 10
591.8271
 20
-178.0844
 10
592.6595
 20
-178.046
 10
593.5026
 20
-178.0859
 10
594.2872
 20
-178.2055
 10
595.0135
 20
-178.4048
 10
595.6815
 20
-178.6836
 10
596.2913
 20
-179.042
 10
596.843
 20
-179.4797
 10
597.3366
 20
-179.9969
 10
597.7722
 20
-180.5933
 10
598.1546
 20
-181.2689
 10
598.4859
 20
-182.0249
 10
598.7663
 20
-182.8614
 10
598.9956
 20
-183.7782
 10
599.1739
 20
-184.7755
 10
599.3012
 20
-185.8533
 10
599.3776
 20
-187.0115
 10
599.4031
 20
-188.2503
  0
LWPOLYLINE
  5
B2
330
1F
100
AcDbEntity
  8
Layer 1
 62
     7
100
AcDbPolyline
 90
      129
 70
     1
 43
0.0
 10
595.7771
 20
-194.2298
 10
595.8765
 20
-193.9774
 10
595.9683
 20
-193.7092
 10
596.0527
 20
-193.4252
 10
596.1296
 20
-193.1252
 10
596.199
 20
-192.8091
 10
596.2608
 20
-192.4767
 10
596.315
 20
-192.128
 10
596.3616
 20
-191.7628
 10
596.4008
 20
-191.3836
 10
596.435
 20
-190.9874
 10
596.4643
 20
-190.574
 10
596.4884
 20
-190.1436
 10
596.5074
 20
-189.696
 10
596.5211
 20
-189.2313
 10
596.5293
 20
-188.7494
 10
596.5321
 20
-188.2503
 10
596.5293
 20
-187.7553
 10
596.5211
 20
-187.2765
 10
596.5074
 20
-186.814
 10
596.4884
 20
-186.3679
 10
596.4643
 20
-185.9383
 10
596.435
 20
-185.5254
 10
596.4008
 20
-185.1294
 10
596.3616
 20
-184.7502
 10
596.3148
 20
-184.3853
 10
596.2602
 20
-184.0363
 10
596.1977
 20
-183.7033
 10
596.1274
 20
-183.3862
 10
596.0493
 20
-183.0849
 10
595.9635
 20
-182.7994
 10
595.87
 20
-182.5296
 10
595.7689
 20
-182.2755
 10
595.6561
 20
-182.0317
 10
595.5336
 20
-181.8035
 10
595.4016
 20
-181.5906
 10
595.26
 20
-181.3931
 10
595.1088
 20
-181.2107
 10
594.9481
 20
-181.0434
 10
594.778
 20
-180.8911
 10
594.5983
 20
-180.7536
 10
594.4045
 20
-180.6321
 10
594.1969
 20
-180.5267
 10
593.9754
 20
-180.4374
 10
593.74
 20
-180.3643
 10
593.4908
 20
-180.3073
 10
593.2276
 20
-180.2666
 10
592.9505
 20
-180.2422
 10
592.6595
 20
-180.234
 10
592.3728
 20
-180.2422
 10
592.0989
 20
-180.2666
 10
591.8379
 20
-180.3073
 10
591.5897
 20
-180.3643
 10
591.3545
 20
-180.4374
 10
591.1324
 20
-180.5267
 10
590.9233
 20
-180.6321
 10
590.7273
 20
-180.7536
 10
590.5428
 20
-180.8915
 10
590.3682
 20
-181.0451
 10
590.2036
 20
-181.2143
 10
590.0489
 20
-181.3993
 10
589.9043
 20
-181.6
 10
589.7699
 20
-181.8165
 10
589.6458
 20
-182.0489
 10
589.5319
 20
-182.2971
 10
589.4288
 20
-182.5566
 10
589.3344
 20
-182.8323
 10
589.2486
 20
-183.124
 10
589.1714
 20
-183.4319
 10
589.1027
 20
-183.756
 10
589.0425
 20
-184.0963
 10
588.9908
 20
-184.4529
 10
588.9475
 20
-184.8258
 10
588.9113
 20
-185.215
 10
588.8798
 20
-185.616
 10
588.8531
 20
-186.029
 10
588.8311
 20
-186.454
 10
588.814
 20
-186.8911
 10
588.8017
 20
-187.3405
 10
588.7943
 20
-187.8023
 10
588.7918
 20
-188.2765
 10
588.7938
 20
-188.7795
 10
588.8
 20
-189.2617
 10
588.8103
 20
-189.723
 10
588.8249
 20
-190.1634
 10
588.8439
 20
-190.5828
 10
588.8673
 20
-190.9813
 10
588.8951
 20
-191.3587
 10
588.9276
 20
-191.715
 10
588.9647
 20
-192.0548
 10
589.0124
 20
-192.3861
 10
589.0708
 20
-192.7089
 10
589.1395
 20
-193.0229
 10
589.2185
 20
-193.3281
 10
589.3076
 20
-193.6244
 10
589.4066
 20
-193.9116
 10
589.5154
 20
-194.1897
 10
589.6224
 20
-194.4357
 10
589.7408
 20
-194.6673
 10
589.8707
 20
-194.8843
 10
590.0117
 20
-195.0867
 10
590.1637
 20
-195.2745
 10
590.3266
 20
-195.4477
 10
590.5001
 20
-195.6063
 10
590.6843
 20
-195.7501
 10
590.8804
 20
-195.8784
 10
591.0912
 20
-195.9893
 10
591.3165
 20
-196.0829
 10
591.5564
 20
-196.1593
 10
591.8107
 20
-196.2185
 10
592.0794
 20
-196.2607
 10
592.3623
 20
-196.286
 10
592.6595
 20
-196.2944
 10
592.9473
 20
-196.2862
 10
593.222
 20
-196.2615
 10
593.4838
 20
-196.2205
 10
593.7326
 20
-196.1631
 10
593.9684
 20
-196.0895
 10
594.1913
 20
-195.9997
 10
594.4012
 20
-195.8938
 10
594.5983
 20
-195.7717
 10
594.7816
 20
-195.6343
 10
594.955
 20
-195.4811
 10
595.1184
 20
-195.3122
 10
595.2716
 20
-195.1274
 10
595.4142
 20
-194.9268
 10
595.5461
 20
-194.7103
 10
595.6672
 20
-194.478
 10
595.7771
 20
-194.2298
  0
LWPOLYLINE
  5
B3
330
1F
100
AcDbEntity
  8
Layer 1
 62
     7
100
AcDbPolyline
 90
      194
 70
     1
 43
0.0
 10
616.6867
 20
-191.8275
 10
616.679
 20
-192.1802
 10
616.656
 20
-192.5261
 10
616.6177
 20
-192.8653
 10
616.5642
 20
-193.1979
 10
616.4954
 20
-193.5239
 10
616.4115
 20
-193.8436
 10
616.3125
 20
-194.157
 10
616.1983
 20
-194.4642
 10
616.0708
 20
-194.7625
 10
615.9306
 20
-195.0504
 10
615.7778
 20
-195.3279
 10
615.6126
 20
-195.5948
 10
615.4351
 20
-195.8511
 10
615.2456
 20
-196.0969
 10
615.044
 20
-196.332
 10
614.8307
 20
-196.5565
 10
614.6013
 20
-196.7749
 10
614.3586
 20
-196.9815
 10
614.1027
 20
-197.1761
 10
613.8333
 20
-197.3587
 10
613.5504
 20
-197.5293
 10
613.2537
 20
-197.6879
 10
612.9432
 20
-197.8345
 10
612.6187
 20
-197.9689
 10
612.2819
 20
-198.0888
 10
611.9358
 20
-198.1929
 10
611.5801
 20
-198.2811
 10
611.2147
 20
-198.3534
 10
610.8393
 20
-198.4097
 10
610.4538
 20
-198.45
 10
610.058
 20
-198.4742
 10
609.6517
 20
-198.4823
 10
609.2744
 20
-198.4774
 10
608.8988
 20
-198.4627
 10
608.5247
 20
-198.4383
 10
608.1521
 20
-198.4043
 10
607.7809
 20
-198.3606
 10
607.411
 20
-198.3073
 10
607.0423
 20
-198.2446
 10
606.6748
 20
-198.1724
 10
606.3156
 20
-198.091
 10
605.9681
 20
-198.004
 10
605.6325
 20
-197.9112
 10
605.3089
 20
-197.8126
 10
604.9974
 20
-197.7079
 10
604.6981
 20
-197.5972
 10
604.4112
 20
-197.4802
 10
604.1367
 20
-197.3568
 10
604.1367
 20
-194.5659
 10
604.332
 20
-194.5659
 10
604.5133
 20
-194.6848
 10
604.7292
 20
-194.8107
 10
604.9796
 20
-194.9441
 10
605.2642
 20
-195.0855
 10
605.5784
 20
-195.2249
 10
605.9078
 20
-195.3612
 10
606.2528
 20
-195.4945
 10
606.6136
 20
-195.6252
 10
606.8193
 20
-195.6937
 10
607.0207
 20
-195.758
 10
607.2177
 20
-195.8183
 10
607.4104
 20
-195.8746
 10
607.5989
 20
-195.927
 10
607.7833
 20
-195.9756
 10
607.9637
 20
-196.0204
 10
608.1401
 20
-196.0616
 10
608.3169
 20
-196.0974
 10
608.4985
 20
-196.1283
 10
608.6851
 20
-196.1546
 10
608.8767
 20
-196.176
 10
609.0735
 20
-196.1927
 10
609.2756
 20
-196.2047
 10
609.4832
 20
-196.2118
 10
609.6964
 20
-196.2142
 10
609.9091
 20
-196.2097
 10
610.1202
 20
-196.1963
 10
610.3296
 20
-196.174
 10
610.5373
 20
-196.1429
 10
610.7434
 20
-196.1029
 10
610.9479
 20
-196.0542
 10
611.1508
 20
-195.9967
 10
611.3521
 20
-195.9305
 10
611.5513
 20
-195.8544
 10
611.7428
 20
-195.7672
 10
611.9269
 20
-195.669
 10
612.1038
 20
-195.5597
 10
612.2734
 20
-195.4394
 10
612.4361
 20
-195.3082
 10
612.592
 20
-195.1661
 10
612.7412
 20
-195.0131
 10
612.8689
 20
-194.865
 10
612.9887
 20
-194.7108
 10
613.1006
 20
-194.5505
 10
613.2046
 20
-194.384
 10
613.3008
 20
-194.2111
 10
613.3892
 20
-194.0317
 10
613.4698
 20
-193.8457
 10
613.5426
 20
-193.6531
 10
613.6061
 20
-193.4549
 10
613.6614
 20
-193.2479
 10
613.7083
 20
-193.032
 10
613.7469
 20
-192.8074
 10
613.7769
 20
-192.5741
 10
613.7985
 20
-192.3322
 10
613.8115
 20
-192.0818
 10
613.8158
 20
-191.8229
 10
613.8111
 20
-191.567
 10
613.7969
 20
-191.323
 10
613.7732
 20
-191.0909
 10
613.7401
 20
-190.8708
 10
613.6974
 20
-190.6625
 10
613.6454
 20
-190.466
 10
613.5838
 20
-190.2813
 10
613.5128
 20
-190.1083
 10
613.4326
 20
-189.9434
 10
613.3437
 20
-189.7861
 10
613.246
 20
-189.6364
 10
613.1396
 20
-189.4943
 10
613.0246
 20
-189.3594
 10
612.9011
 20
-189.2319
 10
612.7691
 20
-189.1115
 10
612.6286
 20
-188.9981
 10
612.4721
 20
-188.8774
 10
612.3068
 20
-188.7661
 10
612.1329
 20
-188.6641
 10
611.9504
 20
-188.5714
 10
611.7595
 20
-188.4878
 10
611.5602
 20
-188.4131
 10
611.3526
 20
-188.3474
 10
611.1369
 20
-188.2904
 10
610.9126
 20
-188.2432
 10
610.6819
 20
-188.2023
 10
610.4448
 20
-188.1676
 10
610.2014
 20
-188.1391
 10
609.9518
 20
-188.117
 10
609.6961
 20
-188.1011
 10
609.4344
 20
-188.0916
 10
609.1666
 20
-188.0884
 10
608.8791
 20
-188.0909
 10
608.5916
 20
-188.0986
 10
608.3039
 20
-188.1114
 10
608.0161
 20
-188.1295
 10
607.7281
 20
-188.1528
 10
607.4397
 20
-188.1814
 10
607.151
 20
-188.2154
 10
606.8619
 20
-188.2549
 10
606.5777
 20
-188.2969
 10
606.3088
 20
-188.3384
 10
606.0548
 20
-188.3794
 10
605.8157
 20
-188.4197
 10
605.5913
 20
-188.4594
 10
605.3813
 20
-188.4984
 10
605.1857
 20
-188.5367
 10
605.0042
 20
-188.5741
 10
605.0042
 20
-178.4516
 10
616.5692
 20
-178.4516
 10
616.5692
 20
-180.7444
 10
607.7295
 20
-180.7444
 10
607.7295
 20
-185.9776
 10
608.7345
 20
-185.902
 10
609.6385
 20
-185.8758
 10
610.0338
 20
-185.8798
 10
610.4137
 20
-185.8917
 10
610.7783
 20
-185.9114
 10
611.1275
 20
-185.939
 10
611.4615
 20
-185.9744
 10
611.7803
 20
-186.0176
 10
612.0837
 20
-186.0685
 10
612.372
 20
-186.1271
 10
612.6496
 20
-186.1969
 10
612.9248
 20
-186.2816
 10
613.1976
 20
-186.3809
 10
613.4679
 20
-186.4951
 10
613.7356
 20
-186.6241
 10
614.0006
 20
-186.7679
 10
614.263
 20
-186.9266
 10
614.5227
 20
-187.1001
 10
614.7756
 20
-187.2907
 10
615.0137
 20
-187.4925
 10
615.2369
 20
-187.7056
 10
615.4452
 20
-187.93
 10
615.6383
 20
-188.1658
 10
615.8161
 20
-188.4132
 10
615.9785
 20
-188.6721
 10
616.1254
 20
-188.9426
 10
616.256
 20
-189.23
 10
616.3696
 20
-189.5384
 10
616.466
 20
-189.8677
 10
616.5451
 20
-190.218
 10
616.6069
 20
-190.589
 10
616.6512
 20
-190.981
 10
616.6778
 20
-191.3938
 10
616.6867
 20
-191.8275
  0
LWPOLYLINE
  5
B4
330
1F
100
AcDbEntity
  8
Layer 1
 62
     7
100
AcDbPolyline
 90
      190
 70
     1
 43
0.0
 10
639.8861
 20
-198.0768
 10
639.8861
 20
-189.564
 10
639.8847
 20
-189.3131
 10
639.8805
 20
-189.067
 10
639.8735
 20
-188.8256
 10
639.8638
 20
-188.5888
 10
639.8512
 20
-188.3566
 10
639.8358
 20
-188.129
 10
639.8177
 20
-187.906
 10
639.7967
 20
-187.6875
 10
639.7747
 20
-187.4777
 10
639.746
 20
-187.2795
 10
639.7109
 20
-187.093
 10
639.6696
 20
-186.9181
 10
639.6222
 20
-186.7548
 10
639.569
 20
-186.6029
 10
639.5101
 20
-186.4626
 10
639.4457
 20
-186.3337
 10
639.371
 20
-186.2068
 10
639.2887
 20
-186.0885
 10
639.1988
 20
-185.9789
 10
639.1015
 20
-185.8779
 10
638.9968
 20
-185.7855
 10
638.8848
 20
-185.7017
 10
638.7656
 20
-185.6264
 10
638.6394
 20
-185.5597
 10
638.5031
 20
-185.5011
 10
638.3549
 20
-185.4502
 10
638.195
 20
-185.407
 10
638.0235
 20
-185.3716
 10
637.8405
 20
-185.344
 10
637.6461
 20
-185.3243
 10
637.4405
 20
-185.3124
 10
637.2238
 20
-185.3084
 10
637.0155
 20
-185.3157
 10
636.8041
 20
-185.3377
 10
636.5894
 20
-185.3743
 10
636.3713
 20
-185.4258
 10
636.1495
 20
-185.492
 10
635.9239
 20
-185.5731
 10
635.6943
 20
-185.6692
 10
635.4605
 20
-185.7802
 10
635.2235
 20
-185.9037
 10
634.9846
 20
-186.0404
 10
634.7436
 20
-186.1904
 10
634.5006
 20
-186.3536
 10
634.2556
 20
-186.5301
 10
634.0085
 20
-186.7197
 10
633.7595
 20
-186.9226
 10
633.5084
 20
-187.1386
 10
633.5482
 20
-187.6706
 10
633.5664
 20
-188.4045
 10
633.5664
 20
-198.0768
 10
630.8991
 20
-198.0768
 10
630.8991
 20
-189.564
 10
630.8977
 20
-189.3131
 10
630.8936
 20
-189.067
 10
630.8867
 20
-188.8256
 10
630.8772
 20
-188.5888
 10
630.865
 20
-188.3566
 10
630.8502
 20
-188.129
 10
630.8329
 20
-187.906
 10
630.813
 20
-187.6875
 10
630.7895
 20
-187.4777
 10
630.7599
 20
-187.2795
 10
630.7244
 20
-187.093
 10
630.683
 20
-186.9181
 10
630.6357
 20
-186.7548
 10
630.5825
 20
-186.6029
 10
630.5235
 20
-186.4626
 10
630.4587
 20
-186.3337
 10
630.3847
 20
-186.2068
 10
630.3029
 20
-186.0885
 10
630.2135
 20
-185.9789
 10
630.1166
 20
-185.8779
 10
630.0121
 20
-185.7855
 10
629.9001
 20
-185.7017
 10
629.7807
 20
-185.6264
 10
629.654
 20
-185.5597
 10
629.5172
 20
-185.5011
 10
629.369
 20
-185.4502
 10
629.2093
 20
-185.407
 10
629.0381
 20
-185.3716
 10
628.8554
 20
-185.344
 10
628.6612
 20
-185.3243
 10
628.4556
 20
-185.3124
 10
628.2384
 20
-185.3084
 10
628.0198
 20
-185.3161
 10
627.7988
 20
-185.3395
 10
627.5753
 20
-185.3784
 10
627.3493
 20
-185.4331
 10
627.1208
 20
-185.5036
 10
626.8898
 20
-185.59
 10
626.6564
 20
-185.6925
 10
626.4205
 20
-185.811
 10
626.1842
 20
-185.9424
 10
625.9498
 20
-186.0821
 10
625.7172
 20
-186.2302
 10
625.4863
 20
-186.3868
 10
625.2571
 20
-186.552
 10
625.0295
 20
-186.7259
 10
624.8036
 20
-186.9086
 10
624.5793
 20
-187.1001
 10
624.5793
 20
-198.0768
 10
621.9137
 20
-198.0768
 10
621.9137
 20
-183.3656
 10
624.5793
 20
-183.3656
 10
624.5793
 20
-185.0015
 10
624.8416
 20
-184.7654
 10
625.1031
 20
-184.5428
 10
625.3639
 20
-184.3337
 10
625.6241
 20
-184.1382
 10
625.8836
 20
-183.9564
 10
626.1426
 20
-183.7884
 10
626.401
 20
-183.6341
 10
626.6589
 20
-183.4936
 10
626.9187
 20
-183.3688
 10
627.185
 20
-183.2606
 10
627.4579
 20
-183.1689
 10
627.7374
 20
-183.0938
 10
628.0232
 20
-183.0354
 10
628.3155
 20
-182.9936
 10
628.6141
 20
-182.9685
 10
628.9189
 20
-182.9601
 10
629.2637
 20
-182.9694
 10
629.599
 20
-182.9971
 10
629.9246
 20
-183.0434
 10
630.2405
 20
-183.1083
 10
630.5467
 20
-183.1917
 10
630.843
 20
-183.2938
 10
631.1294
 20
-183.4144
 10
631.4057
 20
-183.5537
 10
631.6683
 20
-183.7136
 10
631.9148
 20
-183.8974
 10
632.1452
 20
-184.1051
 10
632.3594
 20
-184.3366
 10
632.5575
 20
-184.592
 10
632.7394
 20
-184.8712
 10
632.9052
 20
-185.1742
 10
633.0548
 20
-185.5011
 10
633.3555
 20
-185.1986
 10
633.6543
 20
-184.9147
 10
633.9511
 20
-184.6494
 10
634.246
 20
-184.4029
 10
634.5391
 20
-184.1753
 10
634.8303
 20
-183.9669
 10
635.1198
 20
-183.7776
 10
635.4075
 20
-183.6077
 10
635.698
 20
-183.4555
 10
635.9946
 20
-183.3237
 10
636.2973
 20
-183.2124
 10
636.6062
 20
-183.1214
 10
636.9213
 20
-183.0508
 10
637.2426
 20
-183.0004
 10
637.5703
 20
-182.9702
 10
637.9042
 20
-182.9601
 10
638.1566
 20
-182.9647
 10
638.4033
 20
-182.9786
 10
638.6442
 20
-183.0017
 10
638.8792
 20
-183.0341
 10
639.1083
 20
-183.0757
 10
639.3312
 20
-183.1266
 10
639.5481
 20
-183.1867
 10
639.7586
 20
-183.2561
 10
639.9646
 20
-183.3361
 10
640.164
 20
-183.4271
 10
640.3567
 20
-183.5292
 10
640.5428
 20
-183.6426
 10
640.7221
 20
-183.7672
 10
640.8946
 20
-183.9033
 10
641.0602
 20
-184.0511
 10
641.2189
 20
-184.2105
 10
641.3734
 20
-184.3842
 10
641.5191
 20
-184.5676
 10
641.6558
 20
-184.761
 10
641.7835
 20
-184.9645
 10
641.9023
 20
-185.1785
 10
642.0119
 20
-185.4031
 10
642.1125
 20
-185.6385
 10
642.204
 20
-185.885
 10
642.2859
 20
-186.1423
 10
642.3566
 20
-186.4159
 10
642.4161
 20
-186.7056
 10
642.4646
 20
-187.0116
 10
642.5022
 20
-187.3338
 10
642.5289
 20
-187.6724
 10
642.5448
 20
-188.0272
 10
642.5501
 20
-188.3983
 10
642.5501
 20
-198.0768
 10
639.8861
 20
-198.0768
  0
LWPOLYLINE
  5
B5
330
1F
100
AcDbEntity
  8
Layer 1
 62
     7
100
AcDbPolyline
 90
      190
 70
     1
 43
0.0
 10
666.0409
 20
-198.0768
 10
666.0409
 20
-189.564
 10
666.0395
 20
-189.3131
 10
666.0353
 20
-189.067
 10
666.0284
 20
-188.8256
 10
666.0188
 20
-188.5888
 10
666.0064
 20
-188.3566
 10
665.9913
 20
-188.129
 10
665.9735
 20
-187.906
 10
665.9531
 20
-187.6875
 10
665.9306
 20
-187.4777
 10
665.9017
 20
-187.2795
 10
665.8666
 20
-187.093
 10
665.8252
 20
-186.9181
 10
665.7778
 20
-186.7548
 10
665.7245
 20
-186.6029
 10
665.6653
 20
-186.4626
 10
665.6005
 20
-186.3337
 10
665.5264
 20
-186.2068
 10
665.4445
 20
-186.0885
 10
665.355
 20
-185.9789
 10
665.2579
 20
-185.8779
 10
665.1535
 20
-185.7855
 10
665.0419
 20
-185.7017
 10
664.9231
 20
-185.6264
 10
664.7974
 20
-185.5597
 10
664.6606
 20
-185.5011
 10
664.5122
 20
-185.4502
 10
664.3521
 20
-185.407
 10
664.1805
 20
-185.3716
 10
663.9973
 20
-185.344
 10
663.8026
 20
-185.3243
 10
663.5963
 20
-185.3124
 10
663.3785
 20
-185.3084
 10
663.1703
 20
-185.3157
 10
662.9591
 20
-185.3377
 10
662.7446
 20
-185.3743
 10
662.5267
 20
-185.4258
 10
662.305
 20
-185.492
 10
662.0793
 20
-185.5731
 10
661.8495
 20
-185.6692
 10
661.6152
 20
-185.7802
 10
661.3788
 20
-185.9037
 10
661.1402
 20
-186.0404
 10
660.8995
 20
-186.1904
 10
660.6566
 20
-186.3536
 10
660.4115
 20
-186.5301
 10
660.1642
 20
-186.7197
 10
659.9148
 20
-186.9226
 10
659.6632
 20
-187.1386
 10
659.7029
 20
-187.6706
 10
659.7228
 20
-188.4045
 10
659.7228
 20
-198.0768
 10
657.0571
 20
-198.0768
 10
657.0571
 20
-189.564
 10
657.0557
 20
-189.3131
 10
657.0515
 20
-189.067
 10
657.0446
 20
-188.8256
 10
657.035
 20
-188.5888
 10
657.0226
 20
-188.3566
 10
657.0075
 20
-188.129
 10
656.9898
 20
-187.906
 10
656.9694
 20
-187.6875
 10
656.9464
 20
-187.4777
 10
656.9171
 20
-187.2795
 10
656.8817
 20
-187.093
 10
656.8402
 20
-186.9181
 10
656.7929
 20
-186.7548
 10
656.7398
 20
-186.6029
 10
656.681
 20
-186.4626
 10
656.6167
 20
-186.3337
 10
656.5421
 20
-186.2068
 10
656.46
 20
-186.0885
 10
656.3703
 20
-185.9789
 10
656.273
 20
-185.8779
 10
656.1682
 20
-185.7855
 10
656.0559
 20
-185.7017
 10
655.9361
 20
-185.6264
 10
655.8088
 20
-185.5597
 10
655.6725
 20
-185.5011
 10
655.5245
 20
-185.4502
 10
655.3649
 20
-185.407
 10
655.1937
 20
-185.3716
 10
655.011
 20
-185.344
 10
654.8169
 20
-185.3243
 10
654.6115
 20
-185.3124
 10
654.3948
 20
-185.3084
 10
654.1763
 20
-185.3161
 10
653.9554
 20
-185.3395
 10
653.7321
 20
-185.3784
 10
653.5063
 20
-185.4331
 10
653.278
 20
-185.5036
 10
653.047
 20
-185.59
 10
652.8133
 20
-185.6925
 10
652.5769
 20
-185.811
 10
652.3406
 20
-185.9424
 10
652.1062
 20
-186.0821
 10
651.8736
 20
-186.2302
 10
651.6429
 20
-186.3868
 10
651.4139
 20
-186.552
 10
651.1866
 20
-186.7259
 10
650.9612
 20
-186.9086
 10
650.7374
 20
-187.1001
 10
650.7374
 20
-198.0768
 10
648.0701
 20
-198.0768
 10
648.0701
 20
-183.3656
 10
650.7374
 20
-183.3656
 10
650.7374
 20
-185.0015
 10
650.9997
 20
-184.7654
 10
651.2611
 20
-184.5428
 10
651.5218
 20
-184.3337
 10
651.7817
 20
-184.1382
 10
652.0409
 20
-183.9564
 10
652.2992
 20
-183.7884
 10
652.5568
 20
-183.6341
 10
652.8136
 20
-183.4936
 10
653.0744
 20
-183.3688
 10
653.3414
 20
-183.2606
 10
653.6146
 20
-183.1689
 10
653.8942
 20
-183.0938
 10
654.18
 20
-183.0354
 10
654.4721
 20
-182.9936
 10
654.7705
 20
-182.9685
 10
655.0753
 20
-182.9601
 10
655.4201
 20
-182.9694
 10
655.7554
 20
-182.9971
 10
656.081
 20
-183.0434
 10
656.3969
 20
-183.1083
 10
656.7031
 20
-183.1917
 10
656.9994
 20
-183.2938
 10
657.2858
 20
-183.4144
 10
657.5621
 20
-183.5537
 10
657.8243
 20
-183.7136
 10
658.0705
 20
-183.8974
 10
658.3008
 20
-184.1051
 10
658.5152
 20
-184.3366
 10
658.7134
 20
-184.592
 10
658.8955
 20
-184.8712
 10
659.0615
 20
-185.1742
 10
659.2112
 20
-185.5011
 10
659.512
 20
-185.1986
 10
659.8109
 20
-184.9147
 10
660.1079
 20
-184.6494
 10
660.403
 20
-184.4029
 10
660.6962
 20
-184.1753
 10
660.9874
 20
-183.9669
 10
661.2767
 20
-183.7776
 10
661.5639
 20
-183.6077
 10
661.8549
 20
-183.4555
 10
662.1519
 20
-183.3237
 10
662.4549
 20
-183.2124
 10
662.7639
 20
-183.1214
 10
663.0789
 20
-183.0508
 10
663.4
 20
-183.0004
 10
663.7273
 20
-182.9702
 10
664.0607
 20
-182.9601
 10
664.313
 20
-182.9647
 10
664.5596
 20
-182.9786
 10
664.8003
 20
-183.0017
 10
665.0353
 20
-183.0341
 10
665.2644
 20
-183.0757
 10
665.4877
 20
-183.1266
 10
665.7051
 20
-183.1867
 10
665.9167
 20
-183.2561
 10
666.1216
 20
-183.3361
 10
666.3203
 20
-183.4271
 10
666.5127
 20
-183.5292
 10
666.6986
 20
-183.6426
 10
666.8777
 20
-183.7672
 10
667.0501
 20
-183.9033
 10
667.2155
 20
-184.0511
 10
667.3737
 20
-184.2105
 10
667.5293
 20
-184.3842
 10
667.6757
 20
-184.5676
 10
667.813
 20
-184.761
 10
667.9411
 20
-184.9645
 10
668.0601
 20
-185.1785
 10
668.1699
 20
-185.4031
 10
668.2706
 20
-185.6385
 10
668.3621
 20
-185.885
 10
668.443
 20
-186.1423
 10
668.513
 20
-186.4159
 10
668.5722
 20
-186.7056
 10
668.6206
 20
-187.0116
 10
668.6582
 20
-187.3338
 10
668.6851
 20
-187.6724
 10
668.7011
 20
-188.0272
 10
668.7065
 20
-188.3983
 10
668.7065
 20
-198.0768
 10
666.0409
 20
-198.0768
  0
LWPOLYLINE
  5
B6
330
1F
100
AcDbEntity
  8
Layer 1
 62
     7
370
    18
100
AcDbPolyline
 90
        2
 70
     0
 43
0.0
 10
775.9101
 20
-192.2377
 10
775.9101
 20
-87.364
  0
LWPOLYLINE
  5
B7
330
1F
100
AcDbEntity
  8
Layer 1
 62
     7
370
    18
100
AcDbPolyline
 90
        2
 70
     0
 43
0.0
 10
998.8904
 20
-192.2377
 10
998.8904
 20
-87.364
  0
LWPOLYLINE
  5
B8
330
1F
100
AcDbEntity
  8
Layer 1
 62
     7
370
    18
100
AcDbPolyline
 90
        2
 70
     0
 43
0.0
 10
996.2164
 20
-167.3807
 10
776.7661
 20
-167.3807
  0
LWPOLYLINE
  5
B9
330
1F
100
AcDbEntity
  8
Layer 1
 62
     7
100
AcDbPolyline
 90
      290
 70
     1
 43
0.0
 10
855.7734
 20
-180.3142
 10
855.5828
 20
-180.3169
 10
855.3921
 20
-180.3249
 10
855.2014
 20
-180.3383
 10
855.0105
 20
-180.357
 10
854.8195
 20
-180.381
 10
854.6283
 20
-180.4104
 10
854.4369
 20
-180.4452
 10
854.2452
 20
-180.4853
 10
853.8654
 20
-180.5785
 10
853.4888
 20
-180.6848
 10
853.1163
 20
-180.8047
 10
852.7485
 20
-180.9386
 10
852.4192
 20
-181.0727
 10
852.1121
 20
-181.2108
 10
851.8277
 20
-181.3523
 10
851.5664
 20
-181.4968
 10
850.6673
 20
-182.0411
 10
850.4984
 20
-182.0411
 10
850.4984
 20
-179.2611
 10
850.7381
 20
-179.1463
 10
850.9989
 20
-179.0344
 10
851.2805
 20
-178.9255
 10
851.5827
 20
-178.8195
 10
851.9054
 20
-178.7165
 10
852.2482
 20
-178.6165
 10
852.611
 20
-178.5194
 10
852.9936
 20
-178.4254
 10
853.3872
 20
-178.3365
 10
853.7759
 20
-178.2594
 10
854.1597
 20
-178.1942
 10
854.5385
 20
-178.1409
 10
854.9125
 20
-178.0994
 10
855.2816
 20
-178.0697
 10
855.6458
 20
-178.0519
 10
856.0052
 20
-178.046
 10
856.3572
 20
-178.0502
 10
856.6979
 20
-178.0628
 10
857.0274
 20
-178.0839
 10
857.3457
 20
-178.1135
 10
857.6529
 20
-178.1516
 10
857.9491
 20
-178.1983
 10
858.2343
 20
-178.2535
 10
858.5086
 20
-178.3174
 10
858.7714
 20
-178.3892
 10
859.0282
 20
-178.4703
 10
859.279
 20
-178.5609
 10
859.5238
 20
-178.6607
 10
859.7624
 20
-178.7699
 10
859.9948
 20
-178.8883
 10
860.2209
 20
-179.0161
 10
860.4408
 20
-179.1531
 10
860.6666
 20
-179.3141
 10
860.8782
 20
-179.4835
 10
861.0757
 20
-179.6615
 10
861.2591
 20
-179.848
 10
861.4284
 20
-180.0428
 10
861.5835
 20
-180.2462
 10
861.7245
 20
-180.4579
 10
861.8514
 20
-180.6781
 10
861.9615
 20
-180.9071
 10
862.0572
 20
-181.1455
 10
862.1383
 20
-181.3932
 10
862.2047
 20
-181.6502
 10
862.2565
 20
-181.9165
 10
862.2936
 20
-182.192
 10
862.3159
 20
-182.4766
 10
862.3233
 20
-182.7704
 10
862.3054
 20
-183.1691
 10
862.2518
 20
-183.5555
 10
862.1623
 20
-183.9297
 10
862.0369
 20
-184.2915
 10
861.8754
 20
-184.6409
 10
861.6779
 20
-184.9778
 10
861.4442
 20
-185.3021
 10
861.1743
 20
-185.6137
 10
860.8808
 20
-185.9066
 10
860.5728
 20
-186.1714
 10
860.2504
 20
-186.4081
 10
859.9137
 20
-186.6167
 10
859.5628
 20
-186.7972
 10
859.1978
 20
-186.9498
 10
858.8187
 20
-187.0744
 10
858.4258
 20
-187.171
 10
858.4258
 20
-187.3545
 10
858.7643
 20
-187.424
 10
859.1144
 20
-187.5162
 10
859.4766
 20
-187.6301
 10
859.8514
 20
-187.7646
 10
860.0379
 20
-187.8412
 10
860.2214
 20
-187.9263
 10
860.4017
 20
-188.02
 10
860.5788
 20
-188.1224
 10
860.7528
 20
-188.2334
 10
860.9236
 20
-188.3531
 10
861.0911
 20
-188.4816
 10
861.2554
 20
-188.6188
 10
861.4153
 20
-188.766
 10
861.5673
 20
-188.923
 10
861.7114
 20
-189.09
 10
861.8479
 20
-189.267
 10
861.9769
 20
-189.454
 10
862.0985
 20
-189.6511
 10
862.2128
 20
-189.8584
 10
862.32
 20
-190.0759
 10
862.4165
 20
-190.3049
 10
862.5001
 20
-190.5457
 10
862.5707
 20
-190.7983
 10
862.6284
 20
-191.0631
 10
862.6731
 20
-191.3402
 10
862.7051
 20
-191.6297
 10
862.7242
 20
-191.9319
 10
862.7306
 20
-192.2469
 10
862.7229
 20
-192.5755
 10
862.6997
 20
-192.8975
 10
862.6612
 20
-193.2129
 10
862.6075
 20
-193.5219
 10
862.5386
 20
-193.8244
 10
862.4547
 20
-194.1205
 10
862.3559
 20
-194.4104
 10
862.2422
 20
-194.6939
 10
862.1125
 20
-194.9681
 10
861.9706
 20
-195.2343
 10
861.8163
 20
-195.4925
 10
861.6499
 20
-195.7428
 10
861.4711
 20
-195.9851
 10
861.2801
 20
-196.2195
 10
861.0768
 20
-196.446
 10
860.8613
 20
-196.6645
 10
860.6251
 20
-196.8806
 10
860.3772
 20
-197.0835
 10
860.1175
 20
-197.2731
 10
859.8458
 20
-197.4493
 10
859.5621
 20
-197.6119
 10
859.2662
 20
-197.7607
 10
858.9582
 20
-197.8957
 10
858.6378
 20
-198.0167
 10
858.3064
 20
-198.1261
 10
857.9641
 20
-198.2209
 10
857.611
 20
-198.3009
 10
857.247
 20
-198.3663
 10
856.8721
 20
-198.4171
 10
856.4864
 20
-198.4534
 10
856.0898
 20
-198.4751
 10
855.6824
 20
-198.4823
 10
855.286
 20
-198.4767
 10
854.8902
 20
-198.46
 10
854.4953
 20
-198.4322
 10
854.1012
 20
-198.3933
 10
853.708
 20
-198.3432
 10
853.3159
 20
-198.282
 10
852.9248
 20
-198.2097
 10
852.5349
 20
-198.1262
 10
852.1541
 20
-198.035
 10
851.7888
 20
-197.9393
 10
851.4389
 20
-197.8391
 10
851.1044
 20
-197.7343
 10
850.7851
 20
-197.6248
 10
850.4809
 20
-197.5106
 10
850.1917
 20
-197.3914
 10
849.9173
 20
-197.2673
 10
849.9173
 20
-194.4858
 10
850.116
 20
-194.4858
 10
850.348
 20
-194.6381
 10
850.5992
 20
-194.7886
 10
850.8698
 20
-194.9372
 10
851.1595
 20
-195.0842
 10
851.4683
 20
-195.2295
 10
851.7961
 20
-195.3733
 10
852.1428
 20
-195.5154
 10
852.5084
 20
-195.6561
 10
852.8845
 20
-195.7872
 10
853.2604
 20
-195.9007
 10
853.636
 20
-195.9966
 10
854.0114
 20
-196.0751
 10
854.3866
 20
-196.136
 10
854.7617
 20
-196.1795
 10
855.1368
 20
-196.2055
 10
855.5118
 20
-196.2142
 10
855.7275
 20
-196.2102
 10
855.9436
 20
-196.198
 10
856.1601
 20
-196.1779
 10
856.3769
 20
-196.1497
 10
856.5941
 20
-196.1134
 10
856.8115
 20
-196.0692
 10
857.0291
 20
-196.0169
 10
857.247
 20
-195.9567
 10
857.4599
 20
-195.8878
 10
857.6639
 20
-195.8083
 10
857.8589
 20
-195.7182
 10
858.045
 20
-195.6179
 10
858.2221
 20
-195.5072
 10
858.3902
 20
-195.3864
 10
858.5492
 20
-195.2556
 10
858.699
 20
-195.1148
 10
858.8368
 20
-194.9683
 10
858.9658
 20
-194.8177
 10
859.0861
 20
-194.6633
 10
859.1978
 20
-194.505
 10
859.3009
 20
-194.343
 10
859.3956
 20
-194.1773
 10
859.482
 20
-194.008
 10
859.56
 20
-193.8351
 10
859.63
 20
-193.6537
 10
859.6909
 20
-193.4609
 10
859.7427
 20
-193.2567
 10
859.7852
 20
-193.041
 10
859.8184
 20
-192.8137
 10
859.8422
 20
-192.5748
 10
859.8565
 20
-192.3243
 10
859.8613
 20
-192.0619
 10
859.856
 20
-191.8012
 10
859.8403
 20
-191.5522
 10
859.8141
 20
-191.315
 10
859.7775
 20
-191.0896
 10
859.7306
 20
-190.8759
 10
859.6734
 20
-190.674
 10
859.606
 20
-190.4839
 10
859.5285
 20
-190.3057
 10
859.4401
 20
-190.1379
 10
859.3437
 20
-189.9791
 10
859.2392
 20
-189.8295
 10
859.1266
 20
-189.6891
 10
859.0057
 20
-189.558
 10
858.8766
 20
-189.4364
 10
858.7391
 20
-189.3243
 10
858.5931
 20
-189.2217
 10
858.4417
 20
-189.126
 10
858.2833
 20
-189.0379
 10
858.1177
 20
-188.9575
 10
857.9451
 20
-188.8848
 10
857.7654
 20
-188.8199
 10
857.5786
 20
-188.7629
 10
857.3849
 20
-188.7138
 10
857.1841
 20
-188.6728
 10
856.9767
 20
-188.6366
 10
856.7655
 20
-188.6054
 10
856.5505
 20
-188.5791
 10
856.3316
 20
-188.5578
 10
856.1087
 20
-188.5412
 10
855.8819
 20
-188.5295
 10
855.6509
 20
-188.5225
 10
855.4158
 20
-188.5202
 10
854.2055
 20
-188.5202
 10
854.2055
 20
-186.3337
 10
855.1443
 20
-186.3337
 10
855.6113
 20
-186.3206
 10
856.0562
 20
-186.2813
 10
856.4789
 20
-186.2157
 10
856.8792
 20
-186.1239
 10
857.2571
 20
-186.0056
 10
857.6125
 20
-185.8609
 10
857.9453
 20
-185.6897
 10
858.2553
 20
-185.4919
 10
858.5354
 20
-185.2694
 10
858.7783
 20
-185.0227
 10
858.9841
 20
-184.7521
 10
859.1525
 20
-184.4575
 10
859.2836
 20
-184.1389
 10
859.3773
 20
-183.7965
 10
859.4336
 20
-183.4302
 10
859.4524
 20
-183.0402
 10
859.4477
 20
-182.8595
 10
859.4336
 20
-182.6852
 10
859.41
 20
-182.5171
 10
859.3768
 20
-182.3554
 10
859.3339
 20
-182.2
 10
859.2812
 20
-182.0508
 10
859.2187
 20
-181.908
 10
859.1461
 20
-181.7713
 10
859.0651
 20
-181.6399
 10
858.9789
 20
-181.516
 10
858.8874
 20
-181.3996
 10
858.7907
 20
-181.2904
 10
858.689
 20
-181.1882
 10
858.5824
 20
-181.0928
 10
858.4709
 20
-181.004
 10
858.3546
 20
-180.9217
 10
858.2161
 20
-180.8389
 10
858.0748
 20
-180.7629
 10
857.9308
 20
-180.6935
 10
857.7838
 20
-180.6307
 10
857.634
 20
-180.5743
 10
857.4811
 20
-180.5245
 10
857.3251
 20
-180.4809
 10
857.1659
 20
-180.4437
 10
856.8331
 20
-180.3877
 10
856.4902
 20
-180.3472
 10
856.137
 20
-180.3225
 10
855.7734
 20
-180.3142
  0
LWPOLYLINE
  5
BA
330
1F
100
AcDbEntity
  8
Layer 1
 62
     7
100
AcDbPolyline
 90
      290
 70
     1
 43
0.0
 10
873.4081
 20
-180.3142
 10
873.2169
 20
-180.3169
 10
873.0258
 20
-180.3249
 10
872.8348
 20
-180.3383
 10
872.6438
 20
-180.357
 10
872.4526
 20
-180.381
 10
872.2614
 20
-180.4104
 10
872.0699
 20
-180.4452
 10
871.8782
 20
-180.4853
 10
871.4998
 20
-180.5785
 10
871.123
 20
-180.6848
 10
870.7497
 20
-180.8047
 10
870.3815
 20
-180.9386
 10
870.0522
 20
-181.0727
 10
869.7451
 20
-181.2108
 10
869.4606
 20
-181.3523
 10
869.1993
 20
-181.4968
 10
868.302
 20
-182.0411
 10
868.1314
 20
-182.0411
 10
868.1314
 20
-179.2611
 10
868.3711
 20
-179.1463
 10
868.6319
 20
-179.0344
 10
868.9135
 20
-178.9255
 10
869.2157
 20
-178.8195
 10
869.5383
 20
-178.7165
 10
869.8811
 20
-178.6165
 10
870.2439
 20
-178.5194
 10
870.6265
 20
-178.4254
 10
871.0202
 20
-178.3365
 10
871.4089
 20
-178.2594
 10
871.7926
 20
-178.1942
 10
872.1715
 20
-178.1409
 10
872.5455
 20
-178.0994
 10
872.9146
 20
-178.0697
 10
873.2788
 20
-178.0519
 10
873.6382
 20
-178.046
 10
873.9906
 20
-178.0502
 10
874.3316
 20
-178.0628
 10
874.6611
 20
-178.0839
 10
874.9793
 20
-178.1135
 10
875.2864
 20
-178.1516
 10
875.5823
 20
-178.1983
 10
875.8674
 20
-178.2535
 10
876.1416
 20
-178.3174
 10
876.4044
 20
-178.3892
 10
876.6614
 20
-178.4703
 10
876.9124
 20
-178.5609
 10
877.1574
 20
-178.6607
 10
877.3961
 20
-178.7699
 10
877.6285
 20
-178.8883
 10
877.8544
 20
-179.0161
 10
878.0738
 20
-179.1531
 10
878.2996
 20
-179.3141
 10
878.5112
 20
-179.4835
 10
878.7087
 20
-179.6615
 10
878.8921
 20
-179.848
 10
879.0614
 20
-180.0428
 10
879.2165
 20
-180.2462
 10
879.3575
 20
-180.4579
 10
879.4844
 20
-180.6781
 10
879.5945
 20
-180.9071
 10
879.6901
 20
-181.1455
 10
879.7712
 20
-181.3932
 10
879.8377
 20
-181.6502
 10
879.8895
 20
-181.9165
 10
879.9266
 20
-182.192
 10
879.9489
 20
-182.4766
 10
879.9563
 20
-182.7704
 10
879.9384
 20
-183.1691
 10
879.8848
 20
-183.5555
 10
879.7953
 20
-183.9297
 10
879.6699
 20
-184.2915
 10
879.5084
 20
-184.6409
 10
879.3109
 20
-184.9778
 10
879.0772
 20
-185.3021
 10
878.8072
 20
-185.6137
 10
878.5137
 20
-185.9066
 10
878.2057
 20
-186.1714
 10
877.8834
 20
-186.4081
 10
877.5467
 20
-186.6167
 10
877.1958
 20
-186.7972
 10
876.8308
 20
-186.9498
 10
876.4517
 20
-187.0744
 10
876.0588
 20
-187.171
 10
876.0588
 20
-187.3545
 10
876.3972
 20
-187.424
 10
876.7472
 20
-187.5162
 10
877.1089
 20
-187.6301
 10
877.4827
 20
-187.7646
 10
877.6698
 20
-187.8412
 10
877.8537
 20
-187.9263
 10
878.0343
 20
-188.02
 10
878.2116
 20
-188.1224
 10
878.3857
 20
-188.2334
 10
878.5565
 20
-188.3531
 10
878.7241
 20
-188.4816
 10
878.8884
 20
-188.6188
 10
879.0483
 20
-188.766
 10
879.2003
 20
-188.923
 10
879.3444
 20
-189.09
 10
879.4809
 20
-189.267
 10
879.6099
 20
-189.454
 10
879.7315
 20
-189.6511
 10
879.8458
 20
-189.8584
 10
879.953
 20
-190.0759
 10
880.0495
 20
-190.3049
 10
880.1331
 20
-190.5457
 10
880.2037
 20
-190.7983
 10
880.2614
 20
-191.0631
 10
880.3061
 20
-191.3402
 10
880.3381
 20
-191.6297
 10
880.3572
 20
-191.9319
 10
880.3636
 20
-192.2469
 10
880.3559
 20
-192.5755
 10
880.3327
 20
-192.8975
 10
880.2943
 20
-193.2129
 10
880.2407
 20
-193.5219
 10
880.172
 20
-193.8244
 10
880.0884
 20
-194.1205
 10
879.9899
 20
-194.4104
 10
879.8768
 20
-194.6939
 10
879.7466
 20
-194.9681
 10
879.6045
 20
-195.2343
 10
879.4502
 20
-195.4925
 10
879.2837
 20
-195.7428
 10
879.1049
 20
-195.9851
 10
878.9138
 20
-196.2195
 10
878.7103
 20
-196.446
 10
878.4943
 20
-196.6645
 10
878.2581
 20
-196.8806
 10
878.0102
 20
-197.0835
 10
877.7505
 20
-197.2731
 10
877.4788
 20
-197.4493
 10
877.195
 20
-197.6119
 10
876.8992
 20
-197.7607
 10
876.5911
 20
-197.8957
 10
876.2707
 20
-198.0167
 10
875.9394
 20
-198.1261
 10
875.5973
 20
-198.2209
 10
875.2444
 20
-198.3009
 10
874.8806
 20
-198.3663
 10
874.5058
 20
-198.4171
 10
874.1201
 20
-198.4534
 10
873.7233
 20
-198.4751
 10
873.3154
 20
-198.4823
 10
872.919
 20
-198.4767
 10
872.5235
 20
-198.46
 10
872.1287
 20
-198.4322
 10
871.7348
 20
-198.3933
 10
871.3418
 20
-198.3432
 10
870.9496
 20
-198.282
 10
870.5583
 20
-198.2097
 10
870.1679
 20
-198.1262
 10
869.7871
 20
-198.035
 10
869.4218
 20
-197.9393
 10
869.0719
 20
-197.8391
 10
868.7374
 20
-197.7343
 10
868.4181
 20
-197.6248
 10
868.1139
 20
-197.5106
 10
867.8247
 20
-197.3914
 10
867.5503
 20
-197.2673
 10
867.5503
 20
-194.4858
 10
867.7506
 20
-194.4858
 10
867.982
 20
-194.6381
 10
868.2329
 20
-194.7886
 10
868.5032
 20
-194.9372
 10
868.7927
 20
-195.0842
 10
869.1013
 20
-195.2295
 10
869.4291
 20
-195.3733
 10
869.7758
 20
-195.5154
 10
870.1414
 20
-195.6561
 10
870.5175
 20
-195.7872
 10
870.8934
 20
-195.9007
 10
871.269
 20
-195.9966
 10
871.6444
 20
-196.0751
 10
872.0196
 20
-196.136
 10
872.3947
 20
-196.1795
 10
872.7698
 20
-196.2055
 10
873.1448
 20
-196.2142
 10
873.3605
 20
-196.2102
 10
873.5768
 20
-196.198
 10
873.7935
 20
-196.1779
 10
874.0105
 20
-196.1497
 10
874.2278
 20
-196.1134
 10
874.4452
 20
-196.0692
 10
874.6626
 20
-196.0169
 10
874.88
 20
-195.9567
 10
875.093
 20
-195.8878
 10
875.2974
 20
-195.8083
 10
875.4929
 20
-195.7182
 10
875.6795
 20
-195.6179
 10
875.857
 20
-195.5072
 10
876.0253
 20
-195.3864
 10
876.1842
 20
-195.2556
 10
876.3337
 20
-195.1148
 10
876.4714
 20
-194.9683
 10
876.6002
 20
-194.8177
 10
876.7202
 20
-194.6633
 10
876.8316
 20
-194.505
 10
876.9345
 20
-194.343
 10
877.0289
 20
-194.1773
 10
877.115
 20
-194.008
 10
877.193
 20
-193.8351
 10
877.2635
 20
-193.6537
 10
877.3246
 20
-193.4609
 10
877.3764
 20
-193.2567
 10
877.4188
 20
-193.041
 10
877.4518
 20
-192.8137
 10
877.4754
 20
-192.5748
 10
877.4896
 20
-192.3243
 10
877.4943
 20
-192.0619
 10
877.4891
 20
-191.8012
 10
877.4735
 20
-191.5522
 10
877.4475
 20
-191.315
 10
877.4111
 20
-191.0896
 10
877.3643
 20
-190.8759
 10
877.3071
 20
-190.674
 10
877.2395
 20
-190.4839
 10
877.1615
 20
-190.3057
 10
877.0732
 20
-190.1379
 10
876.9772
 20
-189.9791
 10
876.8732
 20
-189.8295
 10
876.7612
 20
-189.6891
 10
876.641
 20
-189.558
 10
876.5124
 20
-189.4364
 10
876.3752
 20
-189.3243
 10
876.2294
 20
-189.2217
 10
876.077
 20
-189.126
 10
875.9177
 20
-189.0379
 10
875.7516
 20
-188.9575
 10
875.5787
 20
-188.8848
 10
875.3989
 20
-188.8199
 10
875.2124
 20
-188.7629
 10
875.0189
 20
-188.7138
 10
874.8187
 20
-188.6728
 10
874.6108
 20
-188.6366
 10
874.3992
 20
-188.6054
 10
874.1838
 20
-188.5791
 10
873.9646
 20
-188.5578
 10
873.7414
 20
-188.5412
 10
873.5142
 20
-188.5295
 10
873.2828
 20
-188.5225
 10
873.0471
 20
-188.5202
 10
871.8401
 20
-188.5202
 10
871.8401
 20
-186.3337
 10
872.7773
 20
-186.3337
 10
873.2453
 20
-186.3206
 10
873.6906
 20
-186.2813
 10
874.1134
 20
-186.2157
 10
874.5136
 20
-186.1239
 10
874.8914
 20
-186.0056
 10
875.2466
 20
-185.8609
 10
875.5795
 20
-185.6897
 10
875.8899
 20
-185.4919
 10
876.17
 20
-185.2694
 10
876.4129
 20
-185.0227
 10
876.6187
 20
-184.7521
 10
876.7871
 20
-184.4575
 10
876.9182
 20
-184.1389
 10
877.0119
 20
-183.7965
 10
877.0682
 20
-183.4302
 10
877.087
 20
-183.0402
 10
877.0823
 20
-182.8595
 10
877.068
 20
-182.6852
 10
877.0441
 20
-182.5171
 10
877.0106
 20
-182.3554
 10
876.9674
 20
-182.2
 10
876.9145
 20
-182.0508
 10
876.8517
 20
-181.908
 10
876.779
 20
-181.7713
 10
876.6986
 20
-181.6399
 10
876.6125
 20
-181.516
 10
876.5211
 20
-181.3996
 10
876.4243
 20
-181.2904
 10
876.3224
 20
-181.1882
 10
876.2156
 20
-181.0928
 10
876.1039
 20
-181.004
 10
875.9876
 20
-180.9217
 10
875.8491
 20
-180.8389
 10
875.708
 20
-180.7629
 10
875.5642
 20
-180.6935
 10
875.4174
 20
-180.6307
 10
875.2677
 20
-180.5743
 10
875.1147
 20
-180.5245
 10
874.9585
 20
-180.4809
 10
874.7988
 20
-180.4437
 10
874.466
 20
-180.3877
 10
874.1233
 20
-180.3472
 10
873.7707
 20
-180.3225
 10
873.4081
 20
-180.3142
  0
LWPOLYLINE
  5
BB
330
1F
100
AcDbEntity
  8
Layer 1
 62
     7
100
AcDbPolyline
 90
       65
 70
     1
 43
0.0
 10
898.49
 20
-188.2503
 10
898.4642
 20
-189.5272
 10
898.3869
 20
-190.7166
 10
898.2581
 20
-191.8184
 10
898.0777
 20
-192.8325
 10
897.8458
 20
-193.7588
 10
897.5624
 20
-194.5974
 10
897.2274
 20
-195.348
 10
896.8409
 20
-196.0107
 10
896.4002
 20
-196.5901
 10
895.9036
 20
-197.0923
 10
895.3512
 20
-197.5171
 10
894.743
 20
-197.8646
 10
894.0787
 20
-198.1349
 10
893.3585
 20
-198.3279
 10
892.5822
 20
-198.4437
 10
891.7497
 20
-198.4823
 10
890.9078
 20
-198.4429
 10
890.1241
 20
-198.3246
 10
889.3985
 20
-198.1275
 10
888.731
 20
-197.8517
 10
888.1213
 20
-197.4973
 10
887.5695
 20
-197.0643
 10
887.0753
 20
-196.5528
 10
886.6386
 20
-195.9629
 10
886.2568
 20
-195.2915
 10
885.9261
 20
-194.5377
 10
885.6464
 20
-193.7013
 10
885.4176
 20
-192.7823
 10
885.2397
 20
-191.7805
 10
885.1127
 20
-190.6957
 10
885.0365
 20
-189.5277
 10
885.0111
 20
-188.2765
 10
885.0369
 20
-186.9934
 10
885.1143
 20
-185.7993
 10
885.2432
 20
-184.6942
 10
885.4236
 20
-183.6784
 10
885.6552
 20
-182.7518
 10
885.938
 20
-181.9146
 10
886.2719
 20
-181.1668
 10
886.6568
 20
-180.5085
 10
887.0976
 20
-179.9308
 10
887.5943
 20
-179.4303
 10
888.147
 20
-179.007
 10
888.7556
 20
-178.6609
 10
889.4201
 20
-178.3918
 10
890.1406
 20
-178.1996
 10
890.9172
 20
-178.0844
 10
891.7497
 20
-178.046
 10
892.5923
 20
-178.0859
 10
893.3765
 20
-178.2055
 10
894.1025
 20
-178.4048
 10
894.7703
 20
-178.6836
 10
895.38
 20
-179.042
 10
895.9316
 20
-179.4797
 10
896.4252
 20
-179.9969
 10
896.8608
 20
-180.5933
 10
897.2431
 20
-181.2689
 10
897.5743
 20
-182.0249
 10
897.8543
 20
-182.8614
 10
898.0833
 20
-183.7782
 10
898.2613
 20
-184.7755
 10
898.3884
 20
-185.8533
 10
898.4646
 20
-187.0115
 10
898.49
 20
-188.2503
  0
LWPOLYLINE
  5
BC
330
1F
100
AcDbEntity
  8
Layer 1
 62
     7
100
AcDbPolyline
 90
      129
 70
     1
 43
0.0
 10
894.8657
 20
-194.2298
 10
894.9655
 20
-193.9774
 10
895.0576
 20
-193.7092
 10
895.142
 20
-193.4252
 10
895.2188
 20
-193.1252
 10
895.2879
 20
-192.8091
 10
895.3495
 20
-192.4767
 10
895.4035
 20
-192.128
 10
895.4501
 20
-191.7628
 10
895.4887
 20
-191.3836
 10
895.5226
 20
-190.9874
 10
895.5516
 20
-190.574
 10
895.5755
 20
-190.1436
 10
895.5944
 20
-189.696
 10
895.608
 20
-189.2313
 10
895.6162
 20
-188.7494
 10
895.619
 20
-188.2503
 10
895.6162
 20
-187.7553
 10
895.608
 20
-187.2765
 10
895.5944
 20
-186.814
 10
895.5755
 20
-186.3679
 10
895.5516
 20
-185.9383
 10
895.5226
 20
-185.5254
 10
895.4887
 20
-185.1294
 10
895.4501
 20
-184.7502
 10
895.4033
 20
-184.3853
 10
895.3484
 20
-184.0363
 10
895.2856
 20
-183.7033
 10
895.215
 20
-183.3862
 10
895.1367
 20
-183.0849
 10
895.0506
 20
-182.7994
 10
894.9569
 20
-182.5296
 10
894.8557
 20
-182.2755
 10
894.7434
 20
-182.0317
 10
894.6214
 20
-181.8035
 10
894.4897
 20
-181.5906
 10
894.3483
 20
-181.3931
 10
894.1973
 20
-181.2107
 10
894.0366
 20
-181.0434
 10
893.8665
 20
-180.8911
 10
893.6868
 20
-180.7536
 10
893.4935
 20
-180.6321
 10
893.2861
 20
-180.5267
 10
893.0647
 20
-180.4374
 10
892.8294
 20
-180.3643
 10
892.5802
 20
-180.3073
 10
892.3171
 20
-180.2666
 10
892.0403
 20
-180.2422
 10
891.7497
 20
-180.234
 10
891.4629
 20
-180.2422
 10
891.1889
 20
-180.2666
 10
890.9276
 20
-180.3073
 10
890.6793
 20
-180.3643
 10
890.444
 20
-180.4374
 10
890.2218
 20
-180.5267
 10
890.013
 20
-180.6321
 10
889.8175
 20
-180.7536
 10
889.6319
 20
-180.8915
 10
889.4565
 20
-181.0451
 10
889.2912
 20
-181.2143
 10
889.1362
 20
-181.3993
 10
888.9914
 20
-181.6
 10
888.8568
 20
-181.8165
 10
888.7326
 20
-182.0489
 10
888.6188
 20
-182.2971
 10
888.5167
 20
-182.5566
 10
888.4227
 20
-182.8323
 10
888.337
 20
-183.124
 10
888.2595
 20
-183.4319
 10
888.1905
 20
-183.756
 10
888.1299
 20
-184.0963
 10
888.0778
 20
-184.4529
 10
888.0343
 20
-184.8258
 10
887.9991
 20
-185.215
 10
887.9681
 20
-185.616
 10
887.9414
 20
-186.029
 10
887.9193
 20
-186.454
 10
887.9018
 20
-186.8911
 10
887.889
 20
-187.3405
 10
887.8813
 20
-187.8023
 10
887.8787
 20
-188.2765
 10
887.8809
 20
-188.7795
 10
887.8874
 20
-189.2617
 10
887.8982
 20
-189.723
 10
887.9133
 20
-190.1634
 10
887.9326
 20
-190.5828
 10
887.9562
 20
-190.9813
 10
887.9841
 20
-191.3587
 10
888.0161
 20
-191.715
 10
888.0531
 20
-192.0548
 10
888.1008
 20
-192.3861
 10
888.159
 20
-192.7089
 10
888.2277
 20
-193.0229
 10
888.3068
 20
-193.3281
 10
888.3962
 20
-193.6244
 10
888.4958
 20
-193.9116
 10
888.6056
 20
-194.1897
 10
888.7125
 20
-194.4357
 10
888.8308
 20
-194.6673
 10
888.9603
 20
-194.8843
 10
889.101
 20
-195.0867
 10
889.2527
 20
-195.2745
 10
889.4153
 20
-195.4477
 10
889.5887
 20
-195.6063
 10
889.7728
 20
-195.7501
 10
889.9695
 20
-195.8784
 10
890.1806
 20
-195.9893
 10
890.4063
 20
-196.0829
 10
890.6464
 20
-196.1593
 10
890.9008
 20
-196.2185
 10
891.1696
 20
-196.2607
 10
891.4525
 20
-196.286
 10
891.7497
 20
-196.2944
 10
892.037
 20
-196.2862
 10
892.3115
 20
-196.2615
 10
892.5732
 20
-196.2205
 10
892.8219
 20
-196.1631
 10
893.0577
 20
-196.0895
 10
893.2805
 20
-195.9997
 10
893.4902
 20
-195.8938
 10
893.6868
 20
-195.7717
 10
893.87
 20
-195.6343
 10
894.0433
 20
-195.4811
 10
894.2065
 20
-195.3122
 10
894.3595
 20
-195.1274
 10
894.502
 20
-194.9268
 10
894.634
 20
-194.7103
 10
894.7553
 20
-194.478
 10
894.8657
 20
-194.2298
  0
LWPOLYLINE
  5
BD
330
1F
100
AcDbEntity
  8
Layer 1
 62
     7
100
AcDbPolyline
 90
      190
 70
     1
 43
0.0
 10
921.34
 20
-198.0768
 10
921.34
 20
-189.564
 10
921.3386
 20
-189.3131
 10
921.3344
 20
-189.067
 10
921.3275
 20
-188.8256
 10
921.3179
 20
-188.5888
 10
921.3055
 20
-188.3566
 10
921.2904
 20
-188.129
 10
921.2726
 20
-187.906
 10
921.2522
 20
-187.6875
 10
921.2293
 20
-187.4777
 10
921.2002
 20
-187.2795
 10
921.165
 20
-187.093
 10
921.1238
 20
-186.9181
 10
921.0765
 20
-186.7548
 10
921.0234
 20
-186.6029
 10
920.9644
 20
-186.4626
 10
920.8996
 20
-186.3337
 10
920.8255
 20
-186.2068
 10
920.7436
 20
-186.0885
 10
920.654
 20
-185.9789
 10
920.5569
 20
-185.8779
 10
920.4523
 20
-185.7855
 10
920.3403
 20
-185.7017
 10
920.2212
 20
-185.6264
 10
920.0949
 20
-185.5597
 10
919.9585
 20
-185.5011
 10
919.8101
 20
-185.4502
 10
919.65
 20
-185.407
 10
919.4782
 20
-185.3716
 10
919.2949
 20
-185.344
 10
919.1003
 20
-185.3243
 10
918.8945
 20
-185.3124
 10
918.6777
 20
-185.3084
 10
918.4694
 20
-185.3157
 10
918.258
 20
-185.3377
 10
918.0433
 20
-185.3743
 10
917.8252
 20
-185.4258
 10
917.6034
 20
-185.492
 10
917.3778
 20
-185.5731
 10
917.1482
 20
-185.6692
 10
916.9144
 20
-185.7802
 10
916.6779
 20
-185.9037
 10
916.4392
 20
-186.0404
 10
916.1982
 20
-186.1904
 10
915.9551
 20
-186.3536
 10
915.7099
 20
-186.5301
 10
915.4627
 20
-186.7197
 10
915.2134
 20
-186.9226
 10
914.9623
 20
-187.1386
 10
915.0021
 20
-187.6706
 10
915.0219
 20
-188.4045
 10
915.0219
 20
-198.0768
 10
912.3546
 20
-198.0768
 10
912.3546
 20
-189.564
 10
912.3533
 20
-189.3131
 10
912.3493
 20
-189.067
 10
912.3427
 20
-188.8256
 10
912.3333
 20
-188.5888
 10
912.3212
 20
-188.3566
 10
912.3064
 20
-188.129
 10
912.2889
 20
-187.906
 10
912.2685
 20
-187.6875
 10
912.2445
 20
-187.4777
 10
912.2148
 20
-187.2795
 10
912.1793
 20
-187.093
 10
912.1381
 20
-186.9181
 10
912.0912
 20
-186.7548
 10
912.0385
 20
-186.6029
 10
911.9801
 20
-186.4626
 10
911.9159
 20
-186.3337
 10
911.8413
 20
-186.2068
 10
911.7591
 20
-186.0885
 10
911.6693
 20
-185.9789
 10
911.5719
 20
-185.8779
 10
911.4669
 20
-185.7855
 10
911.3542
 20
-185.7017
 10
911.234
 20
-185.6264
 10
911.1062
 20
-185.5597
 10
910.9704
 20
-185.5011
 10
910.8227
 20
-185.4502
 10
910.6631
 20
-185.407
 10
910.492
 20
-185.3716
 10
910.3093
 20
-185.344
 10
910.1153
 20
-185.3243
 10
909.9101
 20
-185.3124
 10
909.6939
 20
-185.3084
 10
909.4753
 20
-185.3161
 10
909.2541
 20
-185.3395
 10
909.0303
 20
-185.3784
 10
908.804
 20
-185.4331
 10
908.5752
 20
-185.5036
 10
908.344
 20
-185.59
 10
908.1104
 20
-185.6925
 10
907.8744
 20
-185.811
 10
907.6386
 20
-185.9424
 10
907.4044
 20
-186.0821
 10
907.1719
 20
-186.2302
 10
906.9412
 20
-186.3868
 10
906.7122
 20
-186.552
 10
906.485
 20
-186.7259
 10
906.2598
 20
-186.9086
 10
906.0365
 20
-187.1001
 10
906.0365
 20
-198.0768
 10
903.3676
 20
-198.0768
 10
903.3676
 20
-183.3656
 10
906.0365
 20
-183.3656
 10
906.0365
 20
-185.0015
 10
906.2977
 20
-184.7654
 10
906.5584
 20
-184.5428
 10
906.8186
 20
-184.3337
 10
907.0784
 20
-184.1382
 10
907.3377
 20
-183.9564
 10
907.5965
 20
-183.7884
 10
907.8549
 20
-183.6341
 10
908.1128
 20
-183.4936
 10
908.3736
 20
-183.3688
 10
908.6406
 20
-183.2606
 10
908.9138
 20
-183.1689
 10
909.1933
 20
-183.0938
 10
909.4791
 20
-183.0354
 10
909.7712
 20
-182.9936
 10
910.0696
 20
-182.9685
 10
910.3744
 20
-182.9601
 10
910.7192
 20
-182.9694
 10
911.0545
 20
-182.9971
 10
911.38
 20
-183.0434
 10
911.6959
 20
-183.1083
 10
912.0018
 20
-183.1917
 10
912.2978
 20
-183.2938
 10
912.5838
 20
-183.4144
 10
912.8596
 20
-183.5537
 10
913.1222
 20
-183.7136
 10
913.3687
 20
-183.8974
 10
913.5991
 20
-184.1051
 10
913.8133
 20
-184.3366
 10
914.0114
 20
-184.592
 10
914.1933
 20
-184.8712
 10
914.3591
 20
-185.1742
 10
914.5087
 20
-185.5011
 10
914.8101
 20
-185.1986
 10
915.1094
 20
-184.9147
 10
915.4066
 20
-184.6494
 10
915.7018
 20
-184.4029
 10
915.9949
 20
-184.1753
 10
916.2859
 20
-183.9669
 10
916.5747
 20
-183.7776
 10
916.8614
 20
-183.6077
 10
917.1529
 20
-183.4555
 10
917.4499
 20
-183.3237
 10
917.7528
 20
-183.2124
 10
918.0616
 20
-183.1214
 10
918.3765
 20
-183.0508
 10
918.6977
 20
-183.0004
 10
919.0254
 20
-182.9702
 10
919.3598
 20
-182.9601
 10
919.6121
 20
-182.9647
 10
919.8587
 20
-182.9786
 10
920.0994
 20
-183.0017
 10
920.3344
 20
-183.0341
 10
920.5635
 20
-183.0757
 10
920.7868
 20
-183.1266
 10
921.0042
 20
-183.1867
 10
921.2158
 20
-183.2561
 10
921.4207
 20
-183.3361
 10
921.6193
 20
-183.4271
 10
921.8114
 20
-183.5292
 10
921.9971
 20
-183.6426
 10
922.1762
 20
-183.7672
 10
922.3485
 20
-183.9033
 10
922.5141
 20
-184.0511
 10
922.6728
 20
-184.2105
 10
922.8284
 20
-184.3842
 10
922.9749
 20
-184.5676
 10
923.1121
 20
-184.761
 10
923.2401
 20
-184.9645
 10
923.3589
 20
-185.1785
 10
923.4684
 20
-185.4031
 10
923.5687
 20
-185.6385
 10
923.6596
 20
-185.885
 10
923.741
 20
-186.1423
 10
923.8115
 20
-186.4159
 10
923.8709
 20
-186.7056
 10
923.9195
 20
-187.0116
 10
923.9572
 20
-187.3338
 10
923.9841
 20
-187.6724
 10
924.0002
 20
-188.0272
 10
924.0056
 20
-188.3983
 10
924.0056
 20
-198.0768
 10
921.34
 20
-198.0768
  0
LWPOLYLINE
  5
BE
330
1F
100
AcDbEntity
  8
Layer 1
 62
     7
100
AcDbPolyline
 90
      190
 70
     1
 43
0.0
 10
947.4948
 20
-198.0768
 10
947.4948
 20
-189.564
 10
947.4935
 20
-189.3131
 10
947.4895
 20
-189.067
 10
947.4829
 20
-188.8256
 10
947.4737
 20
-188.5888
 10
947.4618
 20
-188.3566
 10
947.4473
 20
-188.129
 10
947.4301
 20
-187.906
 10
947.4103
 20
-187.6875
 10
947.3867
 20
-187.4777
 10
947.3571
 20
-187.2795
 10
947.3213
 20
-187.093
 10
947.2797
 20
-186.9181
 10
947.2323
 20
-186.7548
 10
947.1791
 20
-186.6029
 10
947.1203
 20
-186.4626
 10
947.056
 20
-186.3337
 10
946.9825
 20
-186.2068
 10
946.9009
 20
-186.0885
 10
946.8116
 20
-185.9789
 10
946.7145
 20
-185.8779
 10
946.6098
 20
-185.7855
 10
946.4976
 20
-185.7017
 10
946.3781
 20
-185.6264
 10
946.2513
 20
-185.5597
 10
946.1145
 20
-185.5011
 10
945.9661
 20
-185.4502
 10
945.8061
 20
-185.407
 10
945.6346
 20
-185.3716
 10
945.4516
 20
-185.344
 10
945.2572
 20
-185.3243
 10
945.0513
 20
-185.3124
 10
944.8341
 20
-185.3084
 10
944.6258
 20
-185.3157
 10
944.4142
 20
-185.3377
 10
944.1993
 20
-185.3743
 10
943.981
 20
-185.4258
 10
943.7591
 20
-185.492
 10
943.5335
 20
-185.5731
 10
943.3041
 20
-185.6692
 10
943.0708
 20
-185.7802
 10
942.8349
 20
-185.9037
 10
942.5965
 20
-186.0404
 10
942.3558
 20
-186.1904
 10
942.1128
 20
-186.3536
 10
941.8675
 20
-186.5301
 10
941.62
 20
-186.7197
 10
941.3704
 20
-186.9226
 10
941.1187
 20
-187.1386
 10
941.1568
 20
-187.6706
 10
941.1767
 20
-188.4045
 10
941.1767
 20
-198.0768
 10
938.511
 20
-198.0768
 10
938.511
 20
-189.564
 10
938.5097
 20
-189.3131
 10
938.5057
 20
-189.067
 10
938.499
 20
-188.8256
 10
938.4895
 20
-188.5888
 10
938.4772
 20
-188.3566
 10
938.4621
 20
-188.129
 10
938.4442
 20
-187.906
 10
938.4233
 20
-187.6875
 10
938.4003
 20
-187.4777
 10
938.3712
 20
-187.2795
 10
938.3361
 20
-187.093
 10
938.295
 20
-186.9181
 10
938.248
 20
-186.7548
 10
938.1951
 20
-186.6029
 10
938.1365
 20
-186.4626
 10
938.0723
 20
-186.3337
 10
937.9972
 20
-186.2068
 10
937.9146
 20
-186.0885
 10
937.8246
 20
-185.9789
 10
937.7271
 20
-185.8779
 10
937.6222
 20
-185.7855
 10
937.5098
 20
-185.7017
 10
937.39
 20
-185.6264
 10
937.2627
 20
-185.5597
 10
937.1274
 20
-185.5011
 10
936.9798
 20
-185.4502
 10
936.8202
 20
-185.407
 10
936.6488
 20
-185.3716
 10
936.4658
 20
-185.344
 10
936.2713
 20
-185.3243
 10
936.0655
 20
-185.3124
 10
935.8487
 20
-185.3084
 10
935.6302
 20
-185.3161
 10
935.4094
 20
-185.3395
 10
935.1861
 20
-185.3784
 10
934.9604
 20
-185.4331
 10
934.7322
 20
-185.5036
 10
934.5015
 20
-185.59
 10
934.2683
 20
-185.6925
 10
934.0324
 20
-185.811
 10
933.7965
 20
-185.9424
 10
933.562
 20
-186.0821
 10
933.329
 20
-186.2302
 10
933.0978
 20
-186.3868
 10
932.8684
 20
-186.552
 10
932.641
 20
-186.7259
 10
932.4158
 20
-186.9086
 10
932.193
 20
-187.1001
 10
932.193
 20
-198.0768
 10
929.524
 20
-198.0768
 10
929.524
 20
-183.3656
 10
932.193
 20
-183.3656
 10
932.193
 20
-185.0015
 10
932.4547
 20
-184.7654
 10
932.7158
 20
-184.5428
 10
932.9762
 20
-184.3337
 10
933.2361
 20
-184.1382
 10
933.4953
 20
-183.9564
 10
933.7539
 20
-183.7884
 10
934.0118
 20
-183.6341
 10
934.2692
 20
-183.4936
 10
934.5299
 20
-183.3688
 10
934.7967
 20
-183.2606
 10
935.0697
 20
-183.1689
 10
935.3489
 20
-183.0938
 10
935.6344
 20
-183.0354
 10
935.9263
 20
-182.9936
 10
936.2245
 20
-182.9685
 10
936.5292
 20
-182.9601
 10
936.874
 20
-182.9694
 10
937.2093
 20
-182.9971
 10
937.5349
 20
-183.0434
 10
937.8508
 20
-183.1083
 10
938.157
 20
-183.1917
 10
938.4533
 20
-183.2938
 10
938.7397
 20
-183.4144
 10
939.016
 20
-183.5537
 10
939.2782
 20
-183.7136
 10
939.5244
 20
-183.8974
 10
939.7547
 20
-184.1051
 10
939.9691
 20
-184.3366
 10
940.1673
 20
-184.592
 10
940.3494
 20
-184.8712
 10
940.5154
 20
-185.1742
 10
940.6651
 20
-185.5011
 10
940.9669
 20
-185.1986
 10
941.2662
 20
-184.9147
 10
941.5633
 20
-184.6494
 10
941.8582
 20
-184.4029
 10
942.151
 20
-184.1753
 10
942.4418
 20
-183.9669
 10
942.7307
 20
-183.7776
 10
943.0178
 20
-183.6077
 10
943.3093
 20
-183.4555
 10
943.6066
 20
-183.3237
 10
943.9097
 20
-183.2124
 10
944.2188
 20
-183.1214
 10
944.534
 20
-183.0508
 10
944.8555
 20
-183.0004
 10
945.1835
 20
-182.9702
 10
945.5179
 20
-182.9601
 10
945.7701
 20
-182.9647
 10
946.0162
 20
-182.9786
 10
946.2565
 20
-183.0017
 10
946.4908
 20
-183.0341
 10
946.7194
 20
-183.0757
 10
946.9421
 20
-183.1266
 10
947.1592
 20
-183.1867
 10
947.3706
 20
-183.2561
 10
947.576
 20
-183.3361
 10
947.775
 20
-183.4271
 10
947.9674
 20
-183.5292
 10
948.1531
 20
-183.6426
 10
948.3321
 20
-183.7672
 10
948.5042
 20
-183.9033
 10
948.6694
 20
-184.0511
 10
948.8276
 20
-184.2105
 10
948.9837
 20
-184.3842
 10
949.1306
 20
-184.5676
 10
949.2681
 20
-184.761
 10
949.3963
 20
-184.9645
 10
949.5152
 20
-185.1785
 10
949.6248
 20
-185.4031
 10
949.7251
 20
-185.6385
 10
949.816
 20
-185.885
 10
949.8975
 20
-186.1423
 10
949.9681
 20
-186.4159
 10
950.0279
 20
-186.7056
 10
950.0768
 20
-187.0116
 10
950.1148
 20
-187.3338
 10
950.142
 20
-187.6724
 10
950.1583
 20
-188.0272
 10
950.1637
 20
-188.3983
 10
950.1637
 20
-198.0768
 10
947.4948
 20
-198.0768
  0
LWPOLYLINE
  5
BF
330
1F
100
AcDbEntity
  8
Layer 1
 62
     7
370
    18
100
AcDbPolyline
 90
        2
 70
     0
 43
0.0
 10
1086.7854
 20
133.007
 10
958.0183
 20
133.007
  0
LWPOLYLINE
  5
C0
330
1F
100
AcDbEntity
  8
Layer 1
 62
     7
370
    18
100
AcDbPolyline
 90
        2
 70
     0
 43
0.0
 10
1086.7854
 20
-117.2275
 10
958.0183
 20
-117.2275
  0
LWPOLYLINE
  5
C1
330
1F
100
AcDbEntity
  8
Layer 1
 62
     7
370
    18
100
AcDbPolyline
 90
        2
 70
     0
 43
0.0
 10
1065.3493
 20
-112.9749
 10
1065.3493
 20
129.0243
  0
LWPOLYLINE
  5
C2
330
1F
100
AcDbEntity
  8
Layer 1
 62
     7
100
AcDbPolyline
 90
      292
 70
     1
 43
0.0
 10
1077.9739
 20
-11.2174
 10
1077.9768
 20
-11.3949
 10
1077.9854
 20
-11.5723
 10
1077.9998
 20
-11.7497
 10
1078.02
 20
-11.9273
 10
1078.0461
 20
-12.1051
 10
1078.0779
 20
-12.2831
 10
1078.1157
 20
-12.4616
 10
1078.1593
 20
-12.6406
 10
1078.2584
 20
-12.9937
 10
1078.372
 20
-13.3444
 10
1078.5006
 20
-13.6917
 10
1078.6444
 20
-14.0344
 10
1078.7884
 20
-14.3411
 10
1078.9367
 20
-14.6273
 10
1079.0887
 20
-14.8926
 10
1079.2438
 20
-15.1369
 10
1079.8282
 20
-15.9726
 10
1079.8282
 20
-16.1299
 10
1076.8431
 20
-16.1299
 10
1076.7199
 20
-15.9062
 10
1076.5997
 20
-15.6632
 10
1076.4828
 20
-15.4008
 10
1076.3689
 20
-15.1194
 10
1076.2583
 20
-14.8189
 10
1076.1509
 20
-14.4995
 10
1076.0467
 20
-14.1614
 10
1075.9457
 20
-13.8047
 10
1075.8498
 20
-13.4386
 10
1075.7668
 20
-13.077
 10
1075.6968
 20
-12.7199
 10
1075.6396
 20
-12.3673
 10
1075.5952
 20
-12.0191
 10
1075.5636
 20
-11.6754
 10
1075.5447
 20
-11.3362
 10
1075.5384
 20
-11.0015
 10
1075.543
 20
-10.6732
 10
1075.5567
 20
-10.3556
 10
1075.5795
 20
-10.0486
 10
1075.6115
 20
-9.752
 10
1075.6525
 20
-9.466
 10
1075.7026
 20
-9.1904
 10
1075.7617
 20
-8.9251
 10
1075.8298
 20
-8.6702
 10
1075.9068
 20
-8.4254
 10
1075.9938
 20
-8.1861
 10
1076.0908
 20
-7.9523
 10
1076.198
 20
-7.7242
 10
1076.3153
 20
-7.5019
 10
1076.4428
 20
-7.2855
 10
1076.5806
 20
-7.0751
 10
1076.7288
 20
-6.8708
 10
1076.9016
 20
-6.6601
 10
1077.0834
 20
-6.4628
 10
1077.2742
 20
-6.2788
 10
1077.4741
 20
-6.1081
 10
1077.683
 20
-5.9507
 10
1077.9011
 20
-5.8064
 10
1078.1283
 20
-5.6752
 10
1078.3646
 20
-5.5571
 10
1078.6105
 20
-5.4541
 10
1078.8666
 20
-5.3648
 10
1079.1326
 20
-5.2893
 10
1079.4087
 20
-5.2275
 10
1079.6948
 20
-5.1794
 10
1079.9909
 20
-5.1451
 10
1080.297
 20
-5.1245
 10
1080.613
 20
-5.1176
 10
1081.0405
 20
-5.1342
 10
1081.4549
 20
-5.1842
 10
1081.8563
 20
-5.2676
 10
1082.2445
 20
-5.3844
 10
1082.6196
 20
-5.5347
 10
1082.9816
 20
-5.7187
 10
1083.3304
 20
-5.9363
 10
1083.6661
 20
-6.1877
 10
1083.9802
 20
-6.461
 10
1084.2643
 20
-6.7479
 10
1084.5184
 20
-7.0481
 10
1084.7425
 20
-7.3617
 10
1084.9366
 20
-7.6885
 10
1085.1006
 20
-8.0284
 10
1085.2345
 20
-8.3814
 10
1085.3383
 20
-8.7473
 10
1085.5337
 20
-8.7473
 10
1085.5685
 20
-8.5909
 10
1085.6093
 20
-8.4318
 10
1085.656
 20
-8.27
 10
1085.7086
 20
-8.1054
 10
1085.8306
 20
-7.7681
 10
1085.9741
 20
-7.4197
 10
1086.0568
 20
-7.2455
 10
1086.1484
 20
-7.0745
 10
1086.2491
 20
-6.9065
 10
1086.359
 20
-6.7417
 10
1086.4783
 20
-6.5798
 10
1086.6069
 20
-6.421
 10
1086.7451
 20
-6.2651
 10
1086.893
 20
-6.1122
 10
1087.051
 20
-5.9637
 10
1087.2194
 20
-5.8224
 10
1087.3985
 20
-5.6882
 10
1087.5882
 20
-5.561
 10
1087.7887
 20
-5.4407
 10
1088.0002
 20
-5.3272
 10
1088.2225
 20
-5.2206
 10
1088.456
 20
-5.1207
 10
1088.7024
 20
-5.0308
 10
1088.9613
 20
-4.953
 10
1089.2329
 20
-4.8873
 10
1089.5173
 20
-4.8335
 10
1089.8147
 20
-4.7918
 10
1090.1254
 20
-4.7621
 10
1090.4495
 20
-4.7442
 10
1090.7872
 20
-4.7383
 10
1091.1405
 20
-4.7455
 10
1091.4865
 20
-4.7669
 10
1091.8252
 20
-4.8026
 10
1092.1568
 20
-4.8524
 10
1092.4815
 20
-4.9165
 10
1092.7993
 20
-4.9946
 10
1093.1103
 20
-5.0869
 10
1093.4147
 20
-5.1932
 10
1093.709
 20
-5.3139
 10
1093.9947
 20
-5.4459
 10
1094.2719
 20
-5.5893
 10
1094.5406
 20
-5.7442
 10
1094.8009
 20
-5.9105
 10
1095.053
 20
-6.0884
 10
1095.2968
 20
-6.2779
 10
1095.5324
 20
-6.4791
 10
1095.7639
 20
-6.6995
 10
1095.9814
 20
-6.9306
 10
1096.1848
 20
-7.1725
 10
1096.3739
 20
-7.4255
 10
1096.5485
 20
-7.6895
 10
1096.7086
 20
-7.9649
 10
1096.854
 20
-8.2516
 10
1096.9844
 20
-8.5499
 10
1097.1014
 20
-8.8585
 10
1097.2029
 20
-9.1773
 10
1097.2889
 20
-9.5062
 10
1097.3592
 20
-9.8453
 10
1097.4139
 20
-10.1945
 10
1097.4531
 20
-10.554
 10
1097.4766
 20
-10.9237
 10
1097.4844
 20
-11.3037
 10
1097.4784
 20
-11.6728
 10
1097.4605
 20
-12.0409
 10
1097.4305
 20
-12.4082
 10
1097.3886
 20
-12.7747
 10
1097.3346
 20
-13.1403
 10
1097.2686
 20
-13.505
 10
1097.1905
 20
-13.8688
 10
1097.1003
 20
-14.2318
 10
1097.0024
 20
-14.587
 10
1096.8998
 20
-14.9276
 10
1096.7925
 20
-15.2537
 10
1096.6802
 20
-15.5654
 10
1096.5627
 20
-15.8629
 10
1096.44
 20
-16.1462
 10
1096.3118
 20
-16.4156
 10
1096.1781
 20
-16.6711
 10
1093.1912
 20
-16.6711
 10
1093.1912
 20
-16.4861
 10
1093.3553
 20
-16.2697
 10
1093.5173
 20
-16.0356
 10
1093.6772
 20
-15.7839
 10
1093.8353
 20
-15.5145
 10
1093.9914
 20
-15.2274
 10
1094.1458
 20
-14.9225
 10
1094.2985
 20
-14.5999
 10
1094.4495
 20
-14.2596
 10
1094.5902
 20
-13.9088
 10
1094.7119
 20
-13.5584
 10
1094.8147
 20
-13.2083
 10
1094.8986
 20
-12.8585
 10
1094.9637
 20
-12.509
 10
1095.0102
 20
-12.1595
 10
1095.038
 20
-11.8102
 10
1095.0472
 20
-11.461
 10
1095.0429
 20
-11.2596
 10
1095.0299
 20
-11.0581
 10
1095.0083
 20
-10.8563
 10
1094.9781
 20
-10.6544
 10
1094.9394
 20
-10.4524
 10
1094.8922
 20
-10.2504
 10
1094.8365
 20
-10.0485
 10
1094.7724
 20
-9.8466
 10
1094.6983
 20
-9.6478
 10
1094.6127
 20
-9.4573
 10
1094.5158
 20
-9.2751
 10
1094.4078
 20
-9.1013
 10
1094.2886
 20
-8.936
 10
1094.1587
 20
-8.7792
 10
1094.018
 20
-8.6309
 10
1093.8667
 20
-8.4913
 10
1093.7093
 20
-8.3635
 10
1093.5477
 20
-8.2438
 10
1093.3818
 20
-8.132
 10
1093.2117
 20
-8.0282
 10
1093.0375
 20
-7.9322
 10
1092.8593
 20
-7.8441
 10
1092.6771
 20
-7.7638
 10
1092.4909
 20
-7.6911
 10
1092.2972
 20
-7.6259
 10
1092.091
 20
-7.5692
 10
1091.8722
 20
-7.5209
 10
1091.6409
 20
-7.4813
 10
1091.3969
 20
-7.4504
 10
1091.1402
 20
-7.4282
 10
1090.8708
 20
-7.4149
 10
1090.5885
 20
-7.4104
 10
1090.309
 20
-7.4153
 10
1090.042
 20
-7.43
 10
1089.7873
 20
-7.4545
 10
1089.5452
 20
-7.4887
 10
1089.3158
 20
-7.5325
 10
1089.0991
 20
-7.5861
 10
1088.8952
 20
-7.6492
 10
1088.7043
 20
-7.7219
 10
1088.5236
 20
-7.8037
 10
1088.3527
 20
-7.8929
 10
1088.1919
 20
-7.9897
 10
1088.0411
 20
-8.0941
 10
1087.9004
 20
-8.2063
 10
1087.77
 20
-8.3262
 10
1087.65
 20
-8.4541
 10
1087.5404
 20
-8.59
 10
1087.4371
 20
-8.7319
 10
1087.3421
 20
-8.8801
 10
1087.2556
 20
-9.0345
 10
1087.1774
 20
-9.1954
 10
1087.1078
 20
-9.3627
 10
1087.0468
 20
-9.5365
 10
1086.9945
 20
-9.7168
 10
1086.951
 20
-9.9037
 10
1086.912
 20
-10.0963
 10
1086.8783
 20
-10.2926
 10
1086.8498
 20
-10.4926
 10
1086.8266
 20
-10.6964
 10
1086.8085
 20
-10.904
 10
1086.7957
 20
-11.1155
 10
1086.788
 20
-11.331
 10
1086.7854
 20
-11.5504
 10
1086.7854
 20
-12.676
 10
1084.4393
 20
-12.676
 10
1084.4393
 20
-11.8018
 10
1084.4252
 20
-11.3669
 10
1084.383
 20
-10.9527
 10
1084.3126
 20
-10.5594
 10
1084.2139
 20
-10.1868
 10
1084.0869
 20
-9.8352
 10
1083.9315
 20
-9.5045
 10
1083.7476
 20
-9.1947
 10
1083.5353
 20
-8.9061
 10
1083.2954
 20
-8.6448
 10
1083.0301
 20
-8.4181
 10
1082.7395
 20
-8.2263
 10
1082.4233
 20
-8.0693
 10
1082.0816
 20
-7.947
 10
1081.7144
 20
-7.8597
 10
1081.3214
 20
-7.8073
 10
1080.9028
 20
-7.7898
 10
1080.7082
 20
-7.7942
 10
1080.5206
 20
-7.8073
 10
1080.34
 20
-7.8293
 10
1080.1662
 20
-7.8603
 10
1079.9994
 20
-7.9004
 10
1079.8395
 20
-7.9498
 10
1079.6864
 20
-8.0084
 10
1079.5402
 20
-8.0765
 10
1079.399
 20
-8.1518
 10
1079.2658
 20
-8.232
 10
1079.1404
 20
-8.317
 10
1079.0227
 20
-8.4069
 10
1078.9125
 20
-8.5015
 10
1078.8095
 20
-8.6008
 10
1078.7136
 20
-8.7049
 10
1078.6246
 20
-8.8136
 10
1078.5363
 20
-8.9422
 10
1078.4552
 20
-9.0735
 10
1078.3812
 20
-9.2077
 10
1078.3141
 20
-9.3448
 10
1078.2539
 20
-9.4847
 10
1078.2004
 20
-9.6276
 10
1078.1534
 20
-9.7734
 10
1078.113
 20
-9.9222
 10
1078.0528
 20
-10.2312
 10
1078.0093
 20
-10.5501
 10
1077.9828
 20
-10.8788
 10
1077.9739
 20
-11.2174
  0
LWPOLYLINE
  5
C3
330
1F
100
AcDbEntity
  8
Layer 1
 62
     7
100
AcDbPolyline
 90
        8
 70
     1
 43
0.0
 10
1079.1196
 20
12.2225
 10
1097.0473
 20
3.7452
 10
1097.0473
 20
0.9389
 10
1078.4358
 20
9.8912
 10
1078.4358
 20
-0.2221
 10
1075.9755
 20
-0.2221
 10
1075.9755
 20
12.2225
 10
1079.1196
 20
12.2225
  0
LWPOLYLINE
  5
C4
330
1F
100
AcDbEntity
  8
Layer 1
 62
     7
100
AcDbPolyline
 90
       65
 70
     1
 43
0.0
 10
1086.494
 20
28.5636
 10
1087.8656
 20
28.5395
 10
1089.143
 20
28.4674
 10
1090.3262
 20
28.3473
 10
1091.4153
 20
28.1793
 10
1092.4102
 20
27.9634
 10
1093.3111
 20
27.6997
 10
1094.1178
 20
27.3884
 10
1094.8304
 20
27.0294
 10
1095.4516
 20
26.6184
 10
1095.9904
 20
26.1556
 10
1096.4465
 20
25.6409
 10
1096.8199
 20
25.0743
 10
1097.1105
 20
24.4556
 10
1097.3181
 20
23.7848
 10
1097.4428
 20
23.0618
 10
1097.4844
 20
22.2865
 10
1097.442
 20
21.502
 10
1097.3148
 20
20.772
 10
1097.1029
 20
20.0962
 10
1096.8064
 20
19.4747
 10
1096.4255
 20
18.9071
 10
1095.9603
 20
18.3934
 10
1095.4109
 20
17.9333
 10
1094.7774
 20
17.5267
 10
1094.0565
 20
17.1712
 10
1093.2473
 20
16.8631
 10
1092.3494
 20
16.6026
 10
1091.3628
 20
16.3895
 10
1090.2871
 20
16.2239
 10
1089.1222
 20
16.1056
 10
1087.8678
 20
16.0346
 10
1086.5238
 20
16.011
 10
1085.1461
 20
16.0351
 10
1083.864
 20
16.1072
 10
1082.6776
 20
16.2273
 10
1081.587
 20
16.3953
 10
1080.5921
 20
16.6112
 10
1079.693
 20
16.8748
 10
1078.8898
 20
17.1862
 10
1078.1825
 20
17.5452
 10
1077.5626
 20
17.9556
 10
1077.0255
 20
18.418
 10
1076.571
 20
18.9325
 10
1076.1992
 20
19.4989
 10
1075.9101
 20
20.1175
 10
1075.7036
 20
20.7883
 10
1075.5797
 20
21.5112
 10
1075.5384
 20
22.2865
 10
1075.5812
 20
23.0711
 10
1075.7096
 20
23.8013
 10
1075.9235
 20
24.4772
 10
1076.2228
 20
25.0991
 10
1076.6074
 20
25.667
 10
1077.0771
 20
26.181
 10
1077.632
 20
26.6412
 10
1078.2719
 20
27.0479
 10
1078.9985
 20
27.4034
 10
1079.8111
 20
27.7115
 10
1080.7097
 20
27.972
 10
1081.6944
 20
28.1851
 10
1082.7652
 20
28.3507
 10
1083.922
 20
28.469
 10
1085.1649
 20
28.54
 10
1086.494
 20
28.5636
  0
LWPOLYLINE
  5
C5
330
1F
100
AcDbEntity
  8
Layer 1
 62
     7
100
AcDbPolyline
 90
      129
 70
     1
 43
0.0
 10
1092.9147
 20
25.1883
 10
1092.6448
 20
25.2808
 10
1092.3576
 20
25.3664
 10
1092.0532
 20
25.445
 10
1091.7313
 20
25.5168
 10
1091.3919
 20
25.5815
 10
1091.0349
 20
25.6393
 10
1090.66
 20
25.6902
 10
1090.2673
 20
25.7342
 10
1089.8602
 20
25.7702
 10
1089.4349
 20
25.8017
 10
1088.9912
 20
25.8286
 10
1088.529
 20
25.8509
 10
1088.0483
 20
25.8685
 10
1087.549
 20
25.8811
 10
1087.0309
 20
25.8888
 10
1086.494
 20
25.8914
 10
1085.9631
 20
25.8888
 10
1085.4495
 20
25.8811
 10
1084.9534
 20
25.8685
 10
1084.4749
 20
25.8509
 10
1084.0141
 20
25.8286
 10
1083.571
 20
25.8017
 10
1083.1459
 20
25.7702
 10
1082.7389
 20
25.7342
 10
1082.3465
 20
25.6901
 10
1081.9714
 20
25.6388
 10
1081.6136
 20
25.5802
 10
1081.273
 20
25.5144
 10
1080.9496
 20
25.4414
 10
1080.6432
 20
25.3612
 10
1080.3539
 20
25.2738
 10
1080.0816
 20
25.1791
 10
1079.8199
 20
25.075
 10
1079.5747
 20
24.9618
 10
1079.3461
 20
24.8394
 10
1079.1339
 20
24.7079
 10
1078.9379
 20
24.5673
 10
1078.7579
 20
24.4178
 10
1078.594
 20
24.2594
 10
1078.4458
 20
24.0921
 10
1078.3154
 20
23.911
 10
1078.2024
 20
23.7171
 10
1078.1068
 20
23.5105
 10
1078.0285
 20
23.291
 10
1077.9677
 20
23.0589
 10
1077.9242
 20
22.8141
 10
1077.8981
 20
22.5566
 10
1077.8894
 20
22.2865
 10
1077.8981
 20
22.019
 10
1077.9242
 20
21.7634
 10
1077.9677
 20
21.5199
 10
1078.0285
 20
21.2885
 10
1078.1068
 20
21.0695
 10
1078.2024
 20
20.8628
 10
1078.3154
 20
20.6686
 10
1078.4458
 20
20.4871
 10
1078.5944
 20
20.3147
 10
1078.7597
 20
20.1516
 10
1078.9417
 20
19.9978
 10
1079.1405
 20
19.8534
 10
1079.3562
 20
19.7185
 10
1079.5887
 20
19.5933
 10
1079.8382
 20
19.4779
 10
1080.1047
 20
19.3723
 10
1080.3834
 20
19.2768
 10
1080.6792
 20
19.189
 10
1080.9922
 20
19.1091
 10
1081.3225
 20
19.037
 10
1081.6702
 20
18.9726
 10
1082.0354
 20
18.9161
 10
1082.4181
 20
18.8674
 10
1082.8184
 20
18.8265
 10
1083.2369
 20
18.7938
 10
1083.6679
 20
18.7651
 10
1084.1116
 20
18.7405
 10
1084.5681
 20
18.7201
 10
1085.0374
 20
18.7041
 10
1085.5197
 20
18.6925
 10
1086.0151
 20
18.6855
 10
1086.5238
 20
18.6831
 10
1087.0644
 20
18.6851
 10
1087.5825
 20
18.6909
 10
1088.0779
 20
18.7007
 10
1088.5508
 20
18.7143
 10
1089.0012
 20
18.7319
 10
1089.4291
 20
18.7533
 10
1089.8345
 20
18.7787
 10
1090.2176
 20
18.808
 10
1090.582
 20
18.8435
 10
1090.9373
 20
18.8886
 10
1091.2836
 20
18.9432
 10
1091.6206
 20
19.0075
 10
1091.9482
 20
19.0811
 10
1092.2663
 20
19.1642
 10
1092.5747
 20
19.2566
 10
1092.8733
 20
19.3584
 10
1093.1376
 20
19.458
 10
1093.3864
 20
19.5682
 10
1093.6197
 20
19.6889
 10
1093.8373
 20
19.8201
 10
1094.0393
 20
19.9615
 10
1094.2256
 20
20.1132
 10
1094.396
 20
20.2751
 10
1094.5505
 20
20.447
 10
1094.6883
 20
20.6296
 10
1094.8074
 20
20.8259
 10
1094.9079
 20
21.0358
 10
1094.9899
 20
21.2592
 10
1095.0535
 20
21.496
 10
1095.0989
 20
21.7463
 10
1095.126
 20
22.0098
 10
1095.135
 20
22.2865
 10
1095.1261
 20
22.5536
 10
1095.0995
 20
22.8091
 10
1095.0552
 20
23.0528
 10
1094.9934
 20
23.2847
 10
1094.9143
 20
23.5047
 10
1094.8179
 20
23.7126
 10
1094.7043
 20
23.9084
 10
1094.5737
 20
24.0921
 10
1094.4262
 20
24.2622
 10
1094.2617
 20
24.4232
 10
1094.0801
 20
24.5749
 10
1093.8815
 20
24.7171
 10
1093.6656
 20
24.8497
 10
1093.4326
 20
24.9726
 10
1093.1823
 20
25.0855
 10
1092.9147
 20
25.1883
  0
LWPOLYLINE
  5
C6
330
1F
100
AcDbEntity
  8
Layer 1
 62
     7
100
AcDbPolyline
 90
      190
 70
     1
 43
0.0
 10
1097.0473
 20
49.8433
 10
1087.9046
 20
49.8433
 10
1087.6363
 20
49.842
 10
1087.3729
 20
49.8381
 10
1087.1142
 20
49.8317
 10
1086.8603
 20
49.8227
 10
1086.6113
 20
49.8111
 10
1086.367
 20
49.7971
 10
1086.1276
 20
49.7806
 10
1085.893
 20
49.7616
 10
1085.6672
 20
49.7407
 10
1085.454
 20
49.7137
 10
1085.2535
 20
49.681
 10
1085.0656
 20
49.6425
 10
1084.8902
 20
49.5983
 10
1084.7274
 20
49.5486
 10
1084.5771
 20
49.4935
 10
1084.4393
 20
49.4331
 10
1084.3025
 20
49.3645
 10
1084.1753
 20
49.2885
 10
1084.0576
 20
49.2051
 10
1083.9492
 20
49.1145
 10
1083.8502
 20
49.0169
 10
1083.7604
 20
48.9125
 10
1083.6798
 20
48.8014
 10
1083.6082
 20
48.6838
 10
1083.5452
 20
48.5564
 10
1083.4906
 20
48.4181
 10
1083.4442
 20
48.2692
 10
1083.4062
 20
48.1096
 10
1083.3765
 20
47.9393
 10
1083.3553
 20
47.7585
 10
1083.3426
 20
47.5672
 10
1083.3383
 20
47.3654
 10
1083.3461
 20
47.1714
 10
1083.3697
 20
46.9744
 10
1083.409
 20
46.7743
 10
1083.4641
 20
46.571
 10
1083.5351
 20
46.3643
 10
1083.6219
 20
46.1542
 10
1083.7246
 20
45.9406
 10
1083.8433
 20
45.7233
 10
1083.9758
 20
45.5026
 10
1084.1226
 20
45.2801
 10
1084.2837
 20
45.0557
 10
1084.459
 20
44.8294
 10
1084.6485
 20
44.6012
 10
1084.8521
 20
44.3711
 10
1085.0699
 20
44.1392
 10
1085.3019
 20
43.9054
 10
1085.8731
 20
43.9409
 10
1086.6629
 20
43.9594
 10
1097.0473
 20
43.9594
 10
1097.0473
 20
41.4754
 10
1087.9046
 20
41.4754
 10
1087.6363
 20
41.4741
 10
1087.3729
 20
41.4702
 10
1087.1142
 20
41.4638
 10
1086.8603
 20
41.4548
 10
1086.6113
 20
41.4432
 10
1086.367
 20
41.4292
 10
1086.1276
 20
41.4127
 10
1085.893
 20
41.3937
 10
1085.6672
 20
41.3723
 10
1085.454
 20
41.3452
 10
1085.2535
 20
41.3125
 10
1085.0656
 20
41.2742
 10
1084.8902
 20
41.2304
 10
1084.7274
 20
41.1812
 10
1084.5771
 20
41.1266
 10
1084.4393
 20
41.0668
 10
1084.3025
 20
40.9969
 10
1084.1753
 20
40.9202
 10
1084.0576
 20
40.8366
 10
1083.9492
 20
40.7461
 10
1083.8502
 20
40.6487
 10
1083.7604
 20
40.5443
 10
1083.6798
 20
40.4329
 10
1083.6082
 20
40.3144
 10
1083.5452
 20
40.1875
 10
1083.4906
 20
40.0497
 10
1083.4442
 20
39.901
 10
1083.4062
 20
39.7416
 10
1083.3765
 20
39.5714
 10
1083.3553
 20
39.3907
 10
1083.3426
 20
39.1994
 10
1083.3383
 20
38.9976
 10
1083.3466
 20
38.7936
 10
1083.3716
 20
38.5876
 10
1083.4135
 20
38.3794
 10
1083.4722
 20
38.169
 10
1083.5479
 20
37.9564
 10
1083.6407
 20
37.7415
 10
1083.7507
 20
37.5243
 10
1083.878
 20
37.3046
 10
1084.0186
 20
37.0845
 10
1084.1683
 20
36.8661
 10
1084.3272
 20
36.6493
 10
1084.4954
 20
36.4342
 10
1084.6728
 20
36.2208
 10
1084.8594
 20
36.0092
 10
1085.0553
 20
35.7994
 10
1085.2605
 20
35.5915
 10
1097.0473
 20
35.5915
 10
1097.0473
 20
33.1075
 10
1081.2505
 20
33.1075
 10
1081.2505
 20
35.5915
 10
1083.0088
 20
35.5915
 10
1082.7547
 20
35.8352
 10
1082.5153
 20
36.0784
 10
1082.2905
 20
36.3209
 10
1082.0804
 20
36.5629
 10
1081.8851
 20
36.8043
 10
1081.7045
 20
37.0452
 10
1081.5388
 20
37.2854
 10
1081.3879
 20
37.5251
 10
1081.254
 20
37.7679
 10
1081.1377
 20
38.0165
 10
1081.0393
 20
38.2709
 10
1080.9587
 20
38.5311
 10
1080.8959
 20
38.7971
 10
1080.851
 20
39.0689
 10
1080.824
 20
39.3465
 10
1080.815
 20
39.6298
 10
1080.8249
 20
39.9513
 10
1080.8548
 20
40.2638
 10
1080.9046
 20
40.5671
 10
1080.9744
 20
40.8614
 10
1081.0642
 20
41.1465
 10
1081.1741
 20
41.4225
 10
1081.304
 20
41.6894
 10
1081.4541
 20
41.9472
 10
1081.6259
 20
42.1913
 10
1081.8232
 20
42.4207
 10
1082.046
 20
42.6351
 10
1082.2944
 20
42.8346
 10
1082.5682
 20
43.019
 10
1082.8674
 20
43.1883
 10
1083.192
 20
43.3425
 10
1083.5419
 20
43.4814
 10
1083.2177
 20
43.7624
 10
1082.9132
 20
44.0412
 10
1082.6286
 20
44.3179
 10
1082.3641
 20
44.5925
 10
1082.1199
 20
44.8652
 10
1081.896
 20
45.136
 10
1081.6928
 20
45.405
 10
1081.5104
 20
45.6724
 10
1081.3474
 20
45.9435
 10
1081.2062
 20
46.2201
 10
1081.0866
 20
46.5023
 10
1080.9889
 20
46.7903
 10
1080.9128
 20
47.0841
 10
1080.8585
 20
47.3837
 10
1080.8259
 20
47.6892
 10
1080.815
 20
48.0007
 10
1080.82
 20
48.2352
 10
1080.8351
 20
48.4644
 10
1080.8602
 20
48.6883
 10
1080.8953
 20
48.9068
 10
1080.9403
 20
49.1199
 10
1080.9952
 20
49.3275
 10
1081.06
 20
49.5296
 10
1081.1346
 20
49.7261
 10
1081.22
 20
49.9178
 10
1081.3173
 20
50.1033
 10
1081.4266
 20
50.2826
 10
1081.5481
 20
50.4556
 10
1081.6818
 20
50.6223
 10
1081.828
 20
50.7827
 10
1081.9866
 20
50.9368
 10
1082.1578
 20
51.0845
 10
1082.3443
 20
51.2289
 10
1082.5414
 20
51.3649
 10
1082.7493
 20
51.4925
 10
1082.9682
 20
51.6117
 10
1083.1983
 20
51.7223
 10
1083.4397
 20
51.8246
 10
1083.6927
 20
51.9183
 10
1083.9575
 20
52.0035
 10
1084.2338
 20
52.0794
 10
1084.5275
 20
52.1451
 10
1084.8385
 20
52.2008
 10
1085.167
 20
52.2463
 10
1085.5128
 20
52.2817
 10
1085.876
 20
52.3071
 10
1086.2566
 20
52.3222
 10
1086.6546
 20
52.3273
 10
1097.0473
 20
52.3273
 10
1097.0473
 20
49.8433
  0
LWPOLYLINE
  5
C7
330
1F
100
AcDbEntity
  8
Layer 1
 62
     7
100
AcDbPolyline
 90
      190
 70
     1
 43
0.0
 10
1097.0473
 20
74.2022
 10
1087.9046
 20
74.2022
 10
1087.6363
 20
74.2009
 10
1087.3729
 20
74.197
 10
1087.1142
 20
74.1906
 10
1086.8603
 20
74.1816
 10
1086.6113
 20
74.17
 10
1086.367
 20
74.156
 10
1086.1276
 20
74.1395
 10
1085.893
 20
74.1205
 10
1085.6672
 20
74.0996
 10
1085.454
 20
74.0726
 10
1085.2535
 20
74.0399
 10
1085.0656
 20
74.0014
 10
1084.8902
 20
73.9572
 10
1084.7274
 20
73.9075
 10
1084.5771
 20
73.8524
 10
1084.4393
 20
73.792
 10
1084.3025
 20
73.7234
 10
1084.1753
 20
73.6474
 10
1084.0576
 20
73.564
 10
1083.9492
 20
73.4734
 10
1083.8502
 20
73.3758
 10
1083.7604
 20
73.2714
 10
1083.6798
 20
73.1603
 10
1083.6082
 20
73.0427
 10
1083.5452
 20
72.9153
 10
1083.4906
 20
72.777
 10
1083.4442
 20
72.628
 10
1083.4062
 20
72.4683
 10
1083.3765
 20
72.2979
 10
1083.3553
 20
72.1168
 10
1083.3426
 20
71.9251
 10
1083.3383
 20
71.7228
 10
1083.3461
 20
71.5293
 10
1083.3697
 20
71.3327
 10
1083.409
 20
71.1328
 10
1083.4641
 20
70.9297
 10
1083.5351
 20
70.7231
 10
1083.6219
 20
70.5131
 10
1083.7246
 20
70.2995
 10
1083.8433
 20
70.0822
 10
1083.9758
 20
69.8615
 10
1084.1226
 20
69.639
 10
1084.2837
 20
69.4146
 10
1084.459
 20
69.1883
 10
1084.6485
 20
68.9601
 10
1084.8521
 20
68.73
 10
1085.0699
 20
68.4981
 10
1085.3019
 20
68.2643
 10
1085.8731
 20
68.2998
 10
1086.6629
 20
68.3183
 10
1097.0473
 20
68.3183
 10
1097.0473
 20
65.8343
 10
1087.9046
 20
65.8343
 10
1087.6363
 20
65.833
 10
1087.3729
 20
65.8291
 10
1087.1142
 20
65.8227
 10
1086.8603
 20
65.8137
 10
1086.6113
 20
65.8021
 10
1086.367
 20
65.7881
 10
1086.1276
 20
65.7716
 10
1085.893
 20
65.7526
 10
1085.6672
 20
65.7312
 10
1085.454
 20
65.7041
 10
1085.2535
 20
65.6713
 10
1085.0656
 20
65.6329
 10
1084.8902
 20
65.5889
 10
1084.7274
 20
65.5394
 10
1084.5771
 20
65.4845
 10
1084.4393
 20
65.4241
 10
1084.3025
 20
65.3547
 10
1084.1753
 20
65.2782
 10
1084.0576
 20
65.1947
 10
1083.9492
 20
65.1042
 10
1083.8502
 20
65.0068
 10
1083.7604
 20
64.9024
 10
1083.6798
 20
64.7912
 10
1083.6082
 20
64.6732
 10
1083.5452
 20
64.5463
 10
1083.4906
 20
64.4085
 10
1083.4442
 20
64.2598
 10
1083.4062
 20
64.1004
 10
1083.3765
 20
63.9303
 10
1083.3553
 20
63.7496
 10
1083.3426
 20
63.5583
 10
1083.3383
 20
63.3565
 10
1083.3466
 20
63.1525
 10
1083.3716
 20
62.9465
 10
1083.4135
 20
62.7383
 10
1083.4722
 20
62.5279
 10
1083.5479
 20
62.3153
 10
1083.6407
 20
62.1004
 10
1083.7507
 20
61.8832
 10
1083.878
 20
61.6635
 10
1084.0186
 20
61.4434
 10
1084.1683
 20
61.225
 10
1084.3272
 20
61.0082
 10
1084.4954
 20
60.7931
 10
1084.6728
 20
60.5797
 10
1084.8594
 20
60.3681
 10
1085.0553
 20
60.1583
 10
1085.2605
 20
59.9504
 10
1097.0473
 20
59.9504
 10
1097.0473
 20
57.4664
 10
1081.2505
 20
57.4664
 10
1081.2505
 20
59.9504
 10
1083.0088
 20
59.9504
 10
1082.7547
 20
60.1941
 10
1082.5153
 20
60.4373
 10
1082.2905
 20
60.6798
 10
1082.0804
 20
60.9218
 10
1081.8851
 20
61.1632
 10
1081.7045
 20
61.4041
 10
1081.5388
 20
61.6443
 10
1081.3879
 20
61.884
 10
1081.254
 20
62.1268
 10
1081.1377
 20
62.3754
 10
1081.0393
 20
62.6298
 10
1080.9587
 20
62.89
 10
1080.8959
 20
63.156
 10
1080.851
 20
63.4278
 10
1080.824
 20
63.7053
 10
1080.815
 20
63.9886
 10
1080.8249
 20
64.3102
 10
1080.8548
 20
64.6227
 10
1080.9046
 20
64.926
 10
1080.9744
 20
65.2203
 10
1081.0642
 20
65.5054
 10
1081.1741
 20
65.7814
 10
1081.304
 20
66.0483
 10
1081.4541
 20
66.3061
 10
1081.6259
 20
66.5502
 10
1081.8232
 20
66.7796
 10
1082.046
 20
66.994
 10
1082.2944
 20
67.1935
 10
1082.5682
 20
67.3779
 10
1082.8674
 20
67.5472
 10
1083.192
 20
67.7014
 10
1083.5419
 20
67.8403
 10
1083.2177
 20
68.1213
 10
1082.9132
 20
68.4001
 10
1082.6286
 20
68.6768
 10
1082.3641
 20
68.9514
 10
1082.1199
 20
69.2241
 10
1081.896
 20
69.4949
 10
1081.6928
 20
69.7639
 10
1081.5104
 20
70.0313
 10
1081.3474
 20
70.3024
 10
1081.2062
 20
70.579
 10
1081.0866
 20
70.8612
 10
1080.9889
 20
71.149
 10
1080.9128
 20
71.4426
 10
1080.8585
 20
71.7419
 10
1080.8259
 20
72.0471
 10
1080.815
 20
72.3581
 10
1080.82
 20
72.5931
 10
1080.8351
 20
72.8226
 10
1080.8602
 20
73.0468
 10
1080.8953
 20
73.2655
 10
1080.9403
 20
73.4787
 10
1080.9952
 20
73.6864
 10
1081.06
 20
73.8885
 10
1081.1346
 20
74.085
 10
1081.22
 20
74.2763
 10
1081.3173
 20
74.4616
 10
1081.4266
 20
74.6408
 10
1081.5481
 20
74.8139
 10
1081.6818
 20
74.9808
 10
1081.828
 20
75.1414
 10
1081.9866
 20
75.2956
 10
1082.1578
 20
75.4434
 10
1082.3443
 20
75.5878
 10
1082.5414
 20
75.7238
 10
1082.7493
 20
75.8514
 10
1082.9682
 20
75.9706
 10
1083.1983
 20
76.0812
 10
1083.4397
 20
76.1835
 10
1083.6927
 20
76.2772
 10
1083.9575
 20
76.3624
 10
1084.2338
 20
76.4383
 10
1084.5275
 20
76.504
 10
1084.8385
 20
76.5597
 10
1085.167
 20
76.6052
 10
1085.5128
 20
76.6406
 10
1085.876
 20
76.666
 10
1086.2566
 20
76.6811
 10
1086.6546
 20
76.6862
 10
1097.0473
 20
76.6862
 10
1097.0473
 20
74.2022
  0
LWPOLYLINE
  5
C8
330
1F
100
AcDbEntity
  8
Layer 1
 62
     7
100
AcDbPolyline
 90
      129
 70
     1
 43
0.0
 10
717.0888
 20
272.0045
 10
716.6803
 20
272.1558
 10
716.2992
 20
272.3229
 10
715.9455
 20
272.5055
 10
715.6189
 20
272.7037
 10
715.3196
 20
272.9172
 10
715.0473
 20
273.1458
 10
714.802
 20
273.3895
 10
714.5837
 20
273.6481
 10
714.3934
 20
273.9224
 10
714.2285
 20
274.2098
 10
714.0891
 20
274.5103
 10
713.975
 20
274.8238
 10
713.8863
 20
275.1503
 10
713.823
 20
275.4899
 10
713.7851
 20
275.8423
 10
713.7724
 20
276.2077
 10
713.7993
 20
276.7584
 10
713.88
 20
277.2864
 10
714.0146
 20
277.7918
 10
714.2033
 20
278.2748
 10
714.4462
 20
278.7352
 10
714.7433
 20
279.1732
 10
715.0949
 20
279.5889
 10
715.501
 20
279.9822
 10
715.9521
 20
280.3413
 10
716.4387
 20
280.6528
 10
716.9609
 20
280.9167
 10
717.5188
 20
281.1329
 10
718.1126
 20
281.3012
 10
718.7424
 20
281.4216
 10
719.4083
 20
281.4939
 10
720.1104
 20
281.518
 10
720.8145
 20
281.4935
 10
721.4836
 20
281.42
 10
722.1178
 20
281.2975
 10
722.7168
 20
281.126
 10
723.2806
 20
280.9054
 10
723.8091
 20
280.6359
 10
724.3021
 20
280.3174
 10
724.7595
 20
279.9498
 10
725.1727
 20
279.5473
 10
725.5305
 20
279.1237
 10
725.833
 20
278.679
 10
726.0804
 20
278.2131
 10
726.2726
 20
277.7258
 10
726.4098
 20
277.2172
 10
726.4921
 20
276.687
 10
726.5195
 20
276.1352
 10
726.5071
 20
275.7834
 10
726.4697
 20
275.443
 10
726.4074
 20
275.1138
 10
726.32
 20
274.7962
 10
726.2075
 20
274.4903
 10
726.0697
 20
274.1961
 10
725.9066
 20
273.9138
 10
725.7182
 20
273.6435
 10
725.5045
 20
273.3851
 10
725.2646
 20
273.1419
 10
724.9985
 20
272.914
 10
724.7062
 20
272.7014
 10
724.3876
 20
272.5041
 10
724.0427
 20
272.3221
 10
723.6717
 20
272.1556
 10
723.2744
 20
272.0045
 10
723.7662
 20
271.8383
 10
724.2274
 20
271.6485
 10
724.6579
 20
271.4351
 10
725.058
 20
271.1979
 10
725.4278
 20
270.9369
 10
725.7676
 20
270.6521
 10
726.0773
 20
270.3434
 10
726.3573
 20
270.0108
 10
726.6048
 20
269.6595
 10
726.8197
 20
269.2914
 10
727.0018
 20
268.9065
 10
727.151
 20
268.5047
 10
727.2672
 20
268.086
 10
727.3503
 20
267.6504
 10
727.4002
 20
267.1977
 10
727.4169
 20
266.7281
 10
727.3856
 20
266.0816
 10
727.2916
 20
265.4617
 10
727.1351
 20
264.8682
 10
726.9161
 20
264.3012
 10
726.6346
 20
263.7604
 10
726.2909
 20
263.2458
 10
725.8849
 20
262.7574
 10
725.4168
 20
262.2951
 10
724.8951
 20
261.874
 10
724.3344
 20
261.509
 10
723.7346
 20
261.2003
 10
723.0956
 20
260.9477
 10
722.4171
 20
260.7513
 10
721.699
 20
260.611
 10
720.9412
 20
260.5268
 10
720.1435
 20
260.4988
 10
719.3474
 20
260.5269
 10
718.5909
 20
260.6111
 10
717.8737
 20
260.7516
 10
717.196
 20
260.9485
 10
716.5575
 20
261.2018
 10
715.9582
 20
261.5116
 10
715.398
 20
261.8781
 10
714.8768
 20
262.3013
 10
714.4081
 20
262.7662
 10
714.0018
 20
263.2589
 10
713.6577
 20
263.7794
 10
713.3762
 20
264.3278
 10
713.157
 20
264.904
 10
713.0004
 20
265.5082
 10
712.9064
 20
266.1404
 10
712.8751
 20
266.8006
 10
712.8922
 20
267.2918
 10
712.9437
 20
267.7629
 10
713.0294
 20
268.2137
 10
713.1493
 20
268.6441
 10
713.3035
 20
269.0541
 10
713.4918
 20
269.4435
 10
713.7144
 20
269.8123
 10
713.9711
 20
270.1603
 10
714.26
 20
270.4861
 10
714.5777
 20
270.7845
 10
714.9242
 20
271.0558
 10
715.2996
 20
271.2998
 10
715.7037
 20
271.5166
 10
716.1367
 20
271.7063
 10
716.5984
 20
271.869
 10
717.0888
 20
272.0045
  0
LWPOLYLINE
  5
C9
330
1F
100
AcDbEntity
  8
Layer 1
 62
     7
100
AcDbPolyline
 90
       65
 70
     1
 43
0.0
 10
716.5474
 20
276.2986
 10
716.5631
 20
275.9405
 10
716.6103
 20
275.5993
 10
716.6888
 20
275.275
 10
716.7984
 20
274.9676
 10
716.9392
 20
274.6771
 10
717.1111
 20
274.4036
 10
717.3138
 20
274.1469
 10
717.5474
 20
273.9072
 10
717.8083
 20
273.6897
 10
718.0883
 20
273.5011
 10
718.3876
 20
273.3413
 10
718.7062
 20
273.2104
 10
719.0442
 20
273.1086
 10
719.4019
 20
273.0357
 10
719.7793
 20
272.992
 10
720.1766
 20
272.9774
 10
720.5627
 20
272.9918
 10
720.9302
 20
273.0349
 10
721.279
 20
273.1068
 10
721.6094
 20
273.2073
 10
721.9214
 20
273.3366
 10
722.215
 20
273.4945
 10
722.4905
 20
273.6811
 10
722.7479
 20
273.8964
 10
722.9823
 20
274.1335
 10
723.1851
 20
274.3833
 10
723.3565
 20
274.6461
 10
723.4965
 20
274.9217
 10
723.6052
 20
275.2104
 10
723.6827
 20
275.5122
 10
723.7291
 20
275.8271
 10
723.7446
 20
276.1552
 10
723.7286
 20
276.4964
 10
723.6806
 20
276.8239
 10
723.6004
 20
277.1376
 10
723.4882
 20
277.4375
 10
723.3437
 20
277.7236
 10
723.1669
 20
277.9959
 10
722.9579
 20
278.2543
 10
722.7164
 20
278.4989
 10
722.4544
 20
278.7207
 10
722.1752
 20
278.9129
 10
721.8788
 20
279.0756
 10
721.5653
 20
279.2088
 10
721.235
 20
279.3124
 10
720.8878
 20
279.3864
 10
720.5239
 20
279.4308
 10
720.1435
 20
279.4456
 10
719.7611
 20
279.431
 10
719.3961
 20
279.3873
 10
719.0483
 20
279.3145
 10
718.7177
 20
279.2128
 10
718.4041
 20
279.0821
 10
718.1074
 20
278.9226
 10
717.8273
 20
278.7344
 10
717.5639
 20
278.5174
 10
717.3263
 20
278.2799
 10
717.1201
 20
278.0311
 10
716.9454
 20
277.7709
 10
716.8023
 20
277.4994
 10
716.6909
 20
277.2164
 10
716.6112
 20
276.922
 10
716.5634
 20
276.6161
 10
716.5474
 20
276.2986
  0
LWPOLYLINE
  5
CA
330
1F
100
AcDbEntity
  8
Layer 1
 62
     7
100
AcDbPolyline
 90
       73
 70
     1
 43
0.0
 10
715.6549
 20
266.782
 10
715.6634
 20
266.5121
 10
715.6887
 20
266.2445
 10
715.731
 20
265.9793
 10
715.7901
 20
265.7164
 10
715.866
 20
265.4557
 10
715.9588
 20
265.1973
 10
716.0683
 20
264.9409
 10
716.1947
 20
264.6866
 10
716.3386
 20
264.442
 10
716.4996
 20
264.2114
 10
716.6778
 20
263.9948
 10
716.8733
 20
263.7923
 10
717.0861
 20
263.604
 10
717.3163
 20
263.4299
 10
717.5638
 20
263.2701
 10
717.8289
 20
263.1247
 10
718.1041
 20
262.995
 10
718.3844
 20
262.8825
 10
718.6698
 20
262.7871
 10
718.9601
 20
262.709
 10
719.2552
 20
262.6481
 10
719.555
 20
262.6045
 10
719.8594
 20
262.5783
 10
720.1683
 20
262.5696
 10
720.6466
 20
262.5878
 10
721.1031
 20
262.6424
 10
721.5377
 20
262.7334
 10
721.9505
 20
262.8608
 10
722.3414
 20
263.0245
 10
722.7106
 20
263.2246
 10
723.058
 20
263.461
 10
723.3837
 20
263.7337
 10
723.6786
 20
264.0345
 10
723.9337
 20
264.355
 10
724.1491
 20
264.6954
 10
724.3251
 20
265.0555
 10
724.4618
 20
265.4355
 10
724.5592
 20
265.8352
 10
724.6176
 20
266.2548
 10
724.637
 20
266.6942
 10
724.6168
 20
267.1411
 10
724.5563
 20
267.5681
 10
724.4554
 20
267.9753
 10
724.3141
 20
268.3627
 10
724.1325
 20
268.7302
 10
723.9106
 20
269.0778
 10
723.6483
 20
269.4054
 10
723.3456
 20
269.7132
 10
723.0114
 20
269.9934
 10
722.6559
 20
270.236
 10
722.2792
 20
270.4411
 10
721.8814
 20
270.6089
 10
721.4625
 20
270.7392
 10
721.0227
 20
270.8322
 10
720.562
 20
270.888
 10
720.0806
 20
270.9066
 10
719.6085
 20
270.8882
 10
719.1581
 20
270.8329
 10
718.7293
 20
270.7408
 10
718.3221
 20
270.6119
 10
717.9361
 20
270.4462
 10
717.5714
 20
270.2438
 10
717.2277
 20
270.0045
 10
716.905
 20
269.7286
 10
716.6112
 20
269.4246
 10
716.3569
 20
269.1023
 10
716.142
 20
268.7617
 10
715.9664
 20
268.4028
 10
715.83
 20
268.0254
 10
715.7327
 20
267.6295
 10
715.6743
 20
267.215
 10
715.6549
 20
266.782
  0
LWPOLYLINE
  5
CB
330
1F
100
AcDbEntity
  8
Layer 1
 62
     7
100
AcDbPolyline
 90
       38
 70
     1
 43
0.0
 10
740.265
 20
260.8442
 10
737.5463
 20
260.8442
 10
737.5463
 20
276.9555
 10
737.2919
 20
276.7361
 10
737.0181
 20
276.5174
 10
736.7249
 20
276.299
 10
736.4126
 20
276.0811
 10
736.0811
 20
275.8633
 10
735.7307
 20
275.6457
 10
735.3614
 20
275.428
 10
734.9734
 20
275.2101
 10
734.5813
 20
274.9994
 10
734.1988
 20
274.8022
 10
733.826
 20
274.6187
 10
733.4632
 20
274.4487
 10
733.1106
 20
274.2926
 10
732.7683
 20
274.1502
 10
732.4366
 20
274.0217
 10
732.1157
 20
273.9072
 10
732.1157
 20
276.3511
 10
732.6751
 20
276.6059
 10
733.2171
 20
276.8741
 10
733.7415
 20
277.1557
 10
734.2483
 20
277.4508
 10
734.7373
 20
277.7594
 10
735.2086
 20
278.0814
 10
735.6621
 20
278.4168
 10
736.0976
 20
278.7657
 10
736.5077
 20
279.1183
 10
736.8872
 20
279.4683
 10
737.236
 20
279.8158
 10
737.554
 20
280.1609
 10
737.841
 20
280.5036
 10
738.0969
 20
280.844
 10
738.3216
 20
281.1821
 10
738.5149
 20
281.518
 10
740.265
 20
281.518
 10
740.265
 20
260.8442
  0
LWPOLYLINE
  5
CC
330
1F
100
AcDbEntity
  8
Layer 1
 62
     7
100
AcDbPolyline
 90
       97
 70
     1
 43
0.0
 10
747.2453
 20
271.0038
 10
747.2579
 20
271.8927
 10
747.2958
 20
272.7381
 10
747.3588
 20
273.5397
 10
747.4469
 20
274.2973
 10
747.56
 20
275.0106
 10
747.6979
 20
275.6795
 10
747.8607
 20
276.3037
 10
748.0483
 20
276.883
 10
748.2634
 20
277.4254
 10
748.5026
 20
277.9356
 10
748.7659
 20
278.4136
 10
749.0535
 20
278.8593
 10
749.3654
 20
279.2728
 10
749.7017
 20
279.6541
 10
750.0623
 20
280.0031
 10
750.4474
 20
280.3199
 10
750.8554
 20
280.6007
 10
751.2895
 20
280.8441
 10
751.7498
 20
281.05
 10
752.2361
 20
281.2185
 10
752.7485
 20
281.3495
 10
753.2867
 20
281.4431
 10
753.8509
 20
281.4993
 10
754.4409
 20
281.518
 10
754.8781
 20
281.5076
 10
755.3018
 20
281.4763
 10
755.712
 20
281.4242
 10
756.1088
 20
281.3513
 10
756.4921
 20
281.2574
 10
756.8621
 20
281.1426
 10
757.2186
 20
281.0069
 10
757.5618
 20
280.8503
 10
757.891
 20
280.674
 10
758.2055
 20
280.4794
 10
758.505
 20
280.2663
 10
758.7895
 20
280.0349
 10
759.0588
 20
279.785
 10
759.3127
 20
279.5166
 10
759.5511
 20
279.2298
 10
759.7738
 20
278.9245
 10
759.9846
 20
278.6029
 10
760.1837
 20
278.264
 10
760.371
 20
277.9076
 10
760.5466
 20
277.5339
 10
760.7106
 20
277.1429
 10
760.863
 20
276.7347
 10
761.0038
 20
276.3094
 10
761.1331
 20
275.8669
 10
761.2507
 20
275.3961
 10
761.3526
 20
274.8859
 10
761.4388
 20
274.3363
 10
761.5094
 20
273.7476
 10
761.5643
 20
273.1198
 10
761.6034
 20
272.4532
 10
761.627
 20
271.7478
 10
761.6348
 20
271.0038
 10
761.6222
 20
270.1194
 10
761.5843
 20
269.2785
 10
761.5214
 20
268.481
 10
761.4334
 20
267.727
 10
761.3206
 20
267.0167
 10
761.1829
 20
266.3499
 10
761.0205
 20
265.7269
 10
760.8335
 20
265.1476
 10
760.6224
 20
264.6047
 10
760.3865
 20
264.0943
 10
760.1257
 20
263.6161
 10
759.8401
 20
263.1701
 10
759.5296
 20
262.7563
 10
759.1943
 20
262.3744
 10
758.8342
 20
262.0243
 10
758.4493
 20
261.7061
 10
758.0395
 20
261.4232
 10
757.6037
 20
261.1779
 10
757.1417
 20
260.9704
 10
756.6537
 20
260.8007
 10
756.1396
 20
260.6686
 10
755.5995
 20
260.5743
 10
755.0332
 20
260.5177
 10
754.4409
 20
260.4988
 10
753.6644
 20
260.5318
 10
752.9306
 20
260.631
 10
752.2396
 20
260.7963
 10
751.5915
 20
261.0279
 10
750.9861
 20
261.3257
 10
750.4236
 20
261.6899
 10
749.9041
 20
262.1204
 10
749.4275
 20
262.6174
 10
748.9164
 20
263.3145
 10
748.4733
 20
264.1116
 10
748.0982
 20
265.0091
 10
747.7913
 20
266.0069
 10
747.5525
 20
267.1051
 10
747.3818
 20
268.304
 10
747.2794
 20
269.6035
 10
747.2453
 20
271.0038
  0
LWPOLYLINE
  5
CD
330
1F
100
AcDbEntity
  8
Layer 1
 62
     7
100
AcDbPolyline
 90
       65
 70
     1
 43
0.0
 10
750.0252
 20
270.993
 10
750.045
 20
269.7759
 10
750.1044
 20
268.6654
 10
750.2036
 20
267.6615
 10
750.3425
 20
266.7641
 10
750.5212
 20
265.9734
 10
750.7398
 20
265.2893
 10
750.9983
 20
264.7118
 10
751.2968
 20
264.241
 10
751.6237
 20
263.8487
 10
751.9697
 20
263.5089
 10
752.3347
 20
263.2216
 10
752.7186
 20
262.9867
 10
753.1213
 20
262.8041
 10
753.5427
 20
262.6738
 10
753.9826
 20
262.5956
 10
754.4409
 20
262.5696
 10
754.8986
 20
262.5958
 10
755.338
 20
262.6745
 10
755.7589
 20
262.8056
 10
756.1614
 20
262.989
 10
756.5453
 20
263.2247
 10
756.9105
 20
263.5128
 10
757.2571
 20
263.8531
 10
757.585
 20
264.2456
 10
757.8824
 20
264.7192
 10
758.1401
 20
265.2984
 10
758.3581
 20
265.983
 10
758.5364
 20
266.7734
 10
758.6751
 20
267.6694
 10
758.7741
 20
268.6714
 10
758.8335
 20
269.7792
 10
758.8533
 20
270.993
 10
758.8335
 20
272.2106
 10
758.7741
 20
273.3214
 10
758.6751
 20
274.3256
 10
758.5364
 20
275.223
 10
758.3581
 20
276.0136
 10
758.1401
 20
276.6975
 10
757.8824
 20
277.2746
 10
757.585
 20
277.7449
 10
757.2577
 20
278.1377
 10
756.9105
 20
278.4779
 10
756.5432
 20
278.7655
 10
756.156
 20
279.0006
 10
755.7488
 20
279.1833
 10
755.3217
 20
279.3137
 10
754.8747
 20
279.3919
 10
754.4078
 20
279.4179
 10
753.9526
 20
279.3948
 10
753.5208
 20
279.3255
 10
753.1124
 20
279.21
 10
752.7273
 20
279.0484
 10
752.3654
 20
278.8408
 10
752.0269
 20
278.5872
 10
751.7115
 20
278.2877
 10
751.4193
 20
277.9423
 10
751.0922
 20
277.4228
 10
750.8089
 20
276.8034
 10
750.5693
 20
276.0841
 10
750.3733
 20
275.265
 10
750.221
 20
274.3463
 10
750.1122
 20
273.328
 10
750.0469
 20
272.2102
 10
750.0252
 20
270.993
  0
LWPOLYLINE
  5
CE
330
1F
100
AcDbEntity
  8
Layer 1
 62
     7
100
AcDbPolyline
 90
      148
 70
     1
 43
0.0
 10
765.1581
 20
260.8442
 10
765.1581
 20
275.7667
 10
767.5953
 20
275.7667
 10
767.5953
 20
273.6589
 10
767.7901
 20
273.9253
 10
768.0009
 20
274.1786
 10
768.2276
 20
274.4186
 10
768.4701
 20
274.6454
 10
768.7283
 20
274.8586
 10
769.0023
 20
275.0583
 10
769.2918
 20
275.2444
 10
769.597
 20
275.4167
 10
769.9151
 20
275.5732
 10
770.2437
 20
275.7085
 10
770.583
 20
275.8228
 10
770.9329
 20
275.9161
 10
771.2936
 20
275.9884
 10
771.6652
 20
276.04
 10
772.0477
 20
276.0709
 10
772.4414
 20
276.0812
 10
772.8759
 20
276.0704
 10
773.2904
 20
276.0382
 10
773.6848
 20
275.9846
 10
774.059
 20
275.9097
 10
774.4131
 20
275.8135
 10
774.7469
 20
275.6962
 10
775.0605
 20
275.5577
 10
775.3538
 20
275.3982
 10
775.6277
 20
275.217
 10
775.8806
 20
275.0193
 10
776.1124
 20
274.8048
 10
776.3232
 20
274.5734
 10
776.5129
 20
274.3251
 10
776.6814
 20
274.0597
 10
776.8287
 20
273.777
 10
776.9548
 20
273.477
 10
777.4516
 20
274.0882
 10
777.9835
 20
274.6176
 10
778.5506
 20
275.0653
 10
779.1531
 20
275.4313
 10
779.7912
 20
275.7158
 10
780.465
 20
275.9189
 10
781.1746
 20
276.0406
 10
781.9202
 20
276.0812
 10
782.501
 20
276.0622
 10
783.0476
 20
276.005
 10
783.5597
 20
275.9096
 10
784.0374
 20
275.7759
 10
784.4805
 20
275.6037
 10
784.8888
 20
275.393
 10
785.2623
 20
275.1436
 10
785.6008
 20
274.8554
 10
785.9029
 20
274.5276
 10
786.1648
 20
274.1584
 10
786.3865
 20
273.7478
 10
786.5679
 20
273.2958
 10
786.7091
 20
272.8024
 10
786.8099
 20
272.2678
 10
786.8704
 20
271.6919
 10
786.8906
 20
271.0747
 10
786.8906
 20
260.8442
 10
784.1736
 20
260.8442
 10
784.1736
 20
270.2359
 10
784.1693
 20
270.5999
 10
784.1567
 20
270.938
 10
784.1356
 20
271.25
 10
784.1063
 20
271.5359
 10
784.0689
 20
271.7955
 10
784.0234
 20
272.0288
 10
783.97
 20
272.2357
 10
783.9087
 20
272.4161
 10
783.8361
 20
272.579
 10
783.75
 20
272.7334
 10
783.6501
 20
272.8795
 10
783.5366
 20
273.0175
 10
783.4092
 20
273.1473
 10
783.2679
 20
273.2691
 10
783.1127
 20
273.3831
 10
782.9434
 20
273.4893
 10
782.7664
 20
273.5851
 10
782.5818
 20
273.668
 10
782.3896
 20
273.738
 10
782.1899
 20
273.7952
 10
781.9826
 20
273.8395
 10
781.7679
 20
273.8712
 10
781.5456
 20
273.8901
 10
781.3159
 20
273.8964
 10
780.8994
 20
273.8801
 10
780.5017
 20
273.8311
 10
780.1226
 20
273.7495
 10
779.7618
 20
273.6352
 10
779.4194
 20
273.4884
 10
779.0949
 20
273.309
 10
778.7884
 20
273.097
 10
778.4996
 20
272.8525
 10
778.2372
 20
272.5705
 10
778.01
 20
272.2494
 10
777.8178
 20
271.8893
 10
777.6608
 20
271.49
 10
777.5387
 20
271.0517
 10
777.4516
 20
270.5743
 10
777.3994
 20
270.0577
 10
777.382
 20
269.502
 10
777.382
 20
260.8442
 10
774.665
 20
260.8442
 10
774.665
 20
270.5289
 10
774.6547
 20
270.9362
 10
774.6239
 20
271.3175
 10
774.5724
 20
271.6726
 10
774.5001
 20
272.0016
 10
774.4069
 20
272.3043
 10
774.2927
 20
272.5807
 10
774.1575
 20
272.8308
 10
774.0011
 20
273.0545
 10
773.822
 20
273.2514
 10
773.6163
 20
273.4222
 10
773.3841
 20
273.5668
 10
773.1254
 20
273.6853
 10
772.8405
 20
273.7776
 10
772.5294
 20
273.8436
 10
772.1921
 20
273.8832
 10
771.8288
 20
273.8964
 10
771.546
 20
273.8877
 10
771.2686
 20
273.8616
 10
770.9967
 20
273.8181
 10
770.7301
 20
273.757
 10
770.4686
 20
273.6784
 10
770.2123
 20
273.5822
 10
769.9609
 20
273.4683
 10
769.7145
 20
273.3367
 10
769.4802
 20
273.1882
 10
769.2627
 20
273.0235
 10
769.0619
 20
272.8426
 10
768.8776
 20
272.6455
 10
768.7098
 20
272.432
 10
768.5583
 20
272.2022
 10
768.4231
 20
271.9559
 10
768.3039
 20
271.693
 10
768.2036
 20
271.4085
 10
768.1165
 20
271.094
 10
768.0425
 20
270.7495
 10
767.9819
 20
270.3751
 10
767.9345
 20
269.9707
 10
767.9006
 20
269.5364
 10
767.8802
 20
269.0723
 10
767.8734
 20
268.5784
 10
767.8734
 20
260.8442
 10
765.1581
 20
260.8442
  0
LWPOLYLINE
  5
CF
330
1F
100
AcDbEntity
  8
Layer 1
 62
     7
100
AcDbPolyline
 90
      148
 70
     1
 43
0.0
 10
790.8741
 20
260.8442
 10
790.8741
 20
275.7667
 10
793.3146
 20
275.7667
 10
793.3146
 20
273.6589
 10
793.51
 20
273.9253
 10
793.7212
 20
274.1786
 10
793.9481
 20
274.4186
 10
794.1907
 20
274.6454
 10
794.4488
 20
274.8586
 10
794.7225
 20
275.0583
 10
795.0117
 20
275.2444
 10
795.3163
 20
275.4167
 10
795.634
 20
275.5732
 10
795.9624
 20
275.7085
 10
796.3016
 20
275.8228
 10
796.6516
 20
275.9161
 10
797.0125
 20
275.9884
 10
797.3843
 20
276.04
 10
797.7671
 20
276.0709
 10
798.1608
 20
276.0812
 10
798.5948
 20
276.0704
 10
799.0089
 20
276.0382
 10
799.4031
 20
275.9846
 10
799.7774
 20
275.9097
 10
800.1317
 20
275.8135
 10
800.4661
 20
275.6962
 10
800.7804
 20
275.5577
 10
801.0748
 20
275.3982
 10
801.3476
 20
275.217
 10
801.5999
 20
275.0193
 10
801.8315
 20
274.8048
 10
802.0423
 20
274.5734
 10
802.2322
 20
274.3251
 10
802.4012
 20
274.0597
 10
802.5491
 20
273.777
 10
802.6758
 20
273.477
 10
803.171
 20
274.0882
 10
803.7019
 20
274.6176
 10
804.2685
 20
275.0653
 10
804.8708
 20
275.4313
 10
805.509
 20
275.7158
 10
806.1831
 20
275.9189
 10
806.8933
 20
276.0406
 10
807.6395
 20
276.0812
 10
808.2209
 20
276.0622
 10
808.7678
 20
276.005
 10
809.2801
 20
275.9096
 10
809.7578
 20
275.7759
 10
810.2005
 20
275.6037
 10
810.6083
 20
275.393
 10
810.981
 20
275.1436
 10
811.3184
 20
274.8554
 10
811.6211
 20
274.5276
 10
811.8834
 20
274.1584
 10
812.1054
 20
273.7478
 10
812.287
 20
273.2958
 10
812.4283
 20
272.8024
 10
812.5292
 20
272.2678
 10
812.5897
 20
271.6919
 10
812.6099
 20
271.0747
 10
812.6099
 20
260.8442
 10
809.8929
 20
260.8442
 10
809.8929
 20
270.2359
 10
809.8886
 20
270.5999
 10
809.8757
 20
270.938
 10
809.8544
 20
271.25
 10
809.8248
 20
271.5359
 10
809.7871
 20
271.7955
 10
809.7413
 20
272.0288
 10
809.6877
 20
272.2357
 10
809.6263
 20
272.4161
 10
809.5533
 20
272.579
 10
809.4671
 20
272.7334
 10
809.3676
 20
272.8795
 10
809.2544
 20
273.0175
 10
809.1275
 20
273.1473
 10
808.9867
 20
273.2691
 10
808.8318
 20
273.3831
 10
808.6627
 20
273.4893
 10
808.4855
 20
273.5851
 10
808.3006
 20
273.668
 10
808.1079
 20
273.738
 10
807.9075
 20
273.7952
 10
807.6997
 20
273.8395
 10
807.4844
 20
273.8712
 10
807.2618
 20
273.8901
 10
807.0319
 20
273.8964
 10
806.6169
 20
273.8801
 10
806.2201
 20
273.8311
 10
805.8414
 20
273.7495
 10
805.4807
 20
273.6352
 10
805.1382
 20
273.4884
 10
804.8137
 20
273.309
 10
804.5073
 20
273.097
 10
804.2189
 20
272.8525
 10
803.9559
 20
272.5705
 10
803.7283
 20
272.2494
 10
803.5359
 20
271.8893
 10
803.3787
 20
271.49
 10
803.2565
 20
271.0517
 10
803.1693
 20
270.5743
 10
803.1171
 20
270.0577
 10
803.0997
 20
269.502
 10
803.0997
 20
260.8442
 10
800.3843
 20
260.8442
 10
800.3843
 20
270.5289
 10
800.374
 20
270.9362
 10
800.343
 20
271.3175
 10
800.2912
 20
271.6726
 10
800.2187
 20
272.0016
 10
800.1254
 20
272.3043
 10
800.0113
 20
272.5807
 10
799.8763
 20
272.8308
 10
799.7204
 20
273.0545
 10
799.5408
 20
273.2514
 10
799.3349
 20
273.4222
 10
799.1027
 20
273.5668
 10
798.8444
 20
273.6853
 10
798.5598
 20
273.7776
 10
798.2492
 20
273.8436
 10
797.9125
 20
273.8832
 10
797.5498
 20
273.8964
 10
797.2669
 20
273.8877
 10
796.9894
 20
273.8616
 10
796.7173
 20
273.8181
 10
796.4504
 20
273.757
 10
796.1889
 20
273.6784
 10
795.9326
 20
273.5822
 10
795.6814
 20
273.4683
 10
795.4355
 20
273.3367
 10
795.2005
 20
273.1882
 10
794.9823
 20
273.0235
 10
794.7808
 20
272.8426
 10
794.5961
 20
272.6455
 10
794.4282
 20
272.432
 10
794.277
 20
272.2022
 10
794.1426
 20
271.9559
 10
794.0249
 20
271.693
 10
793.9231
 20
271.4085
 10
793.8351
 20
271.094
 10
793.7608
 20
270.7495
 10
793.7001
 20
270.3751
 10
793.653
 20
269.9707
 10
793.6195
 20
269.5364
 10
793.5994
 20
269.0723
 10
793.5927
 20
268.5784
 10
793.5927
 20
260.8442
 10
790.8741
 20
260.8442
  0
LWPOLYLINE
  5
D0
330
1F
100
AcDbEntity
  8
Layer 1
 62
     7
370
    25
100
AcDbPolyline
 90
       72
 70
     1
 43
0.0
 10
1284.2672
 20
84.5822
 10
1284.2717
 20
96.2346
 10
1307.7311
 20
96.2294
 10
1310.0559
 20
95.8979
 10
1311.9171
 20
94.9819
 10
1313.3889
 20
93.5817
 10
1314.5454
 20
91.7975
 10
1315.4607
 20
89.7294
 10
1316.2092
 20
87.4779
 10
1316.8649
 20
85.143
 10
1317.502
 20
82.825
 10
1320.4025
 20
72.2331
 10
1323.2006
 20
61.609
 10
1325.9305
 20
50.9634
 10
1328.6263
 20
40.307
 10
1331.3221
 20
29.6507
 10
1334.0521
 20
19.0052
 10
1336.8502
 20
8.3813
 10
1339.7506
 20
-2.2103
 10
1341.0912
 20
-5.6144
 10
1342.6764
 20
-8.7142
 10
1344.5255
 20
-11.4725
 10
1346.6575
 20
-13.8524
 10
1349.0914
 20
-15.8167
 10
1351.8464
 20
-17.3286
 10
1354.9416
 20
-18.3508
 10
1358.3961
 20
-18.8463
 10
1398.3656
 20
-19.9028
 10
1421.6556
 20
-23.7922
 10
1421.6541
 20
-25.7983
 10
1421.6503
 20
-27.7147
 10
1421.6448
 20
-29.5715
 10
1421.6386
 20
-31.3984
 10
1421.6324
 20
-33.2253
 10
1421.6269
 20
-35.0822
 10
1421.6231
 20
-36.9988
 10
1421.6216
 20
-39.0052
 10
1413.0801
 20
-39.0052
 10
1413.0784
 20
-37.882
 10
1413.0739
 20
-36.7744
 10
1413.0674
 20
-35.677
 10
1413.0601
 20
-34.5848
 10
1413.0528
 20
-33.4926
 10
1413.0464
 20
-32.3951
 10
1413.0418
 20
-31.2872
 10
1413.0401
 20
-30.1637
 10
1405.0537
 20
-29.9655
 10
1397.583
 20
-29.7518
 10
1390.4562
 20
-29.5278
 10
1383.5012
 20
-29.2987
 10
1376.5462
 20
-29.0696
 10
1369.4193
 20
-28.8456
 10
1361.9484
 20
-28.6319
 10
1353.9618
 20
-28.4337
 10
1349.6227
 20
-28.1161
 10
1345.6394
 20
-27.1371
 10
1342.0222
 20
-25.4907
 10
1338.7811
 20
-23.1709
 10
1335.9263
 20
-20.1717
 10
1333.4678
 20
-16.4871
 10
1331.4159
 20
-12.111
 10
1329.7806
 20
-7.0376
 10
1306.7164
 20
81.3148
 10
1306.5295
 20
81.9719
 10
1306.2725
 20
82.5861
 10
1305.9328
 20
83.1433
 10
1305.4978
 20
83.6297
 10
1304.9548
 20
84.0312
 10
1304.2913
 20
84.3339
 10
1303.4946
 20
84.524
 10
1302.5522
 20
84.5874
 10
1284.2672
 20
84.5822
  0
LWPOLYLINE
  5
D1
330
1F
100
AcDbEntity
  8
Layer 1
 62
     7
370
    25
100
AcDbPolyline
 90
       81
 70
     1
 43
0.0
 10
1456.3197
 20
-39.2041
 10
1456.3197
 20
-22.4425
 10
1459.4278
 20
-22.0929
 10
1462.449
 20
-21.6478
 10
1465.3903
 20
-21.1241
 10
1468.2587
 20
-20.539
 10
1471.0611
 20
-19.9096
 10
1473.8047
 20
-19.253
 10
1476.4965
 20
-18.5863
 10
1479.1434
 20
-17.9267
 10
1486.579
 20
-17.8102
 10
1493.9958
 20
-17.7273
 10
1501.4003
 20
-17.6457
 10
1508.7986
 20
-17.5333
 10
1516.1969
 20
-17.358
 10
1523.6016
 20
-17.0876
 10
1531.0189
 20
-16.69
 10
1538.4549
 20
-16.133
 10
1540.153
 20
-15.8323
 10
1541.8128
 20
-15.2745
 10
1543.4121
 20
-14.4479
 10
1544.9286
 20
-13.3409
 10
1546.3399
 20
-11.9418
 10
1547.6238
 20
-10.239
 10
1548.758
 20
-8.2208
 10
1549.7202
 20
-5.8755
 10
1551.3415
 20
1.9987
 10
1552.9515
 20
9.8862
 10
1554.554
 20
17.7826
 10
1556.1528
 20
25.6833
 10
1557.7516
 20
33.584
 10
1559.3543
 20
41.4804
 10
1560.9647
 20
49.3679
 10
1562.5864
 20
57.2421
 10
1563.4647
 20
61.1268
 10
1564.5678
 20
64.2983
 10
1565.8827
 20
66.8184
 10
1567.3966
 20
68.7492
 10
1569.0967
 20
70.1525
 10
1570.9701
 20
71.0903
 10
1573.004
 20
71.6246
 10
1575.1855
 20
71.8173
 10
1652.6828
 20
71.8016
 10
1652.6969
 20
96.9771
 10
1663.866
 20
96.9963
 10
1663.7942
 20
60.4039
 10
1578.3882
 20
60.4039
 10
1577.0425
 20
60.2411
 10
1575.9773
 20
59.8544
 10
1575.1417
 20
59.2213
 10
1574.4847
 20
58.3195
 10
1573.9552
 20
57.1266
 10
1573.5023
 20
55.6204
 10
1573.075
 20
53.7783
 10
1572.6223
 20
51.5781
 10
1571.3717
 20
44.4617
 10
1570.0834
 20
37.3364
 10
1568.77
 20
30.2053
 10
1567.4442
 20
23.0713
 10
1566.1183
 20
15.9373
 10
1564.8049
 20
8.8063
 10
1563.5166
 20
1.6812
 10
1562.266
 20
-5.4349
 10
1560.4975
 20
-10.7851
 10
1558.3273
 20
-15.1781
 10
1555.7607
 20
-18.7036
 10
1552.8033
 20
-21.4511
 10
1549.4604
 20
-23.5103
 10
1545.7375
 20
-24.9708
 10
1541.6401
 20
-25.9222
 10
1537.1737
 20
-26.4541
 10
1528.046
 20
-27.1539
 10
1518.9636
 20
-27.8537
 10
1509.9113
 20
-28.5194
 10
1500.8741
 20
-29.117
 10
1491.8369
 20
-29.6122
 10
1482.7845
 20
-29.971
 10
1473.7019
 20
-30.1593
 10
1464.574
 20
-30.1428
 10
1464.5814
 20
-39.1971
 10
1456.3197
 20
-39.2041
  0
LWPOLYLINE
  5
D2
330
1F
100
AcDbEntity
  8
Layer 1
  6
New Line1
 62
     7
370
    20
100
AcDbPolyline
 90
        2
 70
     0
 43
0.0
 10
1438.877
 20
96.3297
 10
1438.877
 20
-14.3296
  0
LWPOLYLINE
  5
D4
330
1F
100
AcDbEntity
  8
Layer 1
 62
     7
370
    20
100
AcDbPolyline
 90
        2
 70
     0
 43
0.0
 10
1421.6112
 20
-44.253
 10
1421.6112
 20
-59.9249
  0
LWPOLYLINE
  5
D5
330
1F
100
AcDbEntity
  8
Layer 1
 62
     7
370
    20
100
AcDbPolyline
 90
        2
 70
     0
 43
0.0
 10
1456.299
 20
-44.253
 10
1456.299
 20
-59.9249
  0
LWPOLYLINE
  5
D6
330
1F
100
AcDbEntity
  8
Layer 1
 62
     7
370
    20
100
AcDbPolyline
 90
        2
 70
     0
 43
0.0
 10
1456.299
 20
-51.4385
 10
1421.6112
 20
-51.4385
  0
LWPOLYLINE
  5
D7
330
1F
100
AcDbEntity
  8
Layer 1
 62
     7
370
    20
100
AcDbPolyline
 90
        2
 70
     0
 43
0.0
 10
1308.5698
 20
118.2789
 10
1308.5698
 20
102.607
  0
LWPOLYLINE
  5
D8
330
1F
100
AcDbEntity
  8
Layer 1
 62
     7
370
    20
100
AcDbPolyline
 90
        2
 70
     0
 43
0.0
 10
1569.185
 20
118.2789
 10
1569.185
 20
102.607
  0
LWPOLYLINE
  5
D9
330
1F
100
AcDbEntity
  8
Layer 1
 62
     7
370
    20
100
AcDbPolyline
 90
        2
 70
     0
 43
0.0
 10
1569.185
 20
111.0934
 10
1308.5698
 20
111.0934
  0
LWPOLYLINE
  5
DA
330
1F
100
AcDbEntity
  8
Layer 1
 62
     7
100
AcDbPolyline
 90
       12
 70
     1
 43
0.0
 10
1410.1379
 20
126.4826
 10
1409.0884
 20
126.4826
 10
1409.0884
 20
122.8872
 10
1407.9419
 20
122.8872
 10
1407.9419
 20
126.4826
 10
1404.0279
 20
126.4826
 10
1404.0279
 20
127.9553
 10
1407.9907
 20
133.3392
 10
1409.0884
 20
133.3392
 10
1409.0884
 20
127.6028
 10
1410.1379
 20
127.6028
 10
1410.1379
 20
126.4826
  0
LWPOLYLINE
  5
DB
330
1F
100
AcDbEntity
  8
Layer 1
 62
     7
100
AcDbPolyline
 90
        4
 70
     1
 43
0.0
 10
1407.9419
 20
127.6028
 10
1407.9419
 20
131.6789
 10
1404.9598
 20
127.6028
 10
1407.9419
 20
127.6028
  0
LWPOLYLINE
  5
DC
330
1F
100
AcDbEntity
  8
Layer 1
 62
     7
100
AcDbPolyline
 90
       65
 70
     1
 43
0.0
 10
1416.6114
 20
128.1211
 10
1416.6005
 20
127.4407
 10
1416.568
 20
126.8071
 10
1416.5137
 20
126.2203
 10
1416.4378
 20
125.6803
 10
1416.3403
 20
125.187
 10
1416.2211
 20
124.7404
 10
1416.0803
 20
124.3405
 10
1415.9179
 20
123.9874
 10
1415.7326
 20
123.6789
 10
1415.5238
 20
123.4115
 10
1415.2913
 20
123.1854
 10
1415.0352
 20
123.0004
 10
1414.7556
 20
122.8566
 10
1414.4523
 20
122.7539
 10
1414.1255
 20
122.6922
 10
1413.7751
 20
122.6717
 10
1413.4207
 20
122.6927
 10
1413.091
 20
122.7556
 10
1412.7857
 20
122.8605
 10
1412.5049
 20
123.0074
 10
1412.2485
 20
123.1962
 10
1412.0164
 20
123.427
 10
1411.8085
 20
123.6997
 10
1411.6249
 20
124.0144
 10
1411.4643
 20
124.3715
 10
1411.3251
 20
124.7726
 10
1411.2073
 20
125.2179
 10
1411.1109
 20
125.7073
 10
1411.0359
 20
126.2408
 10
1410.9824
 20
126.8185
 10
1410.9502
 20
127.4403
 10
1410.9395
 20
128.1062
 10
1410.9504
 20
128.7895
 10
1410.9831
 20
129.4255
 10
1411.0376
 20
130.014
 10
1411.1137
 20
130.5551
 10
1411.2115
 20
131.0487
 10
1411.3308
 20
131.4948
 10
1411.4716
 20
131.8933
 10
1411.6338
 20
132.2443
 10
1411.8191
 20
132.5516
 10
1412.0279
 20
132.8179
 10
1412.2603
 20
133.0431
 10
1412.5163
 20
133.2273
 10
1412.7957
 20
133.3706
 10
1413.0987
 20
133.4729
 10
1413.4252
 20
133.5342
 10
1413.7751
 20
133.5547
 10
1414.1297
 20
133.5335
 10
1414.4598
 20
133.4698
 10
1414.7652
 20
133.3638
 10
1415.0462
 20
133.2154
 10
1415.3027
 20
133.0247
 10
1415.5349
 20
132.7917
 10
1415.7426
 20
132.5164
 10
1415.926
 20
132.1989
 10
1416.0868
 20
131.8389
 10
1416.2261
 20
131.4362
 10
1416.3439
 20
130.9908
 10
1416.4402
 20
130.5025
 10
1416.5151
 20
129.9715
 10
1416.5686
 20
129.3976
 10
1416.6007
 20
128.7808
 10
1416.6114
 20
128.1211
  0
LWPOLYLINE
  5
DD
330
1F
100
AcDbEntity
  8
Layer 1
 62
     7
100
AcDbPolyline
 90
      121
 70
     1
 43
0.0
 10
1415.0874
 20
124.9366
 10
1415.1289
 20
125.0707
 10
1415.1674
 20
125.2133
 10
1415.2028
 20
125.3644
 10
1415.2351
 20
125.524
 10
1415.2903
 20
125.8691
 10
1415.3324
 20
126.2488
 10
1415.3493
 20
126.4512
 10
1415.3639
 20
126.6625
 10
1415.3763
 20
126.8829
 10
1415.3863
 20
127.1123
 10
1415.3942
 20
127.3507
 10
1415.3997
 20
127.5984
 10
1415.4031
 20
127.8551
 10
1415.4042
 20
128.1211
 10
1415.4031
 20
128.3844
 10
1415.3997
 20
128.6392
 10
1415.3942
 20
128.8854
 10
1415.3863
 20
129.1229
 10
1415.3763
 20
129.3516
 10
1415.3639
 20
129.5715
 10
1415.3493
 20
129.7825
 10
1415.3324
 20
129.9846
 10
1415.2901
 20
130.3648
 10
1415.2343
 20
130.7111
 10
1415.2014
 20
130.8717
 10
1415.1653
 20
131.0238
 10
1415.1258
 20
131.1675
 10
1415.083
 20
131.3029
 10
1415.0361
 20
131.4325
 10
1414.985
 20
131.5539
 10
1414.9296
 20
131.6671
 10
1414.87
 20
131.7722
 10
1414.8063
 20
131.8692
 10
1414.7387
 20
131.9582
 10
1414.667
 20
132.0393
 10
1414.5915
 20
132.1125
 10
1414.51
 20
132.1776
 10
1414.4225
 20
132.234
 10
1414.3291
 20
132.2819
 10
1414.2299
 20
132.3211
 10
1414.1249
 20
132.3516
 10
1414.014
 20
132.3734
 10
1413.8974
 20
132.3865
 10
1413.7751
 20
132.3909
 10
1413.6545
 20
132.3865
 10
1413.5393
 20
132.3734
 10
1413.4294
 20
132.3516
 10
1413.325
 20
132.3211
 10
1413.2261
 20
132.2819
 10
1413.1328
 20
132.234
 10
1413.0451
 20
132.1776
 10
1412.9631
 20
132.1125
 10
1412.885
 20
132.0391
 10
1412.8111
 20
131.9574
 10
1412.7414
 20
131.8674
 10
1412.676
 20
131.769
 10
1412.615
 20
131.6622
 10
1412.5584
 20
131.547
 10
1412.5061
 20
131.4231
 10
1412.4584
 20
131.2907
 10
1412.4155
 20
131.1526
 10
1412.3762
 20
131.006
 10
1412.3403
 20
130.8508
 10
1412.308
 20
130.6869
 10
1412.2536
 20
130.3329
 10
1412.2126
 20
129.9436
 10
1412.1977
 20
129.7366
 10
1412.1847
 20
129.5233
 10
1412.1737
 20
129.3035
 10
1412.1646
 20
129.0773
 10
1412.1574
 20
128.8445
 10
1412.1523
 20
128.6051
 10
1412.1492
 20
128.359
 10
1412.1482
 20
128.1062
 10
1412.149
 20
127.8385
 10
1412.1516
 20
127.5819
 10
1412.1559
 20
127.3364
 10
1412.162
 20
127.102
 10
1412.1699
 20
126.8787
 10
1412.1798
 20
126.6666
 10
1412.1915
 20
126.4656
 10
1412.2052
 20
126.2758
 10
1412.2411
 20
125.9183
 10
1412.2944
 20
125.5791
 10
1412.3275
 20
125.4165
 10
1412.3649
 20
125.2586
 10
1412.4065
 20
125.1056
 10
1412.4524
 20
124.9575
 10
1412.4975
 20
124.8268
 10
1412.5473
 20
124.7037
 10
1412.6019
 20
124.5882
 10
1412.6611
 20
124.4803
 10
1412.7251
 20
124.3802
 10
1412.7938
 20
124.2877
 10
1412.8672
 20
124.203
 10
1412.9454
 20
124.1261
 10
1413.0274
 20
124.058
 10
1413.1157
 20
123.9991
 10
1413.2103
 20
123.9493
 10
1413.3111
 20
123.9086
 10
1413.4181
 20
123.877
 10
1413.5311
 20
123.8544
 10
1413.6501
 20
123.8409
 10
1413.7751
 20
123.8364
 10
1413.896
 20
123.8408
 10
1414.0115
 20
123.8539
 10
1414.1218
 20
123.8757
 10
1414.2266
 20
123.9062
 10
1414.326
 20
123.9454
 10
1414.42
 20
123.9933
 10
1414.5085
 20
124.0497
 10
1414.5915
 20
124.1148
 10
1414.6685
 20
124.188
 10
1414.7414
 20
124.2695
 10
1414.8099
 20
124.3595
 10
1414.8742
 20
124.4579
 10
1414.9341
 20
124.5648
 10
1414.9896
 20
124.6802
 10
1415.0408
 20
124.8041
 10
1415.0874
 20
124.9366
  0
LWPOLYLINE
  5
DE
330
1F
100
AcDbEntity
  8
Layer 1
 62
     7
100
AcDbPolyline
 90
       65
 70
     1
 43
0.0
 10
1423.2684
 20
128.1211
 10
1423.2576
 20
127.4407
 10
1423.2251
 20
126.8071
 10
1423.1709
 20
126.2203
 10
1423.0951
 20
125.6803
 10
1422.9976
 20
125.187
 10
1422.8784
 20
124.7404
 10
1422.7375
 20
124.3405
 10
1422.5749
 20
123.9874
 10
1422.3896
 20
123.6789
 10
1422.1808
 20
123.4115
 10
1421.9483
 20
123.1854
 10
1421.6923
 20
123.0004
 10
1421.4128
 20
122.8566
 10
1421.1097
 20
122.7539
 10
1420.7831
 20
122.6922
 10
1420.4329
 20
122.6717
 10
1420.0783
 20
122.6927
 10
1419.7484
 20
122.7556
 10
1419.4431
 20
122.8605
 10
1419.1623
 20
123.0074
 10
1418.9059
 20
123.1962
 10
1418.6737
 20
123.427
 10
1418.4658
 20
123.6997
 10
1418.282
 20
124.0144
 10
1418.1212
 20
124.3715
 10
1417.9819
 20
124.7726
 10
1417.8641
 20
125.2179
 10
1417.7677
 20
125.7073
 10
1417.6928
 20
126.2408
 10
1417.6394
 20
126.8185
 10
1417.6073
 20
127.4403
 10
1417.5966
 20
128.1062
 10
1417.6075
 20
128.7895
 10
1417.6401
 20
129.4255
 10
1417.6944
 20
130.014
 10
1417.7704
 20
130.5551
 10
1417.868
 20
131.0487
 10
1417.9872
 20
131.4948
 10
1418.1279
 20
131.8933
 10
1418.2901
 20
132.2443
 10
1418.4758
 20
132.5516
 10
1418.6849
 20
132.8179
 10
1418.9174
 20
133.0431
 10
1419.1733
 20
133.2273
 10
1419.4528
 20
133.3706
 10
1419.7559
 20
133.4729
 10
1420.0825
 20
133.5342
 10
1420.4329
 20
133.5547
 10
1420.787
 20
133.5335
 10
1421.1167
 20
133.4698
 10
1421.4219
 20
133.3638
 10
1421.7028
 20
133.2154
 10
1421.9593
 20
133.0247
 10
1422.1915
 20
132.7917
 10
1422.3994
 20
132.5164
 10
1422.583
 20
132.1989
 10
1422.7438
 20
131.8389
 10
1422.8831
 20
131.4362
 10
1423.0009
 20
130.9908
 10
1423.0973
 20
130.5025
 10
1423.1722
 20
129.9715
 10
1423.2256
 20
129.3976
 10
1423.2577
 20
128.7808
 10
1423.2684
 20
128.1211
  0
LWPOLYLINE
  5
DF
330
1F
100
AcDbEntity
  8
Layer 1
 62
     7
100
AcDbPolyline
 90
      121
 70
     1
 43
0.0
 10
1421.7444
 20
124.9366
 10
1421.7859
 20
125.0707
 10
1421.8245
 20
125.2133
 10
1421.8599
 20
125.3644
 10
1421.8923
 20
125.524
 10
1421.9476
 20
125.8691
 10
1421.9902
 20
126.2488
 10
1422.0067
 20
126.4512
 10
1422.0211
 20
126.6625
 10
1422.0334
 20
126.8829
 10
1422.0436
 20
127.1123
 10
1422.0516
 20
127.3507
 10
1422.0573
 20
127.5984
 10
1422.0608
 20
127.8551
 10
1422.062
 20
128.1211
 10
1422.0608
 20
128.3844
 10
1422.0573
 20
128.6392
 10
1422.0516
 20
128.8854
 10
1422.0436
 20
129.1229
 10
1422.0334
 20
129.3516
 10
1422.0211
 20
129.5715
 10
1422.0067
 20
129.7825
 10
1421.9902
 20
129.9846
 10
1421.9474
 20
130.3648
 10
1421.8912
 20
130.7111
 10
1421.8582
 20
130.8717
 10
1421.822
 20
131.0238
 10
1421.7826
 20
131.1675
 10
1421.74
 20
131.3029
 10
1421.6929
 20
131.4325
 10
1421.6417
 20
131.5539
 10
1421.5862
 20
131.6671
 10
1421.5267
 20
131.7722
 10
1421.4631
 20
131.8692
 10
1421.3956
 20
131.9582
 10
1421.324
 20
132.0393
 10
1421.2485
 20
132.1125
 10
1421.1667
 20
132.1776
 10
1421.0791
 20
132.234
 10
1420.9857
 20
132.2819
 10
1420.8865
 20
132.3211
 10
1420.7816
 20
132.3516
 10
1420.671
 20
132.3734
 10
1420.5547
 20
132.3865
 10
1420.4329
 20
132.3909
 10
1420.3119
 20
132.3865
 10
1420.1963
 20
132.3734
 10
1420.0863
 20
132.3516
 10
1419.9818
 20
132.3211
 10
1419.8828
 20
132.2819
 10
1419.7894
 20
132.234
 10
1419.7016
 20
132.1776
 10
1419.6194
 20
132.1125
 10
1419.5418
 20
132.0391
 10
1419.4682
 20
131.9574
 10
1419.3988
 20
131.8674
 10
1419.3336
 20
131.769
 10
1419.2727
 20
131.6622
 10
1419.2161
 20
131.547
 10
1419.1639
 20
131.4231
 10
1419.1161
 20
131.2907
 10
1419.073
 20
131.1526
 10
1419.0335
 20
131.006
 10
1418.9976
 20
130.8508
 10
1418.9652
 20
130.6869
 10
1418.911
 20
130.3329
 10
1418.8704
 20
129.9436
 10
1418.855
 20
129.7366
 10
1418.8417
 20
129.5233
 10
1418.8303
 20
129.3035
 10
1418.8211
 20
129.0773
 10
1418.8138
 20
128.8445
 10
1418.8087
 20
128.6051
 10
1418.8055
 20
128.359
 10
1418.8045
 20
128.1062
 10
1418.8054
 20
127.8385
 10
1418.808
 20
127.5819
 10
1418.8124
 20
127.3364
 10
1418.8187
 20
127.102
 10
1418.8267
 20
126.8787
 10
1418.8366
 20
126.6666
 10
1418.8485
 20
126.4656
 10
1418.8622
 20
126.2758
 10
1418.8982
 20
125.9183
 10
1418.9516
 20
125.5791
 10
1418.9847
 20
125.4165
 10
1419.0219
 20
125.2586
 10
1419.0633
 20
125.1056
 10
1419.1087
 20
124.9575
 10
1419.1543
 20
124.8268
 10
1419.2044
 20
124.7037
 10
1419.259
 20
124.5882
 10
1419.3183
 20
124.4803
 10
1419.3822
 20
124.3802
 10
1419.4507
 20
124.2877
 10
1419.5238
 20
124.203
 10
1419.6017
 20
124.1261
 10
1419.6837
 20
124.058
 10
1419.7722
 20
123.9991
 10
1419.8669
 20
123.9493
 10
1419.9679
 20
123.9086
 10
1420.075
 20
123.877
 10
1420.1883
 20
123.8544
 10
1420.3076
 20
123.8409
 10
1420.4329
 20
123.8364
 10
1420.5535
 20
123.8408
 10
1420.6689
 20
123.8539
 10
1420.779
 20
123.8757
 10
1420.8837
 20
123.9062
 10
1420.9831
 20
123.9454
 10
1421.077
 20
123.9933
 10
1421.1655
 20
124.0497
 10
1421.2485
 20
124.1148
 10
1421.3255
 20
124.188
 10
1421.3984
 20
124.2695
 10
1421.4669
 20
124.3595
 10
1421.5312
 20
124.4579
 10
1421.5911
 20
124.5648
 10
1421.6466
 20
124.6802
 10
1421.6978
 20
124.8041
 10
1421.7444
 20
124.9366
  0
LWPOLYLINE
  5
E0
330
1F
100
AcDbEntity
  8
Layer 1
 62
     7
100
AcDbPolyline
 90
       13
 70
     1
 43
0.0
 10
1429.7308
 20
122.8872
 10
1428.3541
 20
122.8872
 10
1426.7442
 20
125.8352
 10
1425.0855
 20
122.8872
 10
1423.8162
 20
122.8872
 10
1426.1158
 20
126.7723
 10
1423.8406
 20
130.7227
 10
1425.2151
 20
130.7227
 10
1426.8212
 20
127.8087
 10
1428.4599
 20
130.7227
 10
1429.7308
 20
130.7227
 10
1427.4422
 20
126.8604
 10
1429.7308
 20
122.8872
  0
LWPOLYLINE
  5
E1
330
1F
100
AcDbEntity
  8
Layer 1
 62
     7
100
AcDbPolyline
 90
      239
 70
     1
 43
0.0
 10
1432.8314
 20
132.3472
 10
1432.6709
 20
132.3415
 10
1432.5103
 20
132.3243
 10
1432.3494
 20
132.2957
 10
1432.1881
 20
132.2556
 10
1432.0283
 20
132.2063
 10
1431.8698
 20
132.1498
 10
1431.7128
 20
132.0859
 10
1431.5575
 20
132.014
 10
1431.0601
 20
131.7173
 10
1430.6812
 20
131.4268
 10
1430.6101
 20
131.4268
 10
1430.6101
 20
132.9073
 10
1430.7114
 20
132.9687
 10
1430.8215
 20
133.0284
 10
1430.9403
 20
133.0865
 10
1431.0677
 20
133.143
 10
1431.3481
 20
133.2512
 10
1431.6619
 20
133.3532
 10
1431.827
 20
133.4004
 10
1431.9902
 20
133.4413
 10
1432.1515
 20
133.476
 10
1432.3108
 20
133.5043
 10
1432.4682
 20
133.5264
 10
1432.6235
 20
133.5421
 10
1432.7766
 20
133.5516
 10
1432.9276
 20
133.5547
 10
1433.2198
 20
133.5457
 10
1433.4926
 20
133.5188
 10
1433.6219
 20
133.4987
 10
1433.7464
 20
133.4741
 10
1433.8663
 20
133.4451
 10
1433.9816
 20
133.4116
 10
1434.0922
 20
133.3729
 10
1434.2004
 20
133.3293
 10
1434.306
 20
133.2809
 10
1434.4089
 20
133.2277
 10
1434.5092
 20
133.1695
 10
1434.6068
 20
133.1065
 10
1434.7016
 20
133.0386
 10
1434.7935
 20
132.9658
 10
1434.889
 20
132.88
 10
1434.9785
 20
132.7897
 10
1435.0619
 20
132.6947
 10
1435.1394
 20
132.5952
 10
1435.2107
 20
132.4912
 10
1435.276
 20
132.3828
 10
1435.3353
 20
132.2699
 10
1435.3886
 20
132.1527
 10
1435.4347
 20
132.0308
 10
1435.4749
 20
131.904
 10
1435.5089
 20
131.7722
 10
1435.5369
 20
131.6355
 10
1435.5588
 20
131.4938
 10
1435.5744
 20
131.3471
 10
1435.5838
 20
131.1953
 10
1435.587
 20
131.0385
 10
1435.5794
 20
130.8262
 10
1435.5567
 20
130.6204
 10
1435.5189
 20
130.4213
 10
1435.466
 20
130.2287
 10
1435.3979
 20
130.0428
 10
1435.3147
 20
129.8634
 10
1435.2164
 20
129.6908
 10
1435.1029
 20
129.5248
 10
1434.9794
 20
129.3688
 10
1434.8499
 20
129.2278
 10
1434.7145
 20
129.1019
 10
1434.573
 20
128.991
 10
1434.4255
 20
128.895
 10
1434.2721
 20
128.8139
 10
1434.1128
 20
128.7475
 10
1433.9475
 20
128.696
 10
1433.9475
 20
128.5974
 10
1434.0897
 20
128.5605
 10
1434.2367
 20
128.5116
 10
1434.3891
 20
128.4511
 10
1434.5471
 20
128.3793
 10
1434.7027
 20
128.293
 10
1434.853
 20
128.1883
 10
1434.9983
 20
128.0653
 10
1435.1384
 20
127.9239
 10
1435.2054
 20
127.8457
 10
1435.2691
 20
127.7621
 10
1435.3296
 20
127.6732
 10
1435.3869
 20
127.5789
 10
1435.441
 20
127.4791
 10
1435.492
 20
127.374
 10
1435.54
 20
127.2634
 10
1435.5848
 20
127.1474
 10
1435.6256
 20
127.0258
 10
1435.6608
 20
126.8979
 10
1435.6904
 20
126.7635
 10
1435.7146
 20
126.6227
 10
1435.7333
 20
126.4753
 10
1435.7466
 20
126.3213
 10
1435.7546
 20
126.1606
 10
1435.7572
 20
125.9932
 10
1435.754
 20
125.818
 10
1435.7444
 20
125.6462
 10
1435.7284
 20
125.478
 10
1435.706
 20
125.3132
 10
1435.6771
 20
125.1519
 10
1435.6417
 20
124.9941
 10
1435.5998
 20
124.8397
 10
1435.5515
 20
124.6888
 10
1435.4975
 20
124.543
 10
1435.4381
 20
124.4013
 10
1435.3735
 20
124.2637
 10
1435.3036
 20
124.1304
 10
1435.2285
 20
124.0012
 10
1435.1481
 20
123.8763
 10
1435.0626
 20
123.7556
 10
1434.9719
 20
123.6393
 10
1434.8723
 20
123.5243
 10
1434.7677
 20
123.4164
 10
1434.6582
 20
123.3155
 10
1434.5438
 20
123.2217
 10
1434.4244
 20
123.1351
 10
1434.3
 20
123.0556
 10
1434.1706
 20
122.9835
 10
1434.0363
 20
122.9186
 10
1433.8967
 20
122.8606
 10
1433.7525
 20
122.8105
 10
1433.6038
 20
122.768
 10
1433.4506
 20
122.7333
 10
1433.2928
 20
122.7063
 10
1433.1305
 20
122.6871
 10
1432.9636
 20
122.6755
 10
1432.7921
 20
122.6717
 10
1432.625
 20
122.6746
 10
1432.4584
 20
122.6835
 10
1432.2923
 20
122.6983
 10
1432.1267
 20
122.719
 10
1431.9615
 20
122.7457
 10
1431.7967
 20
122.7784
 10
1431.6322
 20
122.8171
 10
1431.468
 20
122.8619
 10
1431.154
 20
122.9613
 10
1430.8659
 20
123.0702
 10
1430.7315
 20
123.1284
 10
1430.6035
 20
123.1893
 10
1430.4819
 20
123.2528
 10
1430.3666
 20
123.3191
 10
1430.3666
 20
124.7996
 10
1430.451
 20
124.7996
 10
1430.5487
 20
124.7184
 10
1430.6544
 20
124.6382
 10
1430.7679
 20
124.5591
 10
1430.8894
 20
124.481
 10
1431.1563
 20
124.3273
 10
1431.4554
 20
124.1767
 10
1431.6143
 20
124.1068
 10
1431.773
 20
124.0463
 10
1431.9314
 20
123.9952
 10
1432.0896
 20
123.9534
 10
1432.2477
 20
123.9209
 10
1432.4056
 20
123.8977
 10
1432.5634
 20
123.8838
 10
1432.7211
 20
123.8792
 10
1432.903
 20
123.8877
 10
1433.0854
 20
123.9134
 10
1433.2682
 20
123.9562
 10
1433.4509
 20
124.0162
 10
1433.5406
 20
124.0533
 10
1433.6266
 20
124.0958
 10
1433.7088
 20
124.1438
 10
1433.7872
 20
124.1971
 10
1433.8618
 20
124.2558
 10
1433.9327
 20
124.3198
 10
1433.9997
 20
124.3891
 10
1434.063
 20
124.4637
 10
1434.1743
 20
124.6223
 10
1434.2715
 20
124.7893
 10
1434.3546
 20
124.9642
 10
1434.4234
 20
125.1469
 10
1434.4529
 20
125.2435
 10
1434.4786
 20
125.346
 10
1434.5005
 20
125.4547
 10
1434.5185
 20
125.5695
 10
1434.5427
 20
125.8176
 10
1434.5508
 20
126.0909
 10
1434.5418
 20
126.3624
 10
1434.5151
 20
126.6088
 10
1434.4951
 20
126.7225
 10
1434.4708
 20
126.8298
 10
1434.4422
 20
126.9308
 10
1434.4094
 20
127.0253
 10
1434.3731
 20
127.1146
 10
1434.3331
 20
127.1991
 10
1434.2895
 20
127.2788
 10
1434.2423
 20
127.3537
 10
1434.1916
 20
127.4235
 10
1434.1373
 20
127.4884
 10
1434.0797
 20
127.5482
 10
1434.0186
 20
127.6028
 10
1433.887
 20
127.7008
 10
1433.7442
 20
127.7825
 10
1433.5899
 20
127.8476
 10
1433.4242
 20
127.896
 10
1433.2486
 20
127.9317
 10
1433.0659
 20
127.9567
 10
1432.8765
 20
127.9714
 10
1432.6804
 20
127.9762
 10
1432.1711
 20
127.9762
 10
1432.1711
 20
129.1418
 10
1432.5656
 20
129.1418
 10
1432.7622
 20
129.1488
 10
1432.9496
 20
129.1697
 10
1433.1276
 20
129.2045
 10
1433.2962
 20
129.2534
 10
1433.4553
 20
129.3163
 10
1433.605
 20
129.3932
 10
1433.7452
 20
129.4843
 10
1433.8757
 20
129.5894
 10
1433.9937
 20
129.708
 10
1434.096
 20
129.8395
 10
1434.1828
 20
129.9837
 10
1434.2538
 20
130.1407
 10
1434.3092
 20
130.3104
 10
1434.3488
 20
130.4928
 10
1434.3726
 20
130.6878
 10
1434.3805
 20
130.8955
 10
1434.3723
 20
131.0844
 10
1434.3477
 20
131.26
 10
1434.3065
 20
131.4224
 10
1434.2488
 20
131.5716
 10
1434.1792
 20
131.707
 10
1434.1004
 20
131.827
 10
1434.0127
 20
131.9323
 10
1433.9164
 20
132.0235
 10
1433.7994
 20
132.108
 10
1433.677
 20
132.1784
 10
1433.549
 20
132.235
 10
1433.4153
 20
132.2783
 10
1433.276
 20
132.3082
 10
1433.1322
 20
132.3298
 10
1432.984
 20
132.3428
 10
1432.8314
 20
132.3472
  0
LWPOLYLINE
  5
E2
330
1F
100
AcDbEntity
  8
Layer 1
 62
     7
100
AcDbPolyline
 90
       67
 70
     1
 43
0.0
 10
1441.2796
 20
130.9147
 10
1441.2735
 20
131.087
 10
1441.2551
 20
131.2519
 10
1441.2243
 20
131.4096
 10
1441.1811
 20
131.56
 10
1441.1253
 20
131.7034
 10
1441.0569
 20
131.8397
 10
1440.9759
 20
131.9691
 10
1440.8821
 20
132.0916
 10
1440.7779
 20
132.2018
 10
1440.6642
 20
132.2973
 10
1440.5408
 20
132.3783
 10
1440.4077
 20
132.4446
 10
1440.265
 20
132.4962
 10
1440.1126
 20
132.5331
 10
1439.9504
 20
132.5553
 10
1439.7785
 20
132.5627
 10
1439.6199
 20
132.5561
 10
1439.4688
 20
132.5362
 10
1439.3251
 20
132.5031
 10
1439.1889
 20
132.4567
 10
1439.0599
 20
132.3971
 10
1438.9382
 20
132.3242
 10
1438.8237
 20
132.2381
 10
1438.7164
 20
132.1387
 10
1438.62
 20
132.0287
 10
1438.5364
 20
131.9094
 10
1438.4656
 20
131.7807
 10
1438.4075
 20
131.6426
 10
1438.3623
 20
131.4952
 10
1438.33
 20
131.3384
 10
1438.3106
 20
131.1723
 10
1438.3041
 20
130.9967
 10
1438.3074
 20
130.8688
 10
1438.3174
 20
130.746
 10
1438.334
 20
130.6284
 10
1438.3573
 20
130.5158
 10
1438.3872
 20
130.4081
 10
1438.4237
 20
130.3054
 10
1438.4668
 20
130.2076
 10
1438.5165
 20
130.1146
 10
1438.5723
 20
130.0258
 10
1438.6348
 20
129.9392
 10
1438.7039
 20
129.855
 10
1438.7798
 20
129.773
 10
1438.8623
 20
129.6932
 10
1438.9515
 20
129.6157
 10
1439.0474
 20
129.5404
 10
1439.1501
 20
129.4673
 10
1439.7112
 20
129.1366
 10
1440.398
 20
128.8059
 10
1440.5219
 20
128.9241
 10
1440.6353
 20
129.0431
 10
1440.7384
 20
129.1629
 10
1440.831
 20
129.2835
 10
1440.9131
 20
129.4048
 10
1440.9848
 20
129.527
 10
1441.046
 20
129.6499
 10
1441.0968
 20
129.7735
 10
1441.1401
 20
129.9007
 10
1441.1775
 20
130.0322
 10
1441.209
 20
130.1681
 10
1441.2346
 20
130.3084
 10
1441.2544
 20
130.4532
 10
1441.2684
 20
130.6025
 10
1441.2768
 20
130.7563
 10
1441.2796
 20
130.9147
  0
LWPOLYLINE
  5
E3
330
1F
100
AcDbEntity
  8
Layer 1
 62
     7
100
AcDbPolyline
 90
       67
 70
     1
 43
0.0
 10
1441.4631
 20
125.6669
 10
1441.4598
 20
125.8238
 10
1441.4498
 20
125.9725
 10
1441.433
 20
126.1131
 10
1441.4096
 20
126.2453
 10
1441.3793
 20
126.3692
 10
1441.3423
 20
126.4847
 10
1441.2985
 20
126.5917
 10
1441.2478
 20
126.6902
 10
1441.188
 20
126.7855
 10
1441.1156
 20
126.8812
 10
1441.0308
 20
126.9772
 10
1440.9335
 20
127.0736
 10
1440.8236
 20
127.1704
 10
1440.7012
 20
127.2677
 10
1440.5663
 20
127.3656
 10
1440.4188
 20
127.4641
 10
1439.8777
 20
127.7511
 10
1439.1161
 20
128.1184
 10
1438.9962
 20
128.0186
 10
1438.8836
 20
127.9133
 10
1438.7783
 20
127.8027
 10
1438.6802
 20
127.6865
 10
1438.5894
 20
127.5647
 10
1438.5059
 20
127.4372
 10
1438.4295
 20
127.3039
 10
1438.3604
 20
127.1649
 10
1438.2989
 20
127.0211
 10
1438.2455
 20
126.8725
 10
1438.2003
 20
126.719
 10
1438.1631
 20
126.5606
 10
1438.1342
 20
126.3972
 10
1438.1135
 20
126.2289
 10
1438.1011
 20
126.0555
 10
1438.0969
 20
125.8771
 10
1438.1045
 20
125.6454
 10
1438.1274
 20
125.4239
 10
1438.1655
 20
125.2126
 10
1438.2187
 20
125.0117
 10
1438.2872
 20
124.821
 10
1438.3707
 20
124.6407
 10
1438.4694
 20
124.4707
 10
1438.5832
 20
124.3111
 10
1438.7087
 20
124.166
 10
1438.8419
 20
124.0403
 10
1438.9829
 20
123.934
 10
1439.1317
 20
123.847
 10
1439.2884
 20
123.7794
 10
1439.4528
 20
123.7311
 10
1439.6251
 20
123.7022
 10
1439.8052
 20
123.6925
 10
1439.988
 20
123.7008
 10
1440.1617
 20
123.7257
 10
1440.3262
 20
123.7671
 10
1440.4815
 20
123.8251
 10
1440.6276
 20
123.8996
 10
1440.7644
 20
123.9906
 10
1440.892
 20
124.0981
 10
1441.0102
 20
124.2221
 10
1441.1168
 20
124.3609
 10
1441.209
 20
124.5116
 10
1441.2868
 20
124.6743
 10
1441.3504
 20
124.849
 10
1441.3998
 20
125.0355
 10
1441.435
 20
125.234
 10
1441.4561
 20
125.4445
 10
1441.4631
 20
125.6669
  0
LWPOLYLINE
  5
E4
330
1F
100
AcDbEntity
  8
Layer 1
 62
     7
100
AcDbPolyline
 90
      147
 70
     1
 43
0.0
 10
1439.78
 20
122.6429
 10
1439.6167
 20
122.6465
 10
1439.4571
 20
122.6573
 10
1439.3011
 20
122.6754
 10
1439.1488
 20
122.7008
 10
1439.0002
 20
122.7335
 10
1438.8553
 20
122.7736
 10
1438.7141
 20
122.821
 10
1438.5765
 20
122.8759
 10
1438.4433
 20
122.9367
 10
1438.3151
 20
123.0039
 10
1438.1919
 20
123.0776
 10
1438.0739
 20
123.1577
 10
1437.9609
 20
123.2441
 10
1437.853
 20
123.337
 10
1437.7503
 20
123.4361
 10
1437.6528
 20
123.5416
 10
1437.5618
 20
123.65
 10
1437.4764
 20
123.7631
 10
1437.3967
 20
123.881
 10
1437.3227
 20
124.0037
 10
1437.2543
 20
124.1313
 10
1437.1917
 20
124.2637
 10
1437.1348
 20
124.4009
 10
1437.0836
 20
124.5431
 10
1437.0383
 20
124.6898
 10
1436.9988
 20
124.8383
 10
1436.9654
 20
124.9886
 10
1436.938
 20
125.1407
 10
1436.9165
 20
125.2949
 10
1436.9012
 20
125.451
 10
1436.892
 20
125.6093
 10
1436.8889
 20
125.7698
 10
1436.8949
 20
125.9806
 10
1436.9131
 20
126.1869
 10
1436.9432
 20
126.3888
 10
1436.9855
 20
126.5863
 10
1437.0398
 20
126.7796
 10
1437.1063
 20
126.9686
 10
1437.1847
 20
127.1534
 10
1437.2753
 20
127.3341
 10
1437.3776
 20
127.5076
 10
1437.4908
 20
127.672
 10
1437.615
 20
127.8274
 10
1437.7501
 20
127.9737
 10
1437.8962
 20
128.1109
 10
1438.0532
 20
128.2389
 10
1438.2212
 20
128.3578
 10
1438.4003
 20
128.4674
 10
1438.4003
 20
128.5111
 10
1438.2411
 20
128.6247
 10
1438.0926
 20
128.741
 10
1437.9548
 20
128.86
 10
1437.8277
 20
128.9816
 10
1437.7112
 20
129.1058
 10
1437.6054
 20
129.2326
 10
1437.5102
 20
129.3618
 10
1437.4255
 20
129.4934
 10
1437.3515
 20
129.6314
 10
1437.2873
 20
129.7777
 10
1437.2329
 20
129.9322
 10
1437.1883
 20
130.095
 10
1437.1536
 20
130.2659
 10
1437.1287
 20
130.445
 10
1437.1138
 20
130.6322
 10
1437.1088
 20
130.8274
 10
1437.1207
 20
131.117
 10
1437.1562
 20
131.3942
 10
1437.2154
 20
131.6591
 10
1437.2983
 20
131.9117
 10
1437.4047
 20
132.1519
 10
1437.5347
 20
132.3797
 10
1437.6882
 20
132.5952
 10
1437.8652
 20
132.7983
 10
1438.0608
 20
132.9826
 10
1438.2692
 20
133.1422
 10
1438.4901
 20
133.2771
 10
1438.7238
 20
133.3875
 10
1438.97
 20
133.4733
 10
1439.2289
 20
133.5345
 10
1439.5004
 20
133.5713
 10
1439.7844
 20
133.5835
 10
1440.0789
 20
133.5718
 10
1440.3585
 20
133.5367
 10
1440.6232
 20
133.4783
 10
1440.8728
 20
133.3966
 10
1441.1075
 20
133.2915
 10
1441.3272
 20
133.1632
 10
1441.5319
 20
133.0116
 10
1441.7215
 20
132.8367
 10
1441.8923
 20
132.6422
 10
1442.0405
 20
132.435
 10
1442.166
 20
132.215
 10
1442.2688
 20
131.9822
 10
1442.3489
 20
131.7365
 10
1442.4061
 20
131.4779
 10
1442.4405
 20
131.2063
 10
1442.452
 20
130.9216
 10
1442.4466
 20
130.7458
 10
1442.4302
 20
130.5705
 10
1442.403
 20
130.3956
 10
1442.3649
 20
130.2213
 10
1442.3158
 20
130.0475
 10
1442.2559
 20
129.8744
 10
1442.1851
 20
129.7019
 10
1442.1034
 20
129.5301
 10
1442.0117
 20
129.3622
 10
1441.9102
 20
129.204
 10
1441.7992
 20
129.0553
 10
1441.6785
 20
128.9162
 10
1441.5483
 20
128.7865
 10
1441.4085
 20
128.6662
 10
1441.2592
 20
128.5553
 10
1441.1005
 20
128.4535
 10
1441.1005
 20
128.4125
 10
1441.2878
 20
128.3019
 10
1441.4635
 20
128.1858
 10
1441.6275
 20
128.0643
 10
1441.7799
 20
127.9373
 10
1441.9206
 20
127.8047
 10
1442.0497
 20
127.6664
 10
1442.1671
 20
127.5223
 10
1442.2729
 20
127.3725
 10
1442.3663
 20
127.2137
 10
1442.4472
 20
127.0442
 10
1442.5157
 20
126.864
 10
1442.5716
 20
126.6729
 10
1442.6152
 20
126.4709
 10
1442.6462
 20
126.2579
 10
1442.6649
 20
126.0338
 10
1442.6711
 20
125.7986
 10
1442.6582
 20
125.4695
 10
1442.6195
 20
125.1541
 10
1442.5549
 20
124.8524
 10
1442.4646
 20
124.5644
 10
1442.3484
 20
124.2901
 10
1442.2064
 20
124.0295
 10
1442.0387
 20
123.7826
 10
1441.8451
 20
123.5494
 10
1441.6322
 20
123.3371
 10
1441.4066
 20
123.1531
 10
1441.1681
 20
122.9973
 10
1440.9166
 20
122.8698
 10
1440.6522
 20
122.7705
 10
1440.3746
 20
122.6996
 10
1440.0839
 20
122.6571
 10
1439.78
 20
122.6429
  0
LWPOLYLINE
  5
E5
330
1F
100
AcDbEntity
  8
Layer 1
 62
     7
100
AcDbPolyline
 90
       65
 70
     1
 43
0.0
 10
1449.2793
 20
128.1211
 10
1449.2684
 20
127.4407
 10
1449.2358
 20
126.8071
 10
1449.1814
 20
126.2203
 10
1449.1055
 20
125.6803
 10
1449.0078
 20
125.187
 10
1448.8886
 20
124.7404
 10
1448.7479
 20
124.3405
 10
1448.5857
 20
123.9874
 10
1448.4004
 20
123.6789
 10
1448.1915
 20
123.4115
 10
1447.959
 20
123.1854
 10
1447.7029
 20
123.0004
 10
1447.4233
 20
122.8566
 10
1447.1202
 20
122.7539
 10
1446.7937
 20
122.6922
 10
1446.4437
 20
122.6717
 10
1446.0891
 20
122.6927
 10
1445.7591
 20
122.7556
 10
1445.4537
 20
122.8605
 10
1445.1728
 20
123.0074
 10
1444.9164
 20
123.1962
 10
1444.6842
 20
123.427
 10
1444.4764
 20
123.6997
 10
1444.2928
 20
124.0144
 10
1444.132
 20
124.3715
 10
1443.9927
 20
124.7726
 10
1443.8749
 20
125.2179
 10
1443.7786
 20
125.7073
 10
1443.7037
 20
126.2408
 10
1443.6502
 20
126.8185
 10
1443.6181
 20
127.4403
 10
1443.6074
 20
128.1062
 10
1443.6183
 20
128.7895
 10
1443.6509
 20
129.4255
 10
1443.7052
 20
130.014
 10
1443.7812
 20
130.5551
 10
1443.8788
 20
131.0487
 10
1443.998
 20
131.4948
 10
1444.1387
 20
131.8933
 10
1444.3009
 20
132.2443
 10
1444.4866
 20
132.5516
 10
1444.6957
 20
132.8179
 10
1444.9282
 20
133.0431
 10
1445.1841
 20
133.2273
 10
1445.4636
 20
133.3706
 10
1445.7667
 20
133.4729
 10
1446.0933
 20
133.5342
 10
1446.4437
 20
133.5547
 10
1446.7979
 20
133.5335
 10
1447.1276
 20
133.4698
 10
1447.433
 20
133.3638
 10
1447.7139
 20
133.2154
 10
1447.9705
 20
133.0247
 10
1448.2027
 20
132.7917
 10
1448.4105
 20
132.5164
 10
1448.5939
 20
132.1989
 10
1448.7547
 20
131.8389
 10
1448.894
 20
131.4362
 10
1449.0118
 20
130.9908
 10
1449.1081
 20
130.5025
 10
1449.183
 20
129.9715
 10
1449.2365
 20
129.3976
 10
1449.2686
 20
128.7808
 10
1449.2793
 20
128.1211
  0
LWPOLYLINE
  5
E6
330
1F
100
AcDbEntity
  8
Layer 1
 62
     7
100
AcDbPolyline
 90
      121
 70
     1
 43
0.0
 10
1447.7538
 20
124.9366
 10
1447.7958
 20
125.0707
 10
1447.8346
 20
125.2133
 10
1447.8701
 20
125.3644
 10
1447.9025
 20
125.524
 10
1447.9575
 20
125.8691
 10
1447.9995
 20
126.2488
 10
1448.0165
 20
126.4512
 10
1448.0312
 20
126.6625
 10
1448.0438
 20
126.8829
 10
1448.0542
 20
127.1123
 10
1448.0623
 20
127.3507
 10
1448.0681
 20
127.5984
 10
1448.0716
 20
127.8551
 10
1448.0728
 20
128.1211
 10
1448.0716
 20
128.3844
 10
1448.0681
 20
128.6392
 10
1448.0623
 20
128.8854
 10
1448.0542
 20
129.1229
 10
1448.0438
 20
129.3516
 10
1448.0312
 20
129.5715
 10
1448.0165
 20
129.7825
 10
1447.9995
 20
129.9846
 10
1447.9572
 20
130.3648
 10
1447.9016
 20
130.7111
 10
1447.8687
 20
130.8717
 10
1447.8327
 20
131.0238
 10
1447.7933
 20
131.1675
 10
1447.7508
 20
131.3029
 10
1447.704
 20
131.4325
 10
1447.6528
 20
131.5539
 10
1447.5974
 20
131.6671
 10
1447.5378
 20
131.7722
 10
1447.474
 20
131.8692
 10
1447.4062
 20
131.9582
 10
1447.3344
 20
132.0393
 10
1447.2586
 20
132.1125
 10
1447.1773
 20
132.1776
 10
1447.0901
 20
132.234
 10
1446.9969
 20
132.2819
 10
1446.8978
 20
132.3211
 10
1446.7929
 20
132.3516
 10
1446.6822
 20
132.3734
 10
1446.5658
 20
132.3865
 10
1446.4437
 20
132.3909
 10
1446.3228
 20
132.3865
 10
1446.2073
 20
132.3734
 10
1446.0972
 20
132.3516
 10
1445.9926
 20
132.3211
 10
1445.8935
 20
132.2819
 10
1445.8
 20
132.234
 10
1445.7123
 20
132.1776
 10
1445.6303
 20
132.1125
 10
1445.5524
 20
132.0391
 10
1445.4788
 20
131.9574
 10
1445.4093
 20
131.8674
 10
1445.3441
 20
131.769
 10
1445.2831
 20
131.6622
 10
1445.2265
 20
131.547
 10
1445.1742
 20
131.4231
 10
1445.1262
 20
131.2907
 10
1445.0828
 20
131.1526
 10
1445.0432
 20
131.006
 10
1445.0071
 20
130.8508
 10
1444.9747
 20
130.6869
 10
1444.9203
 20
130.3329
 10
1444.8797
 20
129.9436
 10
1444.865
 20
129.7366
 10
1444.8522
 20
129.5233
 10
1444.8411
 20
129.3035
 10
1444.832
 20
129.0773
 10
1444.8248
 20
128.8445
 10
1444.8195
 20
128.6051
 10
1444.8164
 20
128.359
 10
1444.8153
 20
128.1062
 10
1444.8162
 20
127.8385
 10
1444.8188
 20
127.5819
 10
1444.8232
 20
127.3364
 10
1444.8294
 20
127.102
 10
1444.8373
 20
126.8787
 10
1444.8472
 20
126.6666
 10
1444.8588
 20
126.4656
 10
1444.8723
 20
126.2758
 10
1444.9086
 20
125.9183
 10
1444.9621
 20
125.5791
 10
1444.9953
 20
125.4165
 10
1445.0327
 20
125.2586
 10
1445.0744
 20
125.1056
 10
1445.1203
 20
124.9575
 10
1445.1651
 20
124.8268
 10
1445.2148
 20
124.7037
 10
1445.2692
 20
124.5882
 10
1445.3283
 20
124.4803
 10
1445.3923
 20
124.3802
 10
1445.4609
 20
124.2877
 10
1445.5344
 20
124.203
 10
1445.6125
 20
124.1261
 10
1445.6945
 20
124.058
 10
1445.7829
 20
123.9991
 10
1445.8775
 20
123.9493
 10
1445.9784
 20
123.9086
 10
1446.0855
 20
123.877
 10
1446.1988
 20
123.8544
 10
1446.3182
 20
123.8409
 10
1446.4437
 20
123.8364
 10
1446.5643
 20
123.8408
 10
1446.6796
 20
123.8539
 10
1446.7895
 20
123.8757
 10
1446.8942
 20
123.9062
 10
1446.9934
 20
123.9454
 10
1447.0872
 20
123.9933
 10
1447.1756
 20
124.0497
 10
1447.2586
 20
124.1148
 10
1447.3358
 20
124.188
 10
1447.4087
 20
124.2695
 10
1447.4773
 20
124.3595
 10
1447.5415
 20
124.4579
 10
1447.6012
 20
124.5648
 10
1447.6565
 20
124.6802
 10
1447.7074
 20
124.8041
 10
1447.7538
 20
124.9366
  0
LWPOLYLINE
  5
E7
330
1F
100
AcDbEntity
  8
Layer 1
 62
     7
100
AcDbPolyline
 90
      156
 70
     1
 43
0.0
 10
1461.9427
 20
122.8872
 10
1461.9427
 20
127.4214
 10
1461.9065
 20
128.4203
 10
1461.8846
 20
128.6376
 10
1461.8524
 20
128.8301
 10
1461.8103
 20
128.9982
 10
1461.7584
 20
129.1418
 10
1461.7269
 20
129.2094
 10
1461.6922
 20
129.2724
 10
1461.6544
 20
129.3307
 10
1461.6135
 20
129.3843
 10
1461.5695
 20
129.4334
 10
1461.5223
 20
129.478
 10
1461.4721
 20
129.518
 10
1461.4187
 20
129.5536
 10
1461.3613
 20
129.5849
 10
1461.299
 20
129.6121
 10
1461.2319
 20
129.6352
 10
1461.1599
 20
129.6542
 10
1461.0012
 20
129.6795
 10
1460.8229
 20
129.688
 10
1460.7353
 20
129.6841
 10
1460.6463
 20
129.6723
 10
1460.5559
 20
129.6527
 10
1460.464
 20
129.6252
 10
1460.3706
 20
129.5898
 10
1460.2757
 20
129.5466
 10
1460.1792
 20
129.4956
 10
1460.0812
 20
129.4367
 10
1459.9814
 20
129.371
 10
1459.8808
 20
129.2982
 10
1459.7794
 20
129.2183
 10
1459.6772
 20
129.1313
 10
1459.4704
 20
128.936
 10
1459.2604
 20
128.7126
 10
1459.2759
 20
128.4299
 10
1459.2841
 20
128.0391
 10
1459.2841
 20
122.8872
 10
1458.1627
 20
122.8872
 10
1458.1627
 20
127.4214
 10
1458.1264
 20
128.4203
 10
1458.1043
 20
128.6376
 10
1458.0716
 20
128.8301
 10
1458.029
 20
128.9982
 10
1457.9769
 20
129.1418
 10
1457.9458
 20
129.2094
 10
1457.9114
 20
129.2724
 10
1457.8737
 20
129.3307
 10
1457.8328
 20
129.3843
 10
1457.7888
 20
129.4334
 10
1457.7417
 20
129.478
 10
1457.6916
 20
129.518
 10
1457.6387
 20
129.5536
 10
1457.5812
 20
129.5849
 10
1457.5188
 20
129.6121
 10
1457.4515
 20
129.6352
 10
1457.3793
 20
129.6542
 10
1457.2203
 20
129.6795
 10
1457.0421
 20
129.688
 10
1456.9503
 20
129.6838
 10
1456.8574
 20
129.6713
 10
1456.7635
 20
129.6504
 10
1456.6685
 20
129.621
 10
1456.5725
 20
129.5833
 10
1456.4755
 20
129.5371
 10
1456.3774
 20
129.4824
 10
1456.2782
 20
129.4193
 10
1456.0797
 20
129.2758
 10
1455.8848
 20
129.1138
 10
1455.693
 20
128.9333
 10
1455.504
 20
128.7344
 10
1455.504
 20
122.8872
 10
1454.3812
 20
122.8872
 10
1454.3812
 20
130.7227
 10
1455.504
 20
130.7227
 10
1455.504
 20
129.8503
 10
1455.7239
 20
130.0945
 10
1455.9428
 20
130.31
 10
1456.0519
 20
130.4068
 10
1456.1608
 20
130.4965
 10
1456.2696
 20
130.5788
 10
1456.3782
 20
130.6538
 10
1456.4873
 20
130.7201
 10
1456.5992
 20
130.7777
 10
1456.714
 20
130.8266
 10
1456.8315
 20
130.8667
 10
1456.9517
 20
130.8979
 10
1457.0746
 20
130.9203
 10
1457.2002
 20
130.9337
 10
1457.3285
 20
130.9382
 10
1457.4736
 20
130.9333
 10
1457.6148
 20
130.9184
 10
1457.7518
 20
130.8937
 10
1457.8848
 20
130.859
 10
1458.0137
 20
130.8145
 10
1458.1384
 20
130.76
 10
1458.2589
 20
130.6957
 10
1458.3751
 20
130.6215
 10
1458.4855
 20
130.5363
 10
1458.5892
 20
130.4385
 10
1458.6861
 20
130.3279
 10
1458.7762
 20
130.2047
 10
1458.8595
 20
130.0688
 10
1458.9358
 20
129.9202
 10
1459.0053
 20
129.759
 10
1459.0679
 20
129.585
 10
1459.1951
 20
129.746
 10
1459.3212
 20
129.8972
 10
1459.4464
 20
130.0385
 10
1459.5706
 20
130.1697
 10
1459.6939
 20
130.2908
 10
1459.8162
 20
130.4018
 10
1459.9377
 20
130.5024
 10
1460.0583
 20
130.5927
 10
1460.1811
 20
130.6737
 10
1460.3063
 20
130.7439
 10
1460.434
 20
130.8033
 10
1460.5642
 20
130.8519
 10
1460.6969
 20
130.8896
 10
1460.832
 20
130.9166
 10
1460.9698
 20
130.9328
 10
1461.11
 20
130.9382
 10
1461.2162
 20
130.9357
 10
1461.3199
 20
130.9284
 10
1461.4211
 20
130.9161
 10
1461.5199
 20
130.8989
 10
1461.6163
 20
130.8767
 10
1461.7102
 20
130.8495
 10
1461.8017
 20
130.8174
 10
1461.8909
 20
130.7803
 10
1461.9771
 20
130.7378
 10
1462.0606
 20
130.6894
 10
1462.1415
 20
130.6351
 10
1462.2197
 20
130.5748
 10
1462.2952
 20
130.5085
 10
1462.368
 20
130.436
 10
1462.438
 20
130.3574
 10
1462.5052
 20
130.2725
 10
1462.5702
 20
130.1799
 10
1462.6315
 20
130.0822
 10
1462.6889
 20
129.979
 10
1462.7425
 20
129.8705
 10
1462.7923
 20
129.7565
 10
1462.8382
 20
129.637
 10
1462.8802
 20
129.5118
 10
1462.9183
 20
129.3809
 10
1462.9529
 20
129.2435
 10
1462.9828
 20
129.0975
 10
1463.0081
 20
128.943
 10
1463.0288
 20
128.7799
 10
1463.0449
 20
128.6081
 10
1463.0563
 20
128.4277
 10
1463.0632
 20
128.2386
 10
1463.0655
 20
128.0408
 10
1463.0655
 20
122.8872
 10
1461.9427
 20
122.8872
  0
LWPOLYLINE
  5
E8
330
1F
100
AcDbEntity
  8
Layer 1
 62
     7
100
AcDbPolyline
 90
      154
 70
     1
 43
0.0
 10
1472.1866
 20
122.8872
 10
1472.1866
 20
127.4214
 10
1472.1496
 20
128.4203
 10
1472.128
 20
128.6376
 10
1472.0958
 20
128.8301
 10
1472.0535
 20
128.9982
 10
1472.0015
 20
129.1418
 10
1471.9701
 20
129.2094
 10
1471.9355
 20
129.2724
 10
1471.8977
 20
129.3307
 10
1471.8567
 20
129.3843
 10
1471.8126
 20
129.4334
 10
1471.7655
 20
129.478
 10
1471.7155
 20
129.518
 10
1471.6625
 20
129.5536
 10
1471.6051
 20
129.5849
 10
1471.5427
 20
129.6121
 10
1471.4753
 20
129.6352
 10
1471.4031
 20
129.6542
 10
1471.2441
 20
129.6795
 10
1471.066
 20
129.688
 10
1470.9787
 20
129.6841
 10
1470.8899
 20
129.6723
 10
1470.7997
 20
129.6527
 10
1470.708
 20
129.6252
 10
1470.6147
 20
129.5898
 10
1470.5198
 20
129.5466
 10
1470.4233
 20
129.4956
 10
1470.3251
 20
129.4367
 10
1470.2255
 20
129.371
 10
1470.1249
 20
129.2982
 10
1470.0233
 20
129.2183
 10
1469.9208
 20
129.1313
 10
1469.7133
 20
128.936
 10
1469.5027
 20
128.7126
 10
1469.5198
 20
128.4299
 10
1469.5279
 20
128.0391
 10
1469.5279
 20
122.8872
 10
1468.4058
 20
122.8872
 10
1468.4058
 20
127.4214
 10
1468.3696
 20
128.4203
 10
1468.3475
 20
128.6376
 10
1468.3149
 20
128.8301
 10
1468.2724
 20
128.9982
 10
1468.2208
 20
129.1418
 10
1468.1895
 20
129.2094
 10
1468.155
 20
129.2724
 10
1468.1174
 20
129.3307
 10
1468.0765
 20
129.3843
 10
1468.0326
 20
129.4334
 10
1467.9854
 20
129.478
 10
1467.9352
 20
129.518
 10
1467.8818
 20
129.5536
 10
1467.8242
 20
129.5849
 10
1467.7617
 20
129.6121
 10
1467.6945
 20
129.6352
 10
1467.6225
 20
129.6542
 10
1467.4639
 20
129.6795
 10
1467.286
 20
129.688
 10
1467.1937
 20
129.6838
 10
1467.1006
 20
129.6713
 10
1467.0067
 20
129.6504
 10
1466.9117
 20
129.621
 10
1466.8158
 20
129.5833
 10
1466.7188
 20
129.5371
 10
1466.6207
 20
129.4824
 10
1466.5214
 20
129.4193
 10
1466.3235
 20
129.2758
 10
1466.1284
 20
129.1138
 10
1465.936
 20
128.9333
 10
1465.7464
 20
128.7344
 10
1465.7464
 20
122.8872
 10
1464.6243
 20
122.8872
 10
1464.6243
 20
130.7227
 10
1465.7464
 20
130.7227
 10
1465.7464
 20
129.8503
 10
1465.9674
 20
130.0945
 10
1466.1865
 20
130.31
 10
1466.2955
 20
130.4068
 10
1466.4041
 20
130.4965
 10
1466.5125
 20
130.5788
 10
1466.6206
 20
130.6538
 10
1466.7304
 20
130.7201
 10
1466.8428
 20
130.7777
 10
1466.9578
 20
130.8266
 10
1467.0754
 20
130.8667
 10
1467.1956
 20
130.8979
 10
1467.3185
 20
130.9203
 10
1467.4441
 20
130.9337
 10
1467.5724
 20
130.9382
 10
1467.7177
 20
130.9333
 10
1467.859
 20
130.9184
 10
1467.9961
 20
130.8937
 10
1468.1291
 20
130.859
 10
1468.258
 20
130.8145
 10
1468.3827
 20
130.76
 10
1468.5033
 20
130.6957
 10
1468.6197
 20
130.6215
 10
1468.7297
 20
130.5363
 10
1468.833
 20
130.4385
 10
1468.9297
 20
130.3279
 10
1469.0197
 20
130.2047
 10
1469.103
 20
130.0688
 10
1469.1796
 20
129.9202
 10
1469.2494
 20
129.759
 10
1469.3125
 20
129.585
 10
1469.4392
 20
129.746
 10
1469.565
 20
129.8972
 10
1469.6899
 20
130.0385
 10
1469.814
 20
130.1697
 10
1469.9372
 20
130.2908
 10
1470.0596
 20
130.4018
 10
1470.1813
 20
130.5024
 10
1470.3021
 20
130.5927
 10
1470.4246
 20
130.6737
 10
1470.5496
 20
130.7439
 10
1470.6771
 20
130.8033
 10
1470.8072
 20
130.8519
 10
1470.9398
 20
130.8896
 10
1471.0752
 20
130.9166
 10
1471.2132
 20
130.9328
 10
1471.3539
 20
130.9382
 10
1471.4601
 20
130.9357
 10
1471.5637
 20
130.9284
 10
1471.6649
 20
130.9161
 10
1471.7636
 20
130.8989
 10
1471.8599
 20
130.8767
 10
1471.9537
 20
130.8495
 10
1472.0451
 20
130.8174
 10
1472.134
 20
130.7803
 10
1472.2202
 20
130.7378
 10
1472.3037
 20
130.6894
 10
1472.3846
 20
130.6351
 10
1472.4627
 20
130.5748
 10
1472.5382
 20
130.5085
 10
1472.6108
 20
130.436
 10
1472.6806
 20
130.3574
 10
1472.7476
 20
130.2725
 10
1472.8129
 20
130.1799
 10
1472.8743
 20
130.0822
 10
1472.9319
 20
129.979
 10
1472.9857
 20
129.8705
 10
1473.0356
 20
129.7565
 10
1473.0816
 20
129.637
 10
1473.1238
 20
129.5118
 10
1473.1621
 20
129.3809
 10
1473.1967
 20
129.2435
 10
1473.2266
 20
129.0975
 10
1473.2518
 20
128.943
 10
1473.2723
 20
128.7799
 10
1473.2996
 20
128.4277
 10
1473.3087
 20
128.0408
 10
1473.3087
 20
122.8872
 10
1472.1866
 20
122.8872
  0
LWPOLYLINE
  5
E9
330
1F
100
AcDbEntity
  8
Layer 1
 62
     7
100
AcDbPolyline
 90
       94
 70
     1
 43
0.0
 10
1451.1534
 20
31.8005
 10
1445.6887
 20
31.8005
 10
1445.6887
 20
33.2732
 10
1446.8027
 20
34.5365
 10
1447.8271
 20
35.7946
 10
1448.07
 20
36.1142
 10
1448.2931
 20
36.4176
 10
1448.4961
 20
36.7046
 10
1448.6791
 20
36.9753
 10
1448.8421
 20
37.2297
 10
1448.9848
 20
37.4678
 10
1449.1074
 20
37.6898
 10
1449.2097
 20
37.8955
 10
1449.2959
 20
38.0931
 10
1449.3708
 20
38.2925
 10
1449.4342
 20
38.4938
 10
1449.4862
 20
38.6969
 10
1449.5268
 20
38.9019
 10
1449.5558
 20
39.1087
 10
1449.5732
 20
39.3174
 10
1449.579
 20
39.5278
 10
1449.5719
 20
39.7384
 10
1449.5503
 20
39.9358
 10
1449.5141
 20
40.1203
 10
1449.4628
 20
40.2921
 10
1449.3994
 20
40.4503
 10
1449.325
 20
40.594
 10
1449.24
 20
40.7232
 10
1449.1446
 20
40.8382
 10
1449.0359
 20
40.9374
 10
1448.9189
 20
41.023
 10
1448.7937
 20
41.0952
 10
1448.6605
 20
41.1541
 10
1448.5202
 20
41.2
 10
1448.3733
 20
41.233
 10
1448.2198
 20
41.2529
 10
1448.0595
 20
41.2596
 10
1447.9013
 20
41.2538
 10
1447.7419
 20
41.2362
 10
1447.5812
 20
41.2063
 10
1447.4192
 20
41.1637
 10
1446.796
 20
40.9298
 10
1446.3119
 20
40.6419
 10
1445.9367
 20
40.354
 10
1445.8716
 20
40.354
 10
1445.8716
 20
41.8372
 10
1446.0738
 20
41.9454
 10
1446.3122
 20
42.0518
 10
1446.5868
 20
42.1569
 10
1446.8982
 20
42.2612
 10
1447.0614
 20
42.3094
 10
1447.2226
 20
42.3512
 10
1447.3817
 20
42.3866
 10
1447.5386
 20
42.4155
 10
1447.6933
 20
42.4381
 10
1447.846
 20
42.4542
 10
1447.9964
 20
42.4639
 10
1448.1446
 20
42.4671
 10
1448.4455
 20
42.455
 10
1448.7297
 20
42.4186
 10
1448.9972
 20
42.358
 10
1449.2482
 20
42.2732
 10
1449.4824
 20
42.1643
 10
1449.7
 20
42.0313
 10
1449.901
 20
41.8743
 10
1450.0853
 20
41.6932
 10
1450.2498
 20
41.4907
 10
1450.3923
 20
41.271
 10
1450.5129
 20
41.0342
 10
1450.6116
 20
40.7802
 10
1450.6883
 20
40.5091
 10
1450.7431
 20
40.2208
 10
1450.776
 20
39.9152
 10
1450.787
 20
39.5924
 10
1450.7794
 20
39.2925
 10
1450.7566
 20
39.0043
 10
1450.7186
 20
38.7279
 10
1450.6656
 20
38.4634
 10
1450.598
 20
38.2093
 10
1450.5195
 20
37.9642
 10
1450.4301
 20
37.7285
 10
1450.3296
 20
37.5028
 10
1450.2141
 20
37.275
 10
1450.0872
 20
37.0481
 10
1449.9489
 20
36.8222
 10
1449.7989
 20
36.5972
 10
1449.146
 20
35.7152
 10
1448.8579
 20
35.3542
 10
1448.5543
 20
34.9858
 10
1448.2351
 20
34.6103
 10
1447.9003
 20
34.2277
 10
1446.8027
 20
33.008
 10
1451.1534
 20
33.008
 10
1451.1534
 20
31.8005
  0
LWPOLYLINE
  5
EA
330
1F
100
AcDbEntity
  8
Layer 1
 62
     7
100
AcDbPolyline
 90
       27
 70
     1
 43
0.0
 10
1457.3707
 20
31.8005
 10
1453.04
 20
31.8005
 10
1453.04
 20
32.864
 10
1454.6506
 20
32.864
 10
1454.6506
 20
39.8803
 10
1453.04
 20
39.8803
 10
1453.04
 20
40.8286
 10
1453.2605
 20
40.8334
 10
1453.4662
 20
40.8479
 10
1453.6569
 20
40.872
 10
1453.8328
 20
40.9056
 10
1453.9938
 20
40.9488
 10
1454.1397
 20
41.0016
 10
1454.2706
 20
41.0639
 10
1454.3864
 20
41.1357
 10
1454.488
 20
41.2206
 10
1454.5779
 20
41.3228
 10
1454.6562
 20
41.4422
 10
1454.7228
 20
41.5787
 10
1454.7777
 20
41.7324
 10
1454.821
 20
41.903
 10
1454.8527
 20
42.0907
 10
1454.8727
 20
42.2952
 10
1455.7964
 20
42.2952
 10
1455.7964
 20
32.864
 10
1457.3707
 20
32.864
 10
1457.3707
 20
31.8005
  0
LWPOLYLINE
  5
EB
330
1F
100
AcDbEntity
  8
Layer 1
 62
     7
100
AcDbPolyline
 90
       65
 70
     1
 43
0.0
 10
1464.5281
 20
37.0335
 10
1464.5172
 20
36.3531
 10
1464.4847
 20
35.7195
 10
1464.4304
 20
35.1327
 10
1464.3545
 20
34.5927
 10
1464.257
 20
34.0994
 10
1464.1378
 20
33.6528
 10
1463.997
 20
33.2529
 10
1463.8346
 20
32.8998
 10
1463.6491
 20
32.5913
 10
1463.4401
 20
32.3239
 10
1463.2076
 20
32.0978
 10
1462.9516
 20
31.9128
 10
1462.6719
 20
31.769
 10
1462.3686
 20
31.6663
 10
1462.0417
 20
31.6046
 10
1461.6911
 20
31.5841
 10
1461.337
 20
31.6051
 10
1461.0074
 20
31.6682
 10
1460.7022
 20
31.7732
 10
1460.4215
 20
31.9201
 10
1460.1651
 20
32.109
 10
1459.9331
 20
32.3398
 10
1459.7252
 20
32.6124
 10
1459.5416
 20
32.9268
 10
1459.3806
 20
33.2839
 10
1459.2412
 20
33.6851
 10
1459.1234
 20
34.1304
 10
1459.0271
 20
34.6198
 10
1458.9523
 20
35.1534
 10
1458.8989
 20
35.7313
 10
1458.8669
 20
36.3533
 10
1458.8562
 20
37.0195
 10
1458.8671
 20
37.7028
 10
1458.8996
 20
38.3386
 10
1458.9539
 20
38.927
 10
1459.0298
 20
39.4679
 10
1459.1274
 20
39.9614
 10
1459.2466
 20
40.4073
 10
1459.3874
 20
40.8058
 10
1459.5498
 20
41.1567
 10
1459.735
 20
41.464
 10
1459.9438
 20
41.7303
 10
1460.1761
 20
41.9555
 10
1460.432
 20
42.1397
 10
1460.7114
 20
42.283
 10
1461.0144
 20
42.3853
 10
1461.3409
 20
42.4466
 10
1461.6911
 20
42.4671
 10
1462.0455
 20
42.4459
 10
1462.3753
 20
42.3824
 10
1462.6807
 20
42.2764
 10
1462.9618
 20
42.1282
 10
1463.2184
 20
41.9375
 10
1463.4507
 20
41.7045
 10
1463.6588
 20
41.4291
 10
1463.8427
 20
41.1113
 10
1464.0035
 20
40.7513
 10
1464.1428
 20
40.3486
 10
1464.2606
 20
39.9032
 10
1464.3569
 20
39.4149
 10
1464.4318
 20
38.8839
 10
1464.4853
 20
38.31
 10
1464.5174
 20
37.6932
 10
1464.5281
 20
37.0335
  0
LWPOLYLINE
  5
EC
330
1F
100
AcDbEntity
  8
Layer 1
 62
     7
100
AcDbPolyline
 90
      121
 70
     1
 43
0.0
 10
1463.0026
 20
33.849
 10
1463.0446
 20
33.9833
 10
1463.0833
 20
34.126
 10
1463.1188
 20
34.2772
 10
1463.1511
 20
34.4368
 10
1463.2063
 20
34.7819
 10
1463.2491
 20
35.1621
 10
1463.2658
 20
35.3642
 10
1463.2803
 20
35.5753
 10
1463.2926
 20
35.7955
 10
1463.3028
 20
36.0248
 10
1463.3107
 20
36.2632
 10
1463.3163
 20
36.5108
 10
1463.3198
 20
36.7675
 10
1463.3209
 20
37.0335
 10
1463.3198
 20
37.2968
 10
1463.3163
 20
37.5516
 10
1463.3107
 20
37.7978
 10
1463.3028
 20
38.0353
 10
1463.2926
 20
38.264
 10
1463.2803
 20
38.4839
 10
1463.2658
 20
38.6949
 10
1463.2491
 20
38.897
 10
1463.2061
 20
39.2772
 10
1463.1501
 20
39.6236
 10
1463.1171
 20
39.7841
 10
1463.0808
 20
39.9362
 10
1463.0412
 20
40.0799
 10
1462.9982
 20
40.2153
 10
1462.9514
 20
40.3449
 10
1462.9004
 20
40.4663
 10
1462.8451
 20
40.5795
 10
1462.7858
 20
40.6846
 10
1462.7222
 20
40.7816
 10
1462.6545
 20
40.8706
 10
1462.5826
 20
40.9517
 10
1462.5067
 20
41.0249
 10
1462.4253
 20
41.09
 10
1462.338
 20
41.1464
 10
1462.2448
 20
41.1943
 10
1462.1458
 20
41.2335
 10
1462.0409
 20
41.264
 10
1461.9302
 20
41.2858
 10
1461.8136
 20
41.2989
 10
1461.6911
 20
41.3033
 10
1461.5707
 20
41.2989
 10
1461.4557
 20
41.2858
 10
1461.3459
 20
41.264
 10
1461.2414
 20
41.2335
 10
1461.1424
 20
41.1943
 10
1461.0489
 20
41.1464
 10
1460.9609
 20
41.09
 10
1460.8784
 20
41.0249
 10
1460.8007
 20
40.9515
 10
1460.7272
 20
40.8698
 10
1460.6578
 20
40.7798
 10
1460.5926
 20
40.6814
 10
1460.5316
 20
40.5746
 10
1460.475
 20
40.4594
 10
1460.4228
 20
40.3355
 10
1460.3751
 20
40.2031
 10
1460.3317
 20
40.065
 10
1460.292
 20
39.9184
 10
1460.256
 20
39.7632
 10
1460.2236
 20
39.5993
 10
1460.1695
 20
39.2453
 10
1460.1293
 20
38.856
 10
1460.1144
 20
38.649
 10
1460.1012
 20
38.4357
 10
1460.0899
 20
38.216
 10
1460.0805
 20
37.9898
 10
1460.0731
 20
37.7571
 10
1460.0678
 20
37.5179
 10
1460.0645
 20
37.272
 10
1460.0634
 20
37.0195
 10
1460.0643
 20
36.7515
 10
1460.067
 20
36.4947
 10
1460.0715
 20
36.249
 10
1460.0778
 20
36.0145
 10
1460.0858
 20
35.7912
 10
1460.0956
 20
35.579
 10
1460.1071
 20
35.378
 10
1460.1204
 20
35.1882
 10
1460.1568
 20
34.8307
 10
1460.2105
 20
34.4915
 10
1460.2436
 20
34.3289
 10
1460.2809
 20
34.171
 10
1460.3222
 20
34.0181
 10
1460.3677
 20
33.87
 10
1460.4131
 20
33.7393
 10
1460.4631
 20
33.6162
 10
1460.5179
 20
33.5006
 10
1460.5773
 20
33.3928
 10
1460.6414
 20
33.2926
 10
1460.7101
 20
33.2001
 10
1460.7834
 20
33.1154
 10
1460.8613
 20
33.0385
 10
1460.9436
 20
32.9704
 10
1461.0321
 20
32.9115
 10
1461.1268
 20
32.8617
 10
1461.2276
 20
32.8211
 10
1461.3345
 20
32.7895
 10
1461.4475
 20
32.7669
 10
1461.5663
 20
32.7534
 10
1461.6911
 20
32.7489
 10
1461.8122
 20
32.7533
 10
1461.9279
 20
32.7664
 10
1462.0382
 20
32.7882
 10
1462.143
 20
32.8187
 10
1462.2423
 20
32.8578
 10
1462.3361
 20
32.9057
 10
1462.4242
 20
32.9621
 10
1462.5067
 20
33.0272
 10
1462.5842
 20
33.1006
 10
1462.6574
 20
33.1823
 10
1462.7262
 20
33.2723
 10
1462.7905
 20
33.3707
 10
1462.8504
 20
33.4775
 10
1462.9057
 20
33.5927
 10
1462.9564
 20
33.7166
 10
1463.0026
 20
33.849
  0
LWPOLYLINE
  5
ED
330
1F
100
AcDbEntity
  8
Layer 1
 62
     7
100
AcDbPolyline
 90
      156
 70
     1
 43
0.0
 10
1477.1923
 20
31.8005
 10
1477.1923
 20
36.3338
 10
1477.1553
 20
37.3327
 10
1477.1333
 20
37.55
 10
1477.101
 20
37.7425
 10
1477.0588
 20
37.9106
 10
1477.0073
 20
38.0542
 10
1476.9757
 20
38.1218
 10
1476.941
 20
38.1848
 10
1476.9031
 20
38.2431
 10
1476.8621
 20
38.2967
 10
1476.818
 20
38.3458
 10
1476.7709
 20
38.3904
 10
1476.7207
 20
38.4304
 10
1476.6675
 20
38.466
 10
1476.6101
 20
38.4973
 10
1476.5477
 20
38.5245
 10
1476.4804
 20
38.5476
 10
1476.4083
 20
38.5666
 10
1476.2497
 20
38.5919
 10
1476.0724
 20
38.6004
 10
1475.9846
 20
38.5965
 10
1475.8955
 20
38.5847
 10
1475.8051
 20
38.5651
 10
1475.7132
 20
38.5376
 10
1475.6198
 20
38.5022
 10
1475.5249
 20
38.459
 10
1475.4283
 20
38.408
 10
1475.3301
 20
38.3491
 10
1475.2305
 20
38.2834
 10
1475.1299
 20
38.2106
 10
1475.0283
 20
38.1307
 10
1474.9258
 20
38.0437
 10
1474.7183
 20
37.8484
 10
1474.5077
 20
37.625
 10
1474.5248
 20
37.3423
 10
1474.5329
 20
36.9515
 10
1474.5329
 20
31.8005
 10
1473.4108
 20
31.8005
 10
1473.4108
 20
36.3338
 10
1473.3745
 20
37.3327
 10
1473.3522
 20
37.55
 10
1473.3199
 20
37.7425
 10
1473.2777
 20
37.9106
 10
1473.2258
 20
38.0542
 10
1473.1943
 20
38.1218
 10
1473.1597
 20
38.1848
 10
1473.122
 20
38.2431
 10
1473.0811
 20
38.2967
 10
1473.0372
 20
38.3458
 10
1472.99
 20
38.3904
 10
1472.9396
 20
38.4304
 10
1472.886
 20
38.466
 10
1472.8289
 20
38.4973
 10
1472.7668
 20
38.5245
 10
1472.6998
 20
38.5476
 10
1472.6279
 20
38.5666
 10
1472.4693
 20
38.5919
 10
1472.2909
 20
38.6004
 10
1472.1991
 20
38.5962
 10
1472.1063
 20
38.5837
 10
1472.0125
 20
38.5628
 10
1471.9175
 20
38.5334
 10
1471.8215
 20
38.4957
 10
1471.7243
 20
38.4495
 10
1471.626
 20
38.3948
 10
1471.5264
 20
38.3317
 10
1471.3284
 20
38.1882
 10
1471.1331
 20
38.0262
 10
1470.9407
 20
37.8457
 10
1470.7514
 20
37.6468
 10
1470.7514
 20
31.8005
 10
1469.6293
 20
31.8005
 10
1469.6293
 20
39.6351
 10
1470.7514
 20
39.6351
 10
1470.7514
 20
38.7627
 10
1470.9721
 20
39.0069
 10
1471.1912
 20
39.2224
 10
1471.3003
 20
39.3192
 10
1471.409
 20
39.4089
 10
1471.5174
 20
39.4912
 10
1471.6255
 20
39.5662
 10
1471.7353
 20
39.6326
 10
1471.8477
 20
39.6903
 10
1471.9627
 20
39.7393
 10
1472.0803
 20
39.7795
 10
1472.2006
 20
39.8109
 10
1472.3235
 20
39.8334
 10
1472.4491
 20
39.847
 10
1472.5774
 20
39.8515
 10
1472.7227
 20
39.8465
 10
1472.864
 20
39.8316
 10
1473.0011
 20
39.8067
 10
1473.1341
 20
39.7719
 10
1473.263
 20
39.7272
 10
1473.3877
 20
39.6726
 10
1473.5083
 20
39.6082
 10
1473.6247
 20
39.5339
 10
1473.7349
 20
39.4488
 10
1473.8383
 20
39.351
 10
1473.935
 20
39.2406
 10
1474.025
 20
39.1174
 10
1474.1082
 20
38.9816
 10
1474.1847
 20
38.833
 10
1474.2545
 20
38.6716
 10
1474.3175
 20
38.4974
 10
1474.4444
 20
38.6584
 10
1474.5703
 20
38.8096
 10
1474.6952
 20
38.9509
 10
1474.8193
 20
39.0821
 10
1474.9426
 20
39.2032
 10
1475.0651
 20
39.3142
 10
1475.1868
 20
39.4148
 10
1475.3079
 20
39.5051
 10
1475.4302
 20
39.5861
 10
1475.555
 20
39.6564
 10
1475.6823
 20
39.716
 10
1475.8123
 20
39.7647
 10
1475.9449
 20
39.8026
 10
1476.0802
 20
39.8298
 10
1476.2182
 20
39.8461
 10
1476.3589
 20
39.8515
 10
1476.4651
 20
39.849
 10
1476.5687
 20
39.8416
 10
1476.6699
 20
39.8291
 10
1476.7686
 20
39.8118
 10
1476.8649
 20
39.7896
 10
1476.9587
 20
39.7624
 10
1477.0501
 20
39.7304
 10
1477.139
 20
39.6936
 10
1477.2252
 20
39.6508
 10
1477.3087
 20
39.6022
 10
1477.3896
 20
39.5477
 10
1477.4677
 20
39.4873
 10
1477.5432
 20
39.4209
 10
1477.6158
 20
39.3484
 10
1477.6856
 20
39.2698
 10
1477.7526
 20
39.1849
 10
1477.8179
 20
39.0923
 10
1477.8793
 20
38.9946
 10
1477.9369
 20
38.8914
 10
1477.9907
 20
38.7829
 10
1478.0407
 20
38.6689
 10
1478.0869
 20
38.5494
 10
1478.1293
 20
38.4242
 10
1478.1678
 20
38.2933
 10
1478.2021
 20
38.1562
 10
1478.2319
 20
38.0104
 10
1478.2571
 20
37.856
 10
1478.2777
 20
37.693
 10
1478.2938
 20
37.5212
 10
1478.3052
 20
37.3406
 10
1478.3121
 20
37.1513
 10
1478.3144
 20
36.9532
 10
1478.3144
 20
31.8005
 10
1477.1923
 20
31.8005
  0
LWPOLYLINE
  5
EE
330
1F
100
AcDbEntity
  8
Layer 1
 62
     7
100
AcDbPolyline
 90
      154
 70
     1
 43
0.0
 10
1487.4347
 20
31.8005
 10
1487.4347
 20
36.3338
 10
1487.3984
 20
37.3327
 10
1487.3765
 20
37.55
 10
1487.3444
 20
37.7425
 10
1487.3023
 20
37.9106
 10
1487.2504
 20
38.0542
 10
1487.1839
 20
38.1848
 10
1487.1052
 20
38.2967
 10
1487.0613
 20
38.3458
 10
1487.0142
 20
38.3904
 10
1486.964
 20
38.4304
 10
1486.9107
 20
38.466
 10
1486.8533
 20
38.4973
 10
1486.791
 20
38.5245
 10
1486.7239
 20
38.5476
 10
1486.6519
 20
38.5666
 10
1486.4931
 20
38.5919
 10
1486.3148
 20
38.6004
 10
1486.227
 20
38.5965
 10
1486.1379
 20
38.5847
 10
1486.0475
 20
38.5651
 10
1485.9557
 20
38.5376
 10
1485.8624
 20
38.5022
 10
1485.7676
 20
38.459
 10
1485.6712
 20
38.408
 10
1485.5732
 20
38.3491
 10
1485.4734
 20
38.2834
 10
1485.3728
 20
38.2106
 10
1485.2713
 20
38.1307
 10
1485.169
 20
38.0437
 10
1484.962
 20
37.8484
 10
1484.7516
 20
37.625
 10
1484.7671
 20
37.3423
 10
1484.776
 20
36.9515
 10
1484.776
 20
31.8005
 10
1483.6547
 20
31.8005
 10
1483.6547
 20
36.3338
 10
1483.6169
 20
37.3327
 10
1483.5957
 20
37.55
 10
1483.5635
 20
37.7425
 10
1483.521
 20
37.9106
 10
1483.4689
 20
38.0542
 10
1483.4378
 20
38.1218
 10
1483.4033
 20
38.1848
 10
1483.3656
 20
38.2431
 10
1483.3247
 20
38.2967
 10
1483.2807
 20
38.3458
 10
1483.2336
 20
38.3904
 10
1483.1836
 20
38.4304
 10
1483.1306
 20
38.466
 10
1483.0732
 20
38.4973
 10
1483.0108
 20
38.5245
 10
1482.9434
 20
38.5476
 10
1482.8712
 20
38.5666
 10
1482.7122
 20
38.5919
 10
1482.5341
 20
38.6004
 10
1482.4423
 20
38.5962
 10
1482.3494
 20
38.5837
 10
1482.2554
 20
38.5628
 10
1482.1605
 20
38.5334
 10
1482.0645
 20
38.4957
 10
1481.9674
 20
38.4495
 10
1481.8693
 20
38.3948
 10
1481.7702
 20
38.3317
 10
1481.5715
 20
38.1882
 10
1481.3762
 20
38.0262
 10
1481.1843
 20
37.8457
 10
1480.996
 20
37.6468
 10
1480.996
 20
31.8005
 10
1479.8732
 20
31.8005
 10
1479.8732
 20
39.6351
 10
1480.996
 20
39.6351
 10
1480.996
 20
38.7627
 10
1481.2159
 20
39.0069
 10
1481.4347
 20
39.2224
 10
1481.5438
 20
39.3192
 10
1481.6528
 20
39.4089
 10
1481.7615
 20
39.4912
 10
1481.8701
 20
39.5662
 10
1481.9792
 20
39.6326
 10
1482.091
 20
39.6903
 10
1482.2057
 20
39.7393
 10
1482.323
 20
39.7795
 10
1482.4431
 20
39.8109
 10
1482.566
 20
39.8334
 10
1482.6915
 20
39.847
 10
1482.8198
 20
39.8515
 10
1482.9652
 20
39.8465
 10
1483.1065
 20
39.8316
 10
1483.2437
 20
39.8067
 10
1483.3768
 20
39.7719
 10
1483.5057
 20
39.7272
 10
1483.6304
 20
39.6726
 10
1483.7509
 20
39.6082
 10
1483.8671
 20
39.5339
 10
1483.9775
 20
39.4488
 10
1484.0812
 20
39.351
 10
1484.1781
 20
39.2406
 10
1484.2683
 20
39.1174
 10
1484.3516
 20
38.9816
 10
1484.4281
 20
38.833
 10
1484.4978
 20
38.6716
 10
1484.5606
 20
38.4974
 10
1484.6875
 20
38.6584
 10
1484.8134
 20
38.8096
 10
1484.9384
 20
38.9509
 10
1485.0624
 20
39.0821
 10
1485.1855
 20
39.2032
 10
1485.3079
 20
39.3142
 10
1485.4294
 20
39.4148
 10
1485.5502
 20
39.5051
 10
1485.6728
 20
39.5861
 10
1485.7978
 20
39.6564
 10
1485.9254
 20
39.716
 10
1486.0555
 20
39.7647
 10
1486.1881
 20
39.8026
 10
1486.3233
 20
39.8298
 10
1486.461
 20
39.8461
 10
1486.6013
 20
39.8515
 10
1486.7077
 20
39.849
 10
1486.8115
 20
39.8416
 10
1486.9128
 20
39.8291
 10
1487.0116
 20
39.8118
 10
1487.1078
 20
39.7896
 10
1487.2015
 20
39.7624
 10
1487.2927
 20
39.7304
 10
1487.3814
 20
39.6936
 10
1487.468
 20
39.6508
 10
1487.5519
 20
39.6022
 10
1487.6331
 20
39.5477
 10
1487.7114
 20
39.4873
 10
1487.787
 20
39.4209
 10
1487.8597
 20
39.3484
 10
1487.9295
 20
39.2698
 10
1487.9965
 20
39.1849
 10
1488.0618
 20
39.0923
 10
1488.1232
 20
38.9946
 10
1488.1807
 20
38.8914
 10
1488.2344
 20
38.7829
 10
1488.2843
 20
38.6689
 10
1488.3302
 20
38.5494
 10
1488.3721
 20
38.4242
 10
1488.4102
 20
38.2933
 10
1488.4448
 20
38.1562
 10
1488.4748
 20
38.0104
 10
1488.5001
 20
37.856
 10
1488.5208
 20
37.693
 10
1488.5369
 20
37.5212
 10
1488.5483
 20
37.3406
 10
1488.5552
 20
37.1513
 10
1488.5575
 20
36.9532
 10
1488.5575
 20
31.8005
 10
1487.4347
 20
31.8005
  0
LWPOLYLINE
  5
EF
330
1F
100
AcDbEntity
  8
Layer 1
 62
     7
100
AcDbPolyline
 90
       75
 70
     1
 43
0.0
 10
1425.1966
 20
-70.0401
 10
1425.194
 20
-69.7813
 10
1425.1863
 20
-69.5347
 10
1425.1734
 20
-69.3005
 10
1425.1553
 20
-69.0786
 10
1425.132
 20
-68.8688
 10
1425.1035
 20
-68.6713
 10
1425.0698
 20
-68.4859
 10
1425.0308
 20
-68.3126
 10
1424.9871
 20
-68.1514
 10
1424.9395
 20
-67.9995
 10
1424.888
 20
-67.857
 10
1424.8326
 20
-67.7239
 10
1424.7734
 20
-67.6002
 10
1424.7104
 20
-67.486
 10
1424.6437
 20
-67.3811
 10
1424.5733
 20
-67.2858
 10
1424.4418
 20
-67.13
 10
1424.3097
 20
-67.0012
 10
1424.2434
 20
-66.9469
 10
1424.1772
 20
-66.8992
 10
1424.111
 20
-66.858
 10
1424.0449
 20
-66.8234
 10
1423.907
 20
-66.7684
 10
1423.7624
 20
-66.7291
 10
1423.6116
 20
-66.7056
 10
1423.455
 20
-66.6977
 10
1423.2767
 20
-66.7073
 10
1423.1078
 20
-66.736
 10
1422.9481
 20
-66.7839
 10
1422.7978
 20
-66.851
 10
1422.6568
 20
-66.9372
 10
1422.5251
 20
-67.0426
 10
1422.4028
 20
-67.1673
 10
1422.2899
 20
-67.3111
 10
1422.1877
 20
-67.4738
 10
1422.0993
 20
-67.6536
 10
1422.0247
 20
-67.8506
 10
1421.9637
 20
-68.0646
 10
1421.9163
 20
-68.2958
 10
1421.8825
 20
-68.5441
 10
1421.8622
 20
-68.8094
 10
1421.8555
 20
-69.0917
 10
1421.8643
 20
-69.4057
 10
1421.8906
 20
-69.6908
 10
1421.9105
 20
-69.8226
 10
1421.9348
 20
-69.9472
 10
1421.9635
 20
-70.0648
 10
1421.9968
 20
-70.1753
 10
1422.0356
 20
-70.2793
 10
1422.0799
 20
-70.3797
 10
1422.1296
 20
-70.4766
 10
1422.1848
 20
-70.57
 10
1422.2454
 20
-70.6597
 10
1422.3117
 20
-70.7457
 10
1422.3835
 20
-70.8279
 10
1422.4609
 20
-70.9064
 10
1422.5769
 20
-71.0064
 10
1422.7008
 20
-71.0879
 10
1422.8326
 20
-71.1511
 10
1422.9724
 20
-71.1961
 10
1423.1183
 20
-71.2286
 10
1423.2687
 20
-71.2518
 10
1423.424
 20
-71.2656
 10
1423.5845
 20
-71.2702
 10
1423.7784
 20
-71.2603
 10
1423.9803
 20
-71.2305
 10
1424.1897
 20
-71.1811
 10
1424.4061
 20
-71.1123
 10
1424.6189
 20
-71.0283
 10
1424.8175
 20
-70.9309
 10
1425.0022
 20
-70.8203
 10
1425.1729
 20
-70.697
 10
1425.1884
 20
-70.4214
 10
1425.1966
 20
-70.0401
  0
LWPOLYLINE
  5
F0
330
1F
100
AcDbEntity
  8
Layer 1
 62
     7
100
AcDbPolyline
 90
      167
 70
     1
 43
0.0
 10
1420.6475
 20
-69.145
 10
1420.651
 20
-68.9455
 10
1420.6616
 20
-68.7503
 10
1420.6792
 20
-68.5594
 10
1420.7038
 20
-68.3728
 10
1420.7353
 20
-68.1907
 10
1420.7737
 20
-68.013
 10
1420.819
 20
-67.8399
 10
1420.8711
 20
-67.6714
 10
1420.9294
 20
-67.5071
 10
1420.9927
 20
-67.3484
 10
1421.0611
 20
-67.1955
 10
1421.1346
 20
-67.0484
 10
1421.2133
 20
-66.9071
 10
1421.2973
 20
-66.7717
 10
1421.3864
 20
-66.6423
 10
1421.4809
 20
-66.5189
 10
1421.5762
 20
-66.4062
 10
1421.6766
 20
-66.2997
 10
1421.7821
 20
-66.1996
 10
1421.8927
 20
-66.1058
 10
1422.0083
 20
-66.0183
 10
1422.129
 20
-65.9373
 10
1422.2547
 20
-65.8628
 10
1422.3854
 20
-65.7947
 10
1422.5184
 20
-65.7334
 10
1422.6522
 20
-65.6803
 10
1422.7866
 20
-65.6355
 10
1422.9216
 20
-65.5989
 10
1423.0571
 20
-65.5704
 10
1423.1931
 20
-65.5501
 10
1423.3294
 20
-65.5379
 10
1423.4661
 20
-65.5339
 10
1423.6177
 20
-65.5377
 10
1423.7656
 20
-65.5492
 10
1423.9098
 20
-65.5683
 10
1424.0504
 20
-65.5949
 10
1424.1874
 20
-65.6289
 10
1424.3208
 20
-65.6704
 10
1424.4506
 20
-65.7193
 10
1424.577
 20
-65.7755
 10
1424.6997
 20
-65.84
 10
1424.8181
 20
-65.911
 10
1424.9322
 20
-65.9886
 10
1425.042
 20
-66.0727
 10
1425.1475
 20
-66.1634
 10
1425.2487
 20
-66.2607
 10
1425.3458
 20
-66.3647
 10
1425.4386
 20
-66.4752
 10
1425.5504
 20
-66.6254
 10
1425.6555
 20
-66.7866
 10
1425.754
 20
-66.9589
 10
1425.8459
 20
-67.1423
 10
1425.9314
 20
-67.3368
 10
1426.0105
 20
-67.5424
 10
1426.0833
 20
-67.7592
 10
1426.1499
 20
-67.9872
 10
1426.2093
 20
-68.2286
 10
1426.2609
 20
-68.4854
 10
1426.3046
 20
-68.7577
 10
1426.3405
 20
-69.0455
 10
1426.3685
 20
-69.3486
 10
1426.3885
 20
-69.667
 10
1426.4005
 20
-70.0008
 10
1426.4045
 20
-70.3498
 10
1426.4006
 20
-70.6729
 10
1426.3889
 20
-70.9918
 10
1426.3693
 20
-71.3064
 10
1426.3421
 20
-71.6166
 10
1426.307
 20
-71.9224
 10
1426.2643
 20
-72.2238
 10
1426.2139
 20
-72.5205
 10
1426.1558
 20
-72.8127
 10
1426.0906
 20
-73.0979
 10
1426.0179
 20
-73.3705
 10
1425.9377
 20
-73.6305
 10
1425.85
 20
-73.878
 10
1425.7549
 20
-74.1131
 10
1425.6525
 20
-74.3358
 10
1425.5429
 20
-74.5462
 10
1425.426
 20
-74.7444
 10
1425.2948
 20
-74.9422
 10
1425.1571
 20
-75.1278
 10
1425.0129
 20
-75.3014
 10
1424.8624
 20
-75.4629
 10
1424.7054
 20
-75.6124
 10
1424.5421
 20
-75.7498
 10
1424.3725
 20
-75.8752
 10
1424.1966
 20
-75.9885
 10
1424.0112
 20
-76.0888
 10
1423.8155
 20
-76.1758
 10
1423.6093
 20
-76.2494
 10
1423.3927
 20
-76.3096
 10
1423.1656
 20
-76.3565
 10
1422.9281
 20
-76.39
 10
1422.6801
 20
-76.4101
 10
1422.4217
 20
-76.4168
 10
1421.9154
 20
-76.3863
 10
1421.4151
 20
-76.2685
 10
1421.4151
 20
-74.9215
 10
1421.4735
 20
-74.9215
 10
1421.5591
 20
-74.9714
 10
1421.6648
 20
-75.0204
 10
1421.7909
 20
-75.0686
 10
1421.9376
 20
-75.116
 10
1422.0968
 20
-75.1568
 10
1422.257
 20
-75.186
 10
1422.4183
 20
-75.2035
 10
1422.5808
 20
-75.2094
 10
1422.864
 20
-75.1952
 10
1423.1319
 20
-75.1526
 10
1423.3844
 20
-75.0817
 10
1423.6213
 20
-74.9823
 10
1423.8426
 20
-74.8546
 10
1424.0482
 20
-74.6985
 10
1424.2381
 20
-74.514
 10
1424.412
 20
-74.3011
 10
1424.5695
 20
-74.0616
 10
1424.7089
 20
-73.7979
 10
1424.8301
 20
-73.5098
 10
1424.9334
 20
-73.1974
 10
1425.0185
 20
-72.8605
 10
1425.0855
 20
-72.4992
 10
1425.1345
 20
-72.1134
 10
1425.1655
 20
-71.703
 10
1424.9309
 20
-71.881
 10
1424.702
 20
-72.033
 10
1424.5895
 20
-72.0993
 10
1424.4783
 20
-72.1591
 10
1424.3683
 20
-72.2126
 10
1424.2595
 20
-72.2596
 10
1424.1511
 20
-72.3009
 10
1424.04
 20
-72.3366
 10
1423.9264
 20
-72.3666
 10
1423.8103
 20
-72.391
 10
1423.6918
 20
-72.4099
 10
1423.5708
 20
-72.4234
 10
1423.4474
 20
-72.4314
 10
1423.3217
 20
-72.4341
 10
1423.0815
 20
-72.4262
 10
1422.8517
 20
-72.4025
 10
1422.6331
 20
-72.3627
 10
1422.4261
 20
-72.3067
 10
1422.3247
 20
-72.2716
 10
1422.2231
 20
-72.2291
 10
1422.1214
 20
-72.1792
 10
1422.0195
 20
-72.1218
 10
1421.9175
 20
-72.0568
 10
1421.8155
 20
-71.9843
 10
1421.7133
 20
-71.9042
 10
1421.6112
 20
-71.8164
 10
1421.4957
 20
-71.7058
 10
1421.3875
 20
-71.588
 10
1421.2865
 20
-71.4631
 10
1421.1927
 20
-71.331
 10
1421.1062
 20
-71.1917
 10
1421.027
 20
-71.0453
 10
1420.955
 20
-70.8918
 10
1420.8903
 20
-70.7311
 10
1420.8335
 20
-70.5626
 10
1420.7843
 20
-70.3857
 10
1420.7425
 20
-70.2003
 10
1420.7084
 20
-70.0064
 10
1420.6818
 20
-69.804
 10
1420.6627
 20
-69.5929
 10
1420.6513
 20
-69.3733
 10
1420.6475
 20
-69.145
  0
LWPOLYLINE
  5
F1
330
1F
100
AcDbEntity
  8
Layer 1
 62
     7
100
AcDbPolyline
 90
       65
 70
     1
 43
0.0
 10
1433.0741
 20
-70.9675
 10
1433.0632
 20
-71.6479
 10
1433.0306
 20
-72.2816
 10
1432.9763
 20
-72.8685
 10
1432.9003
 20
-73.4086
 10
1432.8027
 20
-73.902
 10
1432.6835
 20
-74.3486
 10
1432.5428
 20
-74.7483
 10
1432.3806
 20
-75.1012
 10
1432.1949
 20
-75.4097
 10
1431.9857
 20
-75.677
 10
1431.7531
 20
-75.9032
 10
1431.497
 20
-76.0881
 10
1431.2174
 20
-76.232
 10
1430.9142
 20
-76.3347
 10
1430.5875
 20
-76.3963
 10
1430.2371
 20
-76.4168
 10
1429.883
 20
-76.3958
 10
1429.5534
 20
-76.3329
 10
1429.2483
 20
-76.228
 10
1428.9675
 20
-76.0812
 10
1428.7112
 20
-75.8923
 10
1428.4791
 20
-75.6616
 10
1428.2712
 20
-75.3888
 10
1428.0876
 20
-75.0741
 10
1427.9268
 20
-74.7171
 10
1427.7876
 20
-74.3159
 10
1427.6698
 20
-73.8707
 10
1427.5734
 20
-73.3813
 10
1427.4985
 20
-72.8477
 10
1427.4451
 20
-72.2701
 10
1427.413
 20
-71.6483
 10
1427.4023
 20
-70.9823
 10
1427.4131
 20
-70.299
 10
1427.4456
 20
-69.6631
 10
1427.4998
 20
-69.0745
 10
1427.5756
 20
-68.5335
 10
1427.6731
 20
-68.0399
 10
1427.7923
 20
-67.5938
 10
1427.9332
 20
-67.1953
 10
1428.0958
 20
-66.8443
 10
1428.281
 20
-66.537
 10
1428.4897
 20
-66.2707
 10
1428.7219
 20
-66.0455
 10
1428.9777
 20
-65.8613
 10
1429.2571
 20
-65.718
 10
1429.5601
 20
-65.6157
 10
1429.8867
 20
-65.5544
 10
1430.2371
 20
-65.5339
 10
1430.5917
 20
-65.5551
 10
1430.9217
 20
-65.6188
 10
1431.2271
 20
-65.7248
 10
1431.5081
 20
-65.8732
 10
1431.7646
 20
-66.0639
 10
1431.9969
 20
-66.2969
 10
1432.2049
 20
-66.5722
 10
1432.3887
 20
-66.8897
 10
1432.5495
 20
-67.2497
 10
1432.6888
 20
-67.6524
 10
1432.8066
 20
-68.098
 10
1432.903
 20
-68.5863
 10
1432.9779
 20
-69.1175
 10
1433.0313
 20
-69.6914
 10
1433.0634
 20
-70.308
 10
1433.0741
 20
-70.9675
  0
LWPOLYLINE
  5
F2
330
1F
100
AcDbEntity
  8
Layer 1
 62
     7
100
AcDbPolyline
 90
      121
 70
     1
 43
0.0
 10
1431.5486
 20
-74.152
 10
1431.5905
 20
-74.0179
 10
1431.6292
 20
-73.8753
 10
1431.6646
 20
-73.7242
 10
1431.6968
 20
-73.5646
 10
1431.7517
 20
-73.2195
 10
1431.7944
 20
-72.8398
 10
1431.8109
 20
-72.6374
 10
1431.8253
 20
-72.426
 10
1431.8376
 20
-72.2057
 10
1431.8478
 20
-71.9763
 10
1431.8558
 20
-71.7378
 10
1431.8615
 20
-71.4902
 10
1431.865
 20
-71.2335
 10
1431.8662
 20
-70.9675
 10
1431.865
 20
-70.7041
 10
1431.8615
 20
-70.4493
 10
1431.8558
 20
-70.2032
 10
1431.8478
 20
-69.9658
 10
1431.8376
 20
-69.7372
 10
1431.8253
 20
-69.5174
 10
1431.8109
 20
-69.3066
 10
1431.7944
 20
-69.1048
 10
1431.7514
 20
-68.7245
 10
1431.6957
 20
-68.3779
 10
1431.6629
 20
-68.2173
 10
1431.6267
 20
-68.0652
 10
1431.5872
 20
-67.9216
 10
1431.5442
 20
-67.7865
 10
1431.4972
 20
-67.6566
 10
1431.4461
 20
-67.535
 10
1431.3908
 20
-67.4216
 10
1431.3314
 20
-67.3165
 10
1431.2678
 20
-67.2194
 10
1431.2001
 20
-67.1304
 10
1431.1282
 20
-67.0493
 10
1431.052
 20
-66.976
 10
1430.971
 20
-66.911
 10
1430.8839
 20
-66.8545
 10
1430.7908
 20
-66.8067
 10
1430.6917
 20
-66.7675
 10
1430.5868
 20
-66.737
 10
1430.476
 20
-66.7152
 10
1430.3594
 20
-66.7021
 10
1430.2371
 20
-66.6977
 10
1430.1165
 20
-66.7021
 10
1430.0012
 20
-66.7152
 10
1429.8914
 20
-66.737
 10
1429.787
 20
-66.7675
 10
1429.6881
 20
-66.8067
 10
1429.5948
 20
-66.8545
 10
1429.5071
 20
-66.911
 10
1429.4251
 20
-66.976
 10
1429.347
 20
-67.0495
 10
1429.2731
 20
-67.1313
 10
1429.2034
 20
-67.2214
 10
1429.1381
 20
-67.3199
 10
1429.0772
 20
-67.4268
 10
1429.0206
 20
-67.542
 10
1428.9686
 20
-67.6657
 10
1428.9211
 20
-67.7979
 10
1428.8775
 20
-67.936
 10
1428.8377
 20
-68.0827
 10
1428.8016
 20
-68.2381
 10
1428.7692
 20
-68.4021
 10
1428.7151
 20
-68.7561
 10
1428.6746
 20
-69.145
 10
1428.6595
 20
-69.352
 10
1428.6462
 20
-69.5653
 10
1428.6349
 20
-69.7851
 10
1428.6256
 20
-70.0113
 10
1428.6182
 20
-70.2441
 10
1428.613
 20
-70.4835
 10
1428.6098
 20
-70.7295
 10
1428.6087
 20
-70.9823
 10
1428.6096
 20
-71.25
 10
1428.6122
 20
-71.5066
 10
1428.6166
 20
-71.7521
 10
1428.6228
 20
-71.9865
 10
1428.6307
 20
-72.2098
 10
1428.6406
 20
-72.422
 10
1428.6522
 20
-72.6229
 10
1428.6657
 20
-72.8127
 10
1428.7022
 20
-73.1706
 10
1428.7558
 20
-73.5098
 10
1428.789
 20
-73.6724
 10
1428.8264
 20
-73.8301
 10
1428.868
 20
-73.983
 10
1428.9137
 20
-74.131
 10
1428.959
 20
-74.262
 10
1429.009
 20
-74.3852
 10
1429.0636
 20
-74.5008
 10
1429.1229
 20
-74.6086
 10
1429.1867
 20
-74.7087
 10
1429.2552
 20
-74.801
 10
1429.3282
 20
-74.8856
 10
1429.4059
 20
-74.9625
 10
1429.4884
 20
-75.0306
 10
1429.5771
 20
-75.0896
 10
1429.672
 20
-75.1395
 10
1429.7729
 20
-75.1804
 10
1429.88
 20
-75.2122
 10
1429.9931
 20
-75.2348
 10
1430.1121
 20
-75.2485
 10
1430.2371
 20
-75.253
 10
1430.3582
 20
-75.2486
 10
1430.4738
 20
-75.2355
 10
1430.584
 20
-75.2137
 10
1430.6887
 20
-75.1832
 10
1430.7879
 20
-75.144
 10
1430.8815
 20
-75.0962
 10
1430.9695
 20
-75.0397
 10
1431.052
 20
-74.9747
 10
1431.1293
 20
-74.9012
 10
1431.2024
 20
-74.8194
 10
1431.2712
 20
-74.7292
 10
1431.3356
 20
-74.6307
 10
1431.3956
 20
-74.5238
 10
1431.4512
 20
-74.4083
 10
1431.5022
 20
-74.2844
 10
1431.5486
 20
-74.152
  0
LWPOLYLINE
  5
F3
330
1F
100
AcDbEntity
  8
Layer 1
 62
     7
100
AcDbPolyline
 90
      156
 70
     1
 43
0.0
 10
1445.7376
 20
-76.2014
 10
1445.7376
 20
-71.6681
 10
1445.7013
 20
-70.6683
 10
1445.6792
 20
-70.451
 10
1445.6467
 20
-70.2584
 10
1445.6045
 20
-70.0904
 10
1445.5533
 20
-69.9467
 10
1445.5217
 20
-69.8791
 10
1445.4869
 20
-69.8162
 10
1445.4489
 20
-69.7581
 10
1445.4078
 20
-69.7045
 10
1445.3637
 20
-69.6555
 10
1445.3166
 20
-69.6109
 10
1445.2665
 20
-69.5707
 10
1445.2135
 20
-69.5349
 10
1445.1559
 20
-69.5036
 10
1445.0935
 20
-69.4764
 10
1445.0263
 20
-69.4533
 10
1444.9542
 20
-69.4344
 10
1444.7956
 20
-69.4091
 10
1444.6177
 20
-69.4006
 10
1444.5301
 20
-69.4046
 10
1444.4411
 20
-69.4164
 10
1444.3507
 20
-69.4362
 10
1444.2588
 20
-69.4638
 10
1444.1655
 20
-69.4993
 10
1444.0706
 20
-69.5426
 10
1443.9741
 20
-69.5938
 10
1443.8761
 20
-69.6527
 10
1443.7762
 20
-69.7181
 10
1443.6755
 20
-69.7908
 10
1443.5738
 20
-69.8706
 10
1443.4713
 20
-69.9575
 10
1443.2639
 20
-70.1529
 10
1443.0537
 20
-70.3769
 10
1443.07
 20
-70.6587
 10
1443.0789
 20
-71.0495
 10
1443.0789
 20
-76.2014
 10
1441.9561
 20
-76.2014
 10
1441.9561
 20
-71.6681
 10
1441.9198
 20
-70.6683
 10
1441.8978
 20
-70.451
 10
1441.8655
 20
-70.2584
 10
1441.8233
 20
-70.0904
 10
1441.7718
 20
-69.9467
 10
1441.7402
 20
-69.8791
 10
1441.7056
 20
-69.8162
 10
1441.6678
 20
-69.7581
 10
1441.6269
 20
-69.7045
 10
1441.5829
 20
-69.6555
 10
1441.5357
 20
-69.6109
 10
1441.4855
 20
-69.5707
 10
1441.4321
 20
-69.5349
 10
1441.3747
 20
-69.5036
 10
1441.3124
 20
-69.4764
 10
1441.2453
 20
-69.4533
 10
1441.1733
 20
-69.4344
 10
1441.0145
 20
-69.4091
 10
1440.8362
 20
-69.4006
 10
1440.7442
 20
-69.4048
 10
1440.6513
 20
-69.4173
 10
1440.5574
 20
-69.4382
 10
1440.4625
 20
-69.4676
 10
1440.3666
 20
-69.5053
 10
1440.2695
 20
-69.5515
 10
1440.1712
 20
-69.6062
 10
1440.0716
 20
-69.6693
 10
1439.8737
 20
-69.8131
 10
1439.6787
 20
-69.9751
 10
1439.4866
 20
-70.1554
 10
1439.2974
 20
-70.3542
 10
1439.2974
 20
-76.2014
 10
1438.1746
 20
-76.2014
 10
1438.1746
 20
-68.3659
 10
1439.2974
 20
-68.3659
 10
1439.2974
 20
-69.2383
 10
1439.5177
 20
-68.9941
 10
1439.7368
 20
-68.7787
 10
1439.846
 20
-68.6818
 10
1439.9549
 20
-68.5921
 10
1440.0637
 20
-68.5098
 10
1440.1723
 20
-68.4348
 10
1440.2816
 20
-68.3685
 10
1440.3937
 20
-68.3108
 10
1440.5086
 20
-68.262
 10
1440.6261
 20
-68.2219
 10
1440.7463
 20
-68.1907
 10
1440.8691
 20
-68.1683
 10
1440.9946
 20
-68.1549
 10
1441.1227
 20
-68.1504
 10
1441.2681
 20
-68.1553
 10
1441.4094
 20
-68.1702
 10
1441.5466
 20
-68.1949
 10
1441.6797
 20
-68.2296
 10
1441.8086
 20
-68.2741
 10
1441.9333
 20
-68.3285
 10
1442.0538
 20
-68.3929
 10
1442.17
 20
-68.4671
 10
1442.2804
 20
-68.5525
 10
1442.3839
 20
-68.6505
 10
1442.4806
 20
-68.7611
 10
1442.5706
 20
-68.8843
 10
1442.6537
 20
-69.0202
 10
1442.7301
 20
-69.1688
 10
1442.7998
 20
-69.3302
 10
1442.8628
 20
-69.5044
 10
1442.9895
 20
-69.3431
 10
1443.1153
 20
-69.1917
 10
1443.2402
 20
-69.0503
 10
1443.3644
 20
-68.919
 10
1443.4877
 20
-68.7978
 10
1443.6102
 20
-68.6868
 10
1443.732
 20
-68.5861
 10
1443.8531
 20
-68.4958
 10
1443.9754
 20
-68.4148
 10
1444.1002
 20
-68.3447
 10
1444.2276
 20
-68.2853
 10
1444.3575
 20
-68.2367
 10
1444.4902
 20
-68.199
 10
1444.6255
 20
-68.172
 10
1444.7635
 20
-68.1558
 10
1444.9042
 20
-68.1504
 10
1445.0106
 20
-68.1529
 10
1445.1144
 20
-68.1602
 10
1445.2157
 20
-68.1725
 10
1445.3145
 20
-68.1898
 10
1445.4107
 20
-68.2119
 10
1445.5044
 20
-68.2391
 10
1445.5956
 20
-68.2712
 10
1445.6843
 20
-68.3083
 10
1445.7704
 20
-68.3508
 10
1445.8539
 20
-68.3991
 10
1445.9348
 20
-68.4535
 10
1446.013
 20
-68.5138
 10
1446.0884
 20
-68.5803
 10
1446.1611
 20
-68.6529
 10
1446.2309
 20
-68.7317
 10
1446.2979
 20
-68.8169
 10
1446.3632
 20
-68.9092
 10
1446.4246
 20
-69.0068
 10
1446.4822
 20
-69.1098
 10
1446.536
 20
-69.2183
 10
1446.586
 20
-69.3323
 10
1446.6322
 20
-69.452
 10
1446.6746
 20
-69.5774
 10
1446.7131
 20
-69.7086
 10
1446.7475
 20
-69.8457
 10
1446.7773
 20
-69.9915
 10
1446.8026
 20
-70.1458
 10
1446.8234
 20
-70.3088
 10
1446.8396
 20
-70.4805
 10
1446.8511
 20
-70.6609
 10
1446.8581
 20
-70.85
 10
1446.8604
 20
-71.0478
 10
1446.8604
 20
-76.2014
 10
1445.7376
 20
-76.2014
  0
LWPOLYLINE
  5
F4
330
1F
100
AcDbEntity
  8
Layer 1
 62
     7
100
AcDbPolyline
 90
      156
 70
     1
 43
0.0
 10
1455.98
 20
-76.2014
 10
1455.98
 20
-71.6681
 10
1455.9437
 20
-70.6683
 10
1455.9219
 20
-70.451
 10
1455.89
 20
-70.2584
 10
1455.8481
 20
-70.0904
 10
1455.7964
 20
-69.9467
 10
1455.7646
 20
-69.8791
 10
1455.7298
 20
-69.8162
 10
1455.6919
 20
-69.7581
 10
1455.6509
 20
-69.7045
 10
1455.6068
 20
-69.6555
 10
1455.5596
 20
-69.6109
 10
1455.5093
 20
-69.5707
 10
1455.4559
 20
-69.5349
 10
1455.3985
 20
-69.5036
 10
1455.3363
 20
-69.4764
 10
1455.2692
 20
-69.4533
 10
1455.1972
 20
-69.4344
 10
1455.0387
 20
-69.4091
 10
1454.8608
 20
-69.4006
 10
1454.773
 20
-69.4046
 10
1454.6839
 20
-69.4164
 10
1454.5935
 20
-69.4362
 10
1454.5016
 20
-69.4638
 10
1454.4082
 20
-69.4993
 10
1454.3133
 20
-69.5426
 10
1454.2167
 20
-69.5938
 10
1454.1185
 20
-69.6527
 10
1454.0189
 20
-69.7181
 10
1453.9185
 20
-69.7908
 10
1453.8172
 20
-69.8706
 10
1453.715
 20
-69.9575
 10
1453.508
 20
-70.1529
 10
1453.2976
 20
-70.3769
 10
1453.3132
 20
-70.6587
 10
1453.3213
 20
-71.0495
 10
1453.3213
 20
-76.2014
 10
1452.2007
 20
-76.2014
 10
1452.2007
 20
-71.6681
 10
1452.1629
 20
-70.6683
 10
1452.1409
 20
-70.451
 10
1452.1085
 20
-70.2584
 10
1452.0662
 20
-70.0904
 10
1452.0142
 20
-69.9467
 10
1451.9831
 20
-69.8791
 10
1451.9487
 20
-69.8162
 10
1451.9111
 20
-69.7581
 10
1451.8702
 20
-69.7045
 10
1451.8261
 20
-69.6555
 10
1451.7789
 20
-69.6109
 10
1451.7286
 20
-69.5707
 10
1451.6752
 20
-69.5349
 10
1451.618
 20
-69.5036
 10
1451.5558
 20
-69.4764
 10
1451.4886
 20
-69.4533
 10
1451.4164
 20
-69.4344
 10
1451.2575
 20
-69.4091
 10
1451.0793
 20
-69.4006
 10
1450.9875
 20
-69.4048
 10
1450.8946
 20
-69.4173
 10
1450.8007
 20
-69.4382
 10
1450.7057
 20
-69.4676
 10
1450.6097
 20
-69.5053
 10
1450.5127
 20
-69.5515
 10
1450.4146
 20
-69.6062
 10
1450.3155
 20
-69.6693
 10
1450.1172
 20
-69.8131
 10
1449.922
 20
-69.9751
 10
1449.73
 20
-70.1554
 10
1449.5413
 20
-70.3542
 10
1449.5413
 20
-76.2014
 10
1448.4192
 20
-76.2014
 10
1448.4192
 20
-68.3659
 10
1449.5413
 20
-68.3659
 10
1449.5413
 20
-69.2383
 10
1449.7611
 20
-68.9941
 10
1449.98
 20
-68.7787
 10
1450.0891
 20
-68.6818
 10
1450.198
 20
-68.5921
 10
1450.3068
 20
-68.5098
 10
1450.4154
 20
-68.4348
 10
1450.5247
 20
-68.3685
 10
1450.6367
 20
-68.3108
 10
1450.7515
 20
-68.262
 10
1450.8689
 20
-68.2219
 10
1450.9891
 20
-68.1907
 10
1451.1119
 20
-68.1683
 10
1451.2375
 20
-68.1549
 10
1451.3658
 20
-68.1504
 10
1451.5111
 20
-68.1553
 10
1451.6524
 20
-68.1702
 10
1451.7895
 20
-68.1949
 10
1451.9225
 20
-68.2296
 10
1452.0514
 20
-68.2741
 10
1452.1761
 20
-68.3285
 10
1452.2967
 20
-68.3929
 10
1452.4131
 20
-68.4671
 10
1452.5235
 20
-68.5525
 10
1452.6271
 20
-68.6505
 10
1452.7239
 20
-68.7611
 10
1452.8139
 20
-68.8843
 10
1452.8971
 20
-69.0202
 10
1452.9735
 20
-69.1688
 10
1453.0431
 20
-69.3302
 10
1453.1059
 20
-69.5044
 10
1453.233
 20
-69.3431
 10
1453.359
 20
-69.1917
 10
1453.484
 20
-69.0503
 10
1453.6079
 20
-68.919
 10
1453.731
 20
-68.7978
 10
1453.8533
 20
-68.6868
 10
1453.9747
 20
-68.5861
 10
1454.0955
 20
-68.4958
 10
1454.2181
 20
-68.4148
 10
1454.3432
 20
-68.3447
 10
1454.4709
 20
-68.2853
 10
1454.6012
 20
-68.2367
 10
1454.7339
 20
-68.199
 10
1454.8692
 20
-68.172
 10
1455.007
 20
-68.1558
 10
1455.1473
 20
-68.1504
 10
1455.2535
 20
-68.1529
 10
1455.3571
 20
-68.1602
 10
1455.4583
 20
-68.1725
 10
1455.557
 20
-68.1898
 10
1455.6533
 20
-68.2119
 10
1455.7471
 20
-68.2391
 10
1455.8385
 20
-68.2712
 10
1455.9274
 20
-68.3083
 10
1456.0138
 20
-68.3508
 10
1456.0974
 20
-68.3991
 10
1456.1784
 20
-68.4535
 10
1456.2566
 20
-68.5138
 10
1456.3321
 20
-68.5803
 10
1456.4049
 20
-68.6529
 10
1456.4751
 20
-68.7317
 10
1456.5425
 20
-68.8169
 10
1456.6075
 20
-68.9092
 10
1456.6687
 20
-69.0068
 10
1456.726
 20
-69.1098
 10
1456.7795
 20
-69.2183
 10
1456.8292
 20
-69.3323
 10
1456.8751
 20
-69.452
 10
1456.9172
 20
-69.5774
 10
1456.9555
 20
-69.7086
 10
1456.9901
 20
-69.8457
 10
1457.02
 20
-69.9915
 10
1457.0453
 20
-70.1458
 10
1457.0661
 20
-70.3088
 10
1457.0821
 20
-70.4805
 10
1457.0936
 20
-70.6609
 10
1457.1005
 20
-70.85
 10
1457.1028
 20
-71.0478
 10
1457.1028
 20
-76.2014
 10
1455.98
 20
-76.2014
  0
LWPOLYLINE
  5
F5
330
1F
100
AcDbEntity
  8
Layer 1
 62
     7
100
AcDbPolyline
 90
       27
 70
     1
 43
0.0
 10
1272.9153
 20
74.282
 10
1272.9153
 20
69.179
 10
1272.0138
 20
69.179
 10
1272.0138
 20
71.0766
 10
1266.0614
 20
71.0766
 10
1266.0614
 20
69.179
 10
1265.2569
 20
69.179
 10
1265.2528
 20
69.4389
 10
1265.2404
 20
69.6812
 10
1265.2199
 20
69.906
 10
1265.1913
 20
70.1132
 10
1265.1546
 20
70.3028
 10
1265.1098
 20
70.4749
 10
1265.057
 20
70.6293
 10
1264.9963
 20
70.766
 10
1264.9241
 20
70.8855
 10
1264.8373
 20
70.9914
 10
1264.736
 20
71.0835
 10
1264.6201
 20
71.162
 10
1264.4898
 20
71.2267
 10
1264.345
 20
71.2775
 10
1264.1857
 20
71.3145
 10
1264.0119
 20
71.3375
 10
1264.0119
 20
72.428
 10
1272.0138
 20
72.428
 10
1272.0138
 20
74.282
 10
1272.9153
 20
74.282
  0
LWPOLYLINE
  5
F6
330
1F
100
AcDbEntity
  8
Layer 1
 62
     7
100
AcDbPolyline
 90
       65
 70
     1
 43
0.0
 10
1268.4758
 20
82.7195
 10
1269.0532
 20
82.7067
 10
1269.5909
 20
82.6682
 10
1270.0887
 20
82.6041
 10
1270.5469
 20
82.5146
 10
1270.9654
 20
82.3995
 10
1271.3443
 20
82.259
 10
1271.6837
 20
82.0932
 10
1271.9835
 20
81.902
 10
1272.245
 20
81.6833
 10
1272.4716
 20
81.4369
 10
1272.6633
 20
81.1628
 10
1272.8201
 20
80.8609
 10
1272.9421
 20
80.5313
 10
1273.0292
 20
80.174
 10
1273.0815
 20
79.789
 10
1273.0989
 20
79.3762
 10
1273.0811
 20
78.9585
 10
1273.0276
 20
78.5698
 10
1272.9386
 20
78.21
 10
1272.814
 20
77.879
 10
1272.6538
 20
77.5767
 10
1272.4582
 20
77.3032
 10
1272.227
 20
77.0582
 10
1271.9605
 20
76.8418
 10
1271.6574
 20
76.6523
 10
1271.3169
 20
76.4881
 10
1270.9392
 20
76.3492
 10
1270.524
 20
76.2357
 10
1270.0713
 20
76.1474
 10
1269.5812
 20
76.0843
 10
1269.0536
 20
76.0465
 10
1268.4884
 20
76.0339
 10
1267.9087
 20
76.0467
 10
1267.3692
 20
76.0851
 10
1266.8699
 20
76.149
 10
1266.411
 20
76.2385
 10
1265.9923
 20
76.3535
 10
1265.614
 20
76.494
 10
1265.2761
 20
76.6599
 10
1264.9786
 20
76.8514
 10
1264.7176
 20
77.07
 10
1264.4916
 20
77.3162
 10
1264.3003
 20
77.5901
 10
1264.144
 20
77.8917
 10
1264.0224
 20
78.221
 10
1263.9355
 20
78.5782
 10
1263.8835
 20
78.9632
 10
1263.8661
 20
79.3762
 10
1263.8841
 20
79.7939
 10
1263.938
 20
80.1827
 10
1264.0278
 20
80.5427
 10
1264.1537
 20
80.8739
 10
1264.3154
 20
81.1763
 10
1264.5131
 20
81.45
 10
1264.7467
 20
81.6951
 10
1265.0163
 20
81.9116
 10
1265.3219
 20
82.1011
 10
1265.6636
 20
82.2653
 10
1266.0416
 20
82.4042
 10
1266.4557
 20
82.5178
 10
1266.9062
 20
82.606
 10
1267.393
 20
82.6691
 10
1267.9162
 20
82.7069
 10
1268.4758
 20
82.7195
  0
LWPOLYLINE
  5
F7
330
1F
100
AcDbEntity
  8
Layer 1
 62
     7
100
AcDbPolyline
 90
      127
 70
     1
 43
0.0
 10
1271.1782
 20
80.9213
 10
1271.0639
 20
80.9708
 10
1270.9426
 20
81.0164
 10
1270.8142
 20
81.0582
 10
1270.6787
 20
81.0963
 10
1270.386
 20
81.1611
 10
1270.0642
 20
81.211
 10
1269.8925
 20
81.2307
 10
1269.7132
 20
81.2479
 10
1269.5263
 20
81.2626
 10
1269.3317
 20
81.2747
 10
1269.1293
 20
81.2842
 10
1268.9193
 20
81.291
 10
1268.7015
 20
81.2951
 10
1268.4758
 20
81.2965
 10
1268.2524
 20
81.2951
 10
1268.0363
 20
81.291
 10
1267.8276
 20
81.2842
 10
1267.6262
 20
81.2747
 10
1267.4322
 20
81.2626
 10
1267.2457
 20
81.2479
 10
1267.0665
 20
81.2307
 10
1266.8949
 20
81.211
 10
1266.7302
 20
81.1878
 10
1266.5727
 20
81.1608
 10
1266.4223
 20
81.1299
 10
1266.279
 20
81.0951
 10
1266.1428
 20
81.0564
 10
1266.0137
 20
81.0139
 10
1265.8916
 20
80.9674
 10
1265.7765
 20
80.917
 10
1265.6667
 20
80.8618
 10
1265.5639
 20
80.8016
 10
1265.468
 20
80.7363
 10
1265.379
 20
80.6662
 10
1265.2967
 20
80.5911
 10
1265.2212
 20
80.5111
 10
1265.1524
 20
80.4264
 10
1265.0903
 20
80.3368
 10
1265.0351
 20
80.241
 10
1264.9871
 20
80.1381
 10
1264.9464
 20
80.0283
 10
1264.9131
 20
79.9115
 10
1264.8871
 20
79.7878
 10
1264.8684
 20
79.6573
 10
1264.8572
 20
79.5201
 10
1264.8535
 20
79.3762
 10
1264.8572
 20
79.2338
 10
1264.8684
 20
79.0978
 10
1264.8871
 20
78.9683
 10
1264.9131
 20
78.8452
 10
1264.9464
 20
78.7287
 10
1264.9871
 20
78.6186
 10
1265.0351
 20
78.5152
 10
1265.0903
 20
78.4183
 10
1265.1526
 20
78.3265
 10
1265.2218
 20
78.2396
 10
1265.298
 20
78.1576
 10
1265.3813
 20
78.0806
 10
1265.4717
 20
78.0087
 10
1265.5692
 20
77.942
 10
1265.674
 20
77.8804
 10
1265.7861
 20
77.8241
 10
1265.9035
 20
77.773
 10
1266.0281
 20
77.7262
 10
1266.16
 20
77.6837
 10
1266.2992
 20
77.6455
 10
1266.4457
 20
77.6114
 10
1266.5998
 20
77.5814
 10
1266.7613
 20
77.5555
 10
1266.9304
 20
77.5336
 10
1267.106
 20
77.516
 10
1267.287
 20
77.5006
 10
1267.4734
 20
77.4875
 10
1267.6653
 20
77.4766
 10
1267.8627
 20
77.468
 10
1268.0656
 20
77.4618
 10
1268.2742
 20
77.4581
 10
1268.4884
 20
77.4568
 10
1268.7155
 20
77.4579
 10
1268.9333
 20
77.461
 10
1269.1417
 20
77.4663
 10
1269.3406
 20
77.4737
 10
1269.5301
 20
77.4832
 10
1269.7101
 20
77.4947
 10
1269.8805
 20
77.5083
 10
1270.0413
 20
77.524
 10
1270.1951
 20
77.5429
 10
1270.3449
 20
77.567
 10
1270.4908
 20
77.5961
 10
1270.6327
 20
77.6302
 10
1270.7706
 20
77.6693
 10
1270.9044
 20
77.7134
 10
1271.0341
 20
77.7624
 10
1271.1597
 20
77.8163
 10
1271.2708
 20
77.8694
 10
1271.3754
 20
77.9281
 10
1271.4735
 20
77.9924
 10
1271.5651
 20
78.0622
 10
1271.65
 20
78.1375
 10
1271.7284
 20
78.2183
 10
1271.8
 20
78.3047
 10
1271.865
 20
78.3965
 10
1271.9228
 20
78.4934
 10
1271.9728
 20
78.5978
 10
1272.015
 20
78.7095
 10
1272.0496
 20
78.8285
 10
1272.0764
 20
78.9547
 10
1272.0955
 20
79.0881
 10
1272.107
 20
79.2286
 10
1272.1108
 20
79.3762
 10
1272.1071
 20
79.5187
 10
1272.0961
 20
79.6548
 10
1272.0777
 20
79.7845
 10
1272.0519
 20
79.9079
 10
1272.0188
 20
80.0248
 10
1271.9784
 20
80.1353
 10
1271.9306
 20
80.2393
 10
1271.8754
 20
80.3368
 10
1271.8131
 20
80.4279
 10
1271.7438
 20
80.5139
 10
1271.6674
 20
80.5948
 10
1271.584
 20
80.6706
 10
1271.4934
 20
80.7412
 10
1271.3956
 20
80.8065
 10
1271.2906
 20
80.8666
 10
1271.1782
 20
80.9213
  0
LWPOLYLINE
  5
F8
330
1F
100
AcDbEntity
  8
Layer 1
 62
     7
100
AcDbPolyline
 90
      146
 70
     1
 43
0.0
 10
1272.9153
 20
97.6463
 10
1269.0702
 20
97.6463
 10
1268.2227
 20
97.6035
 10
1268.0383
 20
97.5776
 10
1267.8747
 20
97.5395
 10
1267.7321
 20
97.4898
 10
1267.6106
 20
97.429
 10
1267.553
 20
97.3918
 10
1267.4995
 20
97.3509
 10
1267.45
 20
97.3062
 10
1267.4045
 20
97.2579
 10
1267.3628
 20
97.206
 10
1267.325
 20
97.1504
 10
1267.2909
 20
97.0913
 10
1267.2605
 20
97.0286
 10
1267.2111
 20
96.8874
 10
1267.1755
 20
96.7232
 10
1267.1538
 20
96.5361
 10
1267.1465
 20
96.3263
 10
1267.1498
 20
96.2231
 10
1267.1598
 20
96.1182
 10
1267.1765
 20
96.0116
 10
1267.1999
 20
95.9033
 10
1267.23
 20
95.7932
 10
1267.2667
 20
95.6813
 10
1267.3102
 20
95.5676
 10
1267.3604
 20
95.4521
 10
1267.4775
 20
95.2158
 10
1267.6189
 20
94.9757
 10
1267.7844
 20
94.7316
 10
1267.974
 20
94.4836
 10
1268.2146
 20
94.5028
 10
1268.5462
 20
94.5124
 10
1272.9153
 20
94.5124
 10
1272.9153
 20
93.1898
 10
1269.0702
 20
93.1898
 10
1268.2227
 20
93.147
 10
1268.0383
 20
93.121
 10
1267.8747
 20
93.0826
 10
1267.7321
 20
93.0326
 10
1267.6106
 20
92.9717
 10
1267.553
 20
92.9348
 10
1267.4995
 20
92.894
 10
1267.45
 20
92.8495
 10
1267.4045
 20
92.8013
 10
1267.3628
 20
92.7495
 10
1267.325
 20
92.6939
 10
1267.2909
 20
92.6348
 10
1267.2605
 20
92.5721
 10
1267.2111
 20
92.4309
 10
1267.1755
 20
92.2667
 10
1267.1538
 20
92.0796
 10
1267.1465
 20
91.8698
 10
1267.15
 20
91.7613
 10
1267.1607
 20
91.6517
 10
1267.1784
 20
91.5409
 10
1267.2033
 20
91.429
 10
1267.2353
 20
91.3158
 10
1267.2745
 20
91.2014
 10
1267.3209
 20
91.0856
 10
1267.3745
 20
90.9685
 10
1267.4962
 20
90.7349
 10
1267.6336
 20
90.505
 10
1267.7867
 20
90.2787
 10
1267.9555
 20
90.0559
 10
1272.9153
 20
90.0559
 10
1272.9153
 20
88.7324
 10
1266.2687
 20
88.7324
 10
1266.2687
 20
90.0559
 10
1267.0096
 20
90.0559
 10
1266.8017
 20
90.3156
 10
1266.6187
 20
90.5737
 10
1266.5365
 20
90.7023
 10
1266.4605
 20
90.8306
 10
1266.3907
 20
90.9586
 10
1266.3271
 20
91.0863
 10
1266.271
 20
91.2152
 10
1266.2222
 20
91.3474
 10
1266.1806
 20
91.4828
 10
1266.1464
 20
91.6214
 10
1266.1197
 20
91.7631
 10
1266.1005
 20
91.9081
 10
1266.089
 20
92.0562
 10
1266.0851
 20
92.2074
 10
1266.0893
 20
92.3785
 10
1266.102
 20
92.5448
 10
1266.1231
 20
92.7064
 10
1266.1526
 20
92.8632
 10
1266.1906
 20
93.0151
 10
1266.2368
 20
93.1621
 10
1266.2915
 20
93.3041
 10
1266.3545
 20
93.4411
 10
1266.4268
 20
93.5712
 10
1266.5098
 20
93.6933
 10
1266.6036
 20
93.8074
 10
1266.7082
 20
93.9135
 10
1266.8236
 20
94.0116
 10
1266.9498
 20
94.1016
 10
1267.0868
 20
94.1837
 10
1267.2346
 20
94.2577
 10
1267.0978
 20
94.4075
 10
1266.9695
 20
94.5561
 10
1266.8496
 20
94.7036
 10
1266.7383
 20
94.8499
 10
1266.6356
 20
94.9951
 10
1266.5416
 20
95.1393
 10
1266.4563
 20
95.2826
 10
1266.3797
 20
95.425
 10
1266.3107
 20
95.5695
 10
1266.2509
 20
95.7169
 10
1266.2003
 20
95.8673
 10
1266.1589
 20
96.0207
 10
1266.1266
 20
96.1771
 10
1266.1036
 20
96.3366
 10
1266.0897
 20
96.4991
 10
1266.0851
 20
96.6648
 10
1266.0936
 20
96.9121
 10
1266.1188
 20
97.1478
 10
1266.1607
 20
97.3718
 10
1266.2191
 20
97.5843
 10
1266.2554
 20
97.6859
 10
1266.2966
 20
97.7843
 10
1266.3429
 20
97.8797
 10
1266.3941
 20
97.9719
 10
1266.4506
 20
98.061
 10
1266.5122
 20
98.1468
 10
1266.5791
 20
98.2293
 10
1266.6513
 20
98.3085
 10
1266.7298
 20
98.3851
 10
1266.8128
 20
98.4573
 10
1266.9003
 20
98.525
 10
1266.9924
 20
98.5883
 10
1267.0891
 20
98.6471
 10
1267.1905
 20
98.7013
 10
1267.2967
 20
98.751
 10
1267.4078
 20
98.7962
 10
1267.5241
 20
98.837
 10
1267.6477
 20
98.8723
 10
1267.7785
 20
98.9021
 10
1267.9167
 20
98.9265
 10
1268.0622
 20
98.9455
 10
1268.2151
 20
98.959
 10
1268.3754
 20
98.9671
 10
1268.5432
 20
98.9698
 10
1272.9153
 20
98.9698
 10
1272.9153
 20
97.6463
  0
LWPOLYLINE
  5
F9
330
1F
100
AcDbEntity
  8
Layer 1
 62
     7
100
AcDbPolyline
 90
      146
 70
     1
 43
0.0
 10
1272.9153
 20
109.721
 10
1269.0702
 20
109.721
 10
1268.2227
 20
109.6774
 10
1268.0383
 20
109.6516
 10
1267.8747
 20
109.6137
 10
1267.7321
 20
109.564
 10
1267.6106
 20
109.5029
 10
1267.553
 20
109.4657
 10
1267.4995
 20
109.4249
 10
1267.45
 20
109.3804
 10
1267.4045
 20
109.3321
 10
1267.3628
 20
109.2802
 10
1267.325
 20
109.2247
 10
1267.2909
 20
109.1654
 10
1267.2605
 20
109.1025
 10
1267.2111
 20
108.9613
 10
1267.1755
 20
108.7971
 10
1267.1538
 20
108.61
 10
1267.1465
 20
108.4001
 10
1267.1498
 20
108.2969
 10
1267.1598
 20
108.1921
 10
1267.1765
 20
108.0857
 10
1267.1999
 20
107.9774
 10
1267.23
 20
107.8674
 10
1267.2667
 20
107.7555
 10
1267.3102
 20
107.6417
 10
1267.3604
 20
107.5259
 10
1267.4775
 20
107.2901
 10
1267.6189
 20
107.0499
 10
1267.7844
 20
106.8056
 10
1267.974
 20
106.5575
 10
1268.2146
 20
106.5767
 10
1268.5462
 20
106.5863
 10
1272.9153
 20
106.5863
 10
1272.9153
 20
105.2645
 10
1269.0702
 20
105.2645
 10
1268.2227
 20
105.2209
 10
1268.0383
 20
105.195
 10
1267.8747
 20
105.1568
 10
1267.7321
 20
105.1068
 10
1267.6106
 20
105.0456
 10
1267.553
 20
105.0087
 10
1267.4995
 20
104.968
 10
1267.45
 20
104.9237
 10
1267.4045
 20
104.8755
 10
1267.3628
 20
104.8237
 10
1267.325
 20
104.7682
 10
1267.2909
 20
104.7089
 10
1267.2605
 20
104.646
 10
1267.2111
 20
104.5048
 10
1267.1755
 20
104.3406
 10
1267.1538
 20
104.1535
 10
1267.1465
 20
103.9436
 10
1267.15
 20
103.8351
 10
1267.1607
 20
103.7255
 10
1267.1784
 20
103.6148
 10
1267.2033
 20
103.5028
 10
1267.2353
 20
103.3897
 10
1267.2745
 20
103.2752
 10
1267.3209
 20
103.1595
 10
1267.3745
 20
103.0424
 10
1267.4962
 20
102.8091
 10
1267.6336
 20
102.5792
 10
1267.7867
 20
102.3528
 10
1267.9555
 20
102.1298
 10
1272.9153
 20
102.1298
 10
1272.9153
 20
100.8072
 10
1266.2687
 20
100.8072
 10
1266.2687
 20
102.1298
 10
1267.0096
 20
102.1298
 10
1266.8017
 20
102.3898
 10
1266.6187
 20
102.6479
 10
1266.5365
 20
102.7764
 10
1266.4605
 20
102.9046
 10
1266.3907
 20
103.0325
 10
1266.3271
 20
103.1602
 10
1266.271
 20
103.2893
 10
1266.2222
 20
103.4216
 10
1266.1806
 20
103.557
 10
1266.1464
 20
103.6955
 10
1266.1197
 20
103.8372
 10
1266.1005
 20
103.9821
 10
1266.089
 20
104.1301
 10
1266.0851
 20
104.2813
 10
1266.0893
 20
104.4526
 10
1266.102
 20
104.6191
 10
1266.1231
 20
104.7807
 10
1266.1526
 20
104.9375
 10
1266.1906
 20
105.0894
 10
1266.2368
 20
105.2364
 10
1266.2915
 20
105.3786
 10
1266.3545
 20
105.5158
 10
1266.4268
 20
105.6457
 10
1266.5098
 20
105.7677
 10
1266.6036
 20
105.8817
 10
1266.7082
 20
105.9879
 10
1266.8236
 20
106.0861
 10
1266.9498
 20
106.1762
 10
1267.0868
 20
106.2583
 10
1267.2346
 20
106.3324
 10
1267.0978
 20
106.482
 10
1266.9695
 20
106.6305
 10
1266.8496
 20
106.7779
 10
1266.7383
 20
106.9242
 10
1266.6356
 20
107.0694
 10
1266.5416
 20
107.2136
 10
1266.4563
 20
107.3567
 10
1266.3797
 20
107.4989
 10
1266.3107
 20
107.6434
 10
1266.2509
 20
107.7908
 10
1266.2003
 20
107.9412
 10
1266.1589
 20
108.0946
 10
1266.1266
 20
108.251
 10
1266.1036
 20
108.4104
 10
1266.0897
 20
108.573
 10
1266.0851
 20
108.7386
 10
1266.0936
 20
108.986
 10
1266.1188
 20
109.2217
 10
1266.1607
 20
109.4457
 10
1266.2191
 20
109.6582
 10
1266.2554
 20
109.7598
 10
1266.2966
 20
109.8583
 10
1266.3429
 20
109.9538
 10
1266.3941
 20
110.0461
 10
1266.4506
 20
110.1352
 10
1266.5122
 20
110.2209
 10
1266.5791
 20
110.3033
 10
1266.6513
 20
110.3823
 10
1266.7298
 20
110.459
 10
1266.8128
 20
110.5312
 10
1266.9003
 20
110.5989
 10
1266.9924
 20
110.6622
 10
1267.0891
 20
110.721
 10
1267.1905
 20
110.7752
 10
1267.2967
 20
110.8249
 10
1267.4078
 20
110.87
 10
1267.5241
 20
110.9108
 10
1267.6477
 20
110.9461
 10
1267.7785
 20
110.976
 10
1267.9167
 20
111.0004
 10
1268.0622
 20
111.0194
 10
1268.2151
 20
111.0329
 10
1268.3754
 20
111.041
 10
1268.5432
 20
111.0437
 10
1272.9153
 20
111.0437
 10
1272.9153
 20
109.721
  0
ENDSEC
  0
SECTION
  2
OBJECTS
  0
DICTIONARY
  5
C
330
0
100
AcDbDictionary
281
     1
  3
ACAD_DETAILVIEWSTYLE
350
101
  3
ACAD_GROUP
350
D
  3
ACAD_LAYOUT
350
1A
  3
ACAD_MATERIAL
350
43
  3
ACAD_MLEADERSTYLE
350
5B
  3
ACAD_MLINESTYLE
350
17
  3
ACAD_PLOTSETTINGS
350
19
  3
ACAD_PLOTSTYLENAME
350
E
  3
ACAD_SCALELIST
350
47
  3
ACAD_SECTIONVIEWSTYLE
350
102
  3
ACAD_TABLESTYLE
350
59
  3
ACAD_VISUALSTYLE
350
2A
  3
ACDB_RECOMPOSE_DATA
350
FE
  3
AcDbVariableDictionary
350
FA
  0
SUN
  5
5D
330
29
100
AcDbSun
 90
        1
290
     0
 63
     7
421
 16777215
 40
1.0
291
     1
 91
  2455826
 92
 54000000
292
     0
 70
     2
 71
   256
280
     1
  0
DICTIONARY
  5
101
102
{ACAD_REACTORS
330
C
102
}
330
C
100
AcDbDictionary
281
     1
  0
DICTIONARY
  5
D
102
{ACAD_REACTORS
330
C
102
}
330
C
100
AcDbDictionary
281
     1
  0
DICTIONARY
  5
1A
102
{ACAD_REACTORS
330
C
102
}
330
C
100
AcDbDictionary
281
     1
  3
Layout1
350
1E
  3
Layout2
350
26
  3
Model
350
22
  0
DICTIONARY
  5
43
102
{ACAD_REACTORS
330
C
102
}
330
C
100
AcDbDictionary
281
     1
  3
ByBlock
350
45
  3
ByLayer
350
44
  3
Global
350
46
  0
DICTIONARY
  5
5B
102
{ACAD_REACTORS
330
C
102
}
330
C
100
AcDbDictionary
281
     1
  3
Standard
350
5C
  0
DICTIONARY
  5
17
102
{ACAD_REACTORS
330
C
102
}
330
C
100
AcDbDictionary
281
     1
  3
Standard
350
18
  0
DICTIONARY
  5
19
102
{ACAD_REACTORS
330
C
102
}
330
C
100
AcDbDictionary
281
     1
  0
ACDBDICTIONARYWDFLT
  5
E
102
{ACAD_REACTORS
330
C
102
}
330
C
100
AcDbDictionary
281
     1
  3
Normal
350
F
100
AcDbDictionaryWithDefault
340
F
  0
DICTIONARY
  5
47
102
{ACAD_REACTORS
330
C
102
}
330
C
100
AcDbDictionary
281
     1
  3
A0
350
48
  3
A1
350
49
  3
A2
350
4A
  3
A3
350
4B
  3
A4
350
4C
  3
A5
350
4D
  3
A6
350
4E
  3
A7
350
4F
  3
A8
350
50
  3
A9
350
51
  3
B1
350
52
  3
B2
350
53
  3
B3
350
54
  3
B4
350
55
  3
B5
350
56
  3
B6
350
57
  3
B7
350
58
  0
DICTIONARY
  5
102
102
{ACAD_REACTORS
330
C
102
}
330
C
100
AcDbDictionary
281
     1
  0
DICTIONARY
  5
59
102
{ACAD_REACTORS
330
C
102
}
330
C
100
AcDbDictionary
281
     1
  3
Standard
350
5A
  0
DICTIONARY
  5
2A
102
{ACAD_REACTORS
330
C
102
}
330
C
100
AcDbDictionary
281
     1
  3
2dWireframe
350
2F
  3
Basic
350
32
  3
Brighten
350
36
  3
ColorChange
350
3A
  3
Conceptual
350
34
  3
Dim
350
35
  3
EdgeColorOff
350
3D
  3
Facepattern
350
39
  3
Flat
350
2B
  3
FlatWithEdges
350
2C
  3
Gouraud
350
2D
  3
GouraudWithEdges
350
2E
  3
Hidden
350
31
  3
JitterOff
350
3B
  3
Linepattern
350
38
  3
OverhangOff
350
3C
  3
Realistic
350
33
  3
Shaded
350
42
  3
Shaded with edges
350
41
  3
Shades of Gray
350
3E
  3
Sketchy
350
3F
  3
Thicken
350
37
  3
Wireframe
350
30
  3
X-Ray
350
40
  0
XRECORD
  5
FE
102
{ACAD_REACTORS
330
C
102
}
330
C
100
AcDbXrecord
280
     1
 90
        1
330
5A
  0
DICTIONARY
  5
FA
102
{ACAD_REACTORS
330
C
102
}
330
C
100
AcDbDictionary
281
     1
  3
CANNOSCALE
350
FB
  3
CMLEADERSTYLE
350
100
  3
CTABLESTYLE
350
FF
  0
LAYOUT
  5
1E
102
{ACAD_REACTORS
330
1A
102
}
330
1A
100
AcDbPlotSettings
  1

  2
none_device
  4

  6

 40
0.0
 41
0.0
 42
0.0
 43
0.0
 44
0.0
 45
0.0
 46
0.0
 47
0.0
 48
0.0
 49
0.0
140
0.0
141
0.0
142
1.0
143
1.0
 70
   688
 72
     0
 73
     0
 74
     5
  7

 75
    16
 76
     0
 77
     2
 78
   300
147
1.0
148
0.0
149
0.0
100
AcDbLayout
  1
Layout1
 70
     1
 71
     1
 10
0.0
 20
0.0
 11
12.0
 21
9.0
 12
0.0
 22
0.0
 32
0.0
 14
1.000000000000000E+20
 24
1.000000000000000E+20
 34
1.000000000000000E+20
 15
-1.000000000000000E+20
 25
-1.000000000000000E+20
 35
-1.000000000000000E+20
146
0.0
 13
0.0
 23
0.0
 33
0.0
 16
1.0
 26
0.0
 36
0.0
 17
0.0
 27
1.0
 37
0.0
 76
     0
330
1B
  0
LAYOUT
  5
26
102
{ACAD_REACTORS
330
1A
102
}
330
1A
100
AcDbPlotSettings
  1

  2
none_device
  4

  6

 40
0.0
 41
0.0
 42
0.0
 43
0.0
 44
0.0
 45
0.0
 46
0.0
 47
0.0
 48
0.0
 49
0.0
140
0.0
141
0.0
142
1.0
143
1.0
 70
   688
 72
     0
 73
     0
 74
     5
  7

 75
    16
 76
     0
 77
     2
 78
   300
147
1.0
148
0.0
149
0.0
100
AcDbLayout
  1
Layout2
 70
     1
 71
     2
 10
0.0
 20
0.0
 11
0.0
 21
0.0
 12
0.0
 22
0.0
 32
0.0
 14
0.0
 24
0.0
 34
0.0
 15
0.0
 25
0.0
 35
0.0
146
0.0
 13
0.0
 23
0.0
 33
0.0
 16
1.0
 26
0.0
 36
0.0
 17
0.0
 27
1.0
 37
0.0
 76
     0
330
23
  0
LAYOUT
  5
22
102
{ACAD_REACTORS
330
1A
102
}
330
1A
100
AcDbPlotSettings
  1

  2
none_device
  4
Letter_(8.50_x_11.00_Inches)
  6

 40
6.35
 41
6.35
 42
6.35000508
 43
6.35000508
 44
215.9
 45
279.4
 46
0.0
 47
0.0
 48
0.0
 49
0.0
140
0.0
141
0.0
142
1.0
143
1.0
 70
  1712
 72
     0
 73
     0
 74
     0
  7

 75
     0
 76
     0
 77
     2
 78
   300
147
1.0
148
0.0
149
0.0
100
AcDbLayout
  1
Model
 70
     1
 71
     0
 10
0.0
 20
0.0
 11
12.0
 21
9.0
 12
0.0
 22
0.0
 32
0.0
 14
353.9137
 24
-318.6142
 34
0.0
 15
1753.8196
 25
396.6518
 35
0.0
146
0.0
 13
0.0
 23
0.0
 33
0.0
 16
1.0
 26
0.0
 36
0.0
 17
0.0
 27
1.0
 37
0.0
 76
     0
330
1F
331
29
  0
MATERIAL
  5
45
102
{ACAD_REACTORS
330
43
102
}
330
43
100
AcDbMaterial
  1
ByBlock
 72
     1
 94
      127
  0
MATERIAL
  5
44
102
{ACAD_REACTORS
330
43
102
}
330
43
100
AcDbMaterial
  1
ByLayer
 72
     1
 94
      127
  0
MATERIAL
  5
46
102
{ACAD_REACTORS
330
43
102
}
330
43
100
AcDbMaterial
  1
Global
 72
     1
 94
      127
  0
MLEADERSTYLE
  5
5C
102
{ACAD_REACTORS
330
5B
102
}
330
5B
100
AcDbMLeaderStyle
179
     2
170
     2
171
     1
172
     0
 90
        2
 40
0.0
 41
0.0
173
     1
 91
-1056964608
340
14
 92
       -2
290
     1
 42
0.09
291
     1
 43
0.36
  3
Standard
341
0
 44
0.18
300

342
11
174
     1
178
     6
175
     1
176
     0
 93
-1056964608
 45
0.18
292
     0
297
     0
 46
0.18
343
0
 94
-1056964608
 47
1.0
 49
1.0
140
1.0
293
     1
141
0.0
294
     1
177
     0
142
1.0
295
     0
296
     0
143
0.125
271
     0
272
     9
273
     9
298
     0
  0
MLINESTYLE
  5
18
102
{ACAD_REACTORS
330
17
102
}
330
17
100
AcDbMlineStyle
  2
Standard
 70
     0
  3

 62
   256
 51
90.0
 52
90.0
 71
     2
 49
0.5
 62
   256
  6
BYLAYER
 49
-0.5
 62
   256
  6
BYLAYER
  0
ACDBPLACEHOLDER
  5
F
102
{ACAD_REACTORS
330
E
102
}
330
E
  0
SCALE
  5
48
102
{ACAD_REACTORS
330
47
102
}
330
47
100
AcDbScale
 70
     0
300
1:1
140
1.0
141
1.0
290
     1
  0
SCALE
  5
49
102
{ACAD_REACTORS
330
47
102
}
330
47
100
AcDbScale
 70
     0
300
1/128" = 1'-0"
140
0.0078125
141
12.0
290
     0
  0
SCALE
  5
4A
102
{ACAD_REACTORS
330
47
102
}
330
47
100
AcDbScale
 70
     0
300
1/64" = 1'-0"
140
0.015625
141
12.0
290
     0
  0
SCALE
  5
4B
102
{ACAD_REACTORS
330
47
102
}
330
47
100
AcDbScale
 70
     0
300
1/32" = 1'-0"
140
0.03125
141
12.0
290
     0
  0
SCALE
  5
4C
102
{ACAD_REACTORS
330
47
102
}
330
47
100
AcDbScale
 70
     0
300
1/16" = 1'-0"
140
0.0625
141
12.0
290
     0
  0
SCALE
  5
4D
102
{ACAD_REACTORS
330
47
102
}
330
47
100
AcDbScale
 70
     0
300
3/32" = 1'-0"
140
0.09375
141
12.0
290
     0
  0
SCALE
  5
4E
102
{ACAD_REACTORS
330
47
102
}
330
47
100
AcDbScale
 70
     0
300
1/8" = 1'-0"
140
0.125
141
12.0
290
     0
  0
SCALE
  5
4F
102
{ACAD_REACTORS
330
47
102
}
330
47
100
AcDbScale
 70
     0
300
3/16" = 1'-0"
140
0.1875
141
12.0
290
     0
  0
SCALE
  5
50
102
{ACAD_REACTORS
330
47
102
}
330
47
100
AcDbScale
 70
     0
300
1/4" = 1'-0"
140
0.25
141
12.0
290
     0
  0
SCALE
  5
51
102
{ACAD_REACTORS
330
47
102
}
330
47
100
AcDbScale
 70
     0
300
3/8" = 1'-0"
140
0.375
141
12.0
290
     0
  0
SCALE
  5
52
102
{ACAD_REACTORS
330
47
102
}
330
47
100
AcDbScale
 70
     0
300
1/2" = 1'-0"
140
0.5
141
12.0
290
     0
  0
SCALE
  5
53
102
{ACAD_REACTORS
330
47
102
}
330
47
100
AcDbScale
 70
     0
300
3/4" = 1'-0"
140
0.75
141
12.0
290
     0
  0
SCALE
  5
54
102
{ACAD_REACTORS
330
47
102
}
330
47
100
AcDbScale
 70
     0
300
1" = 1'-0"
140
1.0
141
12.0
290
     0
  0
SCALE
  5
55
102
{ACAD_REACTORS
330
47
102
}
330
47
100
AcDbScale
 70
     0
300
1-1/2" = 1'-0"
140
1.5
141
12.0
290
     0
  0
SCALE
  5
56
102
{ACAD_REACTORS
330
47
102
}
330
47
100
AcDbScale
 70
     0
300
3" = 1'-0"
140
3.0
141
12.0
290
     0
  0
SCALE
  5
57
102
{ACAD_REACTORS
330
47
102
}
330
47
100
AcDbScale
 70
     0
300
6" = 1'-0"
140
6.0
141
12.0
290
     0
  0
SCALE
  5
58
102
{ACAD_REACTORS
330
47
102
}
330
47
100
AcDbScale
 70
     0
300
1'-0" = 1'-0"
140
12.0
141
12.0
290
     0
  0
TABLESTYLE
  5
5A
102
{ACAD_REACTORS
330
59
102
}
102
{ACAD_XDICTIONARY
360
FC
102
}
330
59
100
AcDbTableStyle
  3
Standard
 70
     0
 71
     0
 40
0.06
 41
0.06
280
     0
281
     0
  7
Standard
140
0.18
170
     2
 62
     0
 63
   257
283
     0
 90
        4
 91
        0
  1

274
    -2
284
     1
 64
     0
275
    -2
285
     1
 65
     0
276
    -2
286
     1
 66
     0
277
    -2
287
     1
 67
     0
278
    -2
288
     1
 68
     0
279
    -2
289
     1
 69
     0
  7
Standard
140
0.25
170
     5
 62
     0
 63
   257
283
     0
 90
        4
 91
        0
  1

274
    -2
284
     1
 64
     0
275
    -2
285
     1
 65
     0
276
    -2
286
     1
 66
     0
277
    -2
287
     1
 67
     0
278
    -2
288
     1
 68
     0
279
    -2
289
     1
 69
     0
  7
Standard
140
0.18
170
     5
 62
     0
 63
   257
283
     0
 90
        4
 91
        0
  1

274
    -2
284
     1
 64
     0
275
    -2
285
     1
 65
     0
276
    -2
286
     1
 66
     0
277
    -2
287
     1
 67
     0
278
    -2
288
     1
 68
     0
279
    -2
289
     1
 69
     0
  0
VISUALSTYLE
  5
2F
102
{ACAD_REACTORS
330
2A
102
}
330
2A
100
AcDbVisualStyle
  2
2dWireframe
 70
     4
177
     3
291
     0
 70
    58
 90
        0
176
     1
 90
        2
176
     1
 90
        0
176
     1
 90
        0
176
     1
 40
0.6
176
     1
 40
30.0
176
     1
 62
     7
420
 16777215
176
     1
 90
        1
176
     1
 90
        4
176
     1
 62
     7
176
     1
 62
   257
176
     1
 90
        1
176
     1
 90
        1
176
     1
 40
1.0
176
     1
 90
        0
176
     1
 62
   257
176
     1
 40
1.0
176
     1
 90
        1
176
     1
 90
        6
176
     1
 90
        2
176
     1
 62
     7
176
     1
 90
        5
176
     1
 90
        0
176
     1
 90
        0
176
     1
290
     0
176
     1
 90
        1
176
     1
 40
0.0
176
     1
 90
        0
176
     1
290
     1
176
     1
290
     1
176
     1
290
     0
176
     1
290
     0
176
     1
290
     0
176
     1
290
     0
176
     1
290
     0
176
     1
290
     0
176
     1
290
     0
176
     1
 90
       50
176
     1
 40
0.0
176
     1
 40
1.0
176
     1
 90
        0
176
     1
 62
    18
420
        0
176
     1
 90
       50
176
     1
 90
        3
176
     1
 62
     5
420
      255
176
     1
290
     0
176
     1
 90
       50
176
     1
 90
       50
176
     1
 90
       50
176
     1
290
     0
176
     1
 90
       50
176
     1
 62
   256
176
     0
 40
1.0
176
     0
 90
        2
176
     1
  1
strokes_ogs.tif
176
     1
290
     0
176
     1
 40
1.0
176
     1
 40
1.0
176
     1
  0
VISUALSTYLE
  5
32
102
{ACAD_REACTORS
330
2A
102
}
330
2A
100
AcDbVisualStyle
  2
Basic
 70
     7
177
     3
291
     1
 70
    58
 90
        1
176
     1
 90
        0
176
     1
 90
        1
176
     1
 90
        0
176
     1
 40
0.6
176
     1
 40
30.0
176
     1
 62
     7
420
 16777215
176
     1
 90
        0
176
     1
 90
        4
176
     1
 62
     7
176
     1
 62
   257
176
     1
 90
        1
176
     1
 90
        1
176
     1
 40
1.0
176
     1
 90
        8
176
     1
 62
     7
176
     1
 40
1.0
176
     1
 90
        1
176
     1
 90
        6
176
     1
 90
        2
176
     1
 62
     7
176
     1
 90
        5
176
     1
 90
        0
176
     1
 90
        0
176
     1
290
     0
176
     1
 90
        1
176
     1
 40
0.0
176
     1
 90
        0
176
     1
290
     0
176
     1
290
     1
176
     1
290
     1
176
     1
290
     0
176
     1
290
     0
176
     1
290
     0
176
     1
290
     0
176
     1
290
     0
176
     1
290
     0
176
     1
 90
       50
176
     1
 40
0.0
176
     1
 40
1.0
176
     1
 90
        0
176
     1
 62
    18
420
        0
176
     1
 90
       50
176
     1
 90
        3
176
     1
 62
     5
420
      255
176
     1
290
     0
176
     1
 90
       50
176
     1
 90
       50
176
     1
 90
       50
176
     1
290
     0
176
     1
 90
       50
176
     1
 62
   256
176
     0
 40
1.0
176
     0
 90
        2
176
     1
  1
strokes_ogs.tif
176
     1
290
     0
176
     1
 40
1.0
176
     1
 40
1.0
176
     1
  0
VISUALSTYLE
  5
36
102
{ACAD_REACTORS
330
2A
102
}
330
2A
100
AcDbVisualStyle
  2
Brighten
 70
    12
177
     3
291
     1
 70
    58
 90
        2
176
     1
 90
        2
176
     1
 90
        0
176
     1
 90
        0
176
     1
 40
0.6
176
     1
 40
30.0
176
     1
 62
     7
420
 16777215
176
     1
 90
        1
176
     1
 90
        4
176
     1
 62
     7
176
     1
 62
   257
176
     1
 90
        1
176
     1
 90
        1
176
     1
 40
1.0
176
     1
 90
        8
176
     1
 62
     7
176
     1
 40
1.0
176
     1
 90
        1
176
     1
 90
        6
176
     1
 90
        2
176
     1
 62
     7
176
     1
 90
        5
176
     1
 90
        0
176
     1
 90
        0
176
     1
290
     0
176
     1
 90
        1
176
     1
 40
50.0
176
     1
 90
        0
176
     1
290
     0
176
     1
290
     1
176
     1
290
     1
176
     1
290
     0
176
     1
290
     0
176
     1
290
     0
176
     1
290
     0
176
     1
290
     0
176
     1
290
     0
176
     1
 90
       50
176
     1
 40
0.0
176
     1
 40
1.0
176
     1
 90
        0
176
     1
 62
    18
420
        0
176
     1
 90
       50
176
     1
 90
        3
176
     1
 62
     5
420
      255
176
     1
290
     0
176
     1
 90
       50
176
     1
 90
       50
176
     1
 90
       50
176
     1
290
     0
176
     1
 90
       50
176
     1
 62
   256
176
     0
 40
1.0
176
     0
 90
        2
176
     1
  1
strokes_ogs.tif
176
     1
290
     0
176
     1
 40
1.0
176
     1
 40
1.0
176
     1
  0
VISUALSTYLE
  5
3A
102
{ACAD_REACTORS
330
2A
102
}
330
2A
100
AcDbVisualStyle
  2
ColorChange
 70
    16
177
     3
291
     1
 70
    58
 90
        2
176
     1
 90
        2
176
     1
 90
        3
176
     1
 90
        0
176
     1
 40
0.6
176
     1
 40
30.0
176
     1
 62
     8
420
  8421504
176
     1
 90
        1
176
     1
 90
        4
176
     1
 62
     7
176
     1
 62
   257
176
     1
 90
        1
176
     1
 90
        1
176
     1
 40
1.0
176
     1
 90
        8
176
     1
 62
     8
420
  8421504
176
     1
 40
1.0
176
     1
 90
        1
176
     1
 90
        6
176
     1
 90
        2
176
     1
 62
     7
176
     1
 90
        5
176
     1
 90
        0
176
     1
 90
        0
176
     1
290
     0
176
     1
 90
        1
176
     1
 40
0.0
176
     1
 90
        0
176
     1
290
     0
176
     1
290
     1
176
     1
290
     1
176
     1
290
     0
176
     1
290
     0
176
     1
290
     0
176
     1
290
     0
176
     1
290
     0
176
     1
290
     0
176
     1
 90
       50
176
     1
 40
0.0
176
     1
 40
1.0
176
     1
 90
        0
176
     1
 62
    18
420
        0
176
     1
 90
       50
176
     1
 90
        3
176
     1
 62
     5
420
      255
176
     1
290
     0
176
     1
 90
       50
176
     1
 90
       50
176
     1
 90
       50
176
     1
290
     0
176
     1
 90
       50
176
     1
 62
   256
176
     0
 40
1.0
176
     0
 90
        2
176
     1
  1
strokes_ogs.tif
176
     1
290
     0
176
     1
 40
1.0
176
     1
 40
1.0
176
     1
  0
VISUALSTYLE
  5
34
102
{ACAD_REACTORS
330
2A
102
}
330
2A
100
AcDbVisualStyle
  2
Conceptual
 70
     9
177
     3
291
     0
 70
    58
 90
        3
176
     1
 90
        2
176
     1
 90
        0
176
     1
 90
        0
176
     1
 40
0.6
176
     1
 40
30.0
176
     1
 62
     7
420
 16777215
176
     1
 90
        2
176
     1
 90
        2
176
     1
 62
     7
176
     1
 62
   257
176
     1
 90
        1
176
     1
 90
        1
176
     1
 40
179.0
176
     1
 90
        8
176
     1
 62
     7
176
     1
 40
1.0
176
     1
 90
        1
176
     1
 90
        6
176
     1
 90
        2
176
     1
 62
     7
176
     1
 90
        3
176
     1
 90
        0
176
     1
 90
        0
176
     1
290
     0
176
     1
 90
        1
176
     1
 40
0.0
176
     1
 90
        0
176
     1
290
     0
176
     1
290
     1
176
     1
290
     1
176
     1
290
     0
176
     1
290
     0
176
     1
290
     0
176
     1
290
     0
176
     1
290
     0
176
     1
290
     0
176
     1
 90
       50
176
     1
 40
0.0
176
     1
 40
1.0
176
     1
 90
        0
176
     1
 62
    18
420
        0
176
     1
 90
       50
176
     1
 90
        3
176
     1
 62
     5
420
      255
176
     1
290
     0
176
     1
 90
       50
176
     1
 90
       50
176
     1
 90
       50
176
     1
290
     0
176
     1
 90
       50
176
     1
 62
   256
176
     0
 40
1.0
176
     0
 90
        2
176
     1
  1
strokes_ogs.tif
176
     1
290
     0
176
     1
 40
1.0
176
     1
 40
1.0
176
     1
  0
VISUALSTYLE
  5
35
102
{ACAD_REACTORS
330
2A
102
}
330
2A
100
AcDbVisualStyle
  2
Dim
 70
    11
177
     3
291
     1
 70
    58
 90
        2
176
     1
 90
        2
176
     1
 90
        0
176
     1
 90
        0
176
     1
 40
0.6
176
     1
 40
30.0
176
     1
 62
     7
420
 16777215
176
     1
 90
        1
176
     1
 90
        4
176
     1
 62
     7
176
     1
 62
   257
176
     1
 90
        1
176
     1
 90
        1
176
     1
 40
1.0
176
     1
 90
        8
176
     1
 62
     7
176
     1
 40
1.0
176
     1
 90
        1
176
     1
 90
        6
176
     1
 90
        2
176
     1
 62
     7
176
     1
 90
        5
176
     1
 90
        0
176
     1
 90
        0
176
     1
290
     0
176
     1
 90
        1
176
     1
 40
-50.0
176
     1
 90
        0
176
     1
290
     0
176
     1
290
     1
176
     1
290
     1
176
     1
290
     0
176
     1
290
     0
176
     1
290
     0
176
     1
290
     0
176
     1
290
     0
176
     1
290
     0
176
     1
 90
       50
176
     1
 40
0.0
176
     1
 40
1.0
176
     1
 90
        0
176
     1
 62
    18
420
        0
176
     1
 90
       50
176
     1
 90
        3
176
     1
 62
     5
420
      255
176
     1
290
     0
176
     1
 90
       50
176
     1
 90
       50
176
     1
 90
       50
176
     1
290
     0
176
     1
 90
       50
176
     1
 62
   256
176
     0
 40
1.0
176
     0
 90
        2
176
     1
  1
strokes_ogs.tif
176
     1
290
     0
176
     1
 40
1.0
176
     1
 40
1.0
176
     1
  0
VISUALSTYLE
  5
3D
102
{ACAD_REACTORS
330
2A
102
}
330
2A
100
AcDbVisualStyle
  2
EdgeColorOff
 70
    22
177
     3
291
     1
 70
    58
 90
        2
176
     0
 90
        2
176
     0
 90
        0
176
     0
 90
        0
176
     0
 40
0.6
176
     0
 40
30.0
176
     0
 62
     7
420
 16777215
176
     0
 90
        1
176
     0
 90
        4
176
     0
 62
     7
176
     0
 62
   257
176
     0
 90
        1
176
     0
 90
        1
176
     0
 40
1.0
176
     0
 90
        8
176
     2
 62
     7
176
     0
 40
1.0
176
     0
 90
        1
176
     0
 90
        6
176
     0
 90
        2
176
     0
 62
     7
176
     0
 90
        5
176
     0
 90
        0
176
     0
 90
        0
176
     0
290
     0
176
     0
 90
        1
176
     0
 40
0.0
176
     0
 90
        0
176
     0
290
     0
176
     0
290
     1
176
     0
290
     1
176
     0
290
     0
176
     0
290
     0
176
     0
290
     0
176
     0
290
     0
176
     0
290
     0
176
     0
290
     0
176
     0
 90
       50
176
     0
 40
0.0
176
     0
 40
1.0
176
     0
 90
        0
176
     0
 62
    18
420
        0
176
     0
 90
       50
176
     0
 90
        3
176
     0
 62
     5
420
      255
176
     0
290
     0
176
     0
 90
       50
176
     0
 90
       50
176
     0
 90
       50
176
     0
290
     0
176
     0
 90
       50
176
     0
 62
   256
176
     0
 40
1.0
176
     0
 90
        2
176
     0
  1
strokes_ogs.tif
176
     0
290
     0
176
     0
 40
1.0
176
     0
 40
1.0
176
     0
  0
VISUALSTYLE
  5
39
102
{ACAD_REACTORS
330
2A
102
}
330
2A
100
AcDbVisualStyle
  2
Facepattern
 70
    15
177
     3
291
     1
 70
    58
 90
        2
176
     1
 90
        2
176
     1
 90
        0
176
     1
 90
        0
176
     1
 40
0.6
176
     1
 40
30.0
176
     1
 62
     7
420
 16777215
176
     1
 90
        1
176
     1
 90
        4
176
     1
 62
     7
176
     1
 62
   257
176
     1
 90
        1
176
     1
 90
        1
176
     1
 40
1.0
176
     1
 90
        8
176
     1
 62
     7
176
     1
 40
1.0
176
     1
 90
        1
176
     1
 90
        6
176
     1
 90
        2
176
     1
 62
     7
176
     1
 90
        5
176
     1
 90
        0
176
     1
 90
        0
176
     1
290
     0
176
     1
 90
        1
176
     1
 40
0.0
176
     1
 90
        0
176
     1
290
     0
176
     1
290
     1
176
     1
290
     1
176
     1
290
     0
176
     1
290
     0
176
     1
290
     0
176
     1
290
     0
176
     1
290
     0
176
     1
290
     0
176
     1
 90
       50
176
     1
 40
0.0
176
     1
 40
1.0
176
     1
 90
        0
176
     1
 62
    18
420
        0
176
     1
 90
       50
176
     1
 90
        3
176
     1
 62
     5
420
      255
176
     1
290
     0
176
     1
 90
       50
176
     1
 90
       50
176
     1
 90
       50
176
     1
290
     0
176
     1
 90
       50
176
     1
 62
   256
176
     0
 40
1.0
176
     0
 90
        2
176
     1
  1
strokes_ogs.tif
176
     1
290
     0
176
     1
 40
1.0
176
     1
 40
1.0
176
     1
  0
VISUALSTYLE
  5
2B
102
{ACAD_REACTORS
330
2A
102
}
330
2A
100
AcDbVisualStyle
  2
Flat
 70
     0
177
     3
291
     1
 70
    58
 90
        2
176
     1
 90
        1
176
     1
 90
        1
176
     1
 90
        2
176
     1
 40
0.6
176
     1
 40
30.0
176
     1
 62
     7
420
 16777215
176
     1
 90
        0
176
     1
 90
        0
176
     1
 62
     7
176
     1
 62
   257
176
     1
 90
        1
176
     1
 90
        1
176
     1
 40
1.0
176
     1
 90
        8
176
     1
 62
     7
176
     1
 40
1.0
176
     1
 90
        1
176
     1
 90
        6
176
     1
 90
        2
176
     1
 62
     7
176
     1
 90
        5
176
     1
 90
        0
176
     1
 90
        0
176
     1
290
     0
176
     1
 90
       13
176
     1
 40
0.0
176
     1
 90
        0
176
     1
290
     0
176
     1
290
     1
176
     1
290
     1
176
     1
290
     0
176
     1
290
     0
176
     1
290
     0
176
     1
290
     0
176
     1
290
     0
176
     1
290
     0
176
     1
 90
       50
176
     1
 40
0.0
176
     1
 40
1.0
176
     1
 90
        0
176
     1
 62
    18
420
        0
176
     1
 90
       50
176
     1
 90
        3
176
     1
 62
     5
420
      255
176
     1
290
     0
176
     1
 90
       50
176
     1
 90
       50
176
     1
 90
       50
176
     1
290
     0
176
     1
 90
       50
176
     1
 62
   256
176
     0
 40
1.0
176
     0
 90
        2
176
     1
  1
strokes_ogs.tif
176
     1
290
     0
176
     1
 40
1.0
176
     1
 40
1.0
176
     1
  0
VISUALSTYLE
  5
2C
102
{ACAD_REACTORS
330
2A
102
}
330
2A
100
AcDbVisualStyle
  2
FlatWithEdges
 70
     1
177
     3
291
     1
 70
    58
 90
        2
176
     1
 90
        1
176
     1
 90
        1
176
     1
 90
        2
176
     1
 40
0.6
176
     1
 40
30.0
176
     1
 62
     7
420
 16777215
176
     1
 90
        1
176
     1
 90
        0
176
     1
 62
     7
176
     1
 62
   257
176
     1
 90
        1
176
     1
 90
        1
176
     1
 40
1.0
176
     1
 90
        0
176
     1
 62
   257
176
     1
 40
1.0
176
     1
 90
        1
176
     1
 90
        6
176
     1
 90
        2
176
     1
 62
     7
176
     1
 90
        5
176
     1
 90
        0
176
     1
 90
        0
176
     1
290
     0
176
     1
 90
       13
176
     1
 40
0.0
176
     1
 90
        0
176
     1
290
     0
176
     1
290
     1
176
     1
290
     1
176
     1
290
     0
176
     1
290
     0
176
     1
290
     0
176
     1
290
     0
176
     1
290
     0
176
     1
290
     0
176
     1
 90
       50
176
     1
 40
0.0
176
     1
 40
1.0
176
     1
 90
        0
176
     1
 62
    18
420
        0
176
     1
 90
       50
176
     1
 90
        3
176
     1
 62
     5
420
      255
176
     1
290
     0
176
     1
 90
       50
176
     1
 90
       50
176
     1
 90
       50
176
     1
290
     0
176
     1
 90
       50
176
     1
 62
   256
176
     0
 40
1.0
176
     0
 90
        2
176
     1
  1
strokes_ogs.tif
176
     1
290
     0
176
     1
 40
1.0
176
     1
 40
1.0
176
     1
  0
VISUALSTYLE
  5
2D
102
{ACAD_REACTORS
330
2A
102
}
330
2A
100
AcDbVisualStyle
  2
Gouraud
 70
     2
177
     3
291
     1
 70
    58
 90
        2
176
     1
 90
        2
176
     1
 90
        1
176
     1
 90
        2
176
     1
 40
0.6
176
     1
 40
30.0
176
     1
 62
     7
420
 16777215
176
     1
 90
        0
176
     1
 90
        0
176
     1
 62
     7
176
     1
 62
   257
176
     1
 90
        1
176
     1
 90
        1
176
     1
 40
1.0
176
     1
 90
        0
176
     1
 62
     7
176
     1
 40
1.0
176
     1
 90
        1
176
     1
 90
        6
176
     1
 90
        2
176
     1
 62
     7
176
     1
 90
        5
176
     1
 90
        0
176
     1
 90
        0
176
     1
290
     0
176
     1
 90
       13
176
     1
 40
0.0
176
     1
 90
        0
176
     1
290
     0
176
     1
290
     1
176
     1
290
     1
176
     1
290
     0
176
     1
290
     0
176
     1
290
     0
176
     1
290
     0
176
     1
290
     0
176
     1
290
     0
176
     1
 90
       50
176
     1
 40
0.0
176
     1
 40
1.0
176
     1
 90
        0
176
     1
 62
    18
420
        0
176
     1
 90
       50
176
     1
 90
        3
176
     1
 62
     5
420
      255
176
     1
290
     0
176
     1
 90
       50
176
     1
 90
       50
176
     1
 90
       50
176
     1
290
     0
176
     1
 90
       50
176
     1
 62
   256
176
     0
 40
1.0
176
     0
 90
        2
176
     1
  1
strokes_ogs.tif
176
     1
290
     0
176
     1
 40
1.0
176
     1
 40
1.0
176
     1
  0
VISUALSTYLE
  5
2E
102
{ACAD_REACTORS
330
2A
102
}
330
2A
100
AcDbVisualStyle
  2
GouraudWithEdges
 70
     3
177
     3
291
     1
 70
    58
 90
        2
176
     1
 90
        2
176
     1
 90
        1
176
     1
 90
        2
176
     1
 40
0.6
176
     1
 40
30.0
176
     1
 62
     7
420
 16777215
176
     1
 90
        1
176
     1
 90
        0
176
     1
 62
     7
176
     1
 62
   257
176
     1
 90
        1
176
     1
 90
        1
176
     1
 40
1.0
176
     1
 90
        0
176
     1
 62
   257
176
     1
 40
1.0
176
     1
 90
        1
176
     1
 90
        6
176
     1
 90
        2
176
     1
 62
     7
176
     1
 90
        5
176
     1
 90
        0
176
     1
 90
        0
176
     1
290
     0
176
     1
 90
       13
176
     1
 40
0.0
176
     1
 90
        0
176
     1
290
     0
176
     1
290
     1
176
     1
290
     1
176
     1
290
     0
176
     1
290
     0
176
     1
290
     0
176
     1
290
     0
176
     1
290
     0
176
     1
290
     0
176
     1
 90
       50
176
     1
 40
0.0
176
     1
 40
1.0
176
     1
 90
        0
176
     1
 62
    18
420
        0
176
     1
 90
       50
176
     1
 90
        3
176
     1
 62
     5
420
      255
176
     1
290
     0
176
     1
 90
       50
176
     1
 90
       50
176
     1
 90
       50
176
     1
290
     0
176
     1
 90
       50
176
     1
 62
   256
176
     0
 40
1.0
176
     0
 90
        2
176
     1
  1
strokes_ogs.tif
176
     1
290
     0
176
     1
 40
1.0
176
     1
 40
1.0
176
     1
  0
VISUALSTYLE
  5
31
102
{ACAD_REACTORS
330
2A
102
}
330
2A
100
AcDbVisualStyle
  2
Hidden
 70
     6
177
     3
291
     0
 70
    58
 90
        1
176
     1
 90
        2
176
     1
 90
        2
176
     1
 90
        0
176
     1
 40
0.6
176
     1
 40
30.0
176
     1
 62
     7
420
 16777215
176
     1
 90
        2
176
     1
 90
        2
176
     1
 62
     7
176
     1
 62
   257
176
     1
 90
        2
176
     1
 90
        1
176
     1
 40
40.0
176
     1
 90
        0
176
     1
 62
   257
176
     1
 40
1.0
176
     1
 90
        1
176
     1
 90
        6
176
     1
 90
        2
176
     1
 62
     7
176
     1
 90
        3
176
     1
 90
        0
176
     1
 90
        0
176
     1
290
     0
176
     1
 90
        1
176
     1
 40
0.0
176
     1
 90
        0
176
     1
290
     0
176
     1
290
     1
176
     1
290
     1
176
     1
290
     0
176
     1
290
     0
176
     1
290
     0
176
     1
290
     0
176
     1
290
     0
176
     1
290
     0
176
     1
 90
       50
176
     1
 40
0.0
176
     1
 40
1.0
176
     1
 90
        0
176
     1
 62
    18
420
        0
176
     1
 90
       50
176
     1
 90
        3
176
     1
 62
     5
420
      255
176
     1
290
     0
176
     1
 90
       50
176
     1
 90
       50
176
     1
 90
       50
176
     1
290
     0
176
     1
 90
       50
176
     1
 62
   256
176
     0
 40
1.0
176
     0
 90
        2
176
     1
  1
strokes_ogs.tif
176
     1
290
     0
176
     1
 40
1.0
176
     1
 40
1.0
176
     1
  0
VISUALSTYLE
  5
3B
102
{ACAD_REACTORS
330
2A
102
}
330
2A
100
AcDbVisualStyle
  2
JitterOff
 70
    20
177
     3
291
     1
 70
    58
 90
        2
176
     0
 90
        2
176
     0
 90
        0
176
     0
 90
        0
176
     0
 40
0.6
176
     0
 40
30.0
176
     0
 62
     7
420
 16777215
176
     0
 90
        1
176
     0
 90
        4
176
     0
 62
     7
176
     0
 62
   257
176
     0
 90
        1
176
     0
 90
        1
176
     0
 40
1.0
176
     0
 90
       10
176
     2
 62
     7
176
     0
 40
1.0
176
     0
 90
        1
176
     0
 90
        6
176
     0
 90
        2
176
     0
 62
     7
176
     0
 90
        5
176
     0
 90
        0
176
     0
 90
        0
176
     0
290
     0
176
     0
 90
        1
176
     0
 40
0.0
176
     0
 90
        0
176
     0
290
     0
176
     0
290
     1
176
     0
290
     1
176
     0
290
     0
176
     0
290
     0
176
     0
290
     0
176
     0
290
     0
176
     0
290
     0
176
     0
290
     0
176
     0
 90
       50
176
     0
 40
0.0
176
     0
 40
1.0
176
     0
 90
        0
176
     0
 62
    18
420
        0
176
     0
 90
       50
176
     0
 90
        3
176
     0
 62
     5
420
      255
176
     0
290
     0
176
     0
 90
       50
176
     0
 90
       50
176
     0
 90
       50
176
     0
290
     0
176
     0
 90
       50
176
     0
 62
   256
176
     0
 40
1.0
176
     0
 90
        2
176
     0
  1
strokes_ogs.tif
176
     0
290
     0
176
     0
 40
1.0
176
     0
 40
1.0
176
     0
  0
VISUALSTYLE
  5
38
102
{ACAD_REACTORS
330
2A
102
}
330
2A
100
AcDbVisualStyle
  2
Linepattern
 70
    14
177
     3
291
     1
 70
    58
 90
        2
176
     1
 90
        2
176
     1
 90
        0
176
     1
 90
        0
176
     1
 40
0.6
176
     1
 40
30.0
176
     1
 62
     7
420
 16777215
176
     1
 90
        1
176
     1
 90
        4
176
     1
 62
     7
176
     1
 62
   257
176
     1
 90
        7
176
     1
 90
        7
176
     1
 40
1.0
176
     1
 90
        8
176
     1
 62
     7
176
     1
 40
1.0
176
     1
 90
        1
176
     1
 90
        6
176
     1
 90
        2
176
     1
 62
     7
176
     1
 90
        5
176
     1
 90
        0
176
     1
 90
        0
176
     1
290
     0
176
     1
 90
        1
176
     1
 40
0.0
176
     1
 90
        0
176
     1
290
     0
176
     1
290
     1
176
     1
290
     1
176
     1
290
     0
176
     1
290
     0
176
     1
290
     0
176
     1
290
     0
176
     1
290
     0
176
     1
290
     0
176
     1
 90
       50
176
     1
 40
0.0
176
     1
 40
1.0
176
     1
 90
        0
176
     1
 62
    18
420
        0
176
     1
 90
       50
176
     1
 90
        3
176
     1
 62
     5
420
      255
176
     1
290
     0
176
     1
 90
       50
176
     1
 90
       50
176
     1
 90
       50
176
     1
290
     0
176
     1
 90
       50
176
     1
 62
   256
176
     0
 40
1.0
176
     0
 90
        2
176
     1
  1
strokes_ogs.tif
176
     1
290
     0
176
     1
 40
1.0
176
     1
 40
1.0
176
     1
  0
VISUALSTYLE
  5
3C
102
{ACAD_REACTORS
330
2A
102
}
330
2A
100
AcDbVisualStyle
  2
OverhangOff
 70
    21
177
     3
291
     1
 70
    58
 90
        2
176
     0
 90
        2
176
     0
 90
        0
176
     0
 90
        0
176
     0
 40
0.6
176
     0
 40
30.0
176
     0
 62
     7
420
 16777215
176
     0
 90
        1
176
     0
 90
        4
176
     0
 62
     7
176
     0
 62
   257
176
     0
 90
        1
176
     0
 90
        1
176
     0
 40
1.0
176
     0
 90
        9
176
     2
 62
     7
176
     0
 40
1.0
176
     0
 90
        1
176
     0
 90
        6
176
     0
 90
        2
176
     0
 62
     7
176
     0
 90
        5
176
     0
 90
        0
176
     0
 90
        0
176
     0
290
     0
176
     0
 90
        1
176
     0
 40
0.0
176
     0
 90
        0
176
     0
290
     0
176
     0
290
     1
176
     0
290
     1
176
     0
290
     0
176
     0
290
     0
176
     0
290
     0
176
     0
290
     0
176
     0
290
     0
176
     0
290
     0
176
     0
 90
       50
176
     0
 40
0.0
176
     0
 40
1.0
176
     0
 90
        0
176
     0
 62
    18
420
        0
176
     0
 90
       50
176
     0
 90
        3
176
     0
 62
     5
420
      255
176
     0
290
     0
176
     0
 90
       50
176
     0
 90
       50
176
     0
 90
       50
176
     0
290
     0
176
     0
 90
       50
176
     0
 62
   256
176
     0
 40
1.0
176
     0
 90
        2
176
     0
  1
strokes_ogs.tif
176
     0
290
     0
176
     0
 40
1.0
176
     0
 40
1.0
176
     0
  0
VISUALSTYLE
  5
33
102
{ACAD_REACTORS
330
2A
102
}
330
2A
100
AcDbVisualStyle
  2
Realistic
 70
     8
177
     3
291
     0
 70
    58
 90
        2
176
     1
 90
        3
176
     1
 90
        0
176
     1
 90
        2
176
     1
 40
0.6
176
     1
 40
30.0
176
     1
 62
     7
420
 16777215
176
     1
 90
        0
176
     1
 90
        0
176
     1
 62
     7
176
     1
 62
   257
176
     1
 90
        1
176
     1
 90
        1
176
     1
 40
1.0
176
     1
 90
        8
176
     1
 62
   257
176
     1
 40
1.0
176
     1
 90
        1
176
     1
 90
        6
176
     1
 90
        2
176
     1
 62
     7
176
     1
 90
        3
176
     1
 90
        0
176
     1
 90
        0
176
     1
290
     0
176
     1
 90
       13
176
     1
 40
0.0
176
     1
 90
        0
176
     1
290
     0
176
     1
290
     1
176
     1
290
     1
176
     1
290
     0
176
     1
290
     0
176
     1
290
     0
176
     1
290
     0
176
     1
290
     0
176
     1
290
     0
176
     1
 90
       50
176
     1
 40
0.0
176
     1
 40
1.0
176
     1
 90
        0
176
     1
 62
    18
420
        0
176
     1
 90
       50
176
     1
 90
        3
176
     1
 62
     5
420
      255
176
     1
290
     0
176
     1
 90
       50
176
     1
 90
       50
176
     1
 90
       50
176
     1
290
     0
176
     1
 90
       50
176
     1
 62
   256
176
     0
 40
1.0
176
     0
 90
        2
176
     1
  1
strokes_ogs.tif
176
     1
290
     0
176
     1
 40
1.0
176
     1
 40
1.0
176
     1
  0
VISUALSTYLE
  5
42
102
{ACAD_REACTORS
330
2A
102
}
330
2A
100
AcDbVisualStyle
  2
Shaded
 70
    27
177
     3
291
     0
 70
    58
 90
        2
176
     1
 90
        2
176
     1
 90
        1
176
     1
 90
        2
176
     1
 40
0.6
176
     1
 40
30.0
176
     1
 62
     7
420
 16777215
176
     1
 90
        0
176
     1
 90
        4
176
     1
 62
     7
176
     1
 62
   257
176
     1
 90
        1
176
     1
 90
        1
176
     1
 40
1.0
176
     1
 90
        8
176
     1
 62
   257
176
     1
 40
1.0
176
     1
 90
        1
176
     1
 90
        6
176
     1
 90
        2
176
     1
 62
     8
420
  7895160
176
     1
 90
        3
176
     1
 90
        0
176
     1
 90
        0
176
     1
290
     0
176
     1
 90
        5
176
     1
 40
0.0
176
     1
 90
        0
176
     1
290
     0
176
     1
290
     1
176
     1
290
     1
176
     1
290
     0
176
     1
290
     0
176
     1
290
     0
176
     1
290
     0
176
     1
290
     0
176
     1
290
     0
176
     1
 90
       50
176
     1
 40
0.0
176
     1
 40
1.0
176
     1
 90
        0
176
     1
 62
    18
420
        0
176
     1
 90
       50
176
     1
 90
        3
176
     1
 62
     5
420
      255
176
     1
290
     0
176
     1
 90
       50
176
     1
 90
       50
176
     1
 90
       50
176
     1
290
     0
176
     1
 90
       50
176
     1
 62
   256
176
     0
 40
1.0
176
     0
 90
        2
176
     1
  1
strokes_ogs.tif
176
     1
290
     0
176
     1
 40
1.0
176
     1
 40
1.0
176
     1
  0
VISUALSTYLE
  5
41
102
{ACAD_REACTORS
330
2A
102
}
330
2A
100
AcDbVisualStyle
  2
Shaded with edges
 70
    26
177
     3
291
     0
 70
    58
 90
        2
176
     1
 90
        2
176
     1
 90
        1
176
     1
 90
        2
176
     1
 40
0.6
176
     1
 40
30.0
176
     1
 62
     7
420
 16777215
176
     1
 90
        1
176
     1
 90
       10
176
     1
 62
     7
176
     1
 62
   257
176
     1
 90
        2
176
     1
 90
        1
176
     1
 40
1.0
176
     1
 90
        8
176
     1
 62
   257
176
     1
 40
1.0
176
     1
 90
        1
176
     1
 90
        6
176
     1
 90
        2
176
     1
 62
     7
176
     1
 90
        3
176
     1
 90
        0
176
     1
 90
        0
176
     1
290
     0
176
     1
 90
        5
176
     1
 40
0.0
176
     1
 90
        0
176
     1
290
     0
176
     1
290
     1
176
     1
290
     1
176
     1
290
     0
176
     1
290
     0
176
     1
290
     0
176
     1
290
     0
176
     1
290
     0
176
     1
290
     0
176
     1
 90
       50
176
     1
 40
0.0
176
     1
 40
1.0
176
     1
 90
        0
176
     1
 62
    18
420
        0
176
     1
 90
       50
176
     1
 90
        3
176
     1
 62
     5
420
      255
176
     1
290
     0
176
     1
 90
       50
176
     1
 90
       50
176
     1
 90
       50
176
     1
290
     0
176
     1
 90
       50
176
     1
 62
   256
176
     0
 40
1.0
176
     0
 90
        2
176
     1
  1
strokes_ogs.tif
176
     1
290
     0
176
     1
 40
1.0
176
     1
 40
1.0
176
     1
  0
VISUALSTYLE
  5
3E
102
{ACAD_REACTORS
330
2A
102
}
330
2A
100
AcDbVisualStyle
  2
Shades of Gray
 70
    23
177
     3
291
     0
 70
    58
 90
        2
176
     1
 90
        2
176
     1
 90
        3
176
     1
 90
        0
176
     1
 40
0.6
176
     1
 40
30.0
176
     1
 62
     7
420
 16777215
176
     1
 90
        2
176
     1
 90
        2
176
     1
 62
     7
176
     1
 62
     7
176
     1
 90
        1
176
     1
 90
        1
176
     1
 40
40.0
176
     1
 90
        8
176
     1
 62
     7
176
     1
 40
1.0
176
     1
 90
        1
176
     1
 90
        6
176
     1
 90
        2
176
     1
 62
     7
176
     1
 90
        3
176
     1
 90
        0
176
     1
 90
        0
176
     1
290
     0
176
     1
 90
        1
176
     1
 40
0.0
176
     1
 90
        0
176
     1
290
     0
176
     1
290
     1
176
     1
290
     1
176
     1
290
     0
176
     1
290
     0
176
     1
290
     0
176
     1
290
     0
176
     1
290
     0
176
     1
290
     0
176
     1
 90
       50
176
     1
 40
0.0
176
     1
 40
1.0
176
     1
 90
        0
176
     1
 62
    18
420
        0
176
     1
 90
       50
176
     1
 90
        3
176
     1
 62
     5
420
      255
176
     1
290
     0
176
     1
 90
       50
176
     1
 90
       50
176
     1
 90
       50
176
     1
290
     0
176
     1
 90
       50
176
     1
 62
   256
176
     0
 40
1.0
176
     0
 90
        2
176
     1
  1
strokes_ogs.tif
176
     1
290
     0
176
     1
 40
1.0
176
     1
 40
1.0
176
     1
  0
VISUALSTYLE
  5
3F
102
{ACAD_REACTORS
330
2A
102
}
330
2A
100
AcDbVisualStyle
  2
Sketchy
 70
    24
177
     3
291
     0
 70
    58
 90
        1
176
     1
 90
        2
176
     1
 90
        2
176
     1
 90
        0
176
     1
 40
0.6
176
     1
 40
30.0
176
     1
 62
     7
420
 16777215
176
     1
 90
        2
176
     1
 90
        2
176
     1
 62
     7
176
     1
 62
     7
176
     1
 90
        1
176
     1
 90
        1
176
     1
 40
40.0
176
     1
 90
       11
176
     1
 62
     7
176
     1
 40
1.0
176
     1
 90
        1
176
     1
 90
        6
176
     1
 90
        2
176
     1
 62
     7
176
     1
 90
        6
176
     1
 90
        0
176
     1
 90
        0
176
     1
290
     0
176
     1
 90
        1
176
     1
 40
0.0
176
     1
 90
        0
176
     1
290
     0
176
     1
290
     1
176
     1
290
     1
176
     1
290
     0
176
     1
290
     0
176
     1
290
     0
176
     1
290
     0
176
     1
290
     0
176
     1
290
     0
176
     1
 90
       50
176
     1
 40
0.0
176
     1
 40
1.0
176
     1
 90
        0
176
     1
 62
    18
420
        0
176
     1
 90
       50
176
     1
 90
        3
176
     1
 62
     5
420
      255
176
     1
290
     0
176
     1
 90
       50
176
     1
 90
       50
176
     1
 90
       50
176
     1
290
     0
176
     1
 90
       50
176
     1
 62
   256
176
     0
 40
1.0
176
     0
 90
        2
176
     1
  1
strokes_ogs.tif
176
     1
290
     0
176
     1
 40
1.0
176
     1
 40
1.0
176
     1
  0
VISUALSTYLE
  5
37
102
{ACAD_REACTORS
330
2A
102
}
330
2A
100
AcDbVisualStyle
  2
Thicken
 70
    13
177
     3
291
     1
 70
    58
 90
        2
176
     1
 90
        2
176
     1
 90
        0
176
     1
 90
        0
176
     1
 40
0.6
176
     1
 40
30.0
176
     1
 62
     7
420
 16777215
176
     1
 90
        1
176
     1
 90
        4
176
     1
 62
     7
176
     1
 62
   257
176
     1
 90
        1
176
     1
 90
        1
176
     1
 40
1.0
176
     1
 90
       12
176
     1
 62
     7
176
     1
 40
1.0
176
     1
 90
        1
176
     1
 90
        6
176
     1
 90
        2
176
     1
 62
     7
176
     1
 90
        5
176
     1
 90
        0
176
     1
 90
        0
176
     1
290
     0
176
     1
 90
        1
176
     1
 40
0.0
176
     1
 90
        0
176
     1
290
     0
176
     1
290
     1
176
     1
290
     1
176
     1
290
     0
176
     1
290
     0
176
     1
290
     0
176
     1
290
     0
176
     1
290
     0
176
     1
290
     0
176
     1
 90
       50
176
     1
 40
0.0
176
     1
 40
1.0
176
     1
 90
        0
176
     1
 62
    18
420
        0
176
     1
 90
       50
176
     1
 90
        3
176
     1
 62
     5
420
      255
176
     1
290
     0
176
     1
 90
       50
176
     1
 90
       50
176
     1
 90
       50
176
     1
290
     0
176
     1
 90
       50
176
     1
 62
   256
176
     0
 40
1.0
176
     0
 90
        2
176
     1
  1
strokes_ogs.tif
176
     1
290
     0
176
     1
 40
1.0
176
     1
 40
1.0
176
     1
  0
VISUALSTYLE
  5
30
102
{ACAD_REACTORS
330
2A
102
}
330
2A
100
AcDbVisualStyle
  2
Wireframe
 70
     5
177
     3
291
     0
 70
    58
 90
        0
176
     1
 90
        2
176
     1
 90
        0
176
     1
 90
        0
176
     1
 40
0.6
176
     1
 40
30.0
176
     1
 62
     7
420
 16777215
176
     1
 90
        1
176
     1
 90
        4
176
     1
 62
     7
176
     1
 62
   257
176
     1
 90
        1
176
     1
 90
        1
176
     1
 40
1.0
176
     1
 90
        0
176
     1
 62
   257
176
     1
 40
1.0
176
     1
 90
        1
176
     1
 90
        6
176
     1
 90
        2
176
     1
 62
     7
176
     1
 90
        3
176
     1
 90
        0
176
     1
 90
        0
176
     1
290
     0
176
     1
 90
        1
176
     1
 40
0.0
176
     1
 90
        0
176
     1
290
     0
176
     1
290
     1
176
     1
290
     1
176
     1
290
     0
176
     1
290
     0
176
     1
290
     0
176
     1
290
     0
176
     1
290
     0
176
     1
290
     0
176
     1
 90
       50
176
     1
 40
0.0
176
     1
 40
1.0
176
     1
 90
        0
176
     1
 62
    18
420
        0
176
     1
 90
       50
176
     1
 90
        3
176
     1
 62
     5
420
      255
176
     1
290
     0
176
     1
 90
       50
176
     1
 90
       50
176
     1
 90
       50
176
     1
290
     0
176
     1
 90
       50
176
     1
 62
   256
176
     0
 40
1.0
176
     0
 90
        2
176
     1
  1
strokes_ogs.tif
176
     1
290
     0
176
     1
 40
1.0
176
     1
 40
1.0
176
     1
  0
VISUALSTYLE
  5
40
102
{ACAD_REACTORS
330
2A
102
}
330
2A
100
AcDbVisualStyle
  2
X-Ray
 70
    25
177
     3
291
     0
 70
    58
 90
        2
176
     1
 90
        2
176
     1
 90
        1
176
     1
 90
        1
176
     1
 40
0.5
176
     1
 40
30.0
176
     1
 62
     7
420
 16777215
176
     1
 90
        1
176
     1
 90
        0
176
     1
 62
     7
176
     1
 62
   257
176
     1
 90
        1
176
     1
 90
        1
176
     1
 40
1.0
176
     1
 90
        8
176
     1
 62
     7
176
     1
 40
1.0
176
     1
 90
        1
176
     1
 90
        6
176
     1
 90
        2
176
     1
 62
     7
176
     1
 90
        3
176
     1
 90
        0
176
     1
 90
        0
176
     1
290
     0
176
     1
 90
       13
176
     1
 40
0.0
176
     1
 90
        0
176
     1
290
     0
176
     1
290
     1
176
     1
290
     1
176
     1
290
     0
176
     1
290
     0
176
     1
290
     0
176
     1
290
     0
176
     1
290
     0
176
     1
290
     0
176
     1
 90
       50
176
     1
 40
0.0
176
     1
 40
1.0
176
     1
 90
        0
176
     1
 62
    18
420
        0
176
     1
 90
       50
176
     1
 90
        3
176
     1
 62
     5
420
      255
176
     1
290
     0
176
     1
 90
       50
176
     1
 90
       50
176
     1
 90
       50
176
     1
290
     0
176
     1
 90
       50
176
     1
 62
   256
176
     0
 40
1.0
176
     0
 90
        2
176
     1
  1
strokes_ogs.tif
176
     1
290
     0
176
     1
 40
1.0
176
     1
 40
1.0
176
     1
  0
DICTIONARYVAR
  5
FB
102
{ACAD_REACTORS
330
FA
102
}
330
FA
100
DictionaryVariables
280
     0
  1
1:1
  0
DICTIONARYVAR
  5
100
102
{ACAD_REACTORS
330
FA
102
}
330
FA
100
DictionaryVariables
280
     0
  1
Standard
  0
DICTIONARYVAR
  5
FF
102
{ACAD_REACTORS
330
FA
102
}
330
FA
100
DictionaryVariables
280
     0
  1
Standard
  0
DICTIONARY
  5
FC
330
5A
100
AcDbDictionary
280
     1
281
     1
  3
ACAD_ROUNDTRIP_2008_TABLESTYLE_CELLSTYLEMAP
360
FD
  0
CELLSTYLEMAP
  5
FD
102
{ACAD_REACTORS
330
FC
102
}
330
FC
100
AcDbCellStyleMap
 90
        3
300
CELLSTYLE
  1
TABLEFORMAT_BEGIN
 90
        5
170
     1
 91
        0
 92
    32768
 62
   257
 93
        1
300
CONTENTFORMAT
  1
CONTENTFORMAT_BEGIN
 90
        0
 91
        0
 92
        4
 93
        0
300

 40
0.0
140
1.0
 94
        5
 62
     0
340
11
144
0.25
309
CONTENTFORMAT_END
171
     1
301
MARGIN
  1
CELLMARGIN_BEGIN
 40
0.06
 40
0.06
 40
0.06
 40
0.06
 40
0.06
 40
0.06
309
CELLMARGIN_END
 94
        6
 95
        1
302
GRIDFORMAT
  1
GRIDFORMAT_BEGIN
 90
        0
 91
        1
 62
     0
 92
       -2
340
14
 93
        0
 40
0.045
309
GRIDFORMAT_END
 95
        2
302
GRIDFORMAT
  1
GRIDFORMAT_BEGIN
 90
        0
 91
        1
 62
     0
 92
       -2
340
14
 93
        0
 40
0.045
309
GRIDFORMAT_END
 95
        4
302
GRIDFORMAT
  1
GRIDFORMAT_BEGIN
 90
        0
 91
        1
 62
     0
 92
       -2
340
14
 93
        0
 40
0.045
309
GRIDFORMAT_END
 95
        8
302
GRIDFORMAT
  1
GRIDFORMAT_BEGIN
 90
        0
 91
        1
 62
     0
 92
       -2
340
14
 93
        0
 40
0.045
309
GRIDFORMAT_END
 95
       16
302
GRIDFORMAT
  1
GRIDFORMAT_BEGIN
 90
        0
 91
        1
 62
     0
 92
       -2
340
14
 93
        0
 40
0.045
309
GRIDFORMAT_END
 95
       32
302
GRIDFORMAT
  1
GRIDFORMAT_BEGIN
 90
        0
 91
        1
 62
     0
 92
       -2
340
14
 93
        0
 40
0.045
309
GRIDFORMAT_END
309
TABLEFORMAT_END
  1
CELLSTYLE_BEGIN
 90
        1
 91
        1
300
_TITLE
309
CELLSTYLE_END
300
CELLSTYLE
  1
TABLEFORMAT_BEGIN
 90
        5
170
     1
 91
        0
 92
        0
 62
   257
 93
        1
300
CONTENTFORMAT
  1
CONTENTFORMAT_BEGIN
 90
        0
 91
        0
 92
        4
 93
        0
300

 40
0.0
140
1.0
 94
        5
 62
     0
340
11
144
0.18
309
CONTENTFORMAT_END
171
     1
301
MARGIN
  1
CELLMARGIN_BEGIN
 40
0.06
 40
0.06
 40
0.06
 40
0.06
 40
0.06
 40
0.06
309
CELLMARGIN_END
 94
        6
 95
        1
302
GRIDFORMAT
  1
GRIDFORMAT_BEGIN
 90
        0
 91
        1
 62
     0
 92
       -2
340
14
 93
        0
 40
0.045
309
GRIDFORMAT_END
 95
        2
302
GRIDFORMAT
  1
GRIDFORMAT_BEGIN
 90
        0
 91
        1
 62
     0
 92
       -2
340
14
 93
        0
 40
0.045
309
GRIDFORMAT_END
 95
        4
302
GRIDFORMAT
  1
GRIDFORMAT_BEGIN
 90
        0
 91
        1
 62
     0
 92
       -2
340
14
 93
        0
 40
0.045
309
GRIDFORMAT_END
 95
        8
302
GRIDFORMAT
  1
GRIDFORMAT_BEGIN
 90
        0
 91
        1
 62
     0
 92
       -2
340
14
 93
        0
 40
0.045
309
GRIDFORMAT_END
 95
       16
302
GRIDFORMAT
  1
GRIDFORMAT_BEGIN
 90
        0
 91
        1
 62
     0
 92
       -2
340
14
 93
        0
 40
0.045
309
GRIDFORMAT_END
 95
       32
302
GRIDFORMAT
  1
GRIDFORMAT_BEGIN
 90
        0
 91
        1
 62
     0
 92
       -2
340
14
 93
        0
 40
0.045
309
GRIDFORMAT_END
309
TABLEFORMAT_END
  1
CELLSTYLE_BEGIN
 90
        2
 91
        1
300
_HEADER
309
CELLSTYLE_END
300
CELLSTYLE
  1
TABLEFORMAT_BEGIN
 90
        5
170
     1
 91
        0
 92
        0
 62
   257
 93
        1
300
CONTENTFORMAT
  1
CONTENTFORMAT_BEGIN
 90
        0
 91
        0
 92
        4
 93
        0
300

 40
0.0
140
1.0
 94
        2
 62
     0
340
11
144
0.18
309
CONTENTFORMAT_END
171
     1
301
MARGIN
  1
CELLMARGIN_BEGIN
 40
0.06
 40
0.06
 40
0.06
 40
0.06
 40
0.06
 40
0.06
309
CELLMARGIN_END
 94
        6
 95
        1
302
GRIDFORMAT
  1
GRIDFORMAT_BEGIN
 90
        0
 91
        1
 62
     0
 92
       -2
340
14
 93
        0
 40
0.045
309
GRIDFORMAT_END
 95
        2
302
GRIDFORMAT
  1
GRIDFORMAT_BEGIN
 90
        0
 91
        1
 62
     0
 92
       -2
340
14
 93
        0
 40
0.045
309
GRIDFORMAT_END
 95
        4
302
GRIDFORMAT
  1
GRIDFORMAT_BEGIN
 90
        0
 91
        1
 62
     0
 92
       -2
340
14
 93
        0
 40
0.045
309
GRIDFORMAT_END
 95
        8
302
GRIDFORMAT
  1
GRIDFORMAT_BEGIN
 90
        0
 91
        1
 62
     0
 92
       -2
340
14
 93
        0
 40
0.045
309
GRIDFORMAT_END
 95
       16
302
GRIDFORMAT
  1
GRIDFORMAT_BEGIN
 90
        0
 91
        1
 62
     0
 92
       -2
340
14
 93
        0
 40
0.045
309
GRIDFORMAT_END
 95
       32
302
GRIDFORMAT
  1
GRIDFORMAT_BEGIN
 90
        0
 91
        1
 62
     0
 92
       -2
340
14
 93
        0
 40
0.045
309
GRIDFORMAT_END
309
TABLEFORMAT_END
  1
CELLSTYLE_BEGIN
 90
        3
 91
        2
300
_DATA
309
CELLSTYLE_END
  0
ENDSEC
  0
EOF
