  0
SECTION
  2
HEADER
  9
$ACADVER
  1
AC1027
  9
$ACADMAINTVER
 70
   105
  9
$DWGCODEPAGE
  3
ANSI_1252
  9
$LASTSAVEDBY
  1
Office Desk
  9
$REQUIREDVERSIONS
160
                 0
  9
$INSBASE
 10
0.0
 20
0.0
 30
0.0
  9
$EXTMIN
 10
484.9806
 20
-319.5607
 30
0.0
  9
$EXTMAX
 10
2490.6303
 20
395.7053
 30
0.0
  9
$LIMMIN
 10
0.0
 20
0.0
  9
$LIMMAX
 10
12.0
 20
9.0
  9
$ORTHOMODE
 70
     0
  9
$REGENMODE
 70
     1
  9
$FILLMODE
 70
     1
  9
$QTEXTMODE
 70
     0
  9
$MIRRTEXT
 70
     1
  9
$LTSCALE
 40
1.0
  9
$ATTMODE
 70
     1
  9
$TEXTSIZE
 40
0.2
  9
$TRACEWID
 40
0.05
  9
$TEXTSTYLE
  7
Standard
  9
$CLAYER
  8
0
  9
$CELTYPE
  6
ByLayer
  9
$CECOLOR
 62
   256
  9
$CELTSCALE
 40
1.0
  9
$DISPSILH
 70
     0
  9
$DIMSCALE
 40
1.0
  9
$DIMASZ
 40
0.18
  9
$DIMEXO
 40
0.0625
  9
$DIMDLI
 40
0.38
  9
$DIMRND
 40
0.0
  9
$DIMDLE
 40
0.0
  9
$DIMEXE
 40
0.18
  9
$DIMTP
 40
0.0
  9
$DIMTM
 40
0.0
  9
$DIMTXT
 40
0.18
  9
$DIMCEN
 40
0.09
  9
$DIMTSZ
 40
0.0
  9
$DIMTOL
 70
     0
  9
$DIMLIM
 70
     0
  9
$DIMTIH
 70
     1
  9
$DIMTOH
 70
     1
  9
$DIMSE1
 70
     0
  9
$DIMSE2
 70
     0
  9
$DIMTAD
 70
     0
  9
$DIMZIN
 70
     0
  9
$DIMBLK
  1

  9
$DIMASO
 70
     1
  9
$DIMSHO
 70
     1
  9
$DIMPOST
  1

  9
$DIMAPOST
  1

  9
$DIMALT
 70
     0
  9
$DIMALTD
 70
     2
  9
$DIMALTF
 40
25.4
  9
$DIMLFAC
 40
1.0
  9
$DIMTOFL
 70
     0
  9
$DIMTVP
 40
0.0
  9
$DIMTIX
 70
     0
  9
$DIMSOXD
 70
     0
  9
$DIMSAH
 70
     0
  9
$DIMBLK1
  1

  9
$DIMBLK2
  1

  9
$DIMSTYLE
  2
Standard
  9
$DIMCLRD
 70
     0
  9
$DIMCLRE
 70
     0
  9
$DIMCLRT
 70
     0
  9
$DIMTFAC
 40
1.0
  9
$DIMGAP
 40
0.09
  9
$DIMJUST
 70
     0
  9
$DIMSD1
 70
     0
  9
$DIMSD2
 70
     0
  9
$DIMTOLJ
 70
     1
  9
$DIMTZIN
 70
     0
  9
$DIMALTZ
 70
     0
  9
$DIMALTTZ
 70
     0
  9
$DIMUPT
 70
     0
  9
$DIMDEC
 70
     4
  9
$DIMTDEC
 70
     4
  9
$DIMALTU
 70
     2
  9
$DIMALTTD
 70
     2
  9
$DIMTXSTY
  7
Standard
  9
$DIMAUNIT
 70
     0
  9
$DIMADEC
 70
     0
  9
$DIMALTRND
 40
0.0
  9
$DIMAZIN
 70
     0
  9
$DIMDSEP
 70
    46
  9
$DIMATFIT
 70
     3
  9
$DIMFRAC
 70
     0
  9
$DIMLDRBLK
  1

  9
$DIMLUNIT
 70
     2
  9
$DIMLWD
 70
    -2
  9
$DIMLWE
 70
    -2
  9
$DIMTMOVE
 70
     0
  9
$DIMFXL
 40
1.0
  9
$DIMFXLON
 70
     0
  9
$DIMJOGANG
 40
0.7853981633974483
  9
$DIMTFILL
 70
     0
  9
$DIMTFILLCLR
 70
     0
  9
$DIMARCSYM
 70
     0
  9
$DIMLTYPE
  6

  9
$DIMLTEX1
  6

  9
$DIMLTEX2
  6

  9
$DIMTXTDIRECTION
 70
     0
  9
$LUNITS
 70
     2
  9
$LUPREC
 70
     4
  9
$SKETCHINC
 40
0.1
  9
$FILLETRAD
 40
0.0
  9
$AUNITS
 70
     0
  9
$AUPREC
 70
     0
  9
$MENU
  1
.
  9
$ELEVATION
 40
0.0
  9
$PELEVATION
 40
0.0
  9
$THICKNESS
 40
0.0
  9
$LIMCHECK
 70
     0
  9
$CHAMFERA
 40
0.0
  9
$CHAMFERB
 40
0.0
  9
$CHAMFERC
 40
0.0
  9
$CHAMFERD
 40
0.0
  9
$SKPOLY
 70
     0
  9
$TDCREATE
 40
2461009.62928713
  9
$TDUCREATE
 40
2461009.400120463
  9
$TDUPDATE
 40
2461009.629287304
  9
$TDUUPDATE
 40
2461009.400120637
  9
$TDINDWG
 40
0.0000000116
  9
$TDUSRTIMER
 40
0.0000000116
  9
$USRTIMER
 70
     1
  9
$ANGBASE
 50
0.0
  9
$ANGDIR
 70
     0
  9
$PDMODE
 70
     0
  9
$PDSIZE
 40
0.0
  9
$PLINEWID
 40
0.0
  9
$SPLFRAME
 70
     0
  9
$SPLINETYPE
 70
     6
  9
$SPLINESEGS
 70
     8
  9
$HANDSEED
  5
DC
  9
$SURFTAB1
 70
     6
  9
$SURFTAB2
 70
     6
  9
$SURFTYPE
 70
     6
  9
$SURFU
 70
     6
  9
$SURFV
 70
     6
  9
$UCSBASE
  2

  9
$UCSNAME
  2

  9
$UCSORG
 10
0.0
 20
0.0
 30
0.0
  9
$UCSXDIR
 10
1.0
 20
0.0
 30
0.0
  9
$UCSYDIR
 10
0.0
 20
1.0
 30
0.0
  9
$UCSORTHOREF
  2

  9
$UCSORTHOVIEW
 70
     0
  9
$UCSORGTOP
 10
0.0
 20
0.0
 30
0.0
  9
$UCSORGBOTTOM
 10
0.0
 20
0.0
 30
0.0
  9
$UCSORGLEFT
 10
0.0
 20
0.0
 30
0.0
  9
$UCSORGRIGHT
 10
0.0
 20
0.0
 30
0.0
  9
$UCSORGFRONT
 10
0.0
 20
0.0
 30
0.0
  9
$UCSORGBACK
 10
0.0
 20
0.0
 30
0.0
  9
$PUCSBASE
  2

  9
$PUCSNAME
  2

  9
$PUCSORG
 10
0.0
 20
0.0
 30
0.0
  9
$PUCSXDIR
 10
1.0
 20
0.0
 30
0.0
  9
$PUCSYDIR
 10
0.0
 20
1.0
 30
0.0
  9
$PUCSORTHOREF
  2

  9
$PUCSORTHOVIEW
 70
     0
  9
$PUCSORGTOP
 10
0.0
 20
0.0
 30
0.0
  9
$PUCSORGBOTTOM
 10
0.0
 20
0.0
 30
0.0
  9
$PUCSORGLEFT
 10
0.0
 20
0.0
 30
0.0
  9
$PUCSORGRIGHT
 10
0.0
 20
0.0
 30
0.0
  9
$PUCSORGFRONT
 10
0.0
 20
0.0
 30
0.0
  9
$PUCSORGBACK
 10
0.0
 20
0.0
 30
0.0
  9
$USERI1
 70
     0
  9
$USERI2
 70
     0
  9
$USERI3
 70
     0
  9
$USERI4
 70
     0
  9
$USERI5
 70
     0
  9
$USERR1
 40
0.0
  9
$USERR2
 40
0.0
  9
$USERR3
 40
0.0
  9
$USERR4
 40
0.0
  9
$USERR5
 40
0.0
  9
$WORLDVIEW
 70
     1
  9
$SHADEDGE
 70
     3
  9
$SHADEDIF
 70
    70
  9
$TILEMODE
 70
     1
  9
$MAXACTVP
 70
    64
  9
$PINSBASE
 10
0.0
 20
0.0
 30
0.0
  9
$PLIMCHECK
 70
     0
  9
$PEXTMIN
 10
1.000000000000000E+20
 20
1.000000000000000E+20
 30
1.000000000000000E+20
  9
$PEXTMAX
 10
-1.000000000000000E+20
 20
-1.000000000000000E+20
 30
-1.000000000000000E+20
  9
$PLIMMIN
 10
0.0
 20
0.0
  9
$PLIMMAX
 10
12.0
 20
9.0
  9
$UNITMODE
 70
     0
  9
$VISRETAIN
 70
     1
  9
$PLINEGEN
 70
     0
  9
$PSLTSCALE
 70
     1
  9
$TREEDEPTH
 70
  3020
  9
$CMLSTYLE
  2
Standard
  9
$CMLJUST
 70
     0
  9
$CMLSCALE
 40
1.0
  9
$PROXYGRAPHICS
 70
     1
  9
$MEASUREMENT
 70
     0
  9
$CELWEIGHT
370
    -1
  9
$ENDCAPS
280
     0
  9
$JOINSTYLE
280
     0
  9
$LWDISPLAY
290
     0
  9
$INSUNITS
 70
     4
  9
$HYPERLINKBASE
  1

  9
$STYLESHEET
  1

  9
$XEDIT
290
     1
  9
$CEPSNTYPE
380
     0
  9
$PSTYLEMODE
290
     1
  9
$FINGERPRINTGUID
  2
{5c08bc74-5d89-4e1b-b3d2-ce2802f786f2}
  9
$VERSIONGUID
  2
{FAEB1C32-E019-11D5-929B-00C0DF256EC4}
  9
$EXTNAMES
290
     1
  9
$PSVPSCALE
 40
0.0
  9
$OLESTARTUP
290
     0
  9
$SORTENTS
280
   127
  9
$INDEXCTL
280
     0
  9
$HIDETEXT
280
     1
  9
$XCLIPFRAME
280
     2
  9
$HALOGAP
280
     0
  9
$OBSCOLOR
 70
   257
  9
$OBSLTYPE
280
     0
  9
$INTERSECTIONDISPLAY
280
     0
  9
$INTERSECTIONCOLOR
 70
   257
  9
$DIMASSOC
280
     2
  9
$PROJECTNAME
  1

  9
$CAMERADISPLAY
290
     0
  9
$LENSLENGTH
 40
50.0
  9
$CAMERAHEIGHT
 40
0.0
  9
$STEPSPERSEC
 40
2.0
  9
$STEPSIZE
 40
6.0
  9
$3DDWFPREC
 40
2.0
  9
$PSOLWIDTH
 40
0.25
  9
$PSOLHEIGHT
 40
4.0
  9
$LOFTANG1
 40
1.570796326794897
  9
$LOFTANG2
 40
1.570796326794897
  9
$LOFTMAG1
 40
0.0
  9
$LOFTMAG2
 40
0.0
  9
$LOFTPARAM
 70
     7
  9
$LOFTNORMALS
280
     1
  9
$LATITUDE
 40
37.795
  9
$LONGITUDE
 40
-122.394
  9
$NORTHDIRECTION
 40
0.0
  9
$TIMEZONE
 70
 -8000
  9
$LIGHTGLYPHDISPLAY
280
     1
  9
$TILEMODELIGHTSYNCH
280
     1
  9
$CMATERIAL
347
44
  9
$SOLIDHIST
280
     0
  9
$SHOWHIST
280
     1
  9
$DWFFRAME
280
     2
  9
$DGNFRAME
280
     2
  9
$REALWORLDSCALE
290
     1
  9
$INTERFERECOLOR
 62
   256
  9
$CSHADOW
280
     0
  9
$SHADOWPLANELOCATION
 40
0.0
  0
ENDSEC
  0
SECTION
  2
CLASSES
  0
CLASS
  1
ACDBDICTIONARYWDFLT
  2
AcDbDictionaryWithDefault
  3
ObjectDBX Classes
 90
        0
 91
        3
280
     0
281
     0
  0
CLASS
  1
VISUALSTYLE
  2
AcDbVisualStyle
  3
ObjectDBX Classes
 90
     4095
 91
        3
280
     0
281
     0
  0
CLASS
  1
MATERIAL
  2
AcDbMaterial
  3
ObjectDBX Classes
 90
     1153
 91
        3
280
     0
281
     0
  0
CLASS
  1
SCALE
  2
AcDbScale
  3
ObjectDBX Classes
 90
     1153
 91
        3
280
     0
281
     0
  0
CLASS
  1
TABLESTYLE
  2
AcDbTableStyle
  3
ObjectDBX Classes
 90
     4095
 91
        3
280
     0
281
     0
  0
CLASS
  1
MLEADERSTYLE
  2
AcDbMLeaderStyle
  3
ACDB_MLEADERSTYLE_CLASS
 90
     4095
 91
        3
280
     0
281
     0
  0
CLASS
  1
SUN
  2
AcDbSun
  3
SCENEOE
 90
     1153
 91
        3
280
     0
281
     0
  0
CLASS
  1
DICTIONARYVAR
  2
AcDbDictionaryVar
  3
ObjectDBX Classes
 90
        0
 91
        3
280
     0
281
     0
  0
CLASS
  1
CELLSTYLEMAP
  2
AcDbCellStyleMap
  3
ObjectDBX Classes
 90
     1152
 91
        3
280
     0
281
     0
  0
ENDSEC
  0
SECTION
  2
TABLES
  0
TABLE
  2
VPORT
  5
8
330
0
100
AcDbSymbolTable
 70
     1
  0
VPORT
  5
29
330
8
100
AcDbSymbolTableRecord
100
AcDbViewportTableRecord
  2
*Active
 70
     0
 10
0.0
 20
0.0
 11
1.0
 21
1.0
 12
10.42990654205607
 22
4.5
 13
0.0
 23
0.0
 14
0.5
 24
0.5
 15
0.5
 25
0.5
 16
0.0
 26
0.0
 36
1.0
 17
0.0
 27
0.0
 37
0.0
 40
9.0
 41
1.972972972850329
 42
50.0
 43
0.0
 44
0.0
 50
0.0
 51
0.0
 71
     0
 72
   100
 73
     1
 74
     3
 75
     0
 76
     0
 77
     0
 78
     0
281
     0
 65
     1
110
0.0
120
0.0
130
0.0
111
1.0
121
0.0
131
0.0
112
0.0
122
1.0
132
0.0
 79
     0
146
0.0
348
2F
 60
     3
 61
     5
292
     1
282
     1
141
0.0
142
0.0
 63
   250
361
5D
  0
ENDTAB
  0
TABLE
  2
LTYPE
  5
5
330
0
100
AcDbSymbolTable
 70
     2
  0
LTYPE
  5
14
330
5
100
AcDbSymbolTableRecord
100
AcDbLinetypeTableRecord
  2
ByBlock
 70
     0
  3

 72
    65
 73
     0
 40
0.0
  0
LTYPE
  5
15
330
5
100
AcDbSymbolTableRecord
100
AcDbLinetypeTableRecord
  2
ByLayer
 70
     0
  3

 72
    65
 73
     0
 40
0.0
  0
LTYPE
  5
16
330
5
100
AcDbSymbolTableRecord
100
AcDbLinetypeTableRecord
  2
Continuous
 70
     0
  3
Solid line
 72
    65
 73
     0
 40
0.0
  0
LTYPE
  5
B9
330
5
100
AcDbSymbolTableRecord
100
AcDbLinetypeTableRecord
  2
New Line1
 70
     0
  3

 72
    65
 73
     2
 40
0.2
 49
0.1
 74
     4
 75
     0
340
0
 46
1.0
 50
0.0
 44
0.0
 45
0.0
 49
-0.1
 74
     4
 75
     0
340
0
 46
1.0
 50
0.0
 44
0.0
 45
0.0
  0
ENDTAB
  0
TABLE
  2
LAYER
  5
2
330
0
100
AcDbSymbolTable
 70
     2
  0
LAYER
  5
10
330
2
100
AcDbSymbolTableRecord
100
AcDbLayerTableRecord
  2
0
 70
     0
 62
     7
  6
Continuous
370
    -3
390
F
347
46
348
0
  0
LAYER
  5
5F
330
2
100
AcDbSymbolTableRecord
100
AcDbLayerTableRecord
  2
Layer 1
 70
     0
 62
     7
  6
Continuous
370
    -3
390
F
347
46
348
0
  0
ENDTAB
  0
TABLE
  2
STYLE
  5
3
330
0
100
AcDbSymbolTable
 70
     1
  0
STYLE
  5
11
330
3
100
AcDbSymbolTableRecord
100
AcDbTextStyleTableRecord
  2
Standard
 70
     0
 40
0.0
 41
1.0
 50
0.0
 71
     0
 42
0.2
  3
txt
  4

  0
ENDTAB
  0
TABLE
  2
VIEW
  5
6
330
0
100
AcDbSymbolTable
 70
     0
  0
ENDTAB
  0
TABLE
  2
UCS
  5
7
330
0
100
AcDbSymbolTable
 70
     0
  0
ENDTAB
  0
TABLE
  2
APPID
  5
9
330
0
100
AcDbSymbolTable
 70
     2
  0
APPID
  5
12
330
9
100
AcDbSymbolTableRecord
100
AcDbRegAppTableRecord
  2
ACAD
 70
     0
  0
APPID
  5
5E
330
9
100
AcDbSymbolTableRecord
100
AcDbRegAppTableRecord
  2
ODA
 70
     0
  0
ENDTAB
  0
TABLE
  2
DIMSTYLE
  5
A
330
0
100
AcDbSymbolTable
 70
     1
100
AcDbDimStyleTable
  0
DIMSTYLE
105
27
330
A
100
AcDbSymbolTableRecord
100
AcDbDimStyleTableRecord
  2
Standard
 70
     0
178
     0
340
11
  0
ENDTAB
  0
TABLE
  2
BLOCK_RECORD
  5
1
330
0
100
AcDbSymbolTable
 70
     1
  0
BLOCK_RECORD
  5
1F
330
1
100
AcDbSymbolTableRecord
100
AcDbBlockTableRecord
  2
*Model_Space
340
22
 70
     0
280
     1
281
     0
  0
BLOCK_RECORD
  5
1B
330
1
100
AcDbSymbolTableRecord
100
AcDbBlockTableRecord
  2
*Paper_Space
340
1E
 70
     0
280
     1
281
     0
  0
BLOCK_RECORD
  5
23
330
1
100
AcDbSymbolTableRecord
100
AcDbBlockTableRecord
  2
*Paper_Space0
340
26
 70
     0
280
     1
281
     0
  0
ENDTAB
  0
ENDSEC
  0
SECTION
  2
BLOCKS
  0
BLOCK
  5
20
330
1F
100
AcDbEntity
  8
0
100
AcDbBlockBegin
  2
*Model_Space
 70
     0
 10
0.0
 20
0.0
 30
0.0
  3
*Model_Space
  1

  0
ENDBLK
  5
21
330
1F
100
AcDbEntity
  8
0
100
AcDbBlockEnd
  0
BLOCK
  5
1C
330
1B
100
AcDbEntity
 67
     1
  8
0
100
AcDbBlockBegin
  2
*Paper_Space
 70
     0
 10
0.0
 20
0.0
 30
0.0
  3
*Paper_Space
  1

  0
ENDBLK
  5
1D
330
1B
100
AcDbEntity
 67
     1
  8
0
100
AcDbBlockEnd
  0
BLOCK
  5
24
330
23
100
AcDbEntity
  8
0
100
AcDbBlockBegin
  2
*Paper_Space0
 70
     0
 10
0.0
 20
0.0
 30
0.0
  3
*Paper_Space0
  1

  0
ENDBLK
  5
25
330
23
100
AcDbEntity
  8
0
100
AcDbBlockEnd
  0
ENDSEC
  0
SECTION
  2
ENTITIES
  0
LWPOLYLINE
  5
60
330
1F
100
AcDbEntity
  8
Layer 1
 62
   250
370
    18
100
AcDbPolyline
 90
        5
 70
     1
 43
0.0
 10
485.0688
 20
-319.4725
 10
2490.542
 20
-319.4725
 10
2490.542
 20
395.6171
 10
485.0688
 20
395.6171
 10
485.0688
 20
-319.4725
  0
LWPOLYLINE
  5
61
330
1F
100
AcDbEntity
  8
Layer 1
 62
     7
370
    18
100
AcDbPolyline
 90
        2
 70
     0
 43
0.0
 10
614.5834
 20
235.8878
 10
1328.2664
 20
235.8878
  0
LWPOLYLINE
  5
62
330
1F
100
AcDbEntity
  8
Layer 1
 62
     7
370
    18
100
AcDbPolyline
 90
        2
 70
     0
 43
0.0
 10
614.5869
 20
253.6453
 10
614.5869
 20
175.9078
  0
LWPOLYLINE
  5
63
330
1F
100
AcDbEntity
  8
Layer 1
 62
     7
370
    18
100
AcDbPolyline
 90
        2
 70
     0
 43
0.0
 10
1328.2664
 20
253.6453
 10
1328.2664
 20
175.9078
  0
LWPOLYLINE
  5
64
330
1F
100
AcDbEntity
  8
Layer 1
 62
     7
370
    18
100
AcDbPolyline
 90
        2
 70
     0
 43
0.0
 10
636.256
 20
-81.8433
 10
636.256
 20
-166.8309
  0
LWPOLYLINE
  5
65
330
1F
100
AcDbEntity
  8
Layer 1
 62
     7
370
    18
100
AcDbPolyline
 90
        2
 70
     0
 43
0.0
 10
1055.4021
 20
-81.8433
 10
1055.4021
 20
-166.8309
  0
LWPOLYLINE
  5
66
330
1F
100
AcDbEntity
  8
Layer 1
 62
     7
370
    18
100
AcDbPolyline
 90
        2
 70
     0
 43
0.0
 10
636.2508
 20
-152.2432
 10
1055.4858
 20
-152.2432
  0
LWPOLYLINE
  5
67
330
1F
100
AcDbEntity
  8
Layer 1
 62
     7
370
    18
100
AcDbPolyline
 90
        2
 70
     0
 43
0.0
 10
1055.6618
 20
-152.2432
 10
1307.0557
 20
-152.2432
  0
LWPOLYLINE
  5
68
330
1F
100
AcDbEntity
  8
Layer 1
 62
     7
370
    18
100
AcDbPolyline
 90
        2
 70
     0
 43
0.0
 10
1307.054
 20
-81.8433
 10
1307.054
 20
-166.8309
  0
LWPOLYLINE
  5
69
330
1F
100
AcDbEntity
  8
Layer 1
 62
     7
100
AcDbPolyline
 90
       99
 70
     1
 43
0.0
 10
930.6412
 20
258.3556
 10
930.6342
 20
258.8771
 10
930.6134
 20
259.3737
 10
930.5785
 20
259.8455
 10
930.5296
 20
260.2925
 10
930.4667
 20
260.7148
 10
930.3897
 20
261.1127
 10
930.2985
 20
261.486
 10
930.1932
 20
261.835
 10
930.0764
 20
262.1601
 10
929.9484
 20
262.4661
 10
929.8094
 20
262.7533
 10
929.6596
 20
263.0214
 10
929.4993
 20
263.2706
 10
929.3287
 20
263.5008
 10
929.148
 20
263.712
 10
928.9574
 20
263.9043
 10
928.7806
 20
264.0677
 10
928.6032
 20
264.2176
 10
928.4253
 20
264.3541
 10
928.2469
 20
264.4772
 10
928.0681
 20
264.5869
 10
927.889
 20
264.6833
 10
927.7095
 20
264.7665
 10
927.5299
 20
264.8363
 10
927.3471
 20
264.8955
 10
927.1594
 20
264.9467
 10
926.9671
 20
264.9899
 10
926.7702
 20
265.0252
 10
926.5687
 20
265.0525
 10
926.3629
 20
265.072
 10
926.1528
 20
265.0837
 10
925.9385
 20
265.0876
 10
925.4571
 20
265.0683
 10
925.0011
 20
265.0105
 10
924.5704
 20
264.9142
 10
924.165
 20
264.7792
 10
923.7847
 20
264.6055
 10
923.4296
 20
264.3932
 10
923.0994
 20
264.1421
 10
922.7941
 20
263.8522
 10
922.519
 20
263.5251
 10
922.2807
 20
263.1633
 10
922.079
 20
262.767
 10
921.9141
 20
262.3361
 10
921.7859
 20
261.8706
 10
921.6943
 20
261.3706
 10
921.6394
 20
260.836
 10
921.6211
 20
260.267
 10
921.6271
 20
259.9429
 10
921.645
 20
259.6337
 10
921.6749
 20
259.3394
 10
921.7167
 20
259.0597
 10
921.7706
 20
258.7947
 10
921.8366
 20
258.5441
 10
921.9145
 20
258.3078
 10
922.0046
 20
258.0858
 10
922.1093
 20
257.8756
 10
922.2286
 20
257.6729
 10
922.3627
 20
257.4775
 10
922.5116
 20
257.2895
 10
922.6754
 20
257.109
 10
922.8544
 20
256.9361
 10
923.0485
 20
256.7707
 10
923.2578
 20
256.6128
 10
923.4115
 20
256.5072
 10
923.5708
 20
256.411
 10
923.7355
 20
256.3242
 10
923.9055
 20
256.2469
 10
924.0809
 20
256.1788
 10
924.2615
 20
256.1201
 10
924.4473
 20
256.0706
 10
924.6382
 20
256.0303
 10
924.8337
 20
255.9944
 10
925.0322
 20
255.9635
 10
925.2337
 20
255.9376
 10
925.4383
 20
255.9167
 10
925.6461
 20
255.9005
 10
925.8574
 20
255.8891
 10
926.0722
 20
255.8823
 10
926.2906
 20
255.8801
 10
926.5506
 20
255.8851
 10
926.8155
 20
255.9
 10
927.0853
 20
255.9248
 10
927.36
 20
255.9596
 10
927.6395
 20
256.0044
 10
927.924
 20
256.0592
 10
928.2134
 20
256.124
 10
928.5077
 20
256.1989
 10
928.7991
 20
256.28
 10
929.0812
 20
256.3678
 10
929.3539
 20
256.4624
 10
929.6171
 20
256.5636
 10
929.8709
 20
256.6713
 10
930.1151
 20
256.7855
 10
930.3498
 20
256.906
 10
930.5749
 20
257.0328
 10
930.6185
 20
257.5877
 10
930.6412
 20
258.3556
  0
LWPOLYLINE
  5
6A
330
1F
100
AcDbEntity
  8
Layer 1
 62
     7
100
AcDbPolyline
 90
      185
 70
     1
 43
0.0
 10
918.3599
 20
260.1597
 10
918.3695
 20
260.5613
 10
918.3983
 20
260.9545
 10
918.4461
 20
261.339
 10
918.5129
 20
261.7147
 10
918.5984
 20
262.0816
 10
918.7026
 20
262.4394
 10
918.8253
 20
262.7879
 10
918.9665
 20
263.1272
 10
919.1232
 20
263.4583
 10
919.294
 20
263.778
 10
919.4787
 20
264.0861
 10
919.6775
 20
264.3825
 10
919.8902
 20
264.6672
 10
920.1168
 20
264.94
 10
920.3574
 20
265.2007
 10
920.6119
 20
265.4494
 10
920.869
 20
265.6764
 10
921.1398
 20
265.8907
 10
921.4242
 20
266.0923
 10
921.7224
 20
266.2809
 10
922.0344
 20
266.4566
 10
922.3603
 20
266.6194
 10
922.7001
 20
266.769
 10
923.0539
 20
266.9055
 10
923.4125
 20
267.0294
 10
923.7733
 20
267.1366
 10
924.136
 20
267.2273
 10
924.5006
 20
267.3014
 10
924.8667
 20
267.3589
 10
925.2344
 20
267.4
 10
925.6033
 20
267.4246
 10
925.9734
 20
267.4328
 10
926.3818
 20
267.4251
 10
926.7806
 20
267.4021
 10
927.1698
 20
267.3639
 10
927.5493
 20
267.3104
 10
927.9191
 20
267.2417
 10
928.2792
 20
267.158
 10
928.6293
 20
267.0592
 10
928.9696
 20
266.9454
 10
929.3004
 20
266.8158
 10
929.6197
 20
266.6729
 10
929.9276
 20
266.5167
 10
930.224
 20
266.3472
 10
930.509
 20
266.1643
 10
930.7827
 20
265.9681
 10
931.0452
 20
265.7584
 10
931.2965
 20
265.5352
 10
931.5974
 20
265.2331
 10
931.8807
 20
264.9087
 10
932.1464
 20
264.5618
 10
932.3946
 20
264.1925
 10
932.6255
 20
263.8008
 10
932.8393
 20
263.3866
 10
933.0359
 20
262.9501
 10
933.2156
 20
262.4911
 10
933.3762
 20
262.0048
 10
933.5156
 20
261.4875
 10
933.6336
 20
260.9392
 10
933.7302
 20
260.3599
 10
933.8054
 20
259.7497
 10
933.8592
 20
259.1085
 10
933.8915
 20
258.4363
 10
933.9023
 20
257.7333
 10
933.8917
 20
257.0823
 10
933.86
 20
256.4401
 10
933.8072
 20
255.8066
 10
933.7335
 20
255.182
 10
933.6389
 20
254.5662
 10
933.5236
 20
253.9594
 10
933.3877
 20
253.3617
 10
933.2313
 20
252.7731
 10
933.0547
 20
252.1994
 10
932.8581
 20
251.651
 10
932.6416
 20
251.1276
 10
932.4053
 20
250.6291
 10
932.1491
 20
250.1556
 10
931.8731
 20
249.7067
 10
931.5773
 20
249.2825
 10
931.2617
 20
248.8829
 10
930.9078
 20
248.4842
 10
930.5363
 20
248.11
 10
930.1472
 20
247.7603
 10
929.7407
 20
247.4352
 10
929.3168
 20
247.1344
 10
928.8755
 20
246.858
 10
928.417
 20
246.606
 10
927.9412
 20
246.3783
 10
927.4419
 20
246.1766
 10
926.9141
 20
246.0016
 10
926.3579
 20
245.8533
 10
925.7734
 20
245.7318
 10
925.1605
 20
245.6372
 10
924.5195
 20
245.5695
 10
923.8504
 20
245.5289
 10
923.1532
 20
245.5153
 10
922.8257
 20
245.5189
 10
922.4887
 20
245.5301
 10
922.1419
 20
245.5496
 10
921.7849
 20
245.5782
 10
921.43
 20
245.6168
 10
921.0867
 20
245.6686
 10
920.7548
 20
245.7342
 10
920.4341
 20
245.8142
 10
920.4341
 20
248.5257
 10
920.5945
 20
248.5257
 10
920.7026
 20
248.4754
 10
920.8243
 20
248.4254
 10
920.9598
 20
248.376
 10
921.1091
 20
248.3269
 10
921.4494
 20
248.23
 10
921.846
 20
248.1349
 10
922.06
 20
248.0907
 10
922.2748
 20
248.0524
 10
922.4902
 20
248.02
 10
922.7064
 20
247.9935
 10
922.9232
 20
247.9728
 10
923.1409
 20
247.9581
 10
923.3593
 20
247.9492
 10
923.5785
 20
247.9463
 10
924.3439
 20
247.9748
 10
925.0676
 20
248.0605
 10
925.7494
 20
248.2032
 10
926.3891
 20
248.4031
 10
926.9867
 20
248.6602
 10
927.5419
 20
248.9745
 10
928.0548
 20
249.3461
 10
928.5252
 20
249.775
 10
928.9489
 20
250.2575
 10
929.3244
 20
250.7888
 10
929.6517
 20
251.3689
 10
929.9307
 20
251.9981
 10
930.1612
 20
252.6764
 10
930.3431
 20
253.4038
 10
930.4764
 20
254.1804
 10
930.561
 20
255.0064
 10
930.242
 20
254.821
 10
929.9269
 20
254.6488
 10
929.6156
 20
254.4896
 10
929.308
 20
254.3435
 10
929.0041
 20
254.2103
 10
928.7038
 20
254.0899
 10
928.4071
 20
253.9823
 10
928.1138
 20
253.8875
 10
927.8198
 20
253.8041
 10
927.5193
 20
253.7322
 10
927.2125
 20
253.6715
 10
926.8992
 20
253.6221
 10
926.5794
 20
253.5838
 10
926.2532
 20
253.5566
 10
925.9205
 20
253.5403
 10
925.5812
 20
253.5349
 10
925.2539
 20
253.539
 10
924.9334
 20
253.5512
 10
924.6199
 20
253.5714
 10
924.3137
 20
253.5997
 10
924.0147
 20
253.6358
 10
923.7233
 20
253.6798
 10
923.4396
 20
253.7315
 10
923.1637
 20
253.7909
 10
922.8896
 20
253.8616
 10
922.615
 20
253.9473
 10
922.3401
 20
254.0481
 10
922.0649
 20
254.1639
 10
921.7894
 20
254.295
 10
921.5138
 20
254.4412
 10
921.238
 20
254.6027
 10
920.9622
 20
254.7796
 10
920.6511
 20
255.0023
 10
920.3595
 20
255.2395
 10
920.0876
 20
255.491
 10
919.8352
 20
255.7569
 10
919.6023
 20
256.0373
 10
919.3889
 20
256.3321
 10
919.195
 20
256.6415
 10
919.0205
 20
256.9653
 10
918.8655
 20
257.3048
 10
918.7313
 20
257.6612
 10
918.6177
 20
258.0346
 10
918.5249
 20
258.4251
 10
918.4527
 20
258.8328
 10
918.4011
 20
259.2577
 10
918.3702
 20
259.7
 10
918.3599
 20
260.1597
  0
LWPOLYLINE
  5
6B
330
1F
100
AcDbEntity
  8
Layer 1
 62
     7
100
AcDbPolyline
 90
       27
 70
     1
 43
0.0
 10
950.555
 20
245.9491
 10
938.8682
 20
245.9491
 10
938.8682
 20
248.092
 10
943.2117
 20
248.092
 10
943.2117
 20
262.2213
 10
938.8682
 20
262.2213
 10
938.8682
 20
264.1312
 10
939.4626
 20
264.141
 10
940.0171
 20
264.1702
 10
940.5315
 20
264.2187
 10
941.0057
 20
264.2866
 10
941.4397
 20
264.3736
 10
941.8332
 20
264.4797
 10
942.1863
 20
264.6048
 10
942.4988
 20
264.7489
 10
942.7738
 20
264.9203
 10
943.0172
 20
265.1264
 10
943.2288
 20
265.367
 10
943.4087
 20
265.6421
 10
943.5569
 20
265.9516
 10
943.6734
 20
266.2953
 10
943.7582
 20
266.6731
 10
943.8113
 20
267.0849
 10
946.3091
 20
267.0849
 10
946.3091
 20
248.092
 10
950.555
 20
248.092
 10
950.555
 20
245.9491
  0
LWPOLYLINE
  5
6C
330
1F
100
AcDbEntity
  8
Layer 1
 62
     7
100
AcDbPolyline
 90
      158
 70
     1
 43
0.0
 10
969.7107
 20
245.9491
 10
954.9613
 20
245.9491
 10
954.9613
 20
248.9166
 10
957.968
 20
251.4595
 10
958.3207
 20
251.7652
 10
958.6715
 20
252.074
 10
959.0204
 20
252.3859
 10
959.3672
 20
252.7011
 10
959.7119
 20
253.0194
 10
960.0544
 20
253.3408
 10
960.3946
 20
253.6654
 10
960.7324
 20
253.9932
 10
961.389
 20
254.6371
 10
961.9913
 20
255.2481
 10
962.5393
 20
255.8262
 10
963.033
 20
256.3714
 10
963.4723
 20
256.8838
 10
963.8573
 20
257.3636
 10
964.188
 20
257.8107
 10
964.4642
 20
258.2253
 10
964.6979
 20
258.6232
 10
964.9007
 20
259.0248
 10
965.0726
 20
259.4302
 10
965.2135
 20
259.8392
 10
965.3232
 20
260.2518
 10
965.4018
 20
260.6681
 10
965.4489
 20
261.0881
 10
965.4647
 20
261.5116
 10
965.4597
 20
261.7272
 10
965.4448
 20
261.9359
 10
965.42
 20
262.138
 10
965.3854
 20
262.3334
 10
965.341
 20
262.5223
 10
965.2868
 20
262.7047
 10
965.2228
 20
262.8808
 10
965.1492
 20
263.0506
 10
965.0681
 20
263.2136
 10
964.9791
 20
263.3693
 10
964.8824
 20
263.5178
 10
964.7782
 20
263.6589
 10
964.6665
 20
263.7928
 10
964.5475
 20
263.9194
 10
964.4214
 20
264.0389
 10
964.2882
 20
264.1511
 10
964.1452
 20
264.2546
 10
963.9962
 20
264.3512
 10
963.8413
 20
264.4409
 10
963.6807
 20
264.5238
 10
963.5146
 20
264.5998
 10
963.343
 20
264.6691
 10
963.1662
 20
264.7315
 10
962.9844
 20
264.7872
 10
962.7968
 20
264.8368
 10
962.6051
 20
264.88
 10
962.4091
 20
264.9166
 10
962.2088
 20
264.9466
 10
962.0038
 20
264.9701
 10
961.7941
 20
264.9868
 10
961.5795
 20
264.9969
 10
961.3599
 20
265.0003
 10
961.1475
 20
264.9973
 10
960.9339
 20
264.9884
 10
960.7191
 20
264.9735
 10
960.5032
 20
264.9526
 10
960.2864
 20
264.9255
 10
960.0687
 20
264.8923
 10
959.8502
 20
264.8528
 10
959.6309
 20
264.8071
 10
959.4119
 20
264.7584
 10
959.1956
 20
264.7066
 10
958.9818
 20
264.6518
 10
958.7705
 20
264.5941
 10
958.5618
 20
264.5334
 10
958.3556
 20
264.47
 10
958.1519
 20
264.4038
 10
957.9506
 20
264.335
 10
957.6135
 20
264.2091
 10
957.2841
 20
264.0706
 10
956.9616
 20
263.9194
 10
956.6451
 20
263.7556
 10
955.6289
 20
263.1762
 10
955.4529
 20
263.1762
 10
955.4529
 20
266.1637
 10
955.7141
 20
266.2734
 10
955.9997
 20
266.3818
 10
956.3095
 20
266.4892
 10
956.6438
 20
266.5957
 10
957.0024
 20
266.7016
 10
957.3853
 20
266.8071
 10
957.7926
 20
266.9123
 10
958.2243
 20
267.0174
 10
958.6663
 20
267.114
 10
959.1021
 20
267.1981
 10
959.5318
 20
267.2694
 10
959.9553
 20
267.328
 10
960.3727
 20
267.3737
 10
960.784
 20
267.4065
 10
961.1892
 20
267.4262
 10
961.5883
 20
267.4328
 10
962.4015
 20
267.4084
 10
963.1693
 20
267.3352
 10
963.8918
 20
267.2132
 10
964.5693
 20
267.0425
 10
965.2017
 20
266.8232
 10
965.7895
 20
266.5553
 10
966.3326
 20
266.2389
 10
966.8312
 20
265.874
 10
967.2743
 20
265.466
 10
967.6583
 20
265.0235
 10
967.9834
 20
264.5465
 10
968.2494
 20
264.035
 10
968.4563
 20
263.4888
 10
968.6041
 20
262.908
 10
968.6928
 20
262.2924
 10
968.7224
 20
261.6419
 10
968.7173
 20
261.3373
 10
968.7021
 20
261.0384
 10
968.6766
 20
260.7454
 10
968.6409
 20
260.4582
 10
968.5949
 20
260.1769
 10
968.5385
 20
259.9016
 10
968.4718
 20
259.6322
 10
968.3947
 20
259.3688
 10
968.3079
 20
259.1106
 10
968.2136
 20
258.857
 10
968.1117
 20
258.608
 10
968.0023
 20
258.3637
 10
967.8852
 20
258.124
 10
967.7606
 20
257.8893
 10
967.6283
 20
257.6594
 10
967.4883
 20
257.4344
 10
967.3366
 20
257.2047
 10
967.1769
 20
256.9754
 10
967.0094
 20
256.7467
 10
966.8341
 20
256.5183
 10
966.6509
 20
256.2905
 10
966.4601
 20
256.0632
 10
966.2616
 20
255.8365
 10
966.0556
 20
255.6103
 10
965.8468
 20
255.3859
 10
965.6347
 20
255.162
 10
965.4194
 20
254.9388
 10
965.2009
 20
254.7163
 10
964.9792
 20
254.4945
 10
964.7543
 20
254.2735
 10
964.5263
 20
254.0532
 10
964.2951
 20
253.8338
 10
963.9109
 20
253.4721
 10
963.5165
 20
253.1067
 10
963.1119
 20
252.7376
 10
962.6968
 20
252.3648
 10
962.2713
 20
251.9884
 10
961.8352
 20
251.6083
 10
961.3885
 20
251.2245
 10
960.9311
 20
250.8372
 10
957.968
 20
248.3817
 10
969.7107
 20
248.3817
 10
969.7107
 20
245.9491
  0
LWPOLYLINE
  5
6D
330
1F
100
AcDbEntity
  8
Layer 1
 62
     7
100
AcDbPolyline
 90
      190
 70
     1
 43
0.0
 10
993.7711
 20
245.9491
 10
993.7711
 20
255.0785
 10
993.7695
 20
255.3478
 10
993.7649
 20
255.6119
 10
993.7571
 20
255.871
 10
993.7463
 20
256.125
 10
993.7323
 20
256.3739
 10
993.7152
 20
256.6179
 10
993.6951
 20
256.8569
 10
993.6718
 20
257.091
 10
993.6459
 20
257.3163
 10
993.6128
 20
257.5291
 10
993.5727
 20
257.7293
 10
993.5256
 20
257.917
 10
993.4717
 20
258.0923
 10
993.4112
 20
258.2552
 10
993.3442
 20
258.4058
 10
993.2709
 20
258.5441
 10
993.1873
 20
258.6803
 10
993.0946
 20
258.8071
 10
992.993
 20
258.9247
 10
992.8827
 20
259.0329
 10
992.7636
 20
259.1319
 10
992.6361
 20
259.2216
 10
992.5001
 20
259.3021
 10
992.3558
 20
259.3734
 10
992.2013
 20
259.4365
 10
992.0334
 20
259.4912
 10
991.8521
 20
259.5375
 10
991.6575
 20
259.5755
 10
991.4498
 20
259.605
 10
991.2291
 20
259.6262
 10
990.9954
 20
259.6389
 10
990.7488
 20
259.6431
 10
990.5118
 20
259.6352
 10
990.2711
 20
259.6115
 10
990.0269
 20
259.572
 10
989.7788
 20
259.5167
 10
989.5268
 20
259.4455
 10
989.2707
 20
259.3586
 10
989.0105
 20
259.2558
 10
988.746
 20
259.1373
 10
988.4774
 20
259.0053
 10
988.2062
 20
258.8589
 10
987.9325
 20
258.6981
 10
987.6563
 20
258.5229
 10
987.3776
 20
258.3334
 10
987.0965
 20
258.1296
 10
986.813
 20
257.9117
 10
986.5272
 20
257.6796
 10
986.5708
 20
257.111
 10
986.5952
 20
256.3246
 10
986.5952
 20
245.9491
 10
983.5641
 20
245.9491
 10
983.5641
 20
255.0785
 10
983.5626
 20
255.3478
 10
983.5579
 20
255.6119
 10
983.5503
 20
255.871
 10
983.5397
 20
256.125
 10
983.5261
 20
256.3739
 10
983.5097
 20
256.6179
 10
983.4904
 20
256.8569
 10
983.4682
 20
257.091
 10
983.4412
 20
257.3163
 10
983.4073
 20
257.5291
 10
983.3667
 20
257.7293
 10
983.3194
 20
257.917
 10
983.2657
 20
258.0923
 10
983.2057
 20
258.2552
 10
983.1395
 20
258.4058
 10
983.0673
 20
258.5441
 10
982.9825
 20
258.6803
 10
982.889
 20
258.8071
 10
982.7869
 20
258.9247
 10
982.6762
 20
259.0329
 10
982.5572
 20
259.1319
 10
982.4298
 20
259.2216
 10
982.2942
 20
259.3021
 10
982.1505
 20
259.3734
 10
981.9949
 20
259.4365
 10
981.8263
 20
259.4912
 10
981.6447
 20
259.5375
 10
981.4501
 20
259.5755
 10
981.2424
 20
259.605
 10
981.0218
 20
259.6262
 10
980.7882
 20
259.6389
 10
980.5417
 20
259.6431
 10
980.2939
 20
259.6348
 10
980.0433
 20
259.6097
 10
979.7899
 20
259.5678
 10
979.5336
 20
259.509
 10
979.2745
 20
259.4333
 10
979.0125
 20
259.3405
 10
978.7476
 20
259.2306
 10
978.4797
 20
259.1036
 10
978.2113
 20
258.9634
 10
977.9448
 20
258.8141
 10
977.6801
 20
258.6557
 10
977.4174
 20
258.488
 10
977.1566
 20
258.311
 10
976.8978
 20
258.1248
 10
976.6411
 20
257.9291
 10
976.3864
 20
257.7241
 10
976.3864
 20
245.9491
 10
973.3605
 20
245.9491
 10
973.3605
 20
261.7293
 10
976.3864
 20
261.7293
 10
976.3864
 20
259.9727
 10
976.6851
 20
260.2259
 10
976.9824
 20
260.4646
 10
977.2785
 20
260.6888
 10
977.5736
 20
260.8983
 10
977.8678
 20
261.0931
 10
978.1612
 20
261.2731
 10
978.454
 20
261.4382
 10
978.7464
 20
261.5883
 10
979.0422
 20
261.7226
 10
979.3452
 20
261.8391
 10
979.6555
 20
261.9379
 10
979.9731
 20
262.0188
 10
980.298
 20
262.0818
 10
980.6304
 20
262.127
 10
980.9701
 20
262.1541
 10
981.3174
 20
262.1631
 10
981.7083
 20
262.1531
 10
982.0888
 20
262.1232
 10
982.4586
 20
262.0733
 10
982.8177
 20
262.0035
 10
983.1658
 20
261.9138
 10
983.5028
 20
261.8042
 10
983.8285
 20
261.6747
 10
984.1428
 20
261.5254
 10
984.4398
 20
261.3535
 10
984.7191
 20
261.1563
 10
984.9803
 20
260.9336
 10
985.2235
 20
260.6854
 10
985.4483
 20
260.4117
 10
985.6546
 20
260.1123
 10
985.8424
 20
259.7871
 10
986.0113
 20
259.4362
 10
986.3539
 20
259.7612
 10
986.6941
 20
260.0661
 10
987.0319
 20
260.3508
 10
987.3674
 20
260.6151
 10
987.7005
 20
260.8592
 10
988.0315
 20
261.0828
 10
988.3602
 20
261.286
 10
988.6868
 20
261.4687
 10
989.017
 20
261.6314
 10
989.3539
 20
261.7725
 10
989.6978
 20
261.8918
 10
990.0485
 20
261.9895
 10
990.4063
 20
262.0654
 10
990.7712
 20
262.1197
 10
991.1433
 20
262.1522
 10
991.5227
 20
262.1631
 10
991.809
 20
262.1581
 10
992.0887
 20
262.1432
 10
992.3619
 20
262.1184
 10
992.6286
 20
262.0836
 10
992.8887
 20
262.0387
 10
993.1423
 20
261.9839
 10
993.3894
 20
261.9191
 10
993.63
 20
261.8442
 10
993.8629
 20
261.7589
 10
994.0885
 20
261.6616
 10
994.3066
 20
261.5523
 10
994.5174
 20
261.4308
 10
994.7207
 20
261.2971
 10
994.9166
 20
261.1511
 10
995.1049
 20
260.9927
 10
995.2858
 20
260.8219
 10
995.4622
 20
260.6356
 10
995.6281
 20
260.4388
 10
995.7834
 20
260.2313
 10
995.9283
 20
260.0129
 10
996.0629
 20
259.7835
 10
996.1871
 20
259.5428
 10
996.301
 20
259.2907
 10
996.4048
 20
259.027
 10
996.4974
 20
258.7505
 10
996.5779
 20
258.4567
 10
996.6462
 20
258.1456
 10
996.7022
 20
257.8172
 10
996.7459
 20
257.4714
 10
996.7771
 20
257.1081
 10
996.7959
 20
256.7274
 10
996.8022
 20
256.3292
 10
996.8022
 20
245.9491
 10
993.7711
 20
245.9491
  0
LWPOLYLINE
  5
6E
330
1F
100
AcDbEntity
  8
Layer 1
 62
     7
100
AcDbPolyline
 90
      190
 70
     1
 43
0.0
 10
1021.4239
 20
245.9491
 10
1021.4239
 20
255.0785
 10
1021.4223
 20
255.3478
 10
1021.4177
 20
255.6119
 10
1021.4098
 20
255.871
 10
1021.3989
 20
256.125
 10
1021.3847
 20
256.3739
 10
1021.3673
 20
256.6179
 10
1021.3467
 20
256.8569
 10
1021.3228
 20
257.091
 10
1021.2975
 20
257.3163
 10
1021.2648
 20
257.5291
 10
1021.2249
 20
257.7293
 10
1021.1779
 20
257.917
 10
1021.124
 20
258.0923
 10
1021.0633
 20
258.2552
 10
1020.9959
 20
258.4058
 10
1020.922
 20
258.5441
 10
1020.8378
 20
258.6803
 10
1020.7449
 20
258.8071
 10
1020.6433
 20
258.9247
 10
1020.533
 20
259.0329
 10
1020.4142
 20
259.1319
 10
1020.2869
 20
259.2216
 10
1020.1511
 20
259.3021
 10
1020.0069
 20
259.3734
 10
1019.8524
 20
259.4365
 10
1019.6845
 20
259.4912
 10
1019.5032
 20
259.5375
 10
1019.3086
 20
259.5755
 10
1019.1009
 20
259.605
 10
1018.8801
 20
259.6262
 10
1018.6464
 20
259.6389
 10
1018.3998
 20
259.6431
 10
1018.1628
 20
259.6352
 10
1017.9222
 20
259.6115
 10
1017.6779
 20
259.572
 10
1017.4298
 20
259.5167
 10
1017.1779
 20
259.4455
 10
1016.9218
 20
259.3586
 10
1016.6616
 20
259.2558
 10
1016.3971
 20
259.1373
 10
1016.128
 20
259.0053
 10
1015.8565
 20
258.8589
 10
1015.5828
 20
258.6981
 10
1015.3066
 20
258.5229
 10
1015.0281
 20
258.3334
 10
1014.7473
 20
258.1296
 10
1014.464
 20
257.9117
 10
1014.1783
 20
257.6796
 10
1014.2236
 20
257.111
 10
1014.2462
 20
256.3246
 10
1014.2462
 20
245.9491
 10
1011.2152
 20
245.9491
 10
1011.2152
 20
255.0785
 10
1011.2136
 20
255.3478
 10
1011.209
 20
255.6119
 10
1011.2013
 20
255.871
 10
1011.1905
 20
256.125
 10
1011.1768
 20
256.3739
 10
1011.16
 20
256.6179
 10
1011.1402
 20
256.8569
 10
1011.1175
 20
257.091
 10
1011.0911
 20
257.3163
 10
1011.0576
 20
257.5291
 10
1011.0172
 20
257.7293
 10
1010.97
 20
257.917
 10
1010.9162
 20
258.0923
 10
1010.856
 20
258.2552
 10
1010.7894
 20
258.4058
 10
1010.7167
 20
258.5441
 10
1010.6325
 20
258.6803
 10
1010.5396
 20
258.8071
 10
1010.4379
 20
258.9247
 10
1010.3275
 20
259.0329
 10
1010.2085
 20
259.1319
 10
1010.0808
 20
259.2216
 10
1009.9446
 20
259.3021
 10
1009.7998
 20
259.3734
 10
1009.6454
 20
259.4365
 10
1009.4777
 20
259.4912
 10
1009.2966
 20
259.5375
 10
1009.1024
 20
259.5755
 10
1008.895
 20
259.605
 10
1008.6745
 20
259.6262
 10
1008.441
 20
259.6389
 10
1008.1945
 20
259.6431
 10
1007.9456
 20
259.6348
 10
1007.6943
 20
259.6097
 10
1007.4406
 20
259.5678
 10
1007.1842
 20
259.509
 10
1006.9252
 20
259.4333
 10
1006.6633
 20
259.3405
 10
1006.3986
 20
259.2306
 10
1006.1308
 20
259.1036
 10
1005.8625
 20
258.9634
 10
1005.5961
 20
258.8141
 10
1005.3317
 20
258.6557
 10
1005.0691
 20
258.488
 10
1004.8084
 20
258.311
 10
1004.5496
 20
258.1248
 10
1004.2926
 20
257.9291
 10
1004.0374
 20
257.7241
 10
1004.0374
 20
245.9491
 10
1001.0098
 20
245.9491
 10
1001.0098
 20
261.7293
 10
1004.0374
 20
261.7293
 10
1004.0374
 20
259.9727
 10
1004.3361
 20
260.2259
 10
1004.6334
 20
260.4646
 10
1004.9295
 20
260.6888
 10
1005.2247
 20
260.8983
 10
1005.5189
 20
261.0931
 10
1005.8123
 20
261.2731
 10
1006.1051
 20
261.4382
 10
1006.3975
 20
261.5883
 10
1006.6933
 20
261.7226
 10
1006.9962
 20
261.8391
 10
1007.3064
 20
261.9379
 10
1007.6239
 20
262.0188
 10
1007.9486
 20
262.0818
 10
1008.2807
 20
262.127
 10
1008.62
 20
262.1541
 10
1008.9667
 20
262.1631
 10
1009.3581
 20
262.1531
 10
1009.7388
 20
262.1232
 10
1010.1087
 20
262.0733
 10
1010.4676
 20
262.0035
 10
1010.8156
 20
261.9138
 10
1011.1523
 20
261.8042
 10
1011.4779
 20
261.6747
 10
1011.7921
 20
261.5254
 10
1012.0902
 20
261.3535
 10
1012.3701
 20
261.1563
 10
1012.6317
 20
260.9336
 10
1012.8749
 20
260.6854
 10
1013.0997
 20
260.4117
 10
1013.3059
 20
260.1123
 10
1013.4934
 20
259.7871
 10
1013.6623
 20
259.4362
 10
1014.0049
 20
259.7612
 10
1014.3451
 20
260.0661
 10
1014.6828
 20
260.3508
 10
1015.0182
 20
260.6151
 10
1015.3512
 20
260.8592
 10
1015.6818
 20
261.0828
 10
1016.0101
 20
261.286
 10
1016.3361
 20
261.4687
 10
1016.6669
 20
261.6314
 10
1017.0042
 20
261.7725
 10
1017.3483
 20
261.8918
 10
1017.6992
 20
261.9895
 10
1018.0569
 20
262.0654
 10
1018.4215
 20
262.1197
 10
1018.7932
 20
262.1522
 10
1019.172
 20
262.1631
 10
1019.4593
 20
262.1581
 10
1019.7397
 20
262.1432
 10
1020.0132
 20
262.1184
 10
1020.2799
 20
262.0836
 10
1020.5397
 20
262.0387
 10
1020.7929
 20
261.9839
 10
1021.0394
 20
261.9191
 10
1021.2793
 20
261.8442
 10
1021.5129
 20
261.7589
 10
1021.739
 20
261.6616
 10
1021.9577
 20
261.5523
 10
1022.1689
 20
261.4308
 10
1022.3724
 20
261.2971
 10
1022.5683
 20
261.1511
 10
1022.7565
 20
260.9927
 10
1022.9369
 20
260.8219
 10
1023.1129
 20
260.6356
 10
1023.2787
 20
260.4388
 10
1023.4342
 20
260.2313
 10
1023.5794
 20
260.0129
 10
1023.7142
 20
259.7835
 10
1023.8386
 20
259.5428
 10
1023.9525
 20
259.2907
 10
1024.0559
 20
259.027
 10
1024.1485
 20
258.7505
 10
1024.2288
 20
258.4567
 10
1024.2967
 20
258.1456
 10
1024.3524
 20
257.8172
 10
1024.3957
 20
257.4714
 10
1024.4267
 20
257.1081
 10
1024.4453
 20
256.7274
 10
1024.4515
 20
256.3292
 10
1024.4515
 20
245.9491
 10
1021.4239
 20
245.9491
  0
LWPOLYLINE
  5
6F
330
1F
100
AcDbEntity
  8
Layer 1
 62
     7
100
AcDbPolyline
 90
      198
 70
     1
 43
0.0
 10
807.5204
 20
-175.4299
 10
807.5117
 20
-175.808
 10
807.4858
 20
-176.1789
 10
807.4425
 20
-176.5428
 10
807.382
 20
-176.8997
 10
807.3043
 20
-177.2495
 10
807.2093
 20
-177.5925
 10
807.0971
 20
-177.9286
 10
806.9678
 20
-178.2579
 10
806.8227
 20
-178.5781
 10
806.6631
 20
-178.887
 10
806.4894
 20
-179.1845
 10
806.3016
 20
-179.4707
 10
806.0999
 20
-179.7455
 10
805.8845
 20
-180.009
 10
805.6555
 20
-180.2611
 10
805.4131
 20
-180.5019
 10
805.1527
 20
-180.7364
 10
804.8772
 20
-180.958
 10
804.5866
 20
-181.1667
 10
804.2806
 20
-181.3626
 10
803.959
 20
-181.5455
 10
803.6218
 20
-181.7155
 10
803.2688
 20
-181.8725
 10
802.8997
 20
-182.0164
 10
802.5183
 20
-182.1456
 10
802.1259
 20
-182.2575
 10
801.7222
 20
-182.3521
 10
801.3072
 20
-182.4294
 10
800.8806
 20
-182.4895
 10
800.4424
 20
-182.5324
 10
799.9924
 20
-182.558
 10
799.5304
 20
-182.5666
 10
799.102
 20
-182.5614
 10
798.6754
 20
-182.5459
 10
798.2507
 20
-182.52
 10
797.8277
 20
-182.4837
 10
797.4065
 20
-182.4369
 10
796.9869
 20
-182.3798
 10
796.5689
 20
-182.3121
 10
796.1525
 20
-182.234
 10
795.7435
 20
-182.1475
 10
795.348
 20
-182.0546
 10
794.9662
 20
-181.9553
 10
794.5982
 20
-181.8495
 10
794.244
 20
-181.7372
 10
793.9039
 20
-181.6182
 10
793.5778
 20
-181.4926
 10
793.2661
 20
-181.3603
 10
793.2661
 20
-178.3683
 10
793.4892
 20
-178.3683
 10
793.6952
 20
-178.4951
 10
793.9402
 20
-178.6296
 10
794.225
 20
-178.7722
 10
794.5507
 20
-178.9232
 10
794.7251
 20
-178.9991
 10
794.9045
 20
-179.0741
 10
795.0888
 20
-179.148
 10
795.2779
 20
-179.2209
 10
795.4718
 20
-179.2929
 10
795.6703
 20
-179.3638
 10
795.8734
 20
-179.4337
 10
796.081
 20
-179.5026
 10
796.3151
 20
-179.5762
 10
796.5442
 20
-179.6455
 10
796.7682
 20
-179.7104
 10
796.9874
 20
-179.771
 10
797.2016
 20
-179.8274
 10
797.411
 20
-179.8796
 10
797.6155
 20
-179.9276
 10
797.8153
 20
-179.9716
 10
798.015
 20
-180.0103
 10
798.2206
 20
-180.0438
 10
798.4322
 20
-180.072
 10
798.6498
 20
-180.095
 10
798.8734
 20
-180.1128
 10
799.1032
 20
-180.1255
 10
799.339
 20
-180.1331
 10
799.581
 20
-180.1356
 10
799.8231
 20
-180.1309
 10
800.0632
 20
-180.1166
 10
800.3012
 20
-180.0928
 10
800.5375
 20
-180.0595
 10
800.7719
 20
-180.0167
 10
801.0046
 20
-179.9642
 10
801.2357
 20
-179.9022
 10
801.4652
 20
-179.8306
 10
801.6909
 20
-179.7488
 10
801.9079
 20
-179.6552
 10
802.1164
 20
-179.5499
 10
802.3166
 20
-179.4328
 10
802.5087
 20
-179.3039
 10
802.6927
 20
-179.1632
 10
802.8689
 20
-179.0107
 10
803.0374
 20
-178.8465
 10
803.1832
 20
-178.6876
 10
803.3198
 20
-178.5224
 10
803.4474
 20
-178.3506
 10
803.5659
 20
-178.1723
 10
803.6755
 20
-177.987
 10
803.7761
 20
-177.7948
 10
803.8678
 20
-177.5955
 10
803.9507
 20
-177.3888
 10
804.0231
 20
-177.176
 10
804.086
 20
-176.9538
 10
804.1393
 20
-176.7222
 10
804.183
 20
-176.4812
 10
804.2171
 20
-176.231
 10
804.2414
 20
-175.9716
 10
804.2561
 20
-175.703
 10
804.261
 20
-175.4253
 10
804.2556
 20
-175.1511
 10
804.2394
 20
-174.8896
 10
804.2124
 20
-174.6408
 10
804.1747
 20
-174.4047
 10
804.1261
 20
-174.1813
 10
804.0668
 20
-173.9706
 10
803.9967
 20
-173.7727
 10
803.9158
 20
-173.5875
 10
803.8252
 20
-173.4105
 10
803.7246
 20
-173.2417
 10
803.6141
 20
-173.0809
 10
803.4936
 20
-172.928
 10
803.3631
 20
-172.7831
 10
803.2227
 20
-172.646
 10
803.0723
 20
-172.5166
 10
802.9119
 20
-172.395
 10
802.7339
 20
-172.266
 10
802.5464
 20
-172.1469
 10
802.3492
 20
-172.0376
 10
802.1424
 20
-171.9382
 10
801.9257
 20
-171.8485
 10
801.6991
 20
-171.7686
 10
801.4625
 20
-171.6983
 10
801.2159
 20
-171.6378
 10
800.9618
 20
-171.5866
 10
800.7003
 20
-171.5423
 10
800.4313
 20
-171.5049
 10
800.1551
 20
-171.4743
 10
799.8715
 20
-171.4506
 10
799.5808
 20
-171.4336
 10
799.2829
 20
-171.4235
 10
798.9779
 20
-171.4201
 10
798.6528
 20
-171.4228
 10
798.3272
 20
-171.4311
 10
798.001
 20
-171.4449
 10
797.6743
 20
-171.4643
 10
797.3471
 20
-171.4895
 10
797.0192
 20
-171.5203
 10
796.6907
 20
-171.5569
 10
796.3616
 20
-171.5994
 10
796.0389
 20
-171.6441
 10
795.7336
 20
-171.6884
 10
795.4453
 20
-171.7322
 10
795.174
 20
-171.7755
 10
794.9194
 20
-171.8182
 10
794.6814
 20
-171.8601
 10
794.4598
 20
-171.9011
 10
794.2544
 20
-171.9413
 10
794.2544
 20
-161.0844
 10
807.3914
 20
-161.0844
 10
807.3914
 20
-163.5446
 10
797.3464
 20
-163.5446
 10
797.3464
 20
-169.1577
 10
798.4881
 20
-169.0749
 10
799.5165
 20
-169.0458
 10
799.9664
 20
-169.0501
 10
800.3984
 20
-169.063
 10
800.8127
 20
-169.0843
 10
801.2094
 20
-169.114
 10
801.5886
 20
-169.1521
 10
801.9504
 20
-169.1984
 10
802.295
 20
-169.253
 10
802.6225
 20
-169.3156
 10
802.938
 20
-169.3907
 10
803.2504
 20
-169.4817
 10
803.5598
 20
-169.5884
 10
803.8662
 20
-169.7109
 10
804.1696
 20
-169.8491
 10
804.4701
 20
-170.003
 10
804.7678
 20
-170.1726
 10
805.0627
 20
-170.3579
 10
805.3504
 20
-170.5632
 10
805.6213
 20
-170.7803
 10
805.8753
 20
-171.0092
 10
806.112
 20
-171.2502
 10
806.3314
 20
-171.5033
 10
806.5334
 20
-171.7687
 10
806.7177
 20
-172.0464
 10
806.8842
 20
-172.3367
 10
807.0326
 20
-172.6451
 10
807.1616
 20
-172.9759
 10
807.2709
 20
-173.329
 10
807.3605
 20
-173.7046
 10
807.4303
 20
-174.1024
 10
807.4803
 20
-174.5226
 10
807.5104
 20
-174.9651
 10
807.5204
 20
-175.4299
  0
LWPOLYLINE
  5
70
330
1F
100
AcDbEntity
  8
Layer 1
 62
     7
100
AcDbPolyline
 90
       12
 70
     1
 43
0.0
 10
826.3797
 20
-174.895
 10
823.5508
 20
-174.895
 10
823.5508
 20
-182.1328
 10
820.4535
 20
-182.1328
 10
820.4535
 20
-174.895
 10
809.8874
 20
-174.895
 10
809.8874
 20
-171.9275
 10
820.5877
 20
-161.0844
 10
823.5508
 20
-161.0844
 10
823.5508
 20
-172.6356
 10
826.3797
 20
-172.6356
 10
826.3797
 20
-174.895
  0
LWPOLYLINE
  5
71
330
1F
100
AcDbEntity
  8
Layer 1
 62
     7
100
AcDbPolyline
 90
        4
 70
     1
 43
0.0
 10
820.4535
 20
-172.6356
 10
820.4535
 20
-164.4275
 10
812.406
 20
-172.6356
 10
820.4535
 20
-172.6356
  0
LWPOLYLINE
  5
72
330
1F
100
AcDbEntity
  8
Layer 1
 62
     7
100
AcDbPolyline
 90
       65
 70
     1
 43
0.0
 10
843.8586
 20
-171.5933
 10
843.8292
 20
-172.9632
 10
843.7411
 20
-174.2391
 10
843.5944
 20
-175.4209
 10
843.3893
 20
-176.5086
 10
843.1258
 20
-177.5022
 10
842.8041
 20
-178.4017
 10
842.4243
 20
-179.2069
 10
841.9866
 20
-179.9179
 10
841.4857
 20
-180.5387
 10
840.9216
 20
-181.0767
 10
840.2942
 20
-181.532
 10
839.6032
 20
-181.9044
 10
838.8486
 20
-182.1941
 10
838.0303
 20
-182.4011
 10
837.148
 20
-182.5252
 10
836.2016
 20
-182.5666
 10
835.2457
 20
-182.5244
 10
834.3559
 20
-182.3976
 10
833.5319
 20
-182.1864
 10
832.7737
 20
-181.8908
 10
832.0811
 20
-181.5108
 10
831.454
 20
-181.0463
 10
830.8922
 20
-180.4975
 10
830.3956
 20
-179.8643
 10
829.9618
 20
-179.1451
 10
829.5861
 20
-178.3372
 10
829.2682
 20
-177.4405
 10
829.0082
 20
-176.455
 10
828.8061
 20
-175.3804
 10
828.6617
 20
-174.2169
 10
828.5751
 20
-172.9642
 10
828.5463
 20
-171.6224
 10
828.5756
 20
-170.2463
 10
828.6636
 20
-168.9655
 10
828.8101
 20
-167.7802
 10
829.0152
 20
-166.6905
 10
829.2787
 20
-165.6963
 10
829.6007
 20
-164.7979
 10
829.9812
 20
-163.9953
 10
830.42
 20
-163.2886
 10
830.9204
 20
-162.6695
 10
831.4842
 20
-162.1332
 10
832.1114
 20
-161.6795
 10
832.8023
 20
-161.3084
 10
833.5566
 20
-161.0199
 10
834.3746
 20
-160.8139
 10
835.2563
 20
-160.6903
 10
836.2016
 20
-160.6491
 10
837.1587
 20
-160.6918
 10
838.0495
 20
-160.82
 10
838.8741
 20
-161.0336
 10
839.6327
 20
-161.3325
 10
840.3252
 20
-161.7168
 10
840.9518
 20
-162.1862
 10
841.5125
 20
-162.7408
 10
842.0075
 20
-163.3806
 10
842.4414
 20
-164.1058
 10
842.8174
 20
-164.9171
 10
843.1355
 20
-165.8144
 10
843.3958
 20
-166.7977
 10
843.5983
 20
-167.8673
 10
843.7429
 20
-169.023
 10
843.8297
 20
-170.265
 10
843.8586
 20
-171.5933
  0
LWPOLYLINE
  5
73
330
1F
100
AcDbEntity
  8
Layer 1
 62
     7
100
AcDbPolyline
 90
      129
 70
     1
 43
0.0
 10
839.7416
 20
-178.0065
 10
839.8548
 20
-177.736
 10
839.9593
 20
-177.4485
 10
840.0551
 20
-177.1441
 10
840.1423
 20
-176.8225
 10
840.2209
 20
-176.4836
 10
840.2909
 20
-176.1274
 10
840.3525
 20
-175.7537
 10
840.4057
 20
-175.3625
 10
840.45
 20
-174.9556
 10
840.4886
 20
-174.5304
 10
840.5215
 20
-174.0869
 10
840.5486
 20
-173.6251
 10
840.5698
 20
-173.1448
 10
840.5851
 20
-172.6461
 10
840.5943
 20
-172.129
 10
840.5974
 20
-171.5933
 10
840.5943
 20
-171.0628
 10
840.5851
 20
-170.5496
 10
840.5698
 20
-170.0538
 10
840.5486
 20
-169.5756
 10
840.5215
 20
-169.1149
 10
840.4886
 20
-168.672
 10
840.45
 20
-168.2468
 10
840.4057
 20
-167.8395
 10
840.3522
 20
-167.4481
 10
840.2898
 20
-167.0738
 10
840.2185
 20
-166.7167
 10
840.1384
 20
-166.3767
 10
840.0495
 20
-166.0536
 10
839.952
 20
-165.7476
 10
839.8458
 20
-165.4585
 10
839.7311
 20
-165.1862
 10
839.6039
 20
-164.9249
 10
839.4655
 20
-164.6802
 10
839.3159
 20
-164.452
 10
839.1553
 20
-164.2403
 10
838.9836
 20
-164.0448
 10
838.801
 20
-163.8655
 10
838.6074
 20
-163.7024
 10
838.403
 20
-163.5553
 10
838.1827
 20
-163.4242
 10
837.9468
 20
-163.3105
 10
837.6951
 20
-163.2141
 10
837.4278
 20
-163.1351
 10
837.1448
 20
-163.0736
 10
836.8461
 20
-163.0296
 10
836.5317
 20
-163.0031
 10
836.2016
 20
-162.9943
 10
835.876
 20
-163.0031
 10
835.5646
 20
-163.0296
 10
835.2677
 20
-163.0736
 10
834.9854
 20
-163.1351
 10
834.718
 20
-163.2141
 10
834.4657
 20
-163.3105
 10
834.2287
 20
-163.4242
 10
834.0071
 20
-163.5553
 10
833.7965
 20
-163.7028
 10
833.5974
 20
-163.8672
 10
833.4098
 20
-164.0484
 10
833.2339
 20
-164.2466
 10
833.0697
 20
-164.4617
 10
832.9171
 20
-164.6938
 10
832.7764
 20
-164.943
 10
832.6476
 20
-165.2092
 10
832.5303
 20
-165.4874
 10
832.423
 20
-165.7829
 10
832.3255
 20
-166.0958
 10
832.2377
 20
-166.4261
 10
832.1597
 20
-166.7738
 10
832.0914
 20
-167.139
 10
832.0327
 20
-167.5219
 10
831.9835
 20
-167.9223
 10
831.9423
 20
-168.3391
 10
831.9064
 20
-168.7688
 10
831.8759
 20
-169.2114
 10
831.8508
 20
-169.6672
 10
831.8312
 20
-170.136
 10
831.8171
 20
-170.6181
 10
831.8085
 20
-171.1136
 10
831.8057
 20
-171.6224
 10
831.8081
 20
-172.1614
 10
831.8153
 20
-172.6782
 10
831.8273
 20
-173.1728
 10
831.8443
 20
-173.645
 10
831.8662
 20
-174.0947
 10
831.8932
 20
-174.522
 10
831.9253
 20
-174.9267
 10
831.9626
 20
-175.3088
 10
832.0046
 20
-175.6738
 10
832.0588
 20
-176.0295
 10
832.1249
 20
-176.3758
 10
832.2029
 20
-176.7127
 10
832.2925
 20
-177.04
 10
832.3937
 20
-177.3576
 10
832.5063
 20
-177.6655
 10
832.6301
 20
-177.9636
 10
832.7522
 20
-178.2272
 10
832.8869
 20
-178.4754
 10
833.0343
 20
-178.7081
 10
833.1942
 20
-178.9253
 10
833.3666
 20
-179.1268
 10
833.5515
 20
-179.3127
 10
833.7487
 20
-179.483
 10
833.9583
 20
-179.6374
 10
834.1811
 20
-179.7747
 10
834.4206
 20
-179.8936
 10
834.6767
 20
-179.994
 10
834.9492
 20
-180.076
 10
835.2381
 20
-180.1397
 10
835.5432
 20
-180.1851
 10
835.8644
 20
-180.2123
 10
836.2016
 20
-180.2214
 10
836.5282
 20
-180.2126
 10
836.8402
 20
-180.1864
 10
837.1374
 20
-180.1426
 10
837.4199
 20
-180.0814
 10
837.6877
 20
-180.0027
 10
837.9409
 20
-179.9065
 10
838.1793
 20
-179.793
 10
838.403
 20
-179.662
 10
838.6111
 20
-179.5145
 10
838.808
 20
-179.3501
 10
838.9933
 20
-179.1688
 10
839.1671
 20
-178.9705
 10
839.3289
 20
-178.7552
 10
839.4788
 20
-178.5228
 10
839.6164
 20
-178.2732
 10
839.7416
 20
-178.0065
  0
LWPOLYLINE
  5
74
330
1F
100
AcDbEntity
  8
Layer 1
 62
     7
100
AcDbPolyline
 90
      190
 70
     1
 43
0.0
 10
867.7552
 20
-182.1328
 10
867.7552
 20
-173.0035
 10
867.7536
 20
-172.7342
 10
867.7487
 20
-172.47
 10
867.7407
 20
-172.211
 10
867.7295
 20
-171.957
 10
867.7152
 20
-171.708
 10
867.6979
 20
-171.464
 10
867.6775
 20
-171.225
 10
867.6541
 20
-170.9909
 10
867.6282
 20
-170.7656
 10
867.5952
 20
-170.5528
 10
867.555
 20
-170.3527
 10
867.508
 20
-170.1649
 10
867.4541
 20
-169.9897
 10
867.3936
 20
-169.8267
 10
867.3266
 20
-169.6761
 10
867.2532
 20
-169.5378
 10
867.1696
 20
-169.4017
 10
867.0769
 20
-169.2748
 10
866.9753
 20
-169.1573
 10
866.865
 20
-169.0491
 10
866.7459
 20
-168.9501
 10
866.6184
 20
-168.8604
 10
866.4824
 20
-168.7799
 10
866.3381
 20
-168.7086
 10
866.1836
 20
-168.6455
 10
866.0157
 20
-168.5908
 10
865.8344
 20
-168.5444
 10
865.6398
 20
-168.5064
 10
865.4321
 20
-168.4769
 10
865.2114
 20
-168.4557
 10
864.9777
 20
-168.443
 10
864.7311
 20
-168.4388
 10
864.4941
 20
-168.4467
 10
864.2535
 20
-168.4704
 10
864.0092
 20
-168.5099
 10
863.7611
 20
-168.5653
 10
863.5091
 20
-168.6364
 10
863.2531
 20
-168.7233
 10
862.9929
 20
-168.8261
 10
862.7284
 20
-168.9446
 10
862.4598
 20
-169.0766
 10
862.1885
 20
-169.223
 10
861.9148
 20
-169.3839
 10
861.6386
 20
-169.5591
 10
861.3599
 20
-169.7486
 10
861.0788
 20
-169.9523
 10
860.7953
 20
-170.1702
 10
860.5095
 20
-170.4023
 10
860.5531
 20
-170.971
 10
860.5775
 20
-171.7573
 10
860.5775
 20
-182.1328
 10
857.5464
 20
-182.1328
 10
857.5464
 20
-173.0035
 10
857.5449
 20
-172.7342
 10
857.5402
 20
-172.47
 10
857.5326
 20
-172.211
 10
857.522
 20
-171.957
 10
857.5085
 20
-171.708
 10
857.492
 20
-171.464
 10
857.4727
 20
-171.225
 10
857.4506
 20
-170.9909
 10
857.4236
 20
-170.7656
 10
857.3896
 20
-170.5528
 10
857.349
 20
-170.3527
 10
857.3018
 20
-170.1649
 10
857.2481
 20
-169.9897
 10
857.1881
 20
-169.8267
 10
857.1219
 20
-169.6761
 10
857.0497
 20
-169.5378
 10
856.9649
 20
-169.4017
 10
856.8714
 20
-169.2748
 10
856.7693
 20
-169.1573
 10
856.6586
 20
-169.0491
 10
856.5395
 20
-168.9501
 10
856.4121
 20
-168.8604
 10
856.2765
 20
-168.7799
 10
856.1328
 20
-168.7086
 10
855.9772
 20
-168.6455
 10
855.8086
 20
-168.5908
 10
855.627
 20
-168.5444
 10
855.4324
 20
-168.5064
 10
855.2247
 20
-168.4769
 10
855.0041
 20
-168.4557
 10
854.7705
 20
-168.443
 10
854.524
 20
-168.4388
 10
854.2762
 20
-168.4471
 10
854.0256
 20
-168.4722
 10
853.7722
 20
-168.5141
 10
853.5159
 20
-168.5729
 10
853.2568
 20
-168.6487
 10
852.9948
 20
-168.7415
 10
852.7299
 20
-168.8513
 10
852.4621
 20
-168.9784
 10
852.1937
 20
-169.1186
 10
851.9272
 20
-169.2679
 10
851.6625
 20
-169.4263
 10
851.3997
 20
-169.594
 10
851.1389
 20
-169.7709
 10
850.8801
 20
-169.9572
 10
850.6234
 20
-170.1528
 10
850.3687
 20
-170.3579
 10
850.3687
 20
-182.1328
 10
847.3411
 20
-182.1328
 10
847.3411
 20
-166.3527
 10
850.3687
 20
-166.3527
 10
850.3687
 20
-168.1093
 10
850.6674
 20
-167.8561
 10
850.9647
 20
-167.6174
 10
851.2608
 20
-167.3932
 10
851.5559
 20
-167.1836
 10
851.8501
 20
-166.9888
 10
852.1436
 20
-166.8088
 10
852.4364
 20
-166.6438
 10
852.7288
 20
-166.4937
 10
853.0246
 20
-166.3594
 10
853.3276
 20
-166.2429
 10
853.6378
 20
-166.1441
 10
853.9554
 20
-166.0632
 10
854.2803
 20
-166.0001
 10
854.6127
 20
-165.955
 10
854.9525
 20
-165.9279
 10
855.2997
 20
-165.9189
 10
855.6906
 20
-165.9289
 10
856.0711
 20
-165.9588
 10
856.4409
 20
-166.0087
 10
856.8
 20
-166.0785
 10
857.1481
 20
-166.1682
 10
857.4851
 20
-166.2777
 10
857.8108
 20
-166.4072
 10
858.1251
 20
-166.5565
 10
858.4221
 20
-166.7284
 10
858.7014
 20
-166.9256
 10
858.9626
 20
-167.1483
 10
859.2058
 20
-167.3965
 10
859.4306
 20
-167.6703
 10
859.6369
 20
-167.9697
 10
859.8247
 20
-168.2948
 10
859.9936
 20
-168.6457
 10
860.3362
 20
-168.3207
 10
860.6763
 20
-168.0158
 10
861.0141
 20
-167.7312
 10
861.3494
 20
-167.4668
 10
861.6824
 20
-167.2228
 10
862.0131
 20
-166.9991
 10
862.3414
 20
-166.7959
 10
862.6674
 20
-166.6132
 10
862.9981
 20
-166.4505
 10
863.3355
 20
-166.3094
 10
863.6796
 20
-166.1901
 10
864.0304
 20
-166.0925
 10
864.3881
 20
-166.0165
 10
864.7528
 20
-165.9623
 10
865.1244
 20
-165.9297
 10
865.5032
 20
-165.9189
 10
865.7901
 20
-165.9239
 10
866.0703
 20
-165.9387
 10
866.3438
 20
-165.9636
 10
866.6107
 20
-165.9984
 10
866.871
 20
-166.0432
 10
867.1247
 20
-166.098
 10
867.3718
 20
-166.1628
 10
867.6123
 20
-166.2377
 10
867.8452
 20
-166.323
 10
868.0708
 20
-166.4203
 10
868.289
 20
-166.5297
 10
868.4997
 20
-166.6512
 10
868.703
 20
-166.7849
 10
868.8989
 20
-166.9309
 10
869.0872
 20
-167.0893
 10
869.2681
 20
-167.2601
 10
869.444
 20
-167.4464
 10
869.6097
 20
-167.6431
 10
869.765
 20
-167.8506
 10
869.91
 20
-168.069
 10
870.0448
 20
-168.2985
 10
870.1692
 20
-168.5392
 10
870.2834
 20
-168.7913
 10
870.3872
 20
-169.055
 10
870.4798
 20
-169.3315
 10
870.5603
 20
-169.6253
 10
870.6286
 20
-169.9363
 10
870.6846
 20
-170.2648
 10
870.7282
 20
-170.6106
 10
870.7595
 20
-170.9738
 10
870.7783
 20
-171.3545
 10
870.7846
 20
-171.7527
 10
870.7846
 20
-182.1328
 10
867.7552
 20
-182.1328
  0
LWPOLYLINE
  5
75
330
1F
100
AcDbEntity
  8
Layer 1
 62
     7
100
AcDbPolyline
 90
      190
 70
     1
 43
0.0
 10
895.4063
 20
-182.1328
 10
895.4063
 20
-173.0035
 10
895.4047
 20
-172.7342
 10
895.4001
 20
-172.47
 10
895.3922
 20
-172.211
 10
895.3813
 20
-171.957
 10
895.3671
 20
-171.708
 10
895.3497
 20
-171.464
 10
895.3291
 20
-171.225
 10
895.3052
 20
-170.9909
 10
895.2799
 20
-170.7656
 10
895.2472
 20
-170.5528
 10
895.2073
 20
-170.3527
 10
895.1603
 20
-170.1649
 10
895.1064
 20
-169.9897
 10
895.0456
 20
-169.8267
 10
894.9782
 20
-169.6761
 10
894.9043
 20
-169.5378
 10
894.8201
 20
-169.4017
 10
894.7272
 20
-169.2748
 10
894.6256
 20
-169.1573
 10
894.5154
 20
-169.0491
 10
894.3966
 20
-168.9501
 10
894.2692
 20
-168.8604
 10
894.1334
 20
-168.7799
 10
893.9892
 20
-168.7086
 10
893.8347
 20
-168.6455
 10
893.6668
 20
-168.5908
 10
893.4855
 20
-168.5444
 10
893.2909
 20
-168.5064
 10
893.0832
 20
-168.4769
 10
892.8625
 20
-168.4557
 10
892.6288
 20
-168.443
 10
892.3822
 20
-168.4388
 10
892.1452
 20
-168.4467
 10
891.9045
 20
-168.4704
 10
891.6603
 20
-168.5099
 10
891.4122
 20
-168.5653
 10
891.1602
 20
-168.6364
 10
890.9041
 20
-168.7233
 10
890.6439
 20
-168.8261
 10
890.3794
 20
-168.9446
 10
890.1103
 20
-169.0766
 10
889.8388
 20
-169.223
 10
889.5651
 20
-169.3839
 10
889.289
 20
-169.5591
 10
889.0105
 20
-169.7486
 10
888.7296
 20
-169.9523
 10
888.4463
 20
-170.1702
 10
888.1606
 20
-170.4023
 10
888.2059
 20
-170.971
 10
888.2286
 20
-171.7573
 10
888.2286
 20
-182.1328
 10
885.1975
 20
-182.1328
 10
885.1975
 20
-173.0035
 10
885.196
 20
-172.7342
 10
885.1913
 20
-172.47
 10
885.1836
 20
-172.211
 10
885.1729
 20
-171.957
 10
885.1591
 20
-171.708
 10
885.1424
 20
-171.464
 10
885.1226
 20
-171.225
 10
885.0999
 20
-170.9909
 10
885.0735
 20
-170.7656
 10
885.04
 20
-170.5528
 10
884.9996
 20
-170.3527
 10
884.9524
 20
-170.1649
 10
884.8986
 20
-169.9897
 10
884.8384
 20
-169.8267
 10
884.7718
 20
-169.6761
 10
884.699
 20
-169.5378
 10
884.6148
 20
-169.4017
 10
884.5219
 20
-169.2748
 10
884.4202
 20
-169.1573
 10
884.3099
 20
-169.0491
 10
884.1908
 20
-168.9501
 10
884.0632
 20
-168.8604
 10
883.927
 20
-168.7799
 10
883.7822
 20
-168.7086
 10
883.6278
 20
-168.6455
 10
883.46
 20
-168.5908
 10
883.279
 20
-168.5444
 10
883.0847
 20
-168.5064
 10
882.8774
 20
-168.4769
 10
882.6569
 20
-168.4557
 10
882.4234
 20
-168.443
 10
882.1769
 20
-168.4388
 10
881.928
 20
-168.4471
 10
881.6767
 20
-168.4722
 10
881.423
 20
-168.5141
 10
881.1666
 20
-168.5729
 10
880.9075
 20
-168.6487
 10
880.6457
 20
-168.7415
 10
880.3809
 20
-168.8513
 10
880.1131
 20
-168.9784
 10
879.8448
 20
-169.1186
 10
879.5784
 20
-169.2679
 10
879.314
 20
-169.4263
 10
879.0514
 20
-169.594
 10
878.7907
 20
-169.7709
 10
878.5319
 20
-169.9572
 10
878.275
 20
-170.1528
 10
878.0198
 20
-170.3579
 10
878.0198
 20
-182.1328
 10
874.9922
 20
-182.1328
 10
874.9922
 20
-166.3527
 10
878.0198
 20
-166.3527
 10
878.0198
 20
-168.1093
 10
878.3179
 20
-167.8561
 10
878.615
 20
-167.6174
 10
878.9111
 20
-167.3932
 10
879.2063
 20
-167.1836
 10
879.5007
 20
-166.9888
 10
879.7944
 20
-166.8088
 10
880.0874
 20
-166.6438
 10
880.3798
 20
-166.4937
 10
880.6756
 20
-166.3594
 10
880.9785
 20
-166.2429
 10
881.2888
 20
-166.1441
 10
881.6062
 20
-166.0632
 10
881.931
 20
-166.0001
 10
882.263
 20
-165.955
 10
882.6023
 20
-165.9279
 10
882.949
 20
-165.9189
 10
883.3404
 20
-165.9289
 10
883.7211
 20
-165.9588
 10
884.091
 20
-166.0087
 10
884.4499
 20
-166.0785
 10
884.7979
 20
-166.1682
 10
885.1346
 20
-166.2777
 10
885.4602
 20
-166.4072
 10
885.7744
 20
-166.5565
 10
886.0725
 20
-166.7284
 10
886.3522
 20
-166.9256
 10
886.6137
 20
-167.1483
 10
886.8568
 20
-167.3965
 10
887.0817
 20
-167.6703
 10
887.2882
 20
-167.9697
 10
887.4765
 20
-168.2948
 10
887.6464
 20
-168.6457
 10
887.9889
 20
-168.3207
 10
888.3289
 20
-168.0158
 10
888.6663
 20
-167.7312
 10
889.0014
 20
-167.4668
 10
889.334
 20
-167.2228
 10
889.6644
 20
-166.9991
 10
889.9925
 20
-166.7959
 10
890.3184
 20
-166.6132
 10
890.6492
 20
-166.4505
 10
890.9866
 20
-166.3094
 10
891.3306
 20
-166.1901
 10
891.6815
 20
-166.0925
 10
892.0392
 20
-166.0165
 10
892.4039
 20
-165.9623
 10
892.7755
 20
-165.9297
 10
893.1543
 20
-165.9189
 10
893.4417
 20
-165.9239
 10
893.7221
 20
-165.9387
 10
893.9956
 20
-165.9636
 10
894.2622
 20
-165.9984
 10
894.5221
 20
-166.0432
 10
894.7752
 20
-166.098
 10
895.0217
 20
-166.1628
 10
895.2616
 20
-166.2377
 10
895.4952
 20
-166.323
 10
895.7213
 20
-166.4203
 10
895.94
 20
-166.5297
 10
896.1512
 20
-166.6512
 10
896.3547
 20
-166.7849
 10
896.5506
 20
-166.9309
 10
896.7388
 20
-167.0893
 10
896.9192
 20
-167.2601
 10
897.0952
 20
-167.4464
 10
897.261
 20
-167.6431
 10
897.4166
 20
-167.8506
 10
897.562
 20
-168.069
 10
897.697
 20
-168.2985
 10
897.8217
 20
-168.5392
 10
897.9361
 20
-168.7913
 10
898.04
 20
-169.055
 10
898.1325
 20
-169.3315
 10
898.2126
 20
-169.6253
 10
898.2803
 20
-169.9363
 10
898.3357
 20
-170.2648
 10
898.3787
 20
-170.6106
 10
898.4094
 20
-170.9738
 10
898.4278
 20
-171.3545
 10
898.4339
 20
-171.7527
 10
898.4339
 20
-182.1328
 10
895.4063
 20
-182.1328
  0
LWPOLYLINE
  5
76
330
1F
100
AcDbEntity
  8
Layer 1
 62
     7
100
AcDbPolyline
 90
      302
 70
     1
 43
0.0
 10
1135.1743
 20
-163.0801
 10
1134.958
 20
-163.083
 10
1134.7418
 20
-163.0918
 10
1134.5255
 20
-163.1064
 10
1134.3091
 20
-163.1267
 10
1134.0925
 20
-163.1527
 10
1133.8755
 20
-163.1843
 10
1133.658
 20
-163.2214
 10
1133.44
 20
-163.2641
 10
1133.2246
 20
-163.3128
 10
1133.0097
 20
-163.3646
 10
1132.7956
 20
-163.4198
 10
1132.5823
 20
-163.4785
 10
1132.3698
 20
-163.5408
 10
1132.1584
 20
-163.607
 10
1131.948
 20
-163.6772
 10
1131.7389
 20
-163.7515
 10
1131.3644
 20
-163.8947
 10
1131.0151
 20
-164.0429
 10
1130.6913
 20
-164.1949
 10
1130.3933
 20
-164.3493
 10
1129.3753
 20
-164.9333
 10
1129.1836
 20
-164.9333
 10
1129.1836
 20
-161.9505
 10
1129.4558
 20
-161.8273
 10
1129.752
 20
-161.7073
 10
1130.0718
 20
-161.5905
 10
1130.4153
 20
-161.4768
 10
1130.7819
 20
-161.3663
 10
1131.1717
 20
-161.259
 10
1131.5843
 20
-161.1548
 10
1132.0195
 20
-161.0538
 10
1132.4653
 20
-160.9589
 10
1132.9058
 20
-160.8765
 10
1133.341
 20
-160.8067
 10
1133.771
 20
-160.7495
 10
1134.1956
 20
-160.705
 10
1134.6149
 20
-160.6731
 10
1135.0289
 20
-160.654
 10
1135.4375
 20
-160.6476
 10
1135.8386
 20
-160.6521
 10
1136.2261
 20
-160.6657
 10
1136.6003
 20
-160.6883
 10
1136.9614
 20
-160.72
 10
1137.3095
 20
-160.7608
 10
1137.645
 20
-160.8106
 10
1137.9679
 20
-160.8694
 10
1138.2786
 20
-160.9373
 10
1138.5779
 20
-161.0147
 10
1138.8705
 20
-161.102
 10
1139.1562
 20
-161.1993
 10
1139.4349
 20
-161.3065
 10
1139.7062
 20
-161.4237
 10
1139.9701
 20
-161.5509
 10
1140.2264
 20
-161.6882
 10
1140.4748
 20
-161.8355
 10
1140.7324
 20
-162.0084
 10
1140.9734
 20
-162.1902
 10
1141.1979
 20
-162.381
 10
1141.406
 20
-162.5808
 10
1141.598
 20
-162.7897
 10
1141.7739
 20
-163.0077
 10
1141.934
 20
-163.2348
 10
1142.0784
 20
-163.471
 10
1142.2035
 20
-163.7168
 10
1142.3123
 20
-163.9725
 10
1142.4045
 20
-164.2381
 10
1142.4801
 20
-164.5137
 10
1142.5391
 20
-164.7992
 10
1142.5813
 20
-165.0945
 10
1142.6067
 20
-165.3998
 10
1142.6152
 20
-165.715
 10
1142.5949
 20
-166.1425
 10
1142.534
 20
-166.557
 10
1142.4324
 20
-166.9583
 10
1142.2899
 20
-167.3465
 10
1142.1065
 20
-167.7214
 10
1141.8821
 20
-168.0828
 10
1141.6165
 20
-168.4309
 10
1141.3097
 20
-168.7653
 10
1140.9765
 20
-169.0795
 10
1140.6268
 20
-169.3635
 10
1140.2607
 20
-169.6172
 10
1139.8783
 20
-169.8408
 10
1139.4797
 20
-170.0342
 10
1139.065
 20
-170.1976
 10
1138.6344
 20
-170.331
 10
1138.188
 20
-170.4345
 10
1138.188
 20
-170.6322
 10
1138.3785
 20
-170.6659
 10
1138.5723
 20
-170.7059
 10
1138.7694
 20
-170.7521
 10
1138.9697
 20
-170.8043
 10
1139.1733
 20
-170.8624
 10
1139.3802
 20
-170.9262
 10
1139.5904
 20
-170.9957
 10
1139.8038
 20
-171.0706
 10
1140.0164
 20
-171.1533
 10
1140.2254
 20
-171.2449
 10
1140.4308
 20
-171.3456
 10
1140.6326
 20
-171.4556
 10
1140.8308
 20
-171.5747
 10
1141.0254
 20
-171.7033
 10
1141.2164
 20
-171.8413
 10
1141.4038
 20
-171.9888
 10
1141.5845
 20
-172.146
 10
1141.7565
 20
-172.3141
 10
1141.9199
 20
-172.4932
 10
1142.0747
 20
-172.6831
 10
1142.2209
 20
-172.884
 10
1142.3586
 20
-173.0958
 10
1142.4877
 20
-173.3186
 10
1142.6083
 20
-173.5522
 10
1142.719
 20
-173.7972
 10
1142.8146
 20
-174.055
 10
1142.8952
 20
-174.3258
 10
1142.961
 20
-174.6097
 10
1143.0119
 20
-174.9067
 10
1143.0482
 20
-175.2169
 10
1143.0699
 20
-175.5405
 10
1143.0771
 20
-175.8775
 10
1143.0684
 20
-176.2303
 10
1143.0422
 20
-176.5759
 10
1142.9987
 20
-176.9145
 10
1142.9379
 20
-177.2461
 10
1142.8598
 20
-177.5707
 10
1142.7646
 20
-177.8884
 10
1142.6522
 20
-178.1992
 10
1142.5228
 20
-178.5032
 10
1142.3759
 20
-178.7973
 10
1142.2149
 20
-179.0828
 10
1142.0398
 20
-179.3598
 10
1141.8507
 20
-179.6283
 10
1141.6473
 20
-179.8881
 10
1141.4299
 20
-180.1392
 10
1141.1982
 20
-180.3817
 10
1140.9524
 20
-180.6154
 10
1140.6842
 20
-180.8474
 10
1140.4027
 20
-181.0653
 10
1140.1076
 20
-181.2689
 10
1139.799
 20
-181.458
 10
1139.4768
 20
-181.6327
 10
1139.141
 20
-181.7927
 10
1138.7916
 20
-181.938
 10
1138.4285
 20
-182.0685
 10
1138.0523
 20
-182.1853
 10
1137.6635
 20
-182.2864
 10
1137.2622
 20
-182.3718
 10
1136.8485
 20
-182.4415
 10
1136.4223
 20
-182.4957
 10
1135.9838
 20
-182.5343
 10
1135.5329
 20
-182.5574
 10
1135.0697
 20
-182.5651
 10
1134.6198
 20
-182.5592
 10
1134.1707
 20
-182.5415
 10
1133.7225
 20
-182.5119
 10
1133.2753
 20
-182.4705
 10
1132.8291
 20
-182.4171
 10
1132.3838
 20
-182.3517
 10
1131.9397
 20
-182.2744
 10
1131.4966
 20
-182.185
 10
1131.0632
 20
-182.0867
 10
1130.6479
 20
-181.9837
 10
1130.2504
 20
-181.8759
 10
1129.8706
 20
-181.7633
 10
1129.5082
 20
-181.6457
 10
1129.1629
 20
-181.523
 10
1128.8346
 20
-181.3952
 10
1128.523
 20
-181.2622
 10
1128.523
 20
-178.2809
 10
1128.7479
 20
-178.2809
 10
1129.0117
 20
-178.4442
 10
1129.2972
 20
-178.6055
 10
1129.6044
 20
-178.7648
 10
1129.9333
 20
-178.9222
 10
1130.2839
 20
-179.0778
 10
1130.6561
 20
-179.2317
 10
1131.0498
 20
-179.384
 10
1131.4652
 20
-179.5347
 10
1131.8925
 20
-179.6758
 10
1132.3195
 20
-179.7978
 10
1132.7463
 20
-179.9008
 10
1133.1729
 20
-179.985
 10
1133.5993
 20
-180.0503
 10
1134.0256
 20
-180.0969
 10
1134.4518
 20
-180.1248
 10
1134.878
 20
-180.1341
 10
1135.1233
 20
-180.1298
 10
1135.3689
 20
-180.1169
 10
1135.6148
 20
-180.0953
 10
1135.8611
 20
-180.0651
 10
1136.1077
 20
-180.0263
 10
1136.3546
 20
-179.9789
 10
1136.6018
 20
-179.9229
 10
1136.8494
 20
-179.8582
 10
1137.0904
 20
-179.7841
 10
1137.322
 20
-179.6986
 10
1137.5437
 20
-179.602
 10
1137.7555
 20
-179.4943
 10
1137.957
 20
-179.3758
 10
1138.1482
 20
-179.2467
 10
1138.3286
 20
-179.107
 10
1138.4982
 20
-178.9569
 10
1138.6541
 20
-178.7991
 10
1138.8003
 20
-178.6373
 10
1138.9368
 20
-178.4714
 10
1139.0636
 20
-178.3014
 10
1139.1809
 20
-178.1274
 10
1139.2887
 20
-177.9492
 10
1139.3871
 20
-177.7669
 10
1139.4761
 20
-177.5804
 10
1139.5552
 20
-177.3863
 10
1139.624
 20
-177.1798
 10
1139.6824
 20
-176.9609
 10
1139.7304
 20
-176.7296
 10
1139.7677
 20
-176.4858
 10
1139.7945
 20
-176.2296
 10
1139.8106
 20
-175.961
 10
1139.816
 20
-175.6798
 10
1139.81
 20
-175.3999
 10
1139.7922
 20
-175.1328
 10
1139.7624
 20
-174.8785
 10
1139.7208
 20
-174.6369
 10
1139.6673
 20
-174.408
 10
1139.602
 20
-174.1918
 10
1139.5249
 20
-173.9883
 10
1139.436
 20
-173.7975
 10
1139.3371
 20
-173.6177
 10
1139.2288
 20
-173.4476
 10
1139.111
 20
-173.2871
 10
1138.9837
 20
-173.1365
 10
1138.8469
 20
-172.9957
 10
1138.7006
 20
-172.865
 10
1138.5449
 20
-172.7444
 10
1138.3797
 20
-172.6341
 10
1138.2067
 20
-172.5318
 10
1138.026
 20
-172.4376
 10
1137.8377
 20
-172.3515
 10
1137.6416
 20
-172.2737
 10
1137.4376
 20
-172.2041
 10
1137.2258
 20
-172.1429
 10
1137.0059
 20
-172.09
 10
1136.7779
 20
-172.0455
 10
1136.5424
 20
-172.0068
 10
1136.3026
 20
-171.9733
 10
1136.0583
 20
-171.9451
 10
1135.8094
 20
-171.9221
 10
1135.5559
 20
-171.9043
 10
1135.2977
 20
-171.8916
 10
1135.0346
 20
-171.884
 10
1134.7665
 20
-171.8815
 10
1133.3947
 20
-171.8815
 10
1133.3947
 20
-169.5363
 10
1134.4597
 20
-169.5363
 10
1134.9909
 20
-169.5223
 10
1135.4966
 20
-169.4802
 10
1135.977
 20
-169.41
 10
1136.4319
 20
-169.3116
 10
1136.8614
 20
-169.1849
 10
1137.2653
 20
-169.03
 10
1137.6436
 20
-168.8467
 10
1137.9963
 20
-168.635
 10
1138.3139
 20
-168.3957
 10
1138.5896
 20
-168.1307
 10
1138.8232
 20
-167.8401
 10
1139.0146
 20
-167.5239
 10
1139.1637
 20
-167.1822
 10
1139.2703
 20
-166.8151
 10
1139.3344
 20
-166.4226
 10
1139.3558
 20
-166.0047
 10
1139.3504
 20
-165.8109
 10
1139.3341
 20
-165.6239
 10
1139.3069
 20
-165.4437
 10
1139.2687
 20
-165.2702
 10
1139.2193
 20
-165.1034
 10
1139.1587
 20
-164.9434
 10
1139.0869
 20
-164.7901
 10
1139.0037
 20
-164.6436
 10
1138.9123
 20
-164.5028
 10
1138.8146
 20
-164.37
 10
1138.7109
 20
-164.2451
 10
1138.6011
 20
-164.1278
 10
1138.4854
 20
-164.018
 10
1138.364
 20
-163.9155
 10
1138.2369
 20
-163.8201
 10
1138.1043
 20
-163.7316
 10
1137.9482
 20
-163.6427
 10
1137.7884
 20
-163.5611
 10
1137.6249
 20
-163.4866
 10
1137.4579
 20
-163.4193
 10
1137.2873
 20
-163.359
 10
1137.1133
 20
-163.3056
 10
1136.9359
 20
-163.2592
 10
1136.7552
 20
-163.2196
 10
1136.5681
 20
-163.1877
 10
1136.378
 20
-163.1597
 10
1136.185
 20
-163.1357
 10
1135.9889
 20
-163.116
 10
1135.7899
 20
-163.1004
 10
1135.5877
 20
-163.0892
 10
1135.3826
 20
-163.0824
 10
1135.1743
 20
-163.0801
  0
LWPOLYLINE
  5
77
330
1F
100
AcDbEntity
  8
Layer 1
 62
     7
100
AcDbPolyline
 90
       27
 70
     1
 43
0.0
 10
1160.2545
 20
-182.1313
 10
1148.5693
 20
-182.1313
 10
1148.5693
 20
-179.9885
 10
1152.9147
 20
-179.9885
 10
1152.9147
 20
-165.8591
 10
1148.5693
 20
-165.8591
 10
1148.5693
 20
-163.9492
 10
1149.1638
 20
-163.9394
 10
1149.7183
 20
-163.9102
 10
1150.2327
 20
-163.8617
 10
1150.7069
 20
-163.7938
 10
1151.1409
 20
-163.7068
 10
1151.5344
 20
-163.6007
 10
1151.8875
 20
-163.4756
 10
1152.2
 20
-163.3315
 10
1152.475
 20
-163.1601
 10
1152.7184
 20
-162.954
 10
1152.93
 20
-162.7134
 10
1153.1099
 20
-162.4383
 10
1153.2581
 20
-162.1288
 10
1153.3746
 20
-161.7851
 10
1153.4594
 20
-161.4073
 10
1153.5125
 20
-160.9955
 10
1156.0085
 20
-160.9955
 10
1156.0085
 20
-179.9885
 10
1160.2545
 20
-179.9885
 10
1160.2545
 20
-182.1313
  0
LWPOLYLINE
  5
78
330
1F
100
AcDbEntity
  8
Layer 1
 62
     7
100
AcDbPolyline
 90
       65
 70
     1
 43
0.0
 10
1179.5757
 20
-171.5918
 10
1179.5465
 20
-172.9617
 10
1179.4587
 20
-174.2375
 10
1179.3125
 20
-175.4193
 10
1179.1079
 20
-176.5071
 10
1178.8449
 20
-177.5007
 10
1178.5234
 20
-178.4001
 10
1178.1436
 20
-179.2054
 10
1177.7054
 20
-179.9164
 10
1177.2045
 20
-180.5372
 10
1176.6403
 20
-181.0752
 10
1176.0127
 20
-181.5305
 10
1175.3217
 20
-181.9029
 10
1174.5671
 20
-182.1926
 10
1173.7491
 20
-182.3996
 10
1172.8674
 20
-182.5237
 10
1171.9221
 20
-182.5651
 10
1170.9656
 20
-182.5229
 10
1170.0751
 20
-182.3961
 10
1169.2507
 20
-182.1849
 10
1168.4921
 20
-181.8893
 10
1167.7993
 20
-181.5093
 10
1167.1721
 20
-181.0448
 10
1166.6105
 20
-180.496
 10
1166.1144
 20
-179.8628
 10
1165.6807
 20
-179.1436
 10
1165.3051
 20
-178.3357
 10
1164.9876
 20
-177.439
 10
1164.7279
 20
-176.4535
 10
1164.5261
 20
-175.3789
 10
1164.382
 20
-174.2154
 10
1164.2957
 20
-172.9627
 10
1164.2669
 20
-171.6209
 10
1164.2961
 20
-170.2448
 10
1164.3839
 20
-168.964
 10
1164.5301
 20
-167.7787
 10
1164.7347
 20
-166.689
 10
1164.9977
 20
-165.6948
 10
1165.3191
 20
-164.7964
 10
1165.6989
 20
-163.9938
 10
1166.1371
 20
-163.2871
 10
1166.6381
 20
-162.668
 10
1167.2025
 20
-162.1317
 10
1167.8304
 20
-161.678
 10
1168.5217
 20
-161.3069
 10
1169.2765
 20
-161.0184
 10
1170.0949
 20
-160.8124
 10
1170.9767
 20
-160.6888
 10
1171.9221
 20
-160.6476
 10
1172.8781
 20
-160.6903
 10
1173.7683
 20
-160.8185
 10
1174.5927
 20
-161.0321
 10
1175.3513
 20
-161.331
 10
1176.0441
 20
-161.7152
 10
1176.6711
 20
-162.1847
 10
1177.2325
 20
-162.7393
 10
1177.7281
 20
-163.379
 10
1178.1618
 20
-164.1043
 10
1178.5374
 20
-164.9155
 10
1178.855
 20
-165.8128
 10
1179.1147
 20
-166.7962
 10
1179.3165
 20
-167.8658
 10
1179.4605
 20
-169.0215
 10
1179.5469
 20
-170.2635
 10
1179.5757
 20
-171.5918
  0
LWPOLYLINE
  5
79
330
1F
100
AcDbEntity
  8
Layer 1
 62
     7
100
AcDbPolyline
 90
      129
 70
     1
 43
0.0
 10
1175.4622
 20
-178.005
 10
1175.5743
 20
-177.7345
 10
1175.678
 20
-177.447
 10
1175.7733
 20
-177.1426
 10
1175.8603
 20
-176.821
 10
1175.939
 20
-176.4821
 10
1176.0095
 20
-176.1259
 10
1176.072
 20
-175.7522
 10
1176.1263
 20
-175.3609
 10
1176.1705
 20
-174.954
 10
1176.2089
 20
-174.5288
 10
1176.2416
 20
-174.0853
 10
1176.2684
 20
-173.6235
 10
1176.2893
 20
-173.1433
 10
1176.3043
 20
-172.6446
 10
1176.3133
 20
-172.1274
 10
1176.3163
 20
-171.5918
 10
1176.3133
 20
-171.0613
 10
1176.3043
 20
-170.5481
 10
1176.2893
 20
-170.0523
 10
1176.2684
 20
-169.574
 10
1176.2416
 20
-169.1134
 10
1176.2089
 20
-168.6704
 10
1176.1705
 20
-168.2452
 10
1176.1263
 20
-167.8379
 10
1176.0718
 20
-167.4465
 10
1176.0089
 20
-167.0722
 10
1175.9375
 20
-166.7151
 10
1175.8575
 20
-166.3751
 10
1175.7688
 20
-166.0521
 10
1175.6714
 20
-165.746
 10
1175.5651
 20
-165.4569
 10
1175.45
 20
-165.1847
 10
1175.3229
 20
-164.9234
 10
1175.1847
 20
-164.6787
 10
1175.0354
 20
-164.4505
 10
1174.875
 20
-164.2388
 10
1174.7037
 20
-164.0433
 10
1174.5213
 20
-163.864
 10
1174.3279
 20
-163.7009
 10
1174.1236
 20
-163.5538
 10
1173.9027
 20
-163.4227
 10
1173.6661
 20
-163.309
 10
1173.414
 20
-163.2126
 10
1173.1464
 20
-163.1336
 10
1172.8633
 20
-163.0721
 10
1172.5649
 20
-163.0281
 10
1172.2511
 20
-163.0016
 10
1171.9221
 20
-162.9928
 10
1171.596
 20
-163.0016
 10
1171.2844
 20
-163.0281
 10
1170.9874
 20
-163.0721
 10
1170.7053
 20
-163.1336
 10
1170.4381
 20
-163.2126
 10
1170.186
 20
-163.309
 10
1169.9492
 20
-163.4227
 10
1169.7277
 20
-163.5538
 10
1169.5166
 20
-163.7013
 10
1169.3172
 20
-163.8657
 10
1169.1295
 20
-164.0469
 10
1168.9536
 20
-164.2451
 10
1168.7893
 20
-164.4602
 10
1168.6367
 20
-164.6923
 10
1168.4957
 20
-164.9415
 10
1168.3664
 20
-165.2077
 10
1168.2496
 20
-165.4859
 10
1168.1425
 20
-165.7814
 10
1168.045
 20
-166.0942
 10
1167.9572
 20
-166.4245
 10
1167.879
 20
-166.7722
 10
1167.8105
 20
-167.1375
 10
1167.7516
 20
-167.5203
 10
1167.7023
 20
-167.9207
 10
1167.6617
 20
-168.3375
 10
1167.6263
 20
-168.7672
 10
1167.5961
 20
-169.2099
 10
1167.5712
 20
-169.6656
 10
1167.5517
 20
-170.1345
 10
1167.5376
 20
-170.6166
 10
1167.5291
 20
-171.112
 10
1167.5263
 20
-171.6209
 10
1167.5287
 20
-172.1599
 10
1167.5358
 20
-172.6767
 10
1167.5478
 20
-173.1712
 10
1167.5646
 20
-173.6434
 10
1167.5864
 20
-174.0932
 10
1167.613
 20
-174.5205
 10
1167.6447
 20
-174.9252
 10
1167.6814
 20
-175.3073
 10
1167.7239
 20
-175.6723
 10
1167.7781
 20
-176.028
 10
1167.8441
 20
-176.3743
 10
1167.9217
 20
-176.7112
 10
1168.0111
 20
-177.0385
 10
1168.1121
 20
-177.3561
 10
1168.2247
 20
-177.664
 10
1168.349
 20
-177.9621
 10
1168.4705
 20
-178.2257
 10
1168.6048
 20
-178.4739
 10
1168.7519
 20
-178.7066
 10
1168.9117
 20
-178.9237
 10
1169.0842
 20
-179.1253
 10
1169.2693
 20
-179.3112
 10
1169.467
 20
-179.4814
 10
1169.6771
 20
-179.6359
 10
1169.8994
 20
-179.7732
 10
1170.1387
 20
-179.8921
 10
1170.3948
 20
-179.9925
 10
1170.6676
 20
-180.0745
 10
1170.9569
 20
-180.1382
 10
1171.2625
 20
-180.1836
 10
1171.5843
 20
-180.2108
 10
1171.9221
 20
-180.2199
 10
1172.2477
 20
-180.2111
 10
1172.559
 20
-180.1849
 10
1172.856
 20
-180.1411
 10
1173.1385
 20
-180.0798
 10
1173.4066
 20
-180.0011
 10
1173.6602
 20
-179.905
 10
1173.8992
 20
-179.7914
 10
1174.1236
 20
-179.6604
 10
1174.3317
 20
-179.5129
 10
1174.5283
 20
-179.3485
 10
1174.7135
 20
-179.1672
 10
1174.887
 20
-178.9689
 10
1175.0487
 20
-178.7536
 10
1175.1986
 20
-178.5212
 10
1175.3365
 20
-178.2717
 10
1175.4622
 20
-178.005
  0
LWPOLYLINE
  5
7A
330
1F
100
AcDbEntity
  8
Layer 1
 62
     7
100
AcDbPolyline
 90
      190
 70
     1
 43
0.0
 10
1203.4723
 20
-182.1313
 10
1203.4723
 20
-173.002
 10
1203.4708
 20
-172.7327
 10
1203.4661
 20
-172.4685
 10
1203.4584
 20
-172.2094
 10
1203.4477
 20
-171.9554
 10
1203.4339
 20
-171.7065
 10
1203.4172
 20
-171.4625
 10
1203.3974
 20
-171.2235
 10
1203.3747
 20
-170.9894
 10
1203.3483
 20
-170.7641
 10
1203.3148
 20
-170.5513
 10
1203.2744
 20
-170.3511
 10
1203.2272
 20
-170.1634
 10
1203.1734
 20
-169.9881
 10
1203.1132
 20
-169.8252
 10
1203.0466
 20
-169.6746
 10
1202.9738
 20
-169.5363
 10
1202.8895
 20
-169.4002
 10
1202.7963
 20
-169.2733
 10
1202.6942
 20
-169.1558
 10
1202.5836
 20
-169.0476
 10
1202.4645
 20
-168.9486
 10
1202.3372
 20
-168.8588
 10
1202.2019
 20
-168.7783
 10
1202.0587
 20
-168.707
 10
1201.9031
 20
-168.6439
 10
1201.7343
 20
-168.5892
 10
1201.5523
 20
-168.5429
 10
1201.3574
 20
-168.5049
 10
1201.1494
 20
-168.4754
 10
1200.9285
 20
-168.4542
 10
1200.6948
 20
-168.4415
 10
1200.4482
 20
-168.4373
 10
1200.2123
 20
-168.4452
 10
1199.9725
 20
-168.4689
 10
1199.7287
 20
-168.5084
 10
1199.4808
 20
-168.5638
 10
1199.2287
 20
-168.6349
 10
1198.9721
 20
-168.7218
 10
1198.7111
 20
-168.8246
 10
1198.4455
 20
-168.9431
 10
1198.1774
 20
-169.0751
 10
1197.9064
 20
-169.2215
 10
1197.6327
 20
-169.3823
 10
1197.3565
 20
-169.5575
 10
1197.0779
 20
-169.747
 10
1196.7969
 20
-169.9508
 10
1196.5137
 20
-170.1687
 10
1196.2284
 20
-170.4008
 10
1196.272
 20
-170.9695
 10
1196.2946
 20
-171.7558
 10
1196.2946
 20
-182.1313
 10
1193.267
 20
-182.1313
 10
1193.267
 20
-173.002
 10
1193.2655
 20
-172.7327
 10
1193.2608
 20
-172.4685
 10
1193.2531
 20
-172.2094
 10
1193.2424
 20
-171.9554
 10
1193.2286
 20
-171.7065
 10
1193.2119
 20
-171.4625
 10
1193.1921
 20
-171.2235
 10
1193.1694
 20
-170.9894
 10
1193.143
 20
-170.7641
 10
1193.1095
 20
-170.5513
 10
1193.0691
 20
-170.3511
 10
1193.0219
 20
-170.1634
 10
1192.9681
 20
-169.9881
 10
1192.9079
 20
-169.8252
 10
1192.8413
 20
-169.6746
 10
1192.7685
 20
-169.5363
 10
1192.6832
 20
-169.4002
 10
1192.5895
 20
-169.2733
 10
1192.4873
 20
-169.1558
 10
1192.3768
 20
-169.0476
 10
1192.2579
 20
-168.9486
 10
1192.1307
 20
-168.8588
 10
1191.9953
 20
-168.7783
 10
1191.8517
 20
-168.707
 10
1191.6961
 20
-168.6439
 10
1191.5275
 20
-168.5892
 10
1191.3459
 20
-168.5429
 10
1191.1512
 20
-168.5049
 10
1190.9436
 20
-168.4754
 10
1190.7229
 20
-168.4542
 10
1190.4894
 20
-168.4415
 10
1190.2429
 20
-168.4373
 10
1189.9951
 20
-168.4456
 10
1189.7445
 20
-168.4707
 10
1189.491
 20
-168.5126
 10
1189.2346
 20
-168.5714
 10
1188.9752
 20
-168.6471
 10
1188.7129
 20
-168.7399
 10
1188.4476
 20
-168.8498
 10
1188.1792
 20
-168.9768
 10
1187.9109
 20
-169.117
 10
1187.6446
 20
-169.2663
 10
1187.3802
 20
-169.4248
 10
1187.1179
 20
-169.5925
 10
1186.8576
 20
-169.7694
 10
1186.5994
 20
-169.9556
 10
1186.3433
 20
-170.1513
 10
1186.0893
 20
-170.3563
 10
1186.0893
 20
-182.1313
 10
1183.0617
 20
-182.1313
 10
1183.0617
 20
-166.3511
 10
1186.0893
 20
-166.3511
 10
1186.0893
 20
-168.1077
 10
1186.3875
 20
-167.8545
 10
1186.6846
 20
-167.6158
 10
1186.9807
 20
-167.3917
 10
1187.2759
 20
-167.1821
 10
1187.5702
 20
-166.9873
 10
1187.8639
 20
-166.8073
 10
1188.1569
 20
-166.6423
 10
1188.4493
 20
-166.4922
 10
1188.7451
 20
-166.3579
 10
1189.0481
 20
-166.2414
 10
1189.3583
 20
-166.1426
 10
1189.6758
 20
-166.0617
 10
1190.0005
 20
-165.9986
 10
1190.3325
 20
-165.9535
 10
1190.6718
 20
-165.9264
 10
1191.0185
 20
-165.9174
 10
1191.4099
 20
-165.9274
 10
1191.7906
 20
-165.9573
 10
1192.1605
 20
-166.0072
 10
1192.5194
 20
-166.077
 10
1192.8674
 20
-166.1667
 10
1193.2041
 20
-166.2762
 10
1193.5297
 20
-166.4057
 10
1193.8439
 20
-166.555
 10
1194.141
 20
-166.7269
 10
1194.4202
 20
-166.9241
 10
1194.6815
 20
-167.1468
 10
1194.9246
 20
-167.395
 10
1195.1494
 20
-167.6687
 10
1195.3558
 20
-167.9681
 10
1195.5435
 20
-168.2933
 10
1195.7124
 20
-168.6442
 10
1196.0549
 20
-168.3192
 10
1196.395
 20
-168.0143
 10
1196.7326
 20
-167.7296
 10
1197.0679
 20
-167.4653
 10
1197.4009
 20
-167.2212
 10
1197.7319
 20
-166.9976
 10
1198.0609
 20
-166.7944
 10
1198.388
 20
-166.6117
 10
1198.7177
 20
-166.449
 10
1199.0544
 20
-166.3079
 10
1199.3981
 20
-166.1886
 10
1199.749
 20
-166.091
 10
1200.107
 20
-166.015
 10
1200.4721
 20
-165.9608
 10
1200.8444
 20
-165.9282
 10
1201.2238
 20
-165.9174
 10
1201.5102
 20
-165.9224
 10
1201.7901
 20
-165.9372
 10
1202.0636
 20
-165.9621
 10
1202.3304
 20
-165.9969
 10
1202.5907
 20
-166.0417
 10
1202.8443
 20
-166.0965
 10
1203.0911
 20
-166.1613
 10
1203.3311
 20
-166.2362
 10
1203.564
 20
-166.3215
 10
1203.7896
 20
-166.4188
 10
1204.0079
 20
-166.5281
 10
1204.2187
 20
-166.6496
 10
1204.4223
 20
-166.7834
 10
1204.6184
 20
-166.9294
 10
1204.8072
 20
-167.0878
 10
1204.9887
 20
-167.2586
 10
1205.1645
 20
-167.4449
 10
1205.3299
 20
-167.6416
 10
1205.485
 20
-167.8491
 10
1205.6297
 20
-168.0675
 10
1205.7641
 20
-168.297
 10
1205.8883
 20
-168.5377
 10
1206.0022
 20
-168.7898
 10
1206.106
 20
-169.0535
 10
1206.1986
 20
-169.33
 10
1206.2791
 20
-169.6237
 10
1206.3474
 20
-169.9348
 10
1206.4034
 20
-170.2632
 10
1206.4471
 20
-170.6091
 10
1206.4783
 20
-170.9723
 10
1206.4971
 20
-171.353
 10
1206.5034
 20
-171.7512
 10
1206.5034
 20
-182.1313
 10
1203.4723
 20
-182.1313
  0
LWPOLYLINE
  5
7B
330
1F
100
AcDbEntity
  8
Layer 1
 62
     7
100
AcDbPolyline
 90
      190
 70
     1
 43
0.0
 10
1231.1234
 20
-182.1313
 10
1231.1234
 20
-173.002
 10
1231.1219
 20
-172.7327
 10
1231.1172
 20
-172.4685
 10
1231.1095
 20
-172.2094
 10
1231.0988
 20
-171.9554
 10
1231.085
 20
-171.7065
 10
1231.0683
 20
-171.4625
 10
1231.0485
 20
-171.2235
 10
1231.0258
 20
-170.9894
 10
1230.9994
 20
-170.7641
 10
1230.9659
 20
-170.5513
 10
1230.9255
 20
-170.3511
 10
1230.8783
 20
-170.1634
 10
1230.8245
 20
-169.9881
 10
1230.7643
 20
-169.8252
 10
1230.6977
 20
-169.6746
 10
1230.6249
 20
-169.5363
 10
1230.5407
 20
-169.4002
 10
1230.4475
 20
-169.2733
 10
1230.3457
 20
-169.1558
 10
1230.2351
 20
-169.0476
 10
1230.1159
 20
-168.9486
 10
1229.9883
 20
-168.8588
 10
1229.8524
 20
-168.7783
 10
1229.7081
 20
-168.707
 10
1229.5536
 20
-168.6439
 10
1229.3856
 20
-168.5892
 10
1229.2043
 20
-168.5429
 10
1229.0097
 20
-168.5049
 10
1228.802
 20
-168.4754
 10
1228.5813
 20
-168.4542
 10
1228.3476
 20
-168.4415
 10
1228.101
 20
-168.4373
 10
1227.864
 20
-168.4452
 10
1227.6234
 20
-168.4689
 10
1227.3791
 20
-168.5084
 10
1227.131
 20
-168.5638
 10
1226.879
 20
-168.6349
 10
1226.623
 20
-168.7218
 10
1226.3628
 20
-168.8246
 10
1226.0983
 20
-168.9431
 10
1225.8297
 20
-169.0751
 10
1225.5584
 20
-169.2215
 10
1225.2847
 20
-169.3823
 10
1225.0085
 20
-169.5575
 10
1224.7298
 20
-169.747
 10
1224.4487
 20
-169.9508
 10
1224.1652
 20
-170.1687
 10
1223.8794
 20
-170.4008
 10
1223.923
 20
-170.9695
 10
1223.9457
 20
-171.7558
 10
1223.9457
 20
-182.1313
 10
1220.9163
 20
-182.1313
 10
1220.9163
 20
-173.002
 10
1220.9148
 20
-172.7327
 10
1220.9104
 20
-172.4685
 10
1220.903
 20
-172.2094
 10
1220.8926
 20
-171.9554
 10
1220.8792
 20
-171.7065
 10
1220.8627
 20
-171.4625
 10
1220.8431
 20
-171.2235
 10
1220.8205
 20
-170.9894
 10
1220.7935
 20
-170.7641
 10
1220.7598
 20
-170.5513
 10
1220.7194
 20
-170.3511
 10
1220.6723
 20
-170.1634
 10
1220.6187
 20
-169.9881
 10
1220.5587
 20
-169.8252
 10
1220.4923
 20
-169.6746
 10
1220.4196
 20
-169.5363
 10
1220.3343
 20
-169.4002
 10
1220.2405
 20
-169.2733
 10
1220.1384
 20
-169.1558
 10
1220.0278
 20
-169.0476
 10
1219.909
 20
-168.9486
 10
1219.7818
 20
-168.8588
 10
1219.6464
 20
-168.7783
 10
1219.5027
 20
-168.707
 10
1219.3471
 20
-168.6439
 10
1219.1785
 20
-168.5892
 10
1218.9969
 20
-168.5429
 10
1218.8023
 20
-168.5049
 10
1218.5946
 20
-168.4754
 10
1218.374
 20
-168.4542
 10
1218.1405
 20
-168.4415
 10
1217.894
 20
-168.4373
 10
1217.6462
 20
-168.4456
 10
1217.3955
 20
-168.4707
 10
1217.1421
 20
-168.5126
 10
1216.8858
 20
-168.5714
 10
1216.6267
 20
-168.6471
 10
1216.3647
 20
-168.7399
 10
1216.0998
 20
-168.8498
 10
1215.832
 20
-168.9768
 10
1215.5631
 20
-169.117
 10
1215.2963
 20
-169.2663
 10
1215.0316
 20
-169.4248
 10
1214.769
 20
-169.5925
 10
1214.5083
 20
-169.7694
 10
1214.2498
 20
-169.9556
 10
1213.9932
 20
-170.1513
 10
1213.7386
 20
-170.3563
 10
1213.7386
 20
-182.1313
 10
1210.7128
 20
-182.1313
 10
1210.7128
 20
-166.3511
 10
1213.7386
 20
-166.3511
 10
1213.7386
 20
-168.1077
 10
1214.0373
 20
-167.8545
 10
1214.3346
 20
-167.6158
 10
1214.6307
 20
-167.3917
 10
1214.9258
 20
-167.1821
 10
1215.22
 20
-166.9873
 10
1215.5135
 20
-166.8073
 10
1215.8063
 20
-166.6423
 10
1216.0987
 20
-166.4922
 10
1216.395
 20
-166.3579
 10
1216.6982
 20
-166.2414
 10
1217.0085
 20
-166.1426
 10
1217.326
 20
-166.0617
 10
1217.6507
 20
-165.9986
 10
1217.9828
 20
-165.9535
 10
1218.3224
 20
-165.9264
 10
1218.6696
 20
-165.9174
 10
1219.0605
 20
-165.9274
 10
1219.441
 20
-165.9573
 10
1219.8108
 20
-166.0072
 10
1220.1699
 20
-166.077
 10
1220.518
 20
-166.1667
 10
1220.855
 20
-166.2762
 10
1221.1807
 20
-166.4057
 10
1221.495
 20
-166.555
 10
1221.792
 20
-166.7269
 10
1222.0713
 20
-166.9241
 10
1222.3325
 20
-167.1468
 10
1222.5757
 20
-167.395
 10
1222.8005
 20
-167.6687
 10
1223.0068
 20
-167.9681
 10
1223.1946
 20
-168.2933
 10
1223.3635
 20
-168.6442
 10
1223.7061
 20
-168.3192
 10
1224.0463
 20
-168.0143
 10
1224.3841
 20
-167.7296
 10
1224.7196
 20
-167.4653
 10
1225.0527
 20
-167.2212
 10
1225.3837
 20
-166.9976
 10
1225.7124
 20
-166.7944
 10
1226.039
 20
-166.6117
 10
1226.3692
 20
-166.449
 10
1226.7061
 20
-166.3079
 10
1227.05
 20
-166.1886
 10
1227.4007
 20
-166.091
 10
1227.7585
 20
-166.015
 10
1228.1234
 20
-165.9608
 10
1228.4955
 20
-165.9282
 10
1228.8749
 20
-165.9174
 10
1229.1612
 20
-165.9224
 10
1229.4409
 20
-165.9372
 10
1229.7141
 20
-165.9621
 10
1229.9808
 20
-165.9969
 10
1230.241
 20
-166.0417
 10
1230.4946
 20
-166.0965
 10
1230.7417
 20
-166.1613
 10
1230.9822
 20
-166.2362
 10
1231.2151
 20
-166.3215
 10
1231.4407
 20
-166.4188
 10
1231.6589
 20
-166.5281
 10
1231.8696
 20
-166.6496
 10
1232.0729
 20
-166.7834
 10
1232.2688
 20
-166.9294
 10
1232.4571
 20
-167.0878
 10
1232.638
 20
-167.2586
 10
1232.8144
 20
-167.4449
 10
1232.9803
 20
-167.6416
 10
1233.1357
 20
-167.8491
 10
1233.2806
 20
-168.0675
 10
1233.4151
 20
-168.297
 10
1233.5394
 20
-168.5377
 10
1233.6533
 20
-168.7898
 10
1233.7571
 20
-169.0535
 10
1233.8497
 20
-169.33
 10
1233.9302
 20
-169.6237
 10
1233.9985
 20
-169.9348
 10
1234.0545
 20
-170.2632
 10
1234.0982
 20
-170.6091
 10
1234.1294
 20
-170.9723
 10
1234.1482
 20
-171.353
 10
1234.1545
 20
-171.7512
 10
1234.1545
 20
-182.1313
 10
1231.1234
 20
-182.1313
  0
LWPOLYLINE
  5
7C
330
1F
100
AcDbEntity
  8
Layer 1
 62
     7
370
    18
100
AcDbPolyline
 90
        2
 70
     0
 43
0.0
 10
549.4839
 20
186.1837
 10
637.8822
 20
186.1837
  0
LWPOLYLINE
  5
7D
330
1F
100
AcDbEntity
  8
Layer 1
 62
     7
370
    18
100
AcDbPolyline
 90
        2
 70
     0
 43
0.0
 10
549.4839
 20
-124.613
 10
637.8822
 20
-124.613
  0
LWPOLYLINE
  5
7E
330
1F
100
AcDbEntity
  8
Layer 1
 62
     7
370
    18
100
AcDbPolyline
 90
       37
 70
     1
 43
0.0
 10
626.9815
 20
186.1868
 10
1315.8701
 20
186.1868
 10
1318.3585
 20
185.9645
 10
1320.6798
 20
185.3275
 10
1322.7832
 20
184.3202
 10
1324.618
 20
182.9874
 10
1326.1335
 20
181.3737
 10
1327.2788
 20
179.5237
 10
1328.0032
 20
177.4819
 10
1328.2559
 20
175.2931
 10
1328.2559
 20
-113.7224
 10
1328.0032
 20
-115.9108
 10
1327.2788
 20
-117.9523
 10
1326.1335
 20
-119.8024
 10
1324.618
 20
-121.4162
 10
1322.7832
 20
-122.7491
 10
1320.6798
 20
-123.7566
 10
1318.3585
 20
-124.3938
 10
1315.8701
 20
-124.6161
 10
626.9815
 20
-124.6161
 10
624.4931
 20
-124.3938
 10
622.1718
 20
-123.7566
 10
620.0683
 20
-122.7491
 10
618.2335
 20
-121.4162
 10
616.718
 20
-119.8024
 10
615.5727
 20
-117.9523
 10
614.8483
 20
-115.9108
 10
614.5956
 20
-113.7224
 10
614.5956
 20
175.2931
 10
614.8483
 20
177.4819
 10
615.5727
 20
179.5237
 10
616.718
 20
181.3737
 10
618.2335
 20
182.9874
 10
620.0683
 20
184.3202
 10
622.1718
 20
185.3275
 10
624.4931
 20
185.9645
 10
626.9815
 20
186.1868
  0
LWPOLYLINE
  5
7F
330
1F
100
AcDbEntity
  8
Layer 1
 62
     7
370
    18
100
AcDbPolyline
 90
        2
 70
     0
 43
0.0
 10
559.1279
 20
-124.7341
 10
559.1279
 20
186.1852
  0
LWPOLYLINE
  5
80
330
1F
100
AcDbEntity
  8
Layer 1
 62
     7
100
AcDbPolyline
 90
       12
 70
     1
 43
0.0
 10
539.7875
 20
-1.6211
 10
539.7875
 20
-4.1104
 10
548.018
 20
-4.1104
 10
548.018
 20
-6.8326
 10
539.7875
 20
-6.8326
 10
539.7875
 20
-16.126
 10
536.4131
 20
-16.126
 10
524.083
 20
-6.7161
 10
524.083
 20
-4.1104
 10
537.2201
 20
-4.1104
 10
537.2201
 20
-1.6211
 10
539.7875
 20
-1.6211
  0
LWPOLYLINE
  5
81
330
1F
100
AcDbEntity
  8
Layer 1
 62
     7
100
AcDbPolyline
 90
        4
 70
     1
 43
0.0
 10
537.2201
 20
-6.8326
 10
527.8845
 20
-6.8326
 10
537.2201
 20
-13.9111
 10
537.2201
 20
-6.8326
  0
LWPOLYLINE
  5
82
330
1F
100
AcDbEntity
  8
Layer 1
 62
     7
100
AcDbPolyline
 90
      185
 70
     1
 43
0.0
 10
540.239
 20
13.9797
 10
540.6968
 20
13.9713
 10
541.146
 20
13.9461
 10
541.5864
 20
13.9041
 10
542.0179
 20
13.8454
 10
542.4403
 20
13.7699
 10
542.8536
 20
13.6778
 10
543.2574
 20
13.5689
 10
543.6518
 20
13.4433
 10
544.0345
 20
13.3022
 10
544.4009
 20
13.1502
 10
544.7509
 20
12.9872
 10
545.0848
 20
12.8129
 10
545.4023
 20
12.6273
 10
545.7036
 20
12.4302
 10
545.9887
 20
12.2214
 10
546.2576
 20
12.0009
 10
546.5264
 20
11.7604
 10
546.7786
 20
11.5127
 10
547.0141
 20
11.2578
 10
547.233
 20
10.9958
 10
547.4354
 20
10.7267
 10
547.6212
 20
10.4507
 10
547.7904
 20
10.1678
 10
547.9431
 20
9.878
 10
548.0762
 20
9.581
 10
548.1917
 20
9.2762
 10
548.2896
 20
8.9637
 10
548.3699
 20
8.6435
 10
548.4324
 20
8.3156
 10
548.4771
 20
7.98
 10
548.504
 20
7.6368
 10
548.513
 20
7.286
 10
548.5045
 20
6.9337
 10
548.479
 20
6.5896
 10
548.4363
 20
6.2534
 10
548.3766
 20
5.9253
 10
548.2997
 20
5.605
 10
548.2056
 20
5.2926
 10
548.0943
 20
4.988
 10
547.9657
 20
4.691
 10
547.8213
 20
4.4039
 10
547.6599
 20
4.1254
 10
547.4818
 20
3.8555
 10
547.2868
 20
3.5943
 10
547.0752
 20
3.3416
 10
546.847
 20
3.0976
 10
546.6023
 20
2.8623
 10
546.3412
 20
2.6355
 10
546.0016
 20
2.3696
 10
545.6351
 20
2.1191
 10
545.2415
 20
1.8839
 10
544.8207
 20
1.6637
 10
544.3725
 20
1.4585
 10
543.8968
 20
1.268
 10
543.3934
 20
1.0923
 10
542.8622
 20
0.931
 10
542.301
 20
0.7869
 10
541.709
 20
0.6618
 10
541.0859
 20
0.5557
 10
540.4316
 20
0.4687
 10
539.7459
 20
0.4008
 10
539.0287
 20
0.3523
 10
538.2798
 20
0.3231
 10
537.499
 20
0.3133
 10
536.729
 20
0.3221
 10
535.9773
 20
0.3486
 10
535.2442
 20
0.3928
 10
534.53
 20
0.4547
 10
533.8348
 20
0.5342
 10
533.1588
 20
0.6314
 10
532.5023
 20
0.7463
 10
531.8656
 20
0.8789
 10
531.2454
 20
1.0295
 10
530.646
 20
1.1995
 10
530.0675
 20
1.3887
 10
529.5095
 20
1.5972
 10
528.9719
 20
1.8247
 10
528.4546
 20
2.0711
 10
527.9574
 20
2.3363
 10
527.4802
 20
2.6202
 10
527.0384
 20
2.917
 10
526.6216
 20
3.2348
 10
526.2298
 20
3.5736
 10
525.8629
 20
3.9332
 10
525.5209
 20
4.3136
 10
525.2038
 20
4.7147
 10
524.9116
 20
5.1363
 10
524.6443
 20
5.5785
 10
524.4047
 20
6.0397
 10
524.1972
 20
6.5186
 10
524.0216
 20
7.0154
 10
523.878
 20
7.5299
 10
523.7664
 20
8.0624
 10
523.6867
 20
8.6128
 10
523.6388
 20
9.1811
 10
523.6229
 20
9.7676
 10
523.6278
 20
10.1127
 10
523.6427
 20
10.4466
 10
523.6677
 20
10.7691
 10
523.7031
 20
11.0797
 10
523.7508
 20
11.375
 10
523.8088
 20
11.6533
 10
523.8788
 20
11.9139
 10
523.9628
 20
12.1557
 10
527.0479
 20
12.1557
 10
527.0479
 20
12.03
 10
526.9863
 20
11.9288
 10
526.9258
 20
11.8173
 10
526.8664
 20
11.6954
 10
526.8082
 20
11.5631
 10
526.6959
 20
11.2672
 10
526.5895
 20
10.9295
 10
526.5418
 20
10.7471
 10
526.5005
 20
10.562
 10
526.4658
 20
10.3742
 10
526.4374
 20
10.1836
 10
526.4154
 20
9.9899
 10
526.3998
 20
9.7933
 10
526.3904
 20
9.5935
 10
526.3873
 20
9.3905
 10
526.4188
 20
8.7494
 10
526.5131
 20
8.14
 10
526.6704
 20
7.5623
 10
526.8906
 20
7.0164
 10
527.1737
 20
6.5021
 10
527.5197
 20
6.0196
 10
527.9286
 20
5.5686
 10
528.4005
 20
5.1493
 10
528.9359
 20
4.7663
 10
529.5318
 20
4.4245
 10
530.1882
 20
4.1238
 10
530.9054
 20
3.8642
 10
531.6834
 20
3.6458
 10
532.5225
 20
3.4686
 10
533.4227
 20
3.3327
 10
534.3842
 20
3.2379
 10
534.1876
 20
3.489
 10
534.003
 20
3.7421
 10
533.8304
 20
3.9972
 10
533.6696
 20
4.2541
 10
533.5205
 20
4.5128
 10
533.3832
 20
4.773
 10
533.2574
 20
5.0348
 10
533.1432
 20
5.298
 10
533.0406
 20
5.5655
 10
532.9521
 20
5.8394
 10
532.8777
 20
6.1196
 10
532.8173
 20
6.4062
 10
532.7705
 20
6.699
 10
532.7373
 20
6.9982
 10
532.7175
 20
7.3037
 10
532.7109
 20
7.6155
 10
532.7152
 20
7.9168
 10
532.7282
 20
8.2089
 10
532.7499
 20
8.4919
 10
532.7802
 20
8.7657
 10
532.8192
 20
9.0302
 10
532.8668
 20
9.2854
 10
532.9231
 20
9.5312
 10
532.9881
 20
9.7676
 10
533.0686
 20
9.9986
 10
533.1664
 20
10.2327
 10
533.2816
 20
10.4697
 10
533.4144
 20
10.7095
 10
533.565
 20
10.9519
 10
533.7334
 20
11.1967
 10
533.9199
 20
11.4437
 10
534.1245
 20
11.6928
 10
534.382
 20
11.9727
 10
534.6564
 20
12.2342
 10
534.9474
 20
12.4773
 10
535.2551
 20
12.702
 10
535.5791
 20
12.9081
 10
535.9194
 20
13.0958
 10
536.2759
 20
13.265
 10
536.6484
 20
13.4157
 10
537.0397
 20
13.5477
 10
537.4474
 20
13.6622
 10
537.8716
 20
13.7592
 10
538.3123
 20
13.8385
 10
538.7694
 20
13.9003
 10
539.2429
 20
13.9444
 10
539.7328
 20
13.9709
 10
540.239
 20
13.9797
  0
LWPOLYLINE
  5
83
330
1F
100
AcDbEntity
  8
Layer 1
 62
     7
100
AcDbPolyline
 90
       97
 70
     1
 43
0.0
 10
540.3645
 20
11.1134
 10
540.0041
 20
11.1082
 10
539.6588
 20
11.0926
 10
539.3285
 20
11.0665
 10
539.0132
 20
11.0299
 10
538.7127
 20
10.9826
 10
538.4271
 20
10.9246
 10
538.1561
 20
10.8558
 10
537.8998
 20
10.7762
 10
537.6576
 20
10.6845
 10
537.424
 20
10.5797
 10
537.199
 20
10.4616
 10
536.9826
 20
10.3305
 10
536.7748
 20
10.1863
 10
536.5758
 20
10.0291
 10
536.3854
 20
9.8588
 10
536.2039
 20
9.6756
 10
536.0821
 20
9.5357
 10
535.9714
 20
9.391
 10
535.8718
 20
9.2413
 10
535.7832
 20
9.087
 10
535.7054
 20
8.9281
 10
535.6384
 20
8.7647
 10
535.5821
 20
8.597
 10
535.5363
 20
8.4249
 10
535.4674
 20
8.0723
 10
535.4178
 20
7.7158
 10
535.4003
 20
7.5361
 10
535.3878
 20
7.3555
 10
535.3802
 20
7.174
 10
535.3777
 20
6.9917
 10
535.3828
 20
6.7451
 10
535.3981
 20
6.5006
 10
535.4239
 20
6.2582
 10
535.4601
 20
6.0176
 10
535.5069
 20
5.7787
 10
535.5645
 20
5.5415
 10
535.633
 20
5.3056
 10
535.7124
 20
5.0711
 10
535.8012
 20
4.8384
 10
535.8992
 20
4.6071
 10
536.0064
 20
4.3768
 10
536.1231
 20
4.1476
 10
536.2493
 20
3.9192
 10
536.3852
 20
3.6916
 10
536.5309
 20
3.4645
 10
536.6867
 20
3.2379
 10
537.3682
 20
3.195
 10
538.1927
 20
3.1796
 10
538.796
 20
3.1864
 10
539.3694
 20
3.2068
 10
539.9128
 20
3.2407
 10
540.4266
 20
3.288
 10
540.9106
 20
3.3487
 10
541.3651
 20
3.4227
 10
541.7902
 20
3.5099
 10
542.1859
 20
3.6103
 10
542.5536
 20
3.7214
 10
542.8983
 20
3.8386
 10
543.2203
 20
3.9621
 10
543.5193
 20
4.0918
 10
543.7955
 20
4.228
 10
544.0488
 20
4.3706
 10
544.2792
 20
4.5198
 10
544.4867
 20
4.6756
 10
544.6684
 20
4.8283
 10
544.8358
 20
4.9818
 10
544.9889
 20
5.1363
 10
545.1279
 20
5.2918
 10
545.2527
 20
5.4485
 10
545.3634
 20
5.6064
 10
545.4601
 20
5.7657
 10
545.5429
 20
5.9264
 10
545.615
 20
6.0889
 10
545.6771
 20
6.2546
 10
545.7293
 20
6.4235
 10
545.7717
 20
6.5955
 10
545.8045
 20
6.7706
 10
545.8277
 20
6.949
 10
545.8416
 20
7.1305
 10
545.8462
 20
7.3151
 10
545.8246
 20
7.7287
 10
545.7597
 20
8.1224
 10
545.6517
 20
8.496
 10
545.5007
 20
8.8495
 10
545.3066
 20
9.1828
 10
545.0697
 20
9.4961
 10
544.79
 20
9.7891
 10
544.4675
 20
10.0619
 10
544.1027
 20
10.3078
 10
543.6958
 20
10.5211
 10
543.2466
 20
10.7018
 10
542.7552
 20
10.8498
 10
542.2214
 20
10.965
 10
541.6451
 20
11.0474
 10
541.0261
 20
11.0969
 10
540.3645
 20
11.1134
  0
LWPOLYLINE
  5
84
330
1F
100
AcDbEntity
  8
Layer 1
 62
     7
100
AcDbPolyline
 90
       65
 70
     1
 43
0.0
 10
536.0331
 20
29.5514
 10
537.5913
 20
29.5256
 10
539.0424
 20
29.4483
 10
540.3863
 20
29.3195
 10
541.6231
 20
29.1393
 10
542.7528
 20
28.9077
 10
543.7754
 20
28.6248
 10
544.6909
 20
28.2906
 10
545.4994
 20
27.9052
 10
546.2059
 20
27.4652
 10
546.8181
 20
26.9694
 10
547.336
 20
26.4177
 10
547.7598
 20
25.8101
 10
548.0894
 20
25.1465
 10
548.3247
 20
24.4269
 10
548.4659
 20
23.6512
 10
548.513
 20
22.8194
 10
548.465
 20
21.9783
 10
548.3208
 20
21.1954
 10
548.0806
 20
20.4706
 10
547.7443
 20
19.8038
 10
547.312
 20
19.1948
 10
546.7835
 20
18.6435
 10
546.159
 20
18.1498
 10
545.4384
 20
17.7136
 10
544.6206
 20
17.3321
 10
543.7019
 20
17.0017
 10
542.6822
 20
16.7221
 10
541.5615
 20
16.4935
 10
540.3396
 20
16.3157
 10
539.0165
 20
16.1888
 10
537.592
 20
16.1127
 10
536.0662
 20
16.0873
 10
534.5019
 20
16.1131
 10
533.0459
 20
16.1904
 10
531.6983
 20
16.3192
 10
530.4592
 20
16.4995
 10
529.3286
 20
16.7311
 10
528.3068
 20
17.014
 10
527.3937
 20
17.3482
 10
526.5895
 20
17.7336
 10
525.8855
 20
18.1741
 10
525.2756
 20
18.6703
 10
524.7597
 20
19.2222
 10
524.3377
 20
19.8299
 10
524.0096
 20
20.4934
 10
523.7754
 20
21.2128
 10
523.6348
 20
21.9881
 10
523.588
 20
22.8194
 10
523.6367
 20
23.6606
 10
523.7826
 20
24.4436
 10
524.0257
 20
25.1686
 10
524.3658
 20
25.8356
 10
524.8028
 20
26.4446
 10
525.3366
 20
26.9959
 10
525.9671
 20
27.4893
 10
526.6941
 20
27.9251
 10
527.5189
 20
28.3066
 10
528.4415
 20
28.6371
 10
529.4621
 20
28.9166
 10
530.5805
 20
29.1452
 10
531.7968
 20
29.323
 10
533.111
 20
29.4499
 10
534.5231
 20
29.526
 10
536.0331
 20
29.5514
  0
LWPOLYLINE
  5
85
330
1F
100
AcDbEntity
  8
Layer 1
 62
     7
100
AcDbPolyline
 90
      129
 70
     1
 43
0.0
 10
543.3276
 20
25.9325
 10
543.02
 20
26.0316
 10
542.6931
 20
26.1231
 10
542.3468
 20
26.2071
 10
541.9811
 20
26.2837
 10
541.5958
 20
26.3529
 10
541.1907
 20
26.4147
 10
540.7658
 20
26.4692
 10
540.3209
 20
26.5165
 10
539.8577
 20
26.5554
 10
539.374
 20
26.5894
 10
538.8695
 20
26.6184
 10
538.3443
 20
26.6422
 10
537.7982
 20
26.6609
 10
537.231
 20
26.6743
 10
536.6427
 20
26.6824
 10
536.0331
 20
26.6851
 10
535.4304
 20
26.6824
 10
534.8472
 20
26.6743
 10
534.2837
 20
26.6609
 10
533.74
 20
26.6422
 10
533.216
 20
26.6184
 10
532.7121
 20
26.5894
 10
532.2282
 20
26.5554
 10
531.7645
 20
26.5165
 10
531.3194
 20
26.469
 10
530.894
 20
26.4139
 10
530.4882
 20
26.3511
 10
530.1019
 20
26.2807
 10
529.7349
 20
26.2025
 10
529.3872
 20
26.1167
 10
529.0586
 20
26.0231
 10
528.7491
 20
25.9218
 10
528.4515
 20
25.8104
 10
528.173
 20
25.6891
 10
527.9135
 20
25.5578
 10
527.6727
 20
25.4167
 10
527.4506
 20
25.2658
 10
527.247
 20
25.1052
 10
527.0617
 20
24.935
 10
526.8945
 20
24.7553
 10
526.7454
 20
24.5615
 10
526.6159
 20
24.3539
 10
526.506
 20
24.1324
 10
526.4158
 20
23.8972
 10
526.3455
 20
23.6482
 10
526.2952
 20
23.3855
 10
526.2649
 20
23.1092
 10
526.2548
 20
22.8194
 10
526.2649
 20
22.5326
 10
526.2952
 20
22.2586
 10
526.3455
 20
21.9974
 10
526.4158
 20
21.7493
 10
526.506
 20
21.5143
 10
526.6159
 20
21.2926
 10
526.7454
 20
21.0844
 10
526.8945
 20
20.8896
 10
527.0622
 20
20.7044
 10
527.2489
 20
20.5292
 10
527.4547
 20
20.3642
 10
527.6797
 20
20.2094
 10
527.924
 20
20.0648
 10
528.1877
 20
19.9304
 10
528.4708
 20
19.8063
 10
528.7735
 20
19.6925
 10
529.0904
 20
19.5899
 10
529.4266
 20
19.4958
 10
529.7824
 20
19.4103
 10
530.1579
 20
19.3332
 10
530.5531
 20
19.2646
 10
530.9682
 20
19.2043
 10
531.4033
 20
19.1522
 10
531.8586
 20
19.1085
 10
532.3326
 20
19.0728
 10
532.8214
 20
19.0416
 10
533.325
 20
19.015
 10
533.8435
 20
18.9932
 10
534.3767
 20
18.976
 10
534.9249
 20
18.9637
 10
535.4881
 20
18.9562
 10
536.0662
 20
18.9537
 10
536.6791
 20
18.9558
 10
537.2669
 20
18.9621
 10
537.8293
 20
18.9726
 10
538.3663
 20
18.9874
 10
538.878
 20
19.0065
 10
539.3642
 20
19.03
 10
539.8248
 20
19.0578
 10
540.2599
 20
19.0901
 10
540.6744
 20
19.1275
 10
541.0786
 20
19.1754
 10
541.4723
 20
19.2336
 10
541.8554
 20
19.3022
 10
542.2275
 20
19.3811
 10
542.5887
 20
19.4701
 10
542.9385
 20
19.5694
 10
543.277
 20
19.6787
 10
543.5768
 20
19.7855
 10
543.8593
 20
19.9037
 10
544.1241
 20
20.033
 10
544.3714
 20
20.1736
 10
544.6009
 20
20.3253
 10
544.8126
 20
20.4881
 10
545.0064
 20
20.6619
 10
545.1821
 20
20.8467
 10
545.3378
 20
21.0421
 10
545.4727
 20
21.2523
 10
545.5868
 20
21.4773
 10
545.6802
 20
21.7169
 10
545.7528
 20
21.971
 10
545.8047
 20
22.2395
 10
545.8358
 20
22.5224
 10
545.8462
 20
22.8194
 10
545.8362
 20
23.1062
 10
545.8064
 20
23.3803
 10
545.7566
 20
23.6417
 10
545.687
 20
23.8903
 10
545.5975
 20
24.1259
 10
545.4881
 20
24.3487
 10
545.359
 20
24.5585
 10
545.21
 20
24.7553
 10
545.0422
 20
24.9383
 10
544.8551
 20
25.1112
 10
544.6487
 20
25.2741
 10
544.423
 20
25.4267
 10
544.1781
 20
25.5689
 10
543.9139
 20
25.7007
 10
543.6304
 20
25.8219
 10
543.3276
 20
25.9325
  0
LWPOLYLINE
  5
86
330
1F
100
AcDbEntity
  8
Layer 1
 62
     7
100
AcDbPolyline
 90
      190
 70
     1
 43
0.0
 10
548.018
 20
50.5661
 10
537.6367
 20
50.5661
 10
537.3305
 20
50.5647
 10
537.0303
 20
50.5606
 10
536.7359
 20
50.5538
 10
536.4473
 20
50.5443
 10
536.1643
 20
50.532
 10
535.8868
 20
50.517
 10
535.6148
 20
50.4993
 10
535.3481
 20
50.4788
 10
535.0919
 20
50.456
 10
534.85
 20
50.427
 10
534.6223
 20
50.3916
 10
534.4088
 20
50.3502
 10
534.2095
 20
50.3029
 10
534.0242
 20
50.2497
 10
533.853
 20
50.1907
 10
533.6957
 20
50.1262
 10
533.5414
 20
50.0521
 10
533.3974
 20
49.9703
 10
533.2638
 20
49.8807
 10
533.1408
 20
49.7836
 10
533.0282
 20
49.679
 10
532.9263
 20
49.5671
 10
532.835
 20
49.4479
 10
532.7545
 20
49.3215
 10
532.6828
 20
49.1852
 10
532.6205
 20
49.0371
 10
532.5678
 20
48.8774
 10
532.5246
 20
48.7061
 10
532.491
 20
48.5233
 10
532.467
 20
48.3291
 10
532.4525
 20
48.1235
 10
532.4477
 20
47.9067
 10
532.4567
 20
47.6988
 10
532.4836
 20
47.4876
 10
532.5285
 20
47.273
 10
532.5913
 20
47.0549
 10
532.672
 20
46.8332
 10
532.7706
 20
46.6078
 10
532.887
 20
46.3786
 10
533.0212
 20
46.1455
 10
533.1713
 20
45.9093
 10
533.3381
 20
45.6708
 10
533.5212
 20
45.4301
 10
533.7208
 20
45.1873
 10
533.9366
 20
44.9425
 10
534.1685
 20
44.6955
 10
534.4165
 20
44.4466
 10
534.6805
 20
44.1958
 10
535.3272
 20
44.2341
 10
536.2213
 20
44.2541
 10
548.018
 20
44.2541
 10
548.018
 20
41.5901
 10
537.6367
 20
41.5901
 10
537.3305
 20
41.5887
 10
537.0303
 20
41.5847
 10
536.7359
 20
41.5779
 10
536.4473
 20
41.5684
 10
536.1643
 20
41.5563
 10
535.8868
 20
41.5415
 10
535.6148
 20
41.5242
 10
535.3481
 20
41.5042
 10
535.0919
 20
41.481
 10
534.85
 20
41.4515
 10
534.6223
 20
41.416
 10
534.4088
 20
41.3745
 10
534.2095
 20
41.3272
 10
534.0242
 20
41.2743
 10
533.853
 20
41.2157
 10
533.6957
 20
41.1517
 10
533.5414
 20
41.0772
 10
533.3974
 20
40.9951
 10
533.2638
 20
40.9055
 10
533.1408
 20
40.8083
 10
533.0282
 20
40.7037
 10
532.9263
 20
40.5917
 10
532.835
 20
40.4722
 10
532.7545
 20
40.3454
 10
532.6828
 20
40.2091
 10
532.6205
 20
40.0612
 10
532.5678
 20
39.9018
 10
532.5246
 20
39.7308
 10
532.491
 20
39.5483
 10
532.467
 20
39.3543
 10
532.4525
 20
39.149
 10
532.4477
 20
38.9322
 10
532.4572
 20
38.7138
 10
532.4857
 20
38.493
 10
532.5333
 20
38.2699
 10
532.6
 20
38.0443
 10
532.6859
 20
37.8164
 10
532.7911
 20
37.5859
 10
532.9156
 20
37.3529
 10
533.0595
 20
37.1174
 10
533.2189
 20
36.8814
 10
533.3887
 20
36.6472
 10
533.569
 20
36.4146
 10
533.7598
 20
36.1839
 10
533.9612
 20
35.9548
 10
534.1733
 20
35.7275
 10
534.3962
 20
35.5019
 10
534.63
 20
35.278
 10
548.018
 20
35.278
 10
548.018
 20
32.6155
 10
530.0755
 20
32.6155
 10
530.0755
 20
35.278
 10
532.0712
 20
35.278
 10
531.7834
 20
35.5402
 10
531.5121
 20
35.8014
 10
531.2575
 20
36.0618
 10
531.0196
 20
36.3214
 10
530.7983
 20
36.5803
 10
530.5939
 20
36.8386
 10
530.4064
 20
37.0962
 10
530.2358
 20
37.3534
 10
530.0831
 20
37.6135
 10
529.9506
 20
37.88
 10
529.8383
 20
38.1528
 10
529.7463
 20
38.4319
 10
529.6746
 20
38.7175
 10
529.6233
 20
39.0095
 10
529.5925
 20
39.3079
 10
529.5822
 20
39.6127
 10
529.5936
 20
39.9569
 10
529.6276
 20
40.2917
 10
529.6843
 20
40.617
 10
529.7637
 20
40.9327
 10
529.8657
 20
41.2386
 10
529.9903
 20
41.5348
 10
530.1375
 20
41.8211
 10
530.3073
 20
42.0974
 10
530.5027
 20
42.3591
 10
530.7268
 20
42.6049
 10
530.9797
 20
42.8347
 10
531.2616
 20
43.0485
 10
531.5726
 20
43.2462
 10
531.9128
 20
43.4278
 10
532.2823
 20
43.5931
 10
532.6813
 20
43.7421
 10
532.3122
 20
44.0433
 10
531.9658
 20
44.3423
 10
531.6422
 20
44.6391
 10
531.3416
 20
44.9339
 10
531.0641
 20
45.2266
 10
530.8099
 20
45.5174
 10
530.5791
 20
45.8063
 10
530.3718
 20
46.0934
 10
530.1867
 20
46.3838
 10
530.0264
 20
46.6803
 10
529.8906
 20
46.9828
 10
529.7796
 20
47.2915
 10
529.6932
 20
47.6062
 10
529.6316
 20
47.9271
 10
529.5945
 20
48.2541
 10
529.5822
 20
48.5873
 10
529.5878
 20
48.8396
 10
529.6045
 20
49.086
 10
529.6325
 20
49.3264
 10
529.6717
 20
49.561
 10
529.7224
 20
49.7897
 10
529.7844
 20
50.0125
 10
529.8579
 20
50.2294
 10
529.943
 20
50.4404
 10
530.0401
 20
50.6453
 10
530.1509
 20
50.8439
 10
530.2756
 20
51.036
 10
530.4141
 20
51.2216
 10
530.5665
 20
51.4007
 10
530.7328
 20
51.5732
 10
530.9131
 20
51.739
 10
531.1074
 20
51.8981
 10
531.3192
 20
52.0528
 10
531.5429
 20
52.1984
 10
531.7788
 20
52.335
 10
532.027
 20
52.4626
 10
532.2877
 20
52.581
 10
532.5611
 20
52.6905
 10
532.8474
 20
52.7909
 10
533.1467
 20
52.8822
 10
533.4611
 20
52.9636
 10
533.7951
 20
53.0342
 10
534.1489
 20
53.094
 10
534.5223
 20
53.143
 10
534.9156
 20
53.1811
 10
535.3287
 20
53.2083
 10
535.7616
 20
53.2246
 10
536.2144
 20
53.2301
 10
548.018
 20
53.2301
 10
548.018
 20
50.5661
  0
LWPOLYLINE
  5
87
330
1F
100
AcDbEntity
  8
Layer 1
 62
     7
100
AcDbPolyline
 90
      190
 70
     1
 43
0.0
 10
548.018
 20
74.8825
 10
537.6367
 20
74.8825
 10
537.3305
 20
74.8811
 10
537.0303
 20
74.877
 10
536.7359
 20
74.8702
 10
536.4473
 20
74.8607
 10
536.1643
 20
74.8484
 10
535.8868
 20
74.8334
 10
535.6148
 20
74.8156
 10
535.3481
 20
74.7951
 10
535.0919
 20
74.7723
 10
534.85
 20
74.7433
 10
534.6223
 20
74.7079
 10
534.4088
 20
74.6666
 10
534.2095
 20
74.6192
 10
534.0242
 20
74.566
 10
533.853
 20
74.5071
 10
533.6957
 20
74.4426
 10
533.5414
 20
74.3685
 10
533.3974
 20
74.2867
 10
533.2638
 20
74.1971
 10
533.1408
 20
74.1
 10
533.0282
 20
73.9954
 10
532.9263
 20
73.8834
 10
532.835
 20
73.7642
 10
532.7545
 20
73.6378
 10
532.6828
 20
73.5015
 10
532.6205
 20
73.3534
 10
532.5678
 20
73.1937
 10
532.5246
 20
73.0224
 10
532.491
 20
72.8397
 10
532.467
 20
72.6455
 10
532.4525
 20
72.4399
 10
532.4477
 20
72.2231
 10
532.4567
 20
72.0151
 10
532.4836
 20
71.8039
 10
532.5285
 20
71.5893
 10
532.5913
 20
71.3712
 10
532.672
 20
71.1495
 10
532.7706
 20
70.9242
 10
532.887
 20
70.695
 10
533.0212
 20
70.4619
 10
533.1713
 20
70.2257
 10
533.3381
 20
69.9872
 10
533.5212
 20
69.7465
 10
533.7208
 20
69.5037
 10
533.9366
 20
69.2588
 10
534.1685
 20
69.0119
 10
534.4165
 20
68.763
 10
534.6805
 20
68.5122
 10
535.3272
 20
68.5505
 10
536.2213
 20
68.5704
 10
548.018
 20
68.5704
 10
548.018
 20
65.9064
 10
537.6367
 20
65.9064
 10
537.3305
 20
65.905
 10
537.0303
 20
65.901
 10
536.7359
 20
65.8942
 10
536.4473
 20
65.8848
 10
536.1643
 20
65.8727
 10
535.8868
 20
65.8579
 10
535.6148
 20
65.8406
 10
535.3481
 20
65.8206
 10
535.0919
 20
65.7973
 10
534.85
 20
65.7679
 10
534.6223
 20
65.7323
 10
534.4088
 20
65.6908
 10
534.2095
 20
65.6435
 10
534.0242
 20
65.5906
 10
533.853
 20
65.532
 10
533.6957
 20
65.468
 10
533.5414
 20
65.3935
 10
533.3974
 20
65.3114
 10
533.2638
 20
65.2218
 10
533.1408
 20
65.1247
 10
533.0282
 20
65.0201
 10
532.9263
 20
64.908
 10
532.835
 20
64.7886
 10
532.7545
 20
64.6618
 10
532.6828
 20
64.5255
 10
532.6205
 20
64.3776
 10
532.5678
 20
64.2181
 10
532.5246
 20
64.0471
 10
532.491
 20
63.8646
 10
532.467
 20
63.6706
 10
532.4525
 20
63.4653
 10
532.4477
 20
63.2485
 10
532.4572
 20
63.0301
 10
532.4857
 20
62.8093
 10
532.5333
 20
62.5862
 10
532.6
 20
62.3606
 10
532.6859
 20
62.1327
 10
532.7911
 20
61.9022
 10
532.9156
 20
61.6692
 10
533.0595
 20
61.4337
 10
533.2189
 20
61.1977
 10
533.3887
 20
60.9635
 10
533.569
 20
60.731
 10
533.7598
 20
60.5002
 10
533.9612
 20
60.2712
 10
534.1733
 20
60.0438
 10
534.3962
 20
59.8182
 10
534.63
 20
59.5943
 10
548.018
 20
59.5943
 10
548.018
 20
56.9319
 10
530.0755
 20
56.9319
 10
530.0755
 20
59.5943
 10
532.0712
 20
59.5943
 10
531.7834
 20
59.8565
 10
531.5121
 20
60.1178
 10
531.2575
 20
60.3782
 10
531.0196
 20
60.6378
 10
530.7983
 20
60.8967
 10
530.5939
 20
61.1549
 10
530.4064
 20
61.4126
 10
530.2358
 20
61.6697
 10
530.0831
 20
61.9298
 10
529.9506
 20
62.1963
 10
529.8383
 20
62.4691
 10
529.7463
 20
62.7483
 10
529.6746
 20
63.0338
 10
529.6233
 20
63.3258
 10
529.5925
 20
63.6242
 10
529.5822
 20
63.9291
 10
529.5936
 20
64.2733
 10
529.6276
 20
64.6081
 10
529.6843
 20
64.9334
 10
529.7637
 20
65.249
 10
529.8657
 20
65.555
 10
529.9903
 20
65.8512
 10
530.1375
 20
66.1375
 10
530.3073
 20
66.4138
 10
530.5027
 20
66.6754
 10
530.7268
 20
66.9212
 10
530.9797
 20
67.151
 10
531.2616
 20
67.3649
 10
531.5726
 20
67.5626
 10
531.9128
 20
67.7441
 10
532.2823
 20
67.9095
 10
532.6813
 20
68.0585
 10
532.3122
 20
68.3597
 10
531.9658
 20
68.6587
 10
531.6422
 20
68.9555
 10
531.3416
 20
69.2502
 10
531.0641
 20
69.5429
 10
530.8099
 20
69.8337
 10
530.5791
 20
70.1227
 10
530.3718
 20
70.4098
 10
530.1867
 20
70.7002
 10
530.0264
 20
70.9967
 10
529.8906
 20
71.2992
 10
529.7796
 20
71.6078
 10
529.6932
 20
71.9226
 10
529.6316
 20
72.2434
 10
529.5945
 20
72.5704
 10
529.5822
 20
72.9036
 10
529.5878
 20
73.1559
 10
529.6045
 20
73.4023
 10
529.6325
 20
73.6427
 10
529.6717
 20
73.8773
 10
529.7224
 20
74.106
 10
529.7844
 20
74.3288
 10
529.8579
 20
74.5458
 10
529.943
 20
74.7568
 10
530.0401
 20
74.9617
 10
530.1509
 20
75.1602
 10
530.2756
 20
75.3523
 10
530.4141
 20
75.538
 10
530.5665
 20
75.717
 10
530.7328
 20
75.8895
 10
530.9131
 20
76.0554
 10
531.1074
 20
76.2145
 10
531.3192
 20
76.3692
 10
531.5429
 20
76.5148
 10
531.7788
 20
76.6514
 10
532.027
 20
76.779
 10
532.2877
 20
76.8974
 10
532.5611
 20
77.0068
 10
532.8474
 20
77.1072
 10
533.1467
 20
77.1985
 10
533.4611
 20
77.2799
 10
533.7951
 20
77.3505
 10
534.1489
 20
77.4103
 10
534.5223
 20
77.4593
 10
534.9156
 20
77.4974
 10
535.3287
 20
77.5247
 10
535.7616
 20
77.541
 10
536.2144
 20
77.5465
 10
548.018
 20
77.5465
 10
548.018
 20
74.8825
  0
LWPOLYLINE
  5
88
330
1F
100
AcDbEntity
  8
Layer 1
 62
     7
370
    18
100
AcDbPolyline
 90
        2
 70
     0
 43
0.0
 10
580.1695
 20
-101.1918
 10
668.5679
 20
-101.1918
  0
LWPOLYLINE
  5
89
330
1F
100
AcDbEntity
  8
Layer 1
 62
     7
370
    18
100
AcDbPolyline
 90
        2
 70
     0
 43
0.0
 10
580.1695
 20
163.4906
 10
668.5679
 20
163.4906
  0
LWPOLYLINE
  5
8A
330
1F
100
AcDbEntity
  8
Layer 1
 62
     7
370
    18
100
AcDbPolyline
 90
        2
 70
     0
 43
0.0
 10
599.7261
 20
-101.552
 10
599.7261
 20
163.0047
  0
LWPOLYLINE
  5
8B
330
1F
100
AcDbEntity
  8
Layer 1
 62
     7
100
AcDbPolyline
 90
      292
 70
     1
 43
0.0
 10
572.2022
 20
-5.7121
 10
572.2051
 20
-5.8823
 10
572.2139
 20
-6.0527
 10
572.2286
 20
-6.2233
 10
572.2491
 20
-6.3941
 10
572.2753
 20
-6.565
 10
572.3074
 20
-6.7362
 10
572.3452
 20
-6.9077
 10
572.3887
 20
-7.0794
 10
572.4914
 20
-7.4198
 10
572.6084
 20
-7.7577
 10
572.7398
 20
-8.092
 10
572.8855
 20
-8.4221
 10
573.032
 20
-8.7178
 10
573.1833
 20
-8.9933
 10
573.3382
 20
-9.2483
 10
573.4955
 20
-9.4828
 10
574.0934
 20
-10.2891
 10
574.0934
 20
-10.4393
 10
571.0501
 20
-10.4393
 10
570.9248
 20
-10.2241
 10
570.8025
 20
-9.9903
 10
570.6831
 20
-9.7378
 10
570.5669
 20
-9.4669
 10
570.4537
 20
-9.1777
 10
570.3437
 20
-8.8703
 10
570.2369
 20
-8.5448
 10
570.1333
 20
-8.2014
 10
570.037
 20
-7.8494
 10
569.9536
 20
-7.5016
 10
569.8829
 20
-7.158
 10
569.825
 20
-6.8187
 10
569.7799
 20
-6.4835
 10
569.7477
 20
-6.1526
 10
569.7284
 20
-5.826
 10
569.7219
 20
-5.5037
 10
569.7264
 20
-5.1876
 10
569.74
 20
-4.8819
 10
569.7627
 20
-4.5866
 10
569.7947
 20
-4.3014
 10
569.836
 20
-4.0264
 10
569.8866
 20
-3.7614
 10
569.9468
 20
-3.5064
 10
570.0165
 20
-3.2612
 10
570.0954
 20
-3.0253
 10
570.1843
 20
-2.7946
 10
570.2833
 20
-2.5694
 10
570.3926
 20
-2.3498
 10
570.5121
 20
-2.1358
 10
570.642
 20
-1.9276
 10
570.7824
 20
-1.7253
 10
570.9333
 20
-1.5291
 10
571.1087
 20
-1.3263
 10
571.2937
 20
-1.1363
 10
571.4881
 20
-0.959
 10
571.6919
 20
-0.7946
 10
571.9051
 20
-0.6429
 10
572.1275
 20
-0.504
 10
572.359
 20
-0.3779
 10
572.5996
 20
-0.2646
 10
572.8505
 20
-0.1654
 10
573.1117
 20
-0.0792
 10
573.383
 20
-0.0063
 10
573.6644
 20
0.0535
 10
573.9559
 20
0.1
 10
574.2573
 20
0.1333
 10
574.5687
 20
0.1533
 10
574.8899
 20
0.16
 10
575.3264
 20
0.144
 10
575.7494
 20
0.0958
 10
576.1589
 20
0.0155
 10
576.5549
 20
-0.0971
 10
576.9374
 20
-0.2421
 10
577.3062
 20
-0.4194
 10
577.6615
 20
-0.6292
 10
578.003
 20
-0.8716
 10
578.3229
 20
-1.1345
 10
578.6122
 20
-1.4104
 10
578.8708
 20
-1.6992
 10
579.0989
 20
-2.0009
 10
579.2964
 20
-2.3153
 10
579.4633
 20
-2.6425
 10
579.5998
 20
-2.9824
 10
579.7059
 20
-3.3348
 10
579.9063
 20
-3.3348
 10
579.941
 20
-3.1841
 10
579.9822
 20
-3.0309
 10
580.0298
 20
-2.8753
 10
580.0835
 20
-2.7171
 10
580.2085
 20
-2.3929
 10
580.356
 20
-2.058
 10
580.4403
 20
-1.8904
 10
580.5337
 20
-1.7257
 10
580.6363
 20
-1.5639
 10
580.7482
 20
-1.405
 10
580.8696
 20
-1.2489
 10
581.0007
 20
-1.0957
 10
581.1414
 20
-0.9454
 10
581.292
 20
-0.798
 10
581.4525
 20
-0.6549
 10
581.624
 20
-0.5188
 10
581.8067
 20
-0.3896
 10
582.0005
 20
-0.2673
 10
582.2055
 20
-0.1516
 10
582.4215
 20
-0.0427
 10
582.6486
 20
0.0596
 10
582.8869
 20
0.1554
 10
583.1371
 20
0.2421
 10
583.4002
 20
0.317
 10
583.6764
 20
0.3803
 10
583.9658
 20
0.4319
 10
584.2686
 20
0.472
 10
584.585
 20
0.5005
 10
584.9151
 20
0.5176
 10
585.2591
 20
0.5233
 10
585.6195
 20
0.5164
 10
585.9725
 20
0.4958
 10
586.3183
 20
0.4614
 10
586.6568
 20
0.4135
 10
586.988
 20
0.3519
 10
587.3119
 20
0.2769
 10
587.6286
 20
0.1883
 10
587.9381
 20
0.0864
 10
588.2383
 20
-0.0295
 10
588.5297
 20
-0.1565
 10
588.8123
 20
-0.2946
 10
589.0863
 20
-0.4438
 10
589.3516
 20
-0.6041
 10
589.6083
 20
-0.7756
 10
589.8564
 20
-0.9582
 10
590.0959
 20
-1.1521
 10
590.332
 20
-1.3637
 10
590.5538
 20
-1.5858
 10
590.7613
 20
-1.8186
 10
590.9541
 20
-2.0622
 10
591.1322
 20
-2.3164
 10
591.2952
 20
-2.5816
 10
591.4431
 20
-2.8576
 10
591.5757
 20
-3.1447
 10
591.6956
 20
-3.4416
 10
591.7991
 20
-3.7483
 10
591.8864
 20
-4.0647
 10
591.9575
 20
-4.3909
 10
592.0126
 20
-4.7269
 10
592.0518
 20
-5.0726
 10
592.0752
 20
-5.4281
 10
592.083
 20
-5.7934
 10
592.077
 20
-6.1488
 10
592.0591
 20
-6.5033
 10
592.029
 20
-6.8569
 10
591.9869
 20
-7.2097
 10
591.9326
 20
-7.5616
 10
591.866
 20
-7.9127
 10
591.7872
 20
-8.2629
 10
591.696
 20
-8.6122
 10
591.5956
 20
-8.9545
 10
591.4904
 20
-9.2826
 10
591.3803
 20
-9.5965
 10
591.2653
 20
-9.8965
 10
591.1453
 20
-10.1826
 10
591.0203
 20
-10.4549
 10
590.8901
 20
-10.7137
 10
590.7548
 20
-10.9589
 10
587.7132
 20
-10.9589
 10
587.7132
 20
-10.7827
 10
587.8795
 20
-10.5742
 10
588.0438
 20
-10.3487
 10
588.206
 20
-10.1062
 10
588.3665
 20
-9.8467
 10
588.5251
 20
-9.5702
 10
588.6819
 20
-9.2766
 10
588.8372
 20
-8.966
 10
588.9909
 20
-8.6383
 10
589.1353
 20
-8.301
 10
589.26
 20
-7.964
 10
589.3652
 20
-7.6272
 10
589.451
 20
-7.2905
 10
589.5176
 20
-6.9541
 10
589.5649
 20
-6.6177
 10
589.5933
 20
-6.2814
 10
589.6027
 20
-5.9451
 10
589.5983
 20
-5.7518
 10
589.5851
 20
-5.5581
 10
589.5631
 20
-5.364
 10
589.5323
 20
-5.1697
 10
589.4928
 20
-4.9752
 10
589.4445
 20
-4.7805
 10
589.3876
 20
-4.5857
 10
589.322
 20
-4.3909
 10
589.2462
 20
-4.1999
 10
589.1588
 20
-4.0168
 10
589.06
 20
-3.8417
 10
588.9499
 20
-3.6745
 10
588.8287
 20
-3.5155
 10
588.6965
 20
-3.3646
 10
588.5536
 20
-3.2221
 10
588.4
 20
-3.088
 10
588.2397
 20
-2.9654
 10
588.0752
 20
-2.8503
 10
587.9064
 20
-2.7427
 10
587.7333
 20
-2.6427
 10
587.556
 20
-2.5502
 10
587.3745
 20
-2.4651
 10
587.1887
 20
-2.3873
 10
586.9986
 20
-2.317
 10
586.7996
 20
-2.2544
 10
586.5884
 20
-2.2001
 10
586.3647
 20
-2.154
 10
586.1286
 20
-2.1162
 10
585.88
 20
-2.0868
 10
585.6189
 20
-2.0657
 10
585.3451
 20
-2.053
 10
585.0586
 20
-2.0488
 10
584.773
 20
-2.0535
 10
584.5004
 20
-2.0675
 10
584.2409
 20
-2.0908
 10
583.9945
 20
-2.1235
 10
583.7612
 20
-2.1655
 10
583.5409
 20
-2.2169
 10
583.3337
 20
-2.2776
 10
583.1396
 20
-2.3477
 10
582.9551
 20
-2.4261
 10
582.7808
 20
-2.5118
 10
582.6167
 20
-2.605
 10
582.4629
 20
-2.7056
 10
582.3193
 20
-2.8136
 10
582.1861
 20
-2.9292
 10
582.0633
 20
-3.0523
 10
581.9509
 20
-3.183
 10
581.8464
 20
-3.3194
 10
581.75
 20
-3.4618
 10
581.6619
 20
-3.6105
 10
581.5822
 20
-3.7653
 10
581.511
 20
-3.9263
 10
581.4484
 20
-4.0937
 10
581.3945
 20
-4.2675
 10
581.3495
 20
-4.4476
 10
581.3098
 20
-4.6328
 10
581.2756
 20
-4.8218
 10
581.2468
 20
-5.0144
 10
581.2234
 20
-5.2108
 10
581.2053
 20
-5.4107
 10
581.1924
 20
-5.6144
 10
581.1847
 20
-5.8216
 10
581.1822
 20
-6.0325
 10
581.1822
 20
-7.1147
 10
578.7891
 20
-7.1147
 10
578.7891
 20
-6.2747
 10
578.7748
 20
-5.8559
 10
578.7318
 20
-5.4571
 10
578.6602
 20
-5.0783
 10
578.5599
 20
-4.7197
 10
578.4308
 20
-4.3811
 10
578.2729
 20
-4.0627
 10
578.0861
 20
-3.7645
 10
577.8705
 20
-3.4865
 10
577.6266
 20
-3.2352
 10
577.3564
 20
-3.0173
 10
577.06
 20
-2.8326
 10
576.7373
 20
-2.6814
 10
576.3884
 20
-2.5636
 10
576.0133
 20
-2.4794
 10
575.612
 20
-2.4289
 10
575.1845
 20
-2.412
 10
574.9878
 20
-2.4163
 10
574.7977
 20
-2.4291
 10
574.6142
 20
-2.4505
 10
574.4374
 20
-2.4806
 10
574.2674
 20
-2.5195
 10
574.1043
 20
-2.5673
 10
573.9481
 20
-2.6239
 10
573.7988
 20
-2.6895
 10
573.6547
 20
-2.7615
 10
573.5188
 20
-2.8385
 10
573.391
 20
-2.9204
 10
573.2711
 20
-3.007
 10
573.1589
 20
-3.0982
 10
573.0542
 20
-3.1941
 10
572.9567
 20
-3.2945
 10
572.8663
 20
-3.3992
 10
572.7764
 20
-3.5225
 10
572.6935
 20
-3.6486
 10
572.6176
 20
-3.7776
 10
572.5489
 20
-3.9094
 10
572.4873
 20
-4.044
 10
572.4328
 20
-4.1814
 10
572.3854
 20
-4.3216
 10
572.3452
 20
-4.4645
 10
572.2839
 20
-4.7616
 10
572.2391
 20
-5.0688
 10
572.2116
 20
-5.3857
 10
572.2022
 20
-5.7121
  0
LWPOLYLINE
  5
8C
330
1F
100
AcDbEntity
  8
Layer 1
 62
     7
100
AcDbPolyline
 90
       70
 70
     1
 43
0.0
 10
575.1479
 20
12.2875
 10
574.7929
 20
12.2743
 10
574.4534
 20
12.2346
 10
574.1292
 20
12.1684
 10
573.8199
 20
12.0756
 10
573.5255
 20
11.9563
 10
573.2456
 20
11.8103
 10
572.98
 20
11.6377
 10
572.7286
 20
11.4384
 10
572.5017
 20
11.2171
 10
572.3048
 20
10.9751
 10
572.138
 20
10.7123
 10
572.0014
 20
10.4288
 10
571.8949
 20
10.1246
 10
571.8188
 20
9.7995
 10
571.7731
 20
9.4537
 10
571.7578
 20
9.087
 10
571.7715
 20
8.7496
 10
571.8126
 20
8.4281
 10
571.8811
 20
8.1225
 10
571.9768
 20
7.8326
 10
572.0997
 20
7.5583
 10
572.2497
 20
7.2995
 10
572.4268
 20
7.056
 10
572.631
 20
6.8277
 10
572.857
 20
6.6218
 10
573.1023
 20
6.4432
 10
573.3669
 20
6.292
 10
573.6509
 20
6.1682
 10
573.9542
 20
6.0719
 10
574.2769
 20
6.003
 10
574.6191
 20
5.9617
 10
574.9806
 20
5.9479
 10
575.2421
 20
5.955
 10
575.4935
 20
5.9763
 10
575.7347
 20
6.0117
 10
575.9658
 20
6.0611
 10
576.187
 20
6.1246
 10
576.3983
 20
6.202
 10
576.5998
 20
6.2933
 10
576.7916
 20
6.3985
 10
576.9736
 20
6.5177
 10
577.1511
 20
6.6511
 10
577.324
 20
6.7987
 10
577.4925
 20
6.9605
 10
577.6564
 20
7.1364
 10
577.8159
 20
7.3264
 10
577.9709
 20
7.5306
 10
578.1215
 20
7.7489
 10
578.7995
 20
8.9445
 10
579.0055
 20
9.3381
 10
579.1873
 20
9.7138
 10
579.3456
 20
10.0708
 10
579.481
 20
10.4083
 10
579.2381
 20
10.6716
 10
578.9933
 20
10.9129
 10
578.7466
 20
11.1323
 10
578.4982
 20
11.3297
 10
578.2482
 20
11.5051
 10
577.9969
 20
11.6583
 10
577.7442
 20
11.7894
 10
577.4905
 20
11.8982
 10
577.2292
 20
11.9893
 10
576.959
 20
12.0683
 10
576.6799
 20
12.1352
 10
576.3918
 20
12.19
 10
576.0946
 20
12.2326
 10
575.7882
 20
12.2631
 10
575.4727
 20
12.2814
 10
575.1479
 20
12.2875
  0
LWPOLYLINE
  5
8D
330
1F
100
AcDbEntity
  8
Layer 1
 62
     7
100
AcDbPolyline
 90
       70
 70
     1
 43
0.0
 10
585.9302
 20
12.6769
 10
585.6078
 20
12.6698
 10
585.3022
 20
12.6484
 10
585.0134
 20
12.6127
 10
584.7416
 20
12.5627
 10
584.4869
 20
12.4983
 10
584.2494
 20
12.4195
 10
584.0292
 20
12.3262
 10
583.8263
 20
12.2185
 10
583.6311
 20
12.0914
 10
583.435
 20
11.9375
 10
583.238
 20
11.7568
 10
583.04
 20
11.5493
 10
582.8409
 20
11.315
 10
582.6407
 20
11.0539
 10
582.4393
 20
10.766
 10
582.2367
 20
10.4512
 10
582.0975
 20
10.2166
 10
581.9524
 20
9.9469
 10
581.8016
 20
9.6416
 10
581.6458
 20
9.3001
 10
580.8929
 20
7.6753
 10
581.0973
 20
7.4202
 10
581.3132
 20
7.1805
 10
581.5407
 20
6.956
 10
581.7798
 20
6.747
 10
582.0306
 20
6.5534
 10
582.2931
 20
6.3753
 10
582.5675
 20
6.2128
 10
582.8537
 20
6.0659
 10
583.1484
 20
5.9349
 10
583.4534
 20
5.8213
 10
583.7687
 20
5.7252
 10
584.0941
 20
5.6465
 10
584.4298
 20
5.5852
 10
584.7757
 20
5.5414
 10
585.1317
 20
5.5152
 10
585.4979
 20
5.5064
 10
585.9743
 20
5.5226
 10
586.4296
 20
5.5713
 10
586.8638
 20
5.6523
 10
587.2768
 20
5.7656
 10
587.6687
 20
5.9112
 10
588.0394
 20
6.0891
 10
588.3889
 20
6.299
 10
588.7172
 20
6.5411
 10
589.0144
 20
6.809
 10
589.2721
 20
7.0932
 10
589.4902
 20
7.3938
 10
589.6687
 20
7.7108
 10
589.8075
 20
8.0442
 10
589.9067
 20
8.3941
 10
589.9663
 20
8.7606
 10
589.9861
 20
9.1437
 10
589.9691
 20
9.5334
 10
589.9181
 20
9.9036
 10
589.8332
 20
10.2541
 10
589.7142
 20
10.585
 10
589.5613
 20
10.8961
 10
589.3743
 20
11.1876
 10
589.1534
 20
11.4593
 10
588.8985
 20
11.7112
 10
588.6125
 20
11.938
 10
588.3023
 20
12.1343
 10
587.9679
 20
12.3003
 10
587.6091
 20
12.436
 10
587.226
 20
12.5415
 10
586.8185
 20
12.6168
 10
586.3866
 20
12.6619
 10
585.9302
 20
12.6769
  0
LWPOLYLINE
  5
8E
330
1F
100
AcDbEntity
  8
Layer 1
 62
     7
100
AcDbPolyline
 90
      147
 70
     1
 43
0.0
 10
592.1422
 20
9.0916
 10
592.1348
 20
8.7433
 10
592.1127
 20
8.4032
 10
592.0758
 20
8.0711
 10
592.0239
 20
7.747
 10
591.9571
 20
7.4308
 10
591.8753
 20
7.1224
 10
591.7784
 20
6.8217
 10
591.6664
 20
6.5288
 10
591.5414
 20
6.245
 10
591.4031
 20
5.9718
 10
591.2515
 20
5.7094
 10
591.0868
 20
5.4576
 10
590.9091
 20
5.2165
 10
590.7183
 20
4.9861
 10
590.5146
 20
4.7665
 10
590.2981
 20
4.5576
 10
590.0751
 20
4.3642
 10
589.8424
 20
4.1828
 10
589.6001
 20
4.0135
 10
589.348
 20
3.8562
 10
589.086
 20
3.7108
 10
588.814
 20
3.5775
 10
588.5319
 20
3.4561
 10
588.2396
 20
3.3467
 10
587.9384
 20
3.2507
 10
587.6335
 20
3.1672
 10
587.3248
 20
3.0964
 10
587.0121
 20
3.0383
 10
586.6953
 20
2.9929
 10
586.3743
 20
2.9605
 10
586.049
 20
2.9409
 10
585.7192
 20
2.9344
 10
585.2858
 20
2.9472
 10
584.8615
 20
2.9856
 10
584.4462
 20
3.0497
 10
584.0398
 20
3.1396
 10
583.6423
 20
3.2552
 10
583.2534
 20
3.3967
 10
582.8733
 20
3.5641
 10
582.5017
 20
3.7575
 10
582.1455
 20
3.9754
 10
581.8077
 20
4.2163
 10
581.4884
 20
4.4804
 10
581.1879
 20
4.7678
 10
580.9061
 20
5.0785
 10
580.6432
 20
5.4127
 10
580.3994
 20
5.7704
 10
580.1747
 20
6.1517
 10
580.0841
 20
6.1517
 10
579.8512
 20
5.8126
 10
579.6126
 20
5.4966
 10
579.3685
 20
5.2035
 10
579.1189
 20
4.9331
 10
578.8639
 20
4.6855
 10
578.6036
 20
4.4605
 10
578.3381
 20
4.258
 10
578.0674
 20
4.0778
 10
577.7832
 20
3.9194
 10
577.4822
 20
3.7821
 10
577.1644
 20
3.6659
 10
576.8299
 20
3.5709
 10
576.4787
 20
3.4969
 10
576.111
 20
3.4441
 10
575.7266
 20
3.4125
 10
575.3257
 20
3.4019
 10
574.7306
 20
3.4271
 10
574.1609
 20
3.5027
 10
573.6166
 20
3.6287
 10
573.0977
 20
3.805
 10
572.6041
 20
4.0316
 10
572.1358
 20
4.3085
 10
571.6928
 20
4.6356
 10
571.2749
 20
5.0129
 10
570.8963
 20
5.4293
 10
570.5683
 20
5.8728
 10
570.2909
 20
6.3432
 10
570.064
 20
6.8407
 10
569.8876
 20
7.3652
 10
569.7616
 20
7.9167
 10
569.6861
 20
8.4953
 10
569.6609
 20
9.1008
 10
569.685
 20
9.7277
 10
569.7572
 20
10.323
 10
569.8776
 20
10.8867
 10
570.0459
 20
11.4186
 10
570.2622
 20
11.9187
 10
570.5264
 20
12.3869
 10
570.8385
 20
12.823
 10
571.1983
 20
13.2271
 10
571.5977
 20
13.591
 10
572.0233
 20
13.9065
 10
572.4751
 20
14.1736
 10
572.9533
 20
14.3923
 10
573.4578
 20
14.5624
 10
573.9889
 20
14.684
 10
574.5464
 20
14.7571
 10
575.1305
 20
14.7814
 10
575.4926
 20
14.7698
 10
575.8534
 20
14.7351
 10
576.2131
 20
14.6773
 10
576.5715
 20
14.5963
 10
576.9288
 20
14.4922
 10
577.285
 20
14.3649
 10
577.6401
 20
14.2145
 10
577.9942
 20
14.041
 10
578.3381
 20
13.8456
 10
578.6626
 20
13.6295
 10
578.9677
 20
13.3928
 10
579.2534
 20
13.1356
 10
579.5197
 20
12.8577
 10
579.7666
 20
12.5594
 10
579.9943
 20
12.2406
 10
580.2026
 20
11.9013
 10
580.2863
 20
11.9013
 10
580.5135
 20
12.3014
 10
580.7521
 20
12.6762
 10
581.002
 20
13.0259
 10
581.2633
 20
13.3505
 10
581.536
 20
13.6501
 10
581.8202
 20
13.9248
 10
582.1159
 20
14.1747
 10
582.4232
 20
14.3997
 10
582.7504
 20
14.599
 10
583.0993
 20
14.7717
 10
583.4702
 20
14.9177
 10
583.8631
 20
15.037
 10
584.2784
 20
15.1298
 10
584.7162
 20
15.196
 10
585.1767
 20
15.2357
 10
585.66
 20
15.2489
 10
586.3362
 20
15.2215
 10
586.9842
 20
15.1393
 10
587.6041
 20
15.0022
 10
588.1958
 20
14.8101
 10
588.7594
 20
14.563
 10
589.2947
 20
14.2608
 10
589.8018
 20
13.9034
 10
590.2807
 20
13.4908
 10
590.717
 20
13.0374
 10
591.0951
 20
12.5566
 10
591.4151
 20
12.0484
 10
591.6768
 20
11.5125
 10
591.8804
 20
10.949
 10
592.0259
 20
10.3578
 10
592.1131
 20
9.7386
 10
592.1422
 20
9.0916
  0
LWPOLYLINE
  5
8F
330
1F
100
AcDbEntity
  8
Layer 1
 62
     7
100
AcDbPolyline
 90
       97
 70
     1
 43
0.0
 10
578.9808
 20
26.7265
 10
578.4496
 20
26.721
 10
577.9435
 20
26.7046
 10
577.4625
 20
26.6771
 10
577.0066
 20
26.6386
 10
576.5758
 20
26.5889
 10
576.1701
 20
26.528
 10
575.7894
 20
26.4558
 10
575.4338
 20
26.3724
 10
575.1011
 20
26.28
 10
574.788
 20
26.1789
 10
574.4944
 20
26.0692
 10
574.2204
 20
25.9511
 10
573.966
 20
25.8247
 10
573.731
 20
25.6902
 10
573.5155
 20
25.5478
 10
573.3195
 20
25.3976
 10
573.1526
 20
25.2577
 10
572.9995
 20
25.1175
 10
572.8603
 20
24.9769
 10
572.7348
 20
24.8362
 10
572.623
 20
24.6953
 10
572.5249
 20
24.5543
 10
572.4404
 20
24.4134
 10
572.3696
 20
24.2725
 10
572.3096
 20
24.1276
 10
572.2577
 20
23.9791
 10
572.214
 20
23.8271
 10
572.1783
 20
23.6716
 10
572.1506
 20
23.5127
 10
572.1308
 20
23.3504
 10
572.119
 20
23.1846
 10
572.1151
 20
23.0156
 10
572.1347
 20
22.6359
 10
572.1936
 20
22.2761
 10
572.2918
 20
21.9363
 10
572.4293
 20
21.6164
 10
572.6061
 20
21.3163
 10
572.8225
 20
21.0362
 10
573.0782
 20
20.7759
 10
573.3735
 20
20.5355
 10
573.7069
 20
20.3179
 10
574.0758
 20
20.1294
 10
574.4802
 20
19.97
 10
574.92
 20
19.8397
 10
575.3953
 20
19.7383
 10
575.906
 20
19.666
 10
576.4522
 20
19.6226
 10
577.0338
 20
19.6082
 10
577.3636
 20
19.6129
 10
577.6784
 20
19.6269
 10
577.9785
 20
19.6505
 10
578.2638
 20
19.6835
 10
578.5344
 20
19.7261
 10
578.7906
 20
19.7783
 10
579.0323
 20
19.8401
 10
579.2597
 20
19.9117
 10
579.4736
 20
19.994
 10
579.6799
 20
20.0879
 10
579.8787
 20
20.1936
 10
580.0699
 20
20.311
 10
580.2536
 20
20.4402
 10
580.4295
 20
20.5812
 10
580.5979
 20
20.7341
 10
580.7586
 20
20.8988
 10
580.8667
 20
21.0209
 10
580.965
 20
21.1471
 10
581.0537
 20
21.2774
 10
581.1327
 20
21.4117
 10
581.2024
 20
21.5501
 10
581.2628
 20
21.6926
 10
581.3142
 20
21.8393
 10
581.3565
 20
21.9901
 10
581.392
 20
22.1437
 10
581.4226
 20
22.2999
 10
581.4484
 20
22.4588
 10
581.4694
 20
22.6203
 10
581.4972
 20
22.9513
 10
581.5064
 20
23.293
 10
581.5014
 20
23.498
 10
581.4864
 20
23.707
 10
581.4613
 20
23.9201
 10
581.426
 20
24.137
 10
581.3805
 20
24.3578
 10
581.3248
 20
24.5822
 10
581.2587
 20
24.8103
 10
581.1822
 20
25.042
 10
581.0996
 20
25.2723
 10
581.01
 20
25.4951
 10
580.9136
 20
25.7106
 10
580.8103
 20
25.9185
 10
580.7002
 20
26.119
 10
580.5834
 20
26.3118
 10
580.4599
 20
26.4969
 10
580.3299
 20
26.6744
 10
579.7669
 20
26.7096
 10
578.9808
 20
26.7265
  0
LWPOLYLINE
  5
90
330
1F
100
AcDbEntity
  8
Layer 1
 62
     7
100
AcDbPolyline
 90
      185
 70
     1
 43
0.0
 10
577.1419
 20
17.0361
 10
576.7318
 20
17.0436
 10
576.3306
 20
17.0662
 10
575.9382
 20
17.1037
 10
575.5549
 20
17.1561
 10
575.1807
 20
17.2232
 10
574.8158
 20
17.3051
 10
574.4603
 20
17.4017
 10
574.1143
 20
17.5128
 10
573.7762
 20
17.6368
 10
573.4498
 20
17.7717
 10
573.1352
 20
17.9177
 10
572.8326
 20
18.0746
 10
572.5421
 20
18.2424
 10
572.264
 20
18.4212
 10
571.9984
 20
18.6107
 10
571.7456
 20
18.8111
 10
571.5135
 20
19.0147
 10
571.2944
 20
19.2288
 10
571.0884
 20
19.4535
 10
570.8957
 20
19.689
 10
570.7162
 20
19.9352
 10
570.5502
 20
20.1923
 10
570.3977
 20
20.4604
 10
570.2588
 20
20.7394
 10
570.1326
 20
21.0225
 10
570.0234
 20
21.3071
 10
569.9311
 20
21.5933
 10
569.8557
 20
21.8808
 10
569.7971
 20
22.1695
 10
569.7553
 20
22.4592
 10
569.7302
 20
22.75
 10
569.7219
 20
23.0416
 10
569.7297
 20
23.3642
 10
569.7532
 20
23.6791
 10
569.7921
 20
23.9863
 10
569.8466
 20
24.2857
 10
569.9163
 20
24.5775
 10
570.0014
 20
24.8615
 10
570.1016
 20
25.138
 10
570.2169
 20
25.4068
 10
570.3496
 20
25.6682
 10
570.4955
 20
25.9204
 10
570.6547
 20
26.1634
 10
570.8274
 20
26.3971
 10
571.0136
 20
26.6218
 10
571.2136
 20
26.8374
 10
571.4273
 20
27.0439
 10
571.6549
 20
27.2415
 10
571.9642
 20
27.4798
 10
572.2959
 20
27.7041
 10
572.6501
 20
27.9142
 10
573.0269
 20
28.1104
 10
573.4263
 20
28.2928
 10
573.8484
 20
28.4613
 10
574.2933
 20
28.6162
 10
574.761
 20
28.7575
 10
575.2577
 20
28.8842
 10
575.7859
 20
28.994
 10
576.3456
 20
29.087
 10
576.9369
 20
29.1631
 10
577.5597
 20
29.2223
 10
578.2143
 20
29.2646
 10
578.9006
 20
29.29
 10
579.6187
 20
29.2985
 10
580.2823
 20
29.2902
 10
580.9371
 20
29.2653
 10
581.583
 20
29.2238
 10
582.2202
 20
29.1659
 10
582.8485
 20
29.0917
 10
583.4679
 20
29.0011
 10
584.0786
 20
28.8943
 10
584.6804
 20
28.7713
 10
585.265
 20
28.6317
 10
585.8241
 20
28.4765
 10
586.3577
 20
28.3055
 10
586.8659
 20
28.1188
 10
587.3489
 20
27.9166
 10
587.8068
 20
27.6989
 10
588.2396
 20
27.4657
 10
588.6475
 20
27.217
 10
589.054
 20
26.9371
 10
589.4356
 20
26.6434
 10
589.7922
 20
26.3361
 10
590.1241
 20
26.0151
 10
590.4312
 20
25.6805
 10
590.7136
 20
25.3324
 10
590.9713
 20
24.9709
 10
591.2045
 20
24.5959
 10
591.4099
 20
24.2019
 10
591.5881
 20
23.7855
 10
591.7391
 20
23.3466
 10
591.8627
 20
22.8853
 10
591.959
 20
22.4016
 10
592.0278
 20
21.8955
 10
592.0692
 20
21.367
 10
592.083
 20
20.816
 10
592.0796
 20
20.559
 10
592.0686
 20
20.2939
 10
592.0491
 20
20.0204
 10
592.0202
 20
19.7385
 10
591.9801
 20
19.4574
 10
591.9272
 20
19.1863
 10
591.8601
 20
18.925
 10
591.7779
 20
18.6732
 10
589.0118
 20
18.6732
 10
589.0118
 20
18.7989
 10
589.0633
 20
18.8837
 10
589.1144
 20
18.9796
 10
589.1651
 20
19.0865
 10
589.2153
 20
19.2045
 10
589.3142
 20
19.4733
 10
589.4109
 20
19.786
 10
589.4562
 20
19.9551
 10
589.4953
 20
20.1247
 10
589.5283
 20
20.2946
 10
589.5552
 20
20.4652
 10
589.576
 20
20.6364
 10
589.5909
 20
20.8083
 10
589.5997
 20
20.9811
 10
589.6027
 20
21.1548
 10
589.5736
 20
21.7585
 10
589.4863
 20
22.3293
 10
589.3406
 20
22.8669
 10
589.1367
 20
23.3714
 10
588.8743
 20
23.8426
 10
588.5534
 20
24.2804
 10
588.1739
 20
24.6848
 10
587.7359
 20
25.0557
 10
587.2441
 20
25.3907
 10
586.7022
 20
25.6874
 10
586.1103
 20
25.9458
 10
585.4683
 20
26.1659
 10
584.7762
 20
26.3476
 10
584.0343
 20
26.4909
 10
583.2424
 20
26.5957
 10
582.4006
 20
26.6621
 10
582.5888
 20
26.4103
 10
582.764
 20
26.1616
 10
582.9262
 20
25.9161
 10
583.0754
 20
25.6735
 10
583.2115
 20
25.4337
 10
583.3347
 20
25.1968
 10
583.4449
 20
24.9625
 10
583.5422
 20
24.7308
 10
583.6271
 20
24.4994
 10
583.7002
 20
24.2627
 10
583.7617
 20
24.0208
 10
583.8117
 20
23.7738
 10
583.8503
 20
23.5216
 10
583.8777
 20
23.2644
 10
583.8941
 20
23.0022
 10
583.8995
 20
22.7351
 10
583.8955
 20
22.4763
 10
583.8834
 20
22.2229
 10
583.8633
 20
21.9751
 10
583.835
 20
21.7331
 10
583.7986
 20
21.4969
 10
583.7539
 20
21.2668
 10
583.701
 20
21.0428
 10
583.6398
 20
20.8252
 10
583.5675
 20
20.6089
 10
583.48
 20
20.3924
 10
583.3771
 20
20.1756
 10
583.259
 20
19.9586
 10
583.1255
 20
19.7414
 10
582.9766
 20
19.524
 10
582.8122
 20
19.3064
 10
582.6324
 20
19.0886
 10
582.4048
 20
18.8433
 10
582.1627
 20
18.6133
 10
581.9059
 20
18.3985
 10
581.6343
 20
18.1992
 10
581.348
 20
18.0152
 10
581.0468
 20
17.8466
 10
580.7307
 20
17.6935
 10
580.3996
 20
17.5558
 10
580.0537
 20
17.434
 10
579.6903
 20
17.3284
 10
579.3095
 20
17.2391
 10
578.9113
 20
17.166
 10
578.4954
 20
17.1092
 10
578.0619
 20
17.0686
 10
577.6108
 20
17.0442
 10
577.1419
 20
17.0361
  0
LWPOLYLINE
  5
91
330
1F
100
AcDbEntity
  8
Layer 1
 62
     7
100
AcDbPolyline
 90
      190
 70
     1
 43
0.0
 10
591.6402
 20
48.1811
 10
582.3256
 20
48.1811
 10
582.0516
 20
48.1799
 10
581.7825
 20
48.1762
 10
581.5183
 20
48.1701
 10
581.2591
 20
48.1615
 10
581.0049
 20
48.1505
 10
580.7556
 20
48.1371
 10
580.5115
 20
48.1212
 10
580.2723
 20
48.1029
 10
580.0422
 20
48.0822
 10
579.8249
 20
48.0559
 10
579.6204
 20
48.0242
 10
579.4287
 20
47.987
 10
579.2498
 20
47.9446
 10
579.0836
 20
47.8971
 10
578.93
 20
47.8446
 10
578.7891
 20
47.7872
 10
578.6506
 20
47.7205
 10
578.5214
 20
47.647
 10
578.4016
 20
47.5666
 10
578.2912
 20
47.4795
 10
578.1902
 20
47.3856
 10
578.0986
 20
47.285
 10
578.0164
 20
47.1777
 10
577.9437
 20
47.0637
 10
577.8798
 20
46.9417
 10
577.8242
 20
46.8091
 10
577.7769
 20
46.6661
 10
577.738
 20
46.5126
 10
577.7076
 20
46.3488
 10
577.6858
 20
46.1748
 10
577.6727
 20
45.9905
 10
577.6683
 20
45.7961
 10
577.6763
 20
45.6091
 10
577.7004
 20
45.4194
 10
577.7406
 20
45.2267
 10
577.7971
 20
45.031
 10
577.8698
 20
44.8321
 10
577.9588
 20
44.6297
 10
578.0642
 20
44.4238
 10
578.186
 20
44.2142
 10
578.3202
 20
44.0023
 10
578.4693
 20
43.7883
 10
578.6331
 20
43.5725
 10
578.8117
 20
43.3547
 10
579.005
 20
43.1351
 10
579.213
 20
42.9136
 10
579.4356
 20
42.6903
 10
579.6728
 20
42.4653
 10
580.2532
 20
42.5005
 10
581.055
 20
42.5174
 10
591.6402
 20
42.5174
 10
591.6402
 20
40.1278
 10
582.3256
 20
40.1278
 10
582.0516
 20
40.1266
 10
581.7825
 20
40.1229
 10
581.5183
 20
40.1168
 10
581.2591
 20
40.1082
 10
581.0049
 20
40.0972
 10
580.7556
 20
40.0838
 10
580.5115
 20
40.0679
 10
580.2723
 20
40.0496
 10
580.0422
 20
40.0289
 10
579.8249
 20
40.0026
 10
579.6204
 20
39.9709
 10
579.4287
 20
39.9337
 10
579.2498
 20
39.8913
 10
579.0836
 20
39.8438
 10
578.93
 20
39.7912
 10
578.7891
 20
39.7338
 10
578.6506
 20
39.6671
 10
578.5214
 20
39.5934
 10
578.4016
 20
39.5128
 10
578.2912
 20
39.4255
 10
578.1902
 20
39.3315
 10
578.0986
 20
39.231
 10
578.0164
 20
39.1239
 10
577.9437
 20
39.0104
 10
577.8798
 20
38.8884
 10
577.8242
 20
38.7558
 10
577.7769
 20
38.6127
 10
577.738
 20
38.4591
 10
577.7076
 20
38.2951
 10
577.6858
 20
38.1208
 10
577.6727
 20
37.9361
 10
577.6683
 20
37.7412
 10
577.6768
 20
37.5453
 10
577.7024
 20
37.3474
 10
577.7451
 20
37.1473
 10
577.8051
 20
36.9451
 10
577.8824
 20
36.7407
 10
577.9772
 20
36.5339
 10
578.0893
 20
36.3249
 10
578.2191
 20
36.1134
 10
578.3618
 20
35.9015
 10
578.5142
 20
35.6912
 10
578.6761
 20
35.4825
 10
578.8475
 20
35.2755
 10
579.0283
 20
35.0701
 10
579.2186
 20
34.8664
 10
579.4183
 20
34.6644
 10
579.6274
 20
34.4641
 10
591.6402
 20
34.4641
 10
591.6402
 20
32.0744
 10
575.5401
 20
32.0744
 10
575.5401
 20
34.4641
 10
577.3319
 20
34.4641
 10
577.0738
 20
34.6993
 10
576.8304
 20
34.9335
 10
576.6018
 20
35.167
 10
576.3881
 20
35.3998
 10
576.1894
 20
35.6321
 10
576.0059
 20
35.8638
 10
575.8376
 20
36.0952
 10
575.6848
 20
36.3264
 10
575.548
 20
36.5597
 10
575.429
 20
36.7987
 10
575.3281
 20
37.0433
 10
575.2453
 20
37.2936
 10
575.1808
 20
37.5497
 10
575.1345
 20
37.8116
 10
575.1067
 20
38.0793
 10
575.0974
 20
38.3528
 10
575.1076
 20
38.6618
 10
575.1382
 20
38.9623
 10
575.1891
 20
39.2541
 10
575.2603
 20
39.5373
 10
575.3518
 20
39.8117
 10
575.4635
 20
40.0772
 10
575.5954
 20
40.3338
 10
575.7475
 20
40.5815
 10
575.9231
 20
40.8164
 10
576.1245
 20
41.037
 10
576.3518
 20
41.2433
 10
576.6051
 20
41.4353
 10
576.8845
 20
41.6129
 10
577.1902
 20
41.7761
 10
577.5223
 20
41.9248
 10
577.8809
 20
42.0591
 10
577.5488
 20
42.3289
 10
577.2374
 20
42.5968
 10
576.9468
 20
42.863
 10
576.6769
 20
43.1273
 10
576.4278
 20
43.3898
 10
576.1995
 20
43.6505
 10
575.9919
 20
43.9095
 10
575.805
 20
44.1667
 10
575.639
 20
44.4279
 10
575.4952
 20
44.6942
 10
575.3736
 20
44.9658
 10
575.2741
 20
45.2428
 10
575.1968
 20
45.5251
 10
575.1415
 20
45.8131
 10
575.1084
 20
46.1067
 10
575.0974
 20
46.4061
 10
575.1025
 20
46.6323
 10
575.1177
 20
46.8533
 10
575.1431
 20
47.0691
 10
575.1786
 20
47.2796
 10
575.2244
 20
47.4849
 10
575.2805
 20
47.685
 10
575.3467
 20
47.8797
 10
575.4233
 20
48.0692
 10
575.5098
 20
48.2527
 10
575.6087
 20
48.4306
 10
575.7201
 20
48.6029
 10
575.844
 20
48.7695
 10
575.9806
 20
48.9302
 10
576.13
 20
49.0851
 10
576.2922
 20
49.2339
 10
576.4674
 20
49.3767
 10
576.6566
 20
49.5152
 10
576.8571
 20
49.6457
 10
577.0688
 20
49.7681
 10
577.2919
 20
49.8825
 10
577.5264
 20
49.9888
 10
577.7724
 20
50.0871
 10
578.03
 20
50.1774
 10
578.2993
 20
50.2596
 10
578.5812
 20
50.3328
 10
578.8808
 20
50.3961
 10
579.1979
 20
50.4496
 10
579.5329
 20
50.4933
 10
579.8856
 20
50.5272
 10
580.2562
 20
50.5514
 10
580.6448
 20
50.5659
 10
581.0515
 20
50.5707
 10
591.6402
 20
50.5707
 10
591.6402
 20
48.1811
  0
LWPOLYLINE
  5
92
330
1F
100
AcDbEntity
  8
Layer 1
 62
     7
100
AcDbPolyline
 90
      190
 70
     1
 43
0.0
 10
591.6402
 20
69.999
 10
582.3256
 20
69.999
 10
582.0516
 20
69.9978
 10
581.7825
 20
69.9941
 10
581.5183
 20
69.988
 10
581.2591
 20
69.9794
 10
581.0049
 20
69.9684
 10
580.7556
 20
69.955
 10
580.5115
 20
69.9391
 10
580.2723
 20
69.9208
 10
580.0422
 20
69.9001
 10
579.8249
 20
69.8738
 10
579.6204
 20
69.8421
 10
579.4287
 20
69.8049
 10
579.2498
 20
69.7625
 10
579.0836
 20
69.715
 10
578.93
 20
69.6624
 10
578.7891
 20
69.605
 10
578.6506
 20
69.5383
 10
578.5214
 20
69.4648
 10
578.4016
 20
69.3845
 10
578.2912
 20
69.2973
 10
578.1902
 20
69.2035
 10
578.0986
 20
69.1028
 10
578.0164
 20
68.9955
 10
577.9437
 20
68.8816
 10
577.8798
 20
68.7596
 10
577.8242
 20
68.627
 10
577.7769
 20
68.484
 10
577.738
 20
68.3305
 10
577.7076
 20
68.1667
 10
577.6858
 20
67.9926
 10
577.6727
 20
67.8083
 10
577.6683
 20
67.6139
 10
577.6763
 20
67.4269
 10
577.7004
 20
67.2372
 10
577.7406
 20
67.0446
 10
577.7971
 20
66.8489
 10
577.8698
 20
66.6499
 10
577.9588
 20
66.4476
 10
578.0642
 20
66.2417
 10
578.186
 20
66.0321
 10
578.3202
 20
65.8202
 10
578.4693
 20
65.6062
 10
578.6331
 20
65.3904
 10
578.8117
 20
65.1726
 10
579.005
 20
64.953
 10
579.213
 20
64.7315
 10
579.4356
 20
64.5082
 10
579.6728
 20
64.2832
 10
580.2532
 20
64.3184
 10
581.055
 20
64.3353
 10
591.6402
 20
64.3353
 10
591.6402
 20
61.9456
 10
582.3256
 20
61.9456
 10
582.0516
 20
61.9444
 10
581.7825
 20
61.9407
 10
581.5183
 20
61.9346
 10
581.2591
 20
61.9261
 10
581.0049
 20
61.9151
 10
580.7556
 20
61.9017
 10
580.5115
 20
61.8858
 10
580.2723
 20
61.8675
 10
580.0422
 20
61.8468
 10
579.8249
 20
61.8205
 10
579.6204
 20
61.7887
 10
579.4287
 20
61.7516
 10
579.2498
 20
61.7091
 10
579.0836
 20
61.6616
 10
578.93
 20
61.6091
 10
578.7891
 20
61.5517
 10
578.6506
 20
61.485
 10
578.5214
 20
61.4113
 10
578.4016
 20
61.3307
 10
578.2912
 20
61.2434
 10
578.1902
 20
61.1494
 10
578.0986
 20
61.0488
 10
578.0164
 20
60.9417
 10
577.9437
 20
60.8282
 10
577.8798
 20
60.7062
 10
577.8242
 20
60.5737
 10
577.7769
 20
60.4306
 10
577.738
 20
60.277
 10
577.7076
 20
60.113
 10
577.6858
 20
59.9387
 10
577.6727
 20
59.754
 10
577.6683
 20
59.5591
 10
577.6768
 20
59.3632
 10
577.7024
 20
59.1653
 10
577.7451
 20
58.9652
 10
577.8051
 20
58.763
 10
577.8824
 20
58.5585
 10
577.9772
 20
58.3518
 10
578.0893
 20
58.1427
 10
578.2191
 20
57.9312
 10
578.3618
 20
57.7193
 10
578.5142
 20
57.5091
 10
578.6761
 20
57.3004
 10
578.8475
 20
57.0934
 10
579.0283
 20
56.888
 10
579.2186
 20
56.6843
 10
579.4183
 20
56.4823
 10
579.6274
 20
56.282
 10
591.6402
 20
56.282
 10
591.6402
 20
53.8923
 10
575.5401
 20
53.8923
 10
575.5401
 20
56.282
 10
577.3319
 20
56.282
 10
577.0738
 20
56.5172
 10
576.8304
 20
56.7514
 10
576.6018
 20
56.9849
 10
576.3881
 20
57.2177
 10
576.1894
 20
57.45
 10
576.0059
 20
57.6817
 10
575.8376
 20
57.9131
 10
575.6848
 20
58.1443
 10
575.548
 20
58.3776
 10
575.429
 20
58.6166
 10
575.3281
 20
58.8612
 10
575.2453
 20
59.1115
 10
575.1808
 20
59.3676
 10
575.1345
 20
59.6295
 10
575.1067
 20
59.8972
 10
575.0974
 20
60.1707
 10
575.1076
 20
60.4797
 10
575.1382
 20
60.7801
 10
575.1891
 20
61.072
 10
575.2603
 20
61.3551
 10
575.3518
 20
61.6295
 10
575.4635
 20
61.8951
 10
575.5954
 20
62.1517
 10
575.7475
 20
62.3994
 10
575.9231
 20
62.6343
 10
576.1245
 20
62.8549
 10
576.3518
 20
63.0612
 10
576.6051
 20
63.2531
 10
576.8845
 20
63.4307
 10
577.1902
 20
63.5939
 10
577.5223
 20
63.7427
 10
577.8809
 20
63.877
 10
577.5488
 20
64.1468
 10
577.2374
 20
64.4147
 10
576.9468
 20
64.6808
 10
576.6769
 20
64.9451
 10
576.4278
 20
65.2076
 10
576.1995
 20
65.4684
 10
575.9919
 20
65.7274
 10
575.805
 20
65.9846
 10
575.639
 20
66.2458
 10
575.4952
 20
66.5121
 10
575.3736
 20
66.7837
 10
575.2741
 20
67.0606
 10
575.1968
 20
67.343
 10
575.1415
 20
67.6309
 10
575.1084
 20
67.9246
 10
575.0974
 20
68.224
 10
575.1025
 20
68.4502
 10
575.1177
 20
68.6712
 10
575.1431
 20
68.887
 10
575.1786
 20
69.0975
 10
575.2244
 20
69.3028
 10
575.2805
 20
69.5029
 10
575.3467
 20
69.6976
 10
575.4233
 20
69.8871
 10
575.5098
 20
70.0706
 10
575.6087
 20
70.2485
 10
575.7201
 20
70.4208
 10
575.844
 20
70.5874
 10
575.9806
 20
70.7481
 10
576.13
 20
70.903
 10
576.2922
 20
71.0518
 10
576.4674
 20
71.1946
 10
576.6566
 20
71.3331
 10
576.8571
 20
71.4636
 10
577.0688
 20
71.586
 10
577.2919
 20
71.7004
 10
577.5264
 20
71.8067
 10
577.7724
 20
71.905
 10
578.03
 20
71.9953
 10
578.2993
 20
72.0775
 10
578.5812
 20
72.1507
 10
578.8808
 20
72.214
 10
579.1979
 20
72.2675
 10
579.5329
 20
72.3112
 10
579.8856
 20
72.3451
 10
580.2562
 20
72.3693
 10
580.6448
 20
72.3838
 10
581.0515
 20
72.3886
 10
591.6402
 20
72.3886
 10
591.6402
 20
69.999
  0
LWPOLYLINE
  5
93
330
1F
100
AcDbEntity
  8
Layer 1
 62
     7
370
    18
100
AcDbPolyline
 90
       37
 70
     1
 43
0.0
 10
642.5256
 20
171.6635
 10
1300.8611
 20
171.6635
 10
1302.1061
 20
171.5524
 10
1303.2673
 20
171.234
 10
1304.3193
 20
170.7305
 10
1305.2369
 20
170.0642
 10
1305.9946
 20
169.2575
 10
1306.5672
 20
168.3326
 10
1306.9294
 20
167.3118
 10
1307.0557
 20
166.2174
 10
1307.0557
 20
-102.4671
 10
1306.9294
 20
-103.5619
 10
1306.5672
 20
-104.5829
 10
1305.9946
 20
-105.5078
 10
1305.2369
 20
-106.3144
 10
1304.3193
 20
-106.9805
 10
1303.2673
 20
-107.4838
 10
1302.1061
 20
-107.8021
 10
1300.8611
 20
-107.9131
 10
642.5256
 20
-107.9131
 10
641.2806
 20
-107.8021
 10
640.1194
 20
-107.4838
 10
639.0673
 20
-106.9805
 10
638.1498
 20
-106.3144
 10
637.392
 20
-105.5078
 10
636.8194
 20
-104.5829
 10
636.4572
 20
-103.5619
 10
636.3309
 20
-102.4671
 10
636.3309
 20
166.2174
 10
636.4572
 20
167.3118
 10
636.8194
 20
168.3326
 10
637.392
 20
169.2575
 10
638.1498
 20
170.0642
 10
639.0673
 20
170.7305
 10
640.1194
 20
171.234
 10
641.2806
 20
171.5524
 10
642.5256
 20
171.6635
  0
LWPOLYLINE
  5
94
330
1F
100
AcDbEntity
  8
Layer 1
 62
     7
370
    18
100
AcDbPolyline
 90
       37
 70
     1
 43
0.0
 10
653.2277
 20
163.4937
 10
1033.5152
 20
163.4937
 10
1037.9129
 20
163.1008
 10
1042.0155
 20
161.9746
 10
1045.7334
 20
160.1942
 10
1048.9766
 20
157.8384
 10
1051.6554
 20
154.9863
 10
1053.68
 20
151.7169
 10
1054.9606
 20
148.109
 10
1055.4074
 20
144.2417
 10
1055.4074
 20
-81.9444
 10
1054.9606
 20
-85.8117
 10
1053.68
 20
-89.4196
 10
1051.6554
 20
-92.689
 10
1048.9766
 20
-95.5411
 10
1045.7334
 20
-97.8969
 10
1042.0155
 20
-99.6773
 10
1037.9129
 20
-100.8035
 10
1033.5152
 20
-101.1964
 10
653.2277
 20
-101.1964
 10
651.9838
 20
-101.0853
 10
650.8235
 20
-100.7669
 10
649.772
 20
-100.2634
 10
648.8549
 20
-99.5971
 10
648.0974
 20
-98.7904
 10
647.5249
 20
-97.8655
 10
647.1628
 20
-96.8448
 10
647.0365
 20
-95.7504
 10
647.0365
 20
158.0476
 10
647.1628
 20
159.142
 10
647.5249
 20
160.1627
 10
648.0974
 20
161.0876
 10
648.8549
 20
161.8944
 10
649.772
 20
162.5606
 10
650.8235
 20
163.0641
 10
651.9838
 20
163.3826
 10
653.2277
 20
163.4937
  0
LWPOLYLINE
  5
95
330
1F
100
AcDbEntity
  8
Layer 1
 62
     7
370
    18
100
AcDbPolyline
 90
       33
 70
     1
 43
0.0
 10
960.0771
 20
73.9919
 10
969.6044
 20
73.1436
 10
978.4782
 20
70.7106
 10
986.5083
 20
66.8609
 10
993.5047
 20
61.7623
 10
999.2773
 20
55.5827
 10
1003.6359
 20
48.49
 10
1006.3905
 20
40.6521
 10
1007.3509
 20
32.2369
 10
1006.3905
 20
23.8222
 10
1003.6359
 20
15.9847
 10
999.2773
 20
8.8923
 10
993.5047
 20
2.7129
 10
986.5083
 20
-2.3856
 10
978.4782
 20
-6.2353
 10
969.6044
 20
-8.6683
 10
960.0771
 20
-9.5166
 10
950.5497
 20
-8.6683
 10
941.6758
 20
-6.2353
 10
933.6453
 20
-2.3856
 10
926.6486
 20
2.7129
 10
920.8757
 20
8.8923
 10
916.5168
 20
15.9847
 10
913.762
 20
23.8222
 10
912.8015
 20
32.2369
 10
913.762
 20
40.6521
 10
916.5168
 20
48.49
 10
920.8757
 20
55.5827
 10
926.6486
 20
61.7623
 10
933.6453
 20
66.8609
 10
941.6758
 20
70.7106
 10
950.5497
 20
73.1436
 10
960.0771
 20
73.9919
  0
LWPOLYLINE
  5
96
330
1F
100
AcDbEntity
  8
Layer 1
 62
     7
370
    18
100
AcDbPolyline
 90
       33
 70
     1
 43
0.0
 10
960.0753
 20
63.2822
 10
967.1583
 20
62.6515
 10
973.7555
 20
60.8425
 10
979.7256
 20
57.9802
 10
984.9271
 20
54.1893
 10
989.2188
 20
49.5946
 10
992.4593
 20
44.3212
 10
994.5072
 20
38.4936
 10
995.2213
 20
32.2369
 10
994.5072
 20
25.9807
 10
992.4593
 20
20.1535
 10
989.2188
 20
14.8803
 10
984.9271
 20
10.2859
 10
979.7256
 20
6.4951
 10
973.7555
 20
3.6328
 10
967.1583
 20
1.8238
 10
960.0753
 20
1.1931
 10
952.9911
 20
1.8238
 10
946.3931
 20
3.6328
 10
940.4224
 20
6.4951
 10
935.2205
 20
10.2859
 10
930.9285
 20
14.8803
 10
927.6879
 20
20.1535
 10
925.6399
 20
25.9807
 10
924.9258
 20
32.2369
 10
925.6399
 20
38.4936
 10
927.6879
 20
44.3212
 10
930.9285
 20
49.5946
 10
935.2205
 20
54.1893
 10
940.4224
 20
57.9802
 10
946.3931
 20
60.8425
 10
952.9911
 20
62.6515
 10
960.0753
 20
63.2822
  0
LWPOLYLINE
  5
97
330
1F
100
AcDbEntity
  8
Layer 1
 62
     7
370
    18
100
AcDbPolyline
 90
        2
 70
     0
 43
0.0
 10
1246.1708
 20
14.038
 10
1307.5455
 20
14.038
  0
LWPOLYLINE
  5
98
330
1F
100
AcDbEntity
  8
Layer 1
 62
     7
370
    18
100
AcDbPolyline
 90
        2
 70
     0
 43
0.0
 10
1327.8934
 20
14.038
 10
1389.2681
 20
14.038
  0
LWPOLYLINE
  5
99
330
1F
100
AcDbEntity
  8
Layer 1
 62
     7
370
    18
100
AcDbPolyline
 90
        2
 70
     0
 43
0.0
 10
1307.054
 20
41.026
 10
1307.054
 20
-12.9485
  0
LWPOLYLINE
  5
9A
330
1F
100
AcDbEntity
  8
Layer 1
 62
     7
370
    18
100
AcDbPolyline
 90
        2
 70
     0
 43
0.0
 10
1328.2559
 20
41.026
 10
1328.2559
 20
-12.9485
  0
LWPOLYLINE
  5
9B
330
1F
100
AcDbEntity
  8
Layer 1
 62
     7
100
AcDbPolyline
 90
      158
 70
     1
 43
0.0
 10
1362.8755
 20
23.4816
 10
1348.1262
 20
23.4816
 10
1348.1262
 20
26.4491
 10
1351.1329
 20
28.992
 10
1351.4861
 20
29.2976
 10
1351.8372
 20
29.6064
 10
1352.1862
 20
29.9184
 10
1352.5332
 20
30.2335
 10
1352.8781
 20
30.5518
 10
1353.221
 20
30.8733
 10
1353.5619
 20
31.1979
 10
1353.9008
 20
31.5257
 10
1354.5569
 20
32.1696
 10
1355.1589
 20
32.7806
 10
1355.7069
 20
33.3586
 10
1356.2007
 20
33.9038
 10
1356.6402
 20
34.4163
 10
1357.0255
 20
34.896
 10
1357.3563
 20
35.3432
 10
1357.6326
 20
35.7578
 10
1357.8662
 20
36.1557
 10
1358.0688
 20
36.5573
 10
1358.2404
 20
36.9626
 10
1358.381
 20
37.3716
 10
1358.4904
 20
37.7843
 10
1358.5686
 20
38.2006
 10
1358.6156
 20
38.6205
 10
1358.6313
 20
39.0441
 10
1358.6264
 20
39.2597
 10
1358.6117
 20
39.4684
 10
1358.5872
 20
39.6705
 10
1358.5529
 20
39.8659
 10
1358.5087
 20
40.0547
 10
1358.4548
 20
40.2371
 10
1358.3911
 20
40.4132
 10
1358.3176
 20
40.583
 10
1358.2354
 20
40.746
 10
1358.1458
 20
40.9018
 10
1358.0487
 20
41.0502
 10
1357.9444
 20
41.1914
 10
1357.8327
 20
41.3253
 10
1357.7139
 20
41.4519
 10
1357.5879
 20
41.5714
 10
1357.4548
 20
41.6836
 10
1357.3123
 20
41.7871
 10
1357.1635
 20
41.8837
 10
1357.0086
 20
41.9734
 10
1356.8478
 20
42.0563
 10
1356.6812
 20
42.1323
 10
1356.5091
 20
42.2016
 10
1356.3318
 20
42.264
 10
1356.1493
 20
42.3197
 10
1355.9617
 20
42.3693
 10
1355.77
 20
42.4125
 10
1355.574
 20
42.4491
 10
1355.3737
 20
42.4791
 10
1355.1687
 20
42.5025
 10
1354.959
 20
42.5192
 10
1354.7444
 20
42.5293
 10
1354.5248
 20
42.5327
 10
1354.313
 20
42.5297
 10
1354.1
 20
42.5209
 10
1353.8856
 20
42.506
 10
1353.6701
 20
42.485
 10
1353.4533
 20
42.458
 10
1353.2353
 20
42.4247
 10
1353.0161
 20
42.3853
 10
1352.7957
 20
42.3396
 10
1352.5767
 20
42.2909
 10
1352.3604
 20
42.2391
 10
1352.1467
 20
42.1843
 10
1351.9358
 20
42.1265
 10
1351.7275
 20
42.0659
 10
1351.5219
 20
42.0025
 10
1351.3191
 20
41.9363
 10
1351.119
 20
41.8675
 10
1350.7816
 20
41.7416
 10
1350.4516
 20
41.6031
 10
1350.1285
 20
41.4519
 10
1349.8117
 20
41.2881
 10
1348.7973
 20
40.7087
 10
1348.6212
 20
40.7087
 10
1348.6212
 20
43.6961
 10
1348.8823
 20
43.8058
 10
1349.1675
 20
43.9142
 10
1349.477
 20
44.0216
 10
1349.8108
 20
44.1282
 10
1350.1692
 20
44.2341
 10
1350.5522
 20
44.3395
 10
1350.96
 20
44.4448
 10
1351.3926
 20
44.5499
 10
1351.8335
 20
44.6465
 10
1352.2687
 20
44.7306
 10
1352.698
 20
44.8019
 10
1353.1215
 20
44.8605
 10
1353.5389
 20
44.9062
 10
1353.9503
 20
44.939
 10
1354.3557
 20
44.9587
 10
1354.7549
 20
44.9653
 10
1355.5677
 20
44.9409
 10
1356.3354
 20
44.8676
 10
1357.058
 20
44.7457
 10
1357.7356
 20
44.575
 10
1358.3682
 20
44.3557
 10
1358.9558
 20
44.0878
 10
1359.4984
 20
43.7713
 10
1359.9961
 20
43.4064
 10
1360.4403
 20
42.9984
 10
1360.8253
 20
42.5559
 10
1361.1509
 20
42.079
 10
1361.4173
 20
41.5675
 10
1361.6244
 20
41.0213
 10
1361.7724
 20
40.4405
 10
1361.8611
 20
39.8249
 10
1361.8907
 20
39.1744
 10
1361.8855
 20
38.8697
 10
1361.8699
 20
38.5709
 10
1361.8439
 20
38.2778
 10
1361.8077
 20
37.9907
 10
1361.7613
 20
37.7094
 10
1361.7047
 20
37.434
 10
1361.638
 20
37.1646
 10
1361.5613
 20
36.9012
 10
1361.475
 20
36.6431
 10
1361.381
 20
36.3895
 10
1361.2791
 20
36.1404
 10
1361.1696
 20
35.8961
 10
1361.0523
 20
35.6565
 10
1360.9274
 20
35.4217
 10
1360.7949
 20
35.1918
 10
1360.6549
 20
34.9668
 10
1360.5028
 20
34.7371
 10
1360.3431
 20
34.5079
 10
1360.1758
 20
34.2791
 10
1360.0009
 20
34.0508
 10
1359.8182
 20
33.823
 10
1359.6279
 20
33.5957
 10
1359.4298
 20
33.369
 10
1359.2239
 20
33.1428
 10
1359.0139
 20
32.9184
 10
1358.801
 20
32.6945
 10
1358.5852
 20
32.4713
 10
1358.3664
 20
32.2488
 10
1358.1446
 20
32.027
 10
1357.92
 20
31.806
 10
1357.6923
 20
31.5857
 10
1357.4618
 20
31.3663
 10
1357.0782
 20
31.0046
 10
1356.6842
 20
30.6392
 10
1356.2797
 20
30.2701
 10
1355.8647
 20
29.8973
 10
1355.4391
 20
29.5209
 10
1355.0028
 20
29.1408
 10
1354.5557
 20
28.757
 10
1354.0978
 20
28.3697
 10
1351.1329
 20
25.9141
 10
1362.8755
 20
25.9141
 10
1362.8755
 20
23.4816
  0
LWPOLYLINE
  5
9C
330
1F
100
AcDbEntity
  8
Layer 1
 62
     7
100
AcDbPolyline
 90
      198
 70
     1
 43
0.0
 10
1380.6159
 20
30.1845
 10
1380.6072
 20
29.8064
 10
1380.5813
 20
29.4355
 10
1380.538
 20
29.0716
 10
1380.4775
 20
28.7147
 10
1380.3998
 20
28.3649
 10
1380.3048
 20
28.0219
 10
1380.1926
 20
27.6858
 10
1380.0633
 20
27.3565
 10
1379.9182
 20
27.0363
 10
1379.7586
 20
26.7274
 10
1379.5849
 20
26.4299
 10
1379.3971
 20
26.1437
 10
1379.1954
 20
25.8689
 10
1378.98
 20
25.6054
 10
1378.751
 20
25.3533
 10
1378.5086
 20
25.1125
 10
1378.2482
 20
24.878
 10
1377.9727
 20
24.6564
 10
1377.6821
 20
24.4477
 10
1377.3761
 20
24.2518
 10
1377.0545
 20
24.0689
 10
1376.7173
 20
23.8989
 10
1376.3642
 20
23.742
 10
1375.9951
 20
23.5981
 10
1375.6138
 20
23.4688
 10
1375.2214
 20
23.3569
 10
1374.8177
 20
23.2623
 10
1374.4027
 20
23.185
 10
1373.9761
 20
23.1249
 10
1373.5379
 20
23.082
 10
1373.0879
 20
23.0564
 10
1372.6259
 20
23.0478
 10
1372.1975
 20
23.053
 10
1371.7709
 20
23.0685
 10
1371.3462
 20
23.0944
 10
1370.9232
 20
23.1307
 10
1370.502
 20
23.1775
 10
1370.0824
 20
23.2346
 10
1369.6644
 20
23.3023
 10
1369.248
 20
23.3804
 10
1368.839
 20
23.4669
 10
1368.4435
 20
23.5598
 10
1368.0617
 20
23.6592
 10
1367.6936
 20
23.765
 10
1367.3395
 20
23.8773
 10
1366.9993
 20
23.9963
 10
1366.6733
 20
24.1218
 10
1366.3615
 20
24.2541
 10
1366.3615
 20
27.2461
 10
1366.5847
 20
27.2461
 10
1366.7907
 20
27.1193
 10
1367.0356
 20
26.9848
 10
1367.3204
 20
26.8422
 10
1367.6461
 20
26.6912
 10
1367.8206
 20
26.6153
 10
1368.0
 20
26.5403
 10
1368.1843
 20
26.4664
 10
1368.3734
 20
26.3935
 10
1368.5673
 20
26.3215
 10
1368.7658
 20
26.2506
 10
1368.9689
 20
26.1807
 10
1369.1765
 20
26.1118
 10
1369.4106
 20
26.0382
 10
1369.6397
 20
25.9689
 10
1369.8637
 20
25.904
 10
1370.0829
 20
25.8434
 10
1370.2971
 20
25.787
 10
1370.5065
 20
25.7348
 10
1370.711
 20
25.6868
 10
1370.9108
 20
25.6428
 10
1371.1105
 20
25.6041
 10
1371.3161
 20
25.5706
 10
1371.5277
 20
25.5424
 10
1371.7452
 20
25.5194
 10
1371.9689
 20
25.5016
 10
1372.1986
 20
25.4889
 10
1372.4345
 20
25.4813
 10
1372.6765
 20
25.4788
 10
1372.9186
 20
25.4835
 10
1373.1587
 20
25.4978
 10
1373.3967
 20
25.5216
 10
1373.633
 20
25.5549
 10
1373.8674
 20
25.5977
 10
1374.1001
 20
25.6502
 10
1374.3312
 20
25.7122
 10
1374.5607
 20
25.7838
 10
1374.7864
 20
25.8656
 10
1375.0034
 20
25.9592
 10
1375.2119
 20
26.0645
 10
1375.4121
 20
26.1816
 10
1375.6041
 20
26.3105
 10
1375.7881
 20
26.4512
 10
1375.9643
 20
26.6037
 10
1376.1328
 20
26.7679
 10
1376.2786
 20
26.9268
 10
1376.4152
 20
27.092
 10
1376.5428
 20
27.2638
 10
1376.6614
 20
27.4422
 10
1376.771
 20
27.6274
 10
1376.8716
 20
27.8196
 10
1376.9633
 20
28.0189
 10
1377.0462
 20
28.2256
 10
1377.1186
 20
28.4384
 10
1377.1814
 20
28.6607
 10
1377.2347
 20
28.8923
 10
1377.2784
 20
29.1332
 10
1377.3125
 20
29.3834
 10
1377.3369
 20
29.6428
 10
1377.3515
 20
29.9114
 10
1377.3564
 20
30.1891
 10
1377.351
 20
30.4633
 10
1377.3348
 20
30.7248
 10
1377.3079
 20
30.9736
 10
1377.2701
 20
31.2097
 10
1377.2216
 20
31.4331
 10
1377.1623
 20
31.6438
 10
1377.0922
 20
31.8417
 10
1377.0113
 20
32.0269
 10
1376.9207
 20
32.2039
 10
1376.8201
 20
32.3728
 10
1376.7096
 20
32.5336
 10
1376.5891
 20
32.6864
 10
1376.4586
 20
32.8313
 10
1376.3181
 20
32.9684
 10
1376.1677
 20
33.0978
 10
1376.0073
 20
33.2194
 10
1375.8294
 20
33.3484
 10
1375.6419
 20
33.4675
 10
1375.4447
 20
33.5768
 10
1375.2378
 20
33.6762
 10
1375.0211
 20
33.7659
 10
1374.7946
 20
33.8458
 10
1374.558
 20
33.9161
 10
1374.3114
 20
33.9766
 10
1374.0573
 20
34.0278
 10
1373.7958
 20
34.0721
 10
1373.5268
 20
34.1095
 10
1373.2506
 20
34.1401
 10
1372.967
 20
34.1638
 10
1372.6763
 20
34.1808
 10
1372.3784
 20
34.1909
 10
1372.0734
 20
34.1943
 10
1371.7483
 20
34.1916
 10
1371.4227
 20
34.1833
 10
1371.0965
 20
34.1695
 10
1370.7698
 20
34.1501
 10
1370.4426
 20
34.1249
 10
1370.1147
 20
34.0941
 10
1369.7862
 20
34.0575
 10
1369.4571
 20
34.015
 10
1369.1344
 20
33.9703
 10
1368.829
 20
33.926
 10
1368.5408
 20
33.8822
 10
1368.2695
 20
33.8389
 10
1368.0149
 20
33.7962
 10
1367.7769
 20
33.7543
 10
1367.5552
 20
33.7133
 10
1367.3498
 20
33.6731
 10
1367.3498
 20
44.53
 10
1380.4869
 20
44.53
 10
1380.4869
 20
42.0698
 10
1370.4419
 20
42.0698
 10
1370.4419
 20
36.4567
 10
1371.5853
 20
36.5395
 10
1372.612
 20
36.5686
 10
1373.0619
 20
36.5643
 10
1373.4939
 20
36.5514
 10
1373.9082
 20
36.5301
 10
1374.3049
 20
36.5004
 10
1374.6841
 20
36.4623
 10
1375.0459
 20
36.416
 10
1375.3905
 20
36.3614
 10
1375.718
 20
36.2988
 10
1376.0335
 20
36.2237
 10
1376.3459
 20
36.1327
 10
1376.6553
 20
36.026
 10
1376.9617
 20
35.9036
 10
1377.2651
 20
35.7654
 10
1377.5656
 20
35.6115
 10
1377.8633
 20
35.4418
 10
1378.1582
 20
35.2565
 10
1378.4459
 20
35.0512
 10
1378.7168
 20
34.8342
 10
1378.9708
 20
34.6052
 10
1379.2075
 20
34.3643
 10
1379.4269
 20
34.1111
 10
1379.6289
 20
33.8458
 10
1379.8132
 20
33.568
 10
1379.9797
 20
33.2777
 10
1380.1281
 20
32.9693
 10
1380.2571
 20
32.6385
 10
1380.3664
 20
32.2854
 10
1380.456
 20
31.9099
 10
1380.5258
 20
31.512
 10
1380.5758
 20
31.0918
 10
1380.6059
 20
30.6493
 10
1380.6159
 20
30.1845
  0
LWPOLYLINE
  5
9D
330
1F
100
AcDbEntity
  8
Layer 1
 62
     7
100
AcDbPolyline
 90
      190
 70
     1
 43
0.0
 10
1404.9099
 20
23.4816
 10
1404.9099
 20
32.6109
 10
1404.9083
 20
32.8802
 10
1404.9037
 20
33.1444
 10
1404.8958
 20
33.4034
 10
1404.8849
 20
33.6574
 10
1404.8707
 20
33.9064
 10
1404.8533
 20
34.1504
 10
1404.8327
 20
34.3894
 10
1404.8088
 20
34.6235
 10
1404.7835
 20
34.8488
 10
1404.7508
 20
35.0616
 10
1404.7109
 20
35.2617
 10
1404.6639
 20
35.4495
 10
1404.61
 20
35.6247
 10
1404.5492
 20
35.7877
 10
1404.4818
 20
35.9383
 10
1404.4079
 20
36.0766
 10
1404.3237
 20
36.2127
 10
1404.2306
 20
36.3396
 10
1404.1289
 20
36.4571
 10
1404.0186
 20
36.5653
 10
1403.8998
 20
36.6643
 10
1403.7728
 20
36.754
 10
1403.6377
 20
36.8345
 10
1403.4946
 20
36.9058
 10
1403.339
 20
36.9689
 10
1403.1702
 20
37.0236
 10
1402.9882
 20
37.07
 10
1402.7933
 20
37.108
 10
1402.5853
 20
37.1375
 10
1402.3644
 20
37.1587
 10
1402.1306
 20
37.1714
 10
1401.884
 20
37.1756
 10
1401.6481
 20
37.1677
 10
1401.4083
 20
37.144
 10
1401.1646
 20
37.1045
 10
1400.9167
 20
37.0492
 10
1400.6645
 20
36.978
 10
1400.408
 20
36.8911
 10
1400.147
 20
36.7883
 10
1399.8813
 20
36.6698
 10
1399.6127
 20
36.5378
 10
1399.3415
 20
36.3914
 10
1399.0679
 20
36.2305
 10
1398.7919
 20
36.0553
 10
1398.5137
 20
35.8658
 10
1398.2332
 20
35.6621
 10
1397.9506
 20
35.4442
 10
1397.666
 20
35.2121
 10
1397.7095
 20
34.6434
 10
1397.7322
 20
33.8571
 10
1397.7322
 20
23.4816
 10
1394.7028
 20
23.4816
 10
1394.7028
 20
32.6109
 10
1394.7012
 20
32.8802
 10
1394.6964
 20
33.1444
 10
1394.6884
 20
33.4034
 10
1394.6773
 20
33.6574
 10
1394.6633
 20
33.9064
 10
1394.6462
 20
34.1504
 10
1394.6263
 20
34.3894
 10
1394.6035
 20
34.6235
 10
1394.5775
 20
34.8488
 10
1394.5443
 20
35.0616
 10
1394.5039
 20
35.2617
 10
1394.4566
 20
35.4495
 10
1394.4027
 20
35.6247
 10
1394.3422
 20
35.7877
 10
1394.2754
 20
35.9383
 10
1394.2026
 20
36.0766
 10
1394.1185
 20
36.2127
 10
1394.0255
 20
36.3396
 10
1393.9239
 20
36.4571
 10
1393.8135
 20
36.5653
 10
1393.6945
 20
36.6643
 10
1393.5668
 20
36.754
 10
1393.4306
 20
36.8345
 10
1393.2858
 20
36.9058
 10
1393.1314
 20
36.9689
 10
1392.9636
 20
37.0236
 10
1392.7826
 20
37.07
 10
1392.5884
 20
37.108
 10
1392.381
 20
37.1375
 10
1392.1605
 20
37.1587
 10
1391.927
 20
37.1714
 10
1391.6805
 20
37.1756
 10
1391.4315
 20
37.1673
 10
1391.1801
 20
37.1422
 10
1390.926
 20
37.1003
 10
1390.6693
 20
37.0415
 10
1390.4099
 20
36.9658
 10
1390.1478
 20
36.873
 10
1389.8828
 20
36.7631
 10
1389.615
 20
36.6361
 10
1389.3473
 20
36.4959
 10
1389.0813
 20
36.3466
 10
1388.8172
 20
36.1881
 10
1388.555
 20
36.0204
 10
1388.2947
 20
35.8435
 10
1388.0362
 20
35.6572
 10
1387.7797
 20
35.4616
 10
1387.5251
 20
35.2565
 10
1387.5251
 20
23.4816
 10
1384.4958
 20
23.4816
 10
1384.4958
 20
39.2617
 10
1387.5251
 20
39.2617
 10
1387.5251
 20
37.5051
 10
1387.8228
 20
37.7583
 10
1388.1196
 20
37.997
 10
1388.4157
 20
38.2212
 10
1388.711
 20
38.4308
 10
1389.0056
 20
38.6256
 10
1389.2995
 20
38.8056
 10
1389.5927
 20
38.9706
 10
1389.8852
 20
39.1207
 10
1390.1805
 20
39.255
 10
1390.4832
 20
39.3715
 10
1390.7933
 20
39.4703
 10
1391.1107
 20
39.5512
 10
1391.4354
 20
39.6143
 10
1391.7674
 20
39.6594
 10
1392.1064
 20
39.6865
 10
1392.4526
 20
39.6955
 10
1392.8445
 20
39.6855
 10
1393.2255
 20
39.6556
 10
1393.5954
 20
39.6057
 10
1393.9542
 20
39.5359
 10
1394.3019
 20
39.4462
 10
1394.6385
 20
39.3367
 10
1394.9639
 20
39.2072
 10
1395.278
 20
39.0579
 10
1395.5761
 20
38.886
 10
1395.8558
 20
38.6888
 10
1396.1173
 20
38.4661
 10
1396.3604
 20
38.2179
 10
1396.5853
 20
37.9441
 10
1396.7918
 20
37.6447
 10
1396.9801
 20
37.3196
 10
1397.15
 20
36.9687
 10
1397.4924
 20
37.2937
 10
1397.8322
 20
37.5986
 10
1398.1695
 20
37.8832
 10
1398.5043
 20
38.1476
 10
1398.8369
 20
38.3916
 10
1399.1673
 20
38.6153
 10
1399.4956
 20
38.8185
 10
1399.8221
 20
39.0012
 10
1400.1524
 20
39.1639
 10
1400.4897
 20
39.305
 10
1400.834
 20
39.4243
 10
1401.1851
 20
39.5219
 10
1401.5431
 20
39.5979
 10
1401.9079
 20
39.6521
 10
1402.2795
 20
39.6847
 10
1402.6579
 20
39.6955
 10
1402.9453
 20
39.6905
 10
1403.2257
 20
39.6757
 10
1403.4992
 20
39.6508
 10
1403.7659
 20
39.616
 10
1404.0257
 20
39.5712
 10
1404.2789
 20
39.5164
 10
1404.5253
 20
39.4516
 10
1404.7652
 20
39.3767
 10
1404.9983
 20
39.2914
 10
1405.2243
 20
39.1941
 10
1405.443
 20
39.0847
 10
1405.6544
 20
38.9632
 10
1405.8583
 20
38.8295
 10
1406.0548
 20
38.6835
 10
1406.2435
 20
38.5251
 10
1406.4246
 20
38.3543
 10
1406.6
 20
38.168
 10
1406.7654
 20
37.9713
 10
1406.9206
 20
37.7638
 10
1407.0658
 20
37.5454
 10
1407.2007
 20
37.3159
 10
1407.3254
 20
37.0752
 10
1407.4397
 20
36.8231
 10
1407.5436
 20
36.5594
 10
1407.6361
 20
36.2829
 10
1407.7162
 20
35.9891
 10
1407.7839
 20
35.6781
 10
1407.8393
 20
35.3496
 10
1407.8823
 20
35.0038
 10
1407.913
 20
34.6406
 10
1407.9314
 20
34.2599
 10
1407.9375
 20
33.8617
 10
1407.9375
 20
23.4816
 10
1404.9099
 20
23.4816
  0
LWPOLYLINE
  5
9E
330
1F
100
AcDbEntity
  8
Layer 1
 62
     7
100
AcDbPolyline
 90
      190
 70
     1
 43
0.0
 10
1432.5592
 20
23.4816
 10
1432.5592
 20
32.6109
 10
1432.5577
 20
32.8802
 10
1432.5533
 20
33.1444
 10
1432.5458
 20
33.4034
 10
1432.5352
 20
33.6574
 10
1432.5216
 20
33.9064
 10
1432.5048
 20
34.1504
 10
1432.4848
 20
34.3894
 10
1432.4616
 20
34.6235
 10
1432.4352
 20
34.8488
 10
1432.4019
 20
35.0616
 10
1432.3617
 20
35.2617
 10
1432.3147
 20
35.4495
 10
1432.2611
 20
35.6247
 10
1432.2008
 20
35.7877
 10
1432.134
 20
35.9383
 10
1432.0607
 20
36.0766
 10
1431.9759
 20
36.2127
 10
1431.8824
 20
36.3396
 10
1431.7804
 20
36.4571
 10
1431.6698
 20
36.5653
 10
1431.551
 20
36.6643
 10
1431.4239
 20
36.754
 10
1431.2887
 20
36.8345
 10
1431.1456
 20
36.9058
 10
1430.99
 20
36.9689
 10
1430.8212
 20
37.0236
 10
1430.6392
 20
37.07
 10
1430.4443
 20
37.108
 10
1430.2363
 20
37.1375
 10
1430.0154
 20
37.1587
 10
1429.7817
 20
37.1714
 10
1429.5351
 20
37.1756
 10
1429.2992
 20
37.1677
 10
1429.0594
 20
37.144
 10
1428.8156
 20
37.1045
 10
1428.5677
 20
37.0492
 10
1428.3156
 20
36.978
 10
1428.059
 20
36.8911
 10
1427.798
 20
36.7883
 10
1427.5324
 20
36.6698
 10
1427.2643
 20
36.5378
 10
1426.9933
 20
36.3914
 10
1426.7197
 20
36.2305
 10
1426.4436
 20
36.0553
 10
1426.1652
 20
35.8658
 10
1425.8845
 20
35.6621
 10
1425.6017
 20
35.4442
 10
1425.317
 20
35.2121
 10
1425.3589
 20
34.6434
 10
1425.3815
 20
33.8571
 10
1425.3815
 20
23.4816
 10
1422.3539
 20
23.4816
 10
1422.3539
 20
32.6109
 10
1422.3524
 20
32.8802
 10
1422.3477
 20
33.1444
 10
1422.34
 20
33.4034
 10
1422.3293
 20
33.6574
 10
1422.3155
 20
33.9064
 10
1422.2988
 20
34.1504
 10
1422.279
 20
34.3894
 10
1422.2563
 20
34.6235
 10
1422.2299
 20
34.8488
 10
1422.1963
 20
35.0616
 10
1422.1559
 20
35.2617
 10
1422.1086
 20
35.4495
 10
1422.0546
 20
35.6247
 10
1421.994
 20
35.7877
 10
1421.927
 20
35.9383
 10
1421.8537
 20
36.0766
 10
1421.769
 20
36.2127
 10
1421.6757
 20
36.3396
 10
1421.5738
 20
36.4571
 10
1421.4635
 20
36.5653
 10
1421.3447
 20
36.6643
 10
1421.2176
 20
36.754
 10
1421.0822
 20
36.8345
 10
1420.9386
 20
36.9058
 10
1420.7835
 20
36.9689
 10
1420.6151
 20
37.0236
 10
1420.4335
 20
37.07
 10
1420.2388
 20
37.108
 10
1420.0309
 20
37.1375
 10
1419.8101
 20
37.1587
 10
1419.5764
 20
37.1714
 10
1419.3298
 20
37.1756
 10
1419.0819
 20
37.1673
 10
1418.8311
 20
37.1422
 10
1418.5774
 20
37.1003
 10
1418.3208
 20
37.0415
 10
1418.0614
 20
36.9658
 10
1417.7991
 20
36.873
 10
1417.534
 20
36.7631
 10
1417.2661
 20
36.6361
 10
1416.9978
 20
36.4959
 10
1416.7315
 20
36.3466
 10
1416.4671
 20
36.1881
 10
1416.2048
 20
36.0204
 10
1415.9445
 20
35.8435
 10
1415.6863
 20
35.6572
 10
1415.4302
 20
35.4616
 10
1415.1762
 20
35.2565
 10
1415.1762
 20
23.4816
 10
1412.1486
 20
23.4816
 10
1412.1486
 20
39.2617
 10
1415.1762
 20
39.2617
 10
1415.1762
 20
37.5051
 10
1415.4738
 20
37.7583
 10
1415.7707
 20
37.997
 10
1416.0668
 20
38.2212
 10
1416.3621
 20
38.4308
 10
1416.6567
 20
38.6256
 10
1416.9505
 20
38.8056
 10
1417.2437
 20
38.9706
 10
1417.5362
 20
39.1207
 10
1417.832
 20
39.255
 10
1418.135
 20
39.3715
 10
1418.4451
 20
39.4703
 10
1418.7625
 20
39.5512
 10
1419.087
 20
39.6143
 10
1419.4187
 20
39.6594
 10
1419.7576
 20
39.6865
 10
1420.1037
 20
39.6955
 10
1420.4956
 20
39.6855
 10
1420.8766
 20
39.6556
 10
1421.2465
 20
39.6057
 10
1421.6055
 20
39.5359
 10
1421.9534
 20
39.4462
 10
1422.2903
 20
39.3367
 10
1422.6161
 20
39.2072
 10
1422.9308
 20
39.0579
 10
1423.2278
 20
38.886
 10
1423.5069
 20
38.6888
 10
1423.768
 20
38.4661
 10
1424.0111
 20
38.2179
 10
1424.236
 20
37.9441
 10
1424.4427
 20
37.6447
 10
1424.6311
 20
37.3196
 10
1424.8011
 20
36.9687
 10
1425.1435
 20
37.2937
 10
1425.4833
 20
37.5986
 10
1425.8207
 20
37.8832
 10
1426.1556
 20
38.1476
 10
1426.4884
 20
38.3916
 10
1426.8191
 20
38.6153
 10
1427.1479
 20
38.8185
 10
1427.4749
 20
39.0012
 10
1427.8046
 20
39.1639
 10
1428.1415
 20
39.305
 10
1428.4855
 20
39.4243
 10
1428.8366
 20
39.5219
 10
1429.1947
 20
39.5979
 10
1429.5598
 20
39.6521
 10
1429.9318
 20
39.6847
 10
1430.3107
 20
39.6955
 10
1430.5971
 20
39.6905
 10
1430.877
 20
39.6757
 10
1431.1505
 20
39.6508
 10
1431.4173
 20
39.616
 10
1431.6776
 20
39.5712
 10
1431.9312
 20
39.5164
 10
1432.178
 20
39.4516
 10
1432.418
 20
39.3767
 10
1432.6505
 20
39.2914
 10
1432.8761
 20
39.1941
 10
1433.0945
 20
39.0847
 10
1433.3057
 20
38.9632
 10
1433.5095
 20
38.8295
 10
1433.7058
 20
38.6835
 10
1433.8946
 20
38.5251
 10
1434.0756
 20
38.3543
 10
1434.2515
 20
38.168
 10
1434.4171
 20
37.9713
 10
1434.5724
 20
37.7638
 10
1434.7175
 20
37.5454
 10
1434.8522
 20
37.3159
 10
1434.9766
 20
37.0752
 10
1435.0908
 20
36.8231
 10
1435.1946
 20
36.5594
 10
1435.2871
 20
36.2829
 10
1435.3672
 20
35.9891
 10
1435.4349
 20
35.6781
 10
1435.4903
 20
35.3496
 10
1435.5333
 20
35.0038
 10
1435.5641
 20
34.6406
 10
1435.5825
 20
34.2599
 10
1435.5886
 20
33.8617
 10
1435.5886
 20
23.4816
 10
1432.5592
 20
23.4816
  0
LWPOLYLINE
  5
9F
330
1F
100
AcDbEntity
  8
Layer 1
 62
     7
370
    20
100
AcDbPolyline
 90
        2
 70
     0
 43
0.0
 10
1059.8328
 20
-20.3535
 10
1213.8415
 20
-20.3535
  0
LWPOLYLINE
  5
A0
330
1F
100
AcDbEntity
  8
Layer 1
 62
     7
370
    20
100
AcDbPolyline
 90
        2
 70
     0
 43
0.0
 10
1059.8328
 20
-11.7315
 10
1213.8415
 20
-11.7315
  0
LWPOLYLINE
  5
A1
330
1F
100
AcDbEntity
  8
Layer 1
 62
     7
370
    20
100
AcDbPolyline
 90
        2
 70
     0
 43
0.0
 10
1059.8328
 20
-2.8565
 10
1213.8415
 20
-2.8565
  0
LWPOLYLINE
  5
A2
330
1F
100
AcDbEntity
  8
Layer 1
 62
     7
370
    20
100
AcDbPolyline
 90
        2
 70
     0
 43
0.0
 10
1059.8328
 20
6.0153
 10
1213.8415
 20
6.0153
  0
LWPOLYLINE
  5
A3
330
1F
100
AcDbEntity
  8
Layer 1
 62
     7
370
    20
100
AcDbPolyline
 90
        2
 70
     0
 43
0.0
 10
1059.8328
 20
14.6388
 10
1213.8415
 20
14.6388
  0
LWPOLYLINE
  5
A4
330
1F
100
AcDbEntity
  8
Layer 1
 62
     7
370
    20
100
AcDbPolyline
 90
        2
 70
     0
 43
0.0
 10
1059.8328
 20
23.3835
 10
1213.8415
 20
23.3835
  0
LWPOLYLINE
  5
A5
330
1F
100
AcDbEntity
  8
Layer 1
 62
     7
370
    20
100
AcDbPolyline
 90
        2
 70
     0
 43
0.0
 10
1059.8328
 20
32.1327
 10
1213.8415
 20
32.1327
  0
LWPOLYLINE
  5
A6
330
1F
100
AcDbEntity
  8
Layer 1
 62
     7
370
    20
100
AcDbPolyline
 90
        2
 70
     0
 43
0.0
 10
1059.8328
 20
40.8804
 10
1213.8415
 20
40.8804
  0
LWPOLYLINE
  5
A7
330
1F
100
AcDbEntity
  8
Layer 1
 62
     7
370
    20
100
AcDbPolyline
 90
        2
 70
     0
 43
0.0
 10
1059.8328
 20
49.6296
 10
1213.8415
 20
49.6296
  0
LWPOLYLINE
  5
A8
330
1F
100
AcDbEntity
  8
Layer 1
 62
     7
370
    20
100
AcDbPolyline
 90
        2
 70
     0
 43
0.0
 10
1059.8328
 20
58.6302
 10
1213.8415
 20
58.6302
  0
LWPOLYLINE
  5
A9
330
1F
100
AcDbEntity
  8
Layer 1
 62
     7
370
    20
100
AcDbPolyline
 90
        2
 70
     0
 43
0.0
 10
1059.8328
 20
66.869
 10
1213.8415
 20
66.869
  0
LWPOLYLINE
  5
AA
330
1F
100
AcDbEntity
  8
Layer 1
 62
     7
370
    20
100
AcDbPolyline
 90
        2
 70
     0
 43
0.0
 10
1059.8328
 20
75.7454
 10
1213.8415
 20
75.7454
  0
LWPOLYLINE
  5
AB
330
1F
100
AcDbEntity
  8
Layer 1
 62
     7
370
    20
100
AcDbPolyline
 90
        2
 70
     0
 43
0.0
 10
1059.8328
 20
84.7491
 10
1213.8415
 20
84.7491
  0
LWPOLYLINE
  5
AC
330
1F
100
AcDbEntity
  8
Layer 1
 62
     7
370
    20
100
AcDbPolyline
 90
      244
 70
     1
 43
0.0
 10
1058.8358
 20
92.9833
 10
1060.2599
 20
92.9833
 10
1214.9901
 20
92.9833
 10
1214.9901
 20
-29.2314
 10
1058.8358
 20
-29.2314
 10
1058.8358
 20
-28.675
 10
1058.0884
 20
-28.4368
 10
1057.4052
 20
-28.1077
 10
1056.7972
 20
-27.6967
 10
1056.2752
 20
-27.2129
 10
1055.8501
 20
-26.6654
 10
1055.533
 20
-26.0632
 10
1055.3347
 20
-25.4154
 10
1055.2662
 20
-24.7311
 10
1055.3347
 20
-24.0483
 10
1055.533
 20
-23.4015
 10
1055.8501
 20
-22.7999
 10
1056.2752
 20
-22.2528
 10
1056.7972
 20
-21.7692
 10
1057.4052
 20
-21.3584
 10
1058.0884
 20
-21.0295
 10
1058.8358
 20
-20.7918
 10
1058.8358
 20
-19.935
 10
1058.0884
 20
-19.6978
 10
1057.4052
 20
-19.3693
 10
1056.7972
 20
-18.9588
 10
1056.2752
 20
-18.4754
 10
1055.8501
 20
-17.9283
 10
1055.533
 20
-17.3268
 10
1055.3347
 20
-16.6801
 10
1055.2662
 20
-15.9972
 10
1055.3347
 20
-15.3124
 10
1055.533
 20
-14.6643
 10
1055.8501
 20
-14.0618
 10
1056.2752
 20
-13.5141
 10
1056.7972
 20
-13.0302
 10
1057.4052
 20
-12.6191
 10
1058.0884
 20
-12.29
 10
1058.8358
 20
-12.0518
 10
1058.8358
 20
-11.198
 10
1058.0884
 20
-10.9598
 10
1057.4052
 20
-10.6305
 10
1056.7972
 20
-10.2194
 10
1056.2752
 20
-9.7355
 10
1055.8501
 20
-9.1881
 10
1055.533
 20
-8.5862
 10
1055.3347
 20
-7.939
 10
1055.2662
 20
-7.2557
 10
1055.3347
 20
-6.5729
 10
1055.533
 20
-5.926
 10
1055.8501
 20
-5.3244
 10
1056.2752
 20
-4.777
 10
1056.7972
 20
-4.293
 10
1057.4052
 20
-3.8817
 10
1058.0884
 20
-3.5521
 10
1058.8358
 20
-3.3133
 10
1058.8358
 20
-2.458
 10
1058.0884
 20
-2.2198
 10
1057.4052
 20
-1.8908
 10
1056.7972
 20
-1.4799
 10
1056.2752
 20
-0.9963
 10
1055.8501
 20
-0.4491
 10
1055.533
 20
0.1525
 10
1055.3347
 20
0.7995
 10
1055.2662
 20
1.4828
 10
1055.3347
 20
2.1666
 10
1055.533
 20
2.814
 10
1055.8501
 20
3.416
 10
1056.2752
 20
3.9635
 10
1056.7972
 20
4.4473
 10
1057.4052
 20
4.8586
 10
1058.0884
 20
5.188
 10
1058.8358
 20
5.4267
 10
1058.8358
 20
6.282
 10
1058.0884
 20
6.5191
 10
1057.4052
 20
6.8473
 10
1056.7972
 20
7.2576
 10
1056.2752
 20
7.7409
 10
1055.8501
 20
8.2881
 10
1055.533
 20
8.8902
 10
1055.3347
 20
9.5381
 10
1055.2662
 20
10.2228
 10
1055.3347
 20
10.9062
 10
1055.533
 20
11.5536
 10
1055.8501
 20
12.1557
 10
1056.2752
 20
12.7033
 10
1056.7972
 20
13.1872
 10
1057.4052
 20
13.5983
 10
1058.0884
 20
13.9274
 10
1058.8358
 20
14.1652
 10
1058.8358
 20
15.019
 10
1058.0884
 20
15.2562
 10
1057.4052
 20
15.5847
 10
1056.7972
 20
15.9954
 10
1056.2752
 20
16.4791
 10
1055.8501
 20
17.0267
 10
1055.533
 20
17.629
 10
1055.3347
 20
18.2769
 10
1055.2662
 20
18.9613
 10
1055.3347
 20
19.6447
 10
1055.533
 20
20.2921
 10
1055.8501
 20
20.8942
 10
1056.2752
 20
21.4418
 10
1056.7972
 20
21.9257
 10
1057.4052
 20
22.3368
 10
1058.0884
 20
22.6659
 10
1058.8358
 20
22.9037
 10
1058.8358
 20
23.7559
 10
1058.0884
 20
23.9942
 10
1057.4052
 20
24.3235
 10
1056.7972
 20
24.7346
 10
1056.2752
 20
25.2186
 10
1055.8501
 20
25.7662
 10
1055.533
 20
26.3684
 10
1055.3347
 20
27.0159
 10
1055.2662
 20
27.6998
 10
1055.3347
 20
28.3837
 10
1055.533
 20
29.0312
 10
1055.8501
 20
29.6334
 10
1056.2752
 20
30.181
 10
1056.7972
 20
30.665
 10
1057.4052
 20
31.0762
 10
1058.0884
 20
31.4055
 10
1058.8358
 20
31.6437
 10
1058.8358
 20
32.496
 10
1058.0884
 20
32.7342
 10
1057.4052
 20
33.0632
 10
1056.7972
 20
33.4741
 10
1056.2752
 20
33.9577
 10
1055.8501
 20
34.5048
 10
1055.533
 20
35.1065
 10
1055.3347
 20
35.7535
 10
1055.2662
 20
36.4368
 10
1055.3347
 20
37.1206
 10
1055.533
 20
37.768
 10
1055.8501
 20
38.3698
 10
1056.2752
 20
38.9171
 10
1056.7972
 20
39.4005
 10
1057.4052
 20
39.8112
 10
1058.0884
 20
40.1399
 10
1058.8358
 20
40.3776
 10
1058.8358
 20
41.236
 10
1058.0884
 20
41.4736
 10
1057.4052
 20
41.8022
 10
1056.7972
 20
42.2127
 10
1056.2752
 20
42.696
 10
1055.8501
 20
43.2431
 10
1055.533
 20
43.845
 10
1055.3347
 20
44.4926
 10
1055.2662
 20
45.1768
 10
1055.3347
 20
45.8602
 10
1055.533
 20
46.5076
 10
1055.8501
 20
47.1097
 10
1056.2752
 20
47.6575
 10
1056.7972
 20
48.1416
 10
1057.4052
 20
48.553
 10
1058.0884
 20
48.8824
 10
1058.8358
 20
49.1207
 10
1058.8358
 20
49.9745
 10
1058.0884
 20
50.2112
 10
1057.4052
 20
50.5393
 10
1056.7972
 20
50.9497
 10
1056.2752
 20
51.4331
 10
1055.8501
 20
51.9804
 10
1055.533
 20
52.5824
 10
1055.3347
 20
53.2299
 10
1055.2662
 20
53.9138
 10
1055.3347
 20
54.5986
 10
1055.533
 20
55.2467
 10
1055.8501
 20
55.8491
 10
1056.2752
 20
56.3967
 10
1056.7972
 20
56.8805
 10
1057.4052
 20
57.2912
 10
1058.0884
 20
57.62
 10
1058.8358
 20
57.8577
 10
1058.8358
 20
58.7099
 10
1058.0884
 20
58.9481
 10
1057.4052
 20
59.2774
 10
1056.7972
 20
59.6885
 10
1056.2752
 20
60.1724
 10
1055.8501
 20
60.7198
 10
1055.533
 20
61.3217
 10
1055.3347
 20
61.9689
 10
1055.2662
 20
62.6523
 10
1055.3347
 20
63.337
 10
1055.533
 20
63.985
 10
1055.8501
 20
64.5873
 10
1056.2752
 20
65.1348
 10
1056.7972
 20
65.6186
 10
1057.4052
 20
66.0297
 10
1058.0884
 20
66.3591
 10
1058.8358
 20
66.5977
 10
1058.8358
 20
67.4499
 10
1058.0884
 20
67.6882
 10
1057.4052
 20
68.0174
 10
1056.7972
 20
68.4285
 10
1056.2752
 20
68.9122
 10
1055.8501
 20
69.4595
 10
1055.533
 20
70.0611
 10
1055.3347
 20
70.7079
 10
1055.2662
 20
71.3908
 10
1055.3347
 20
72.0755
 10
1055.533
 20
72.7233
 10
1055.8501
 20
73.3252
 10
1056.2752
 20
73.8724
 10
1056.7972
 20
74.3557
 10
1057.4052
 20
74.7663
 10
1058.0884
 20
75.0951
 10
1058.8358
 20
75.3331
 10
1058.8358
 20
76.1869
 10
1058.0884
 20
76.4257
 10
1057.4052
 20
76.7555
 10
1056.7972
 20
77.1672
 10
1056.2752
 20
77.6515
 10
1055.8501
 20
78.1993
 10
1055.533
 20
78.8015
 10
1055.3347
 20
79.4489
 10
1055.2662
 20
80.1323
 10
1055.3347
 20
80.8157
 10
1055.533
 20
81.4628
 10
1055.8501
 20
82.0647
 10
1056.2752
 20
82.612
 10
1056.7972
 20
83.0957
 10
1057.4052
 20
83.5065
 10
1058.0884
 20
83.8354
 10
1058.8358
 20
84.0731
 10
1058.8358
 20
84.9269
 10
1058.0884
 20
85.1648
 10
1057.4052
 20
85.4942
 10
1056.7972
 20
85.9058
 10
1056.2752
 20
86.3902
 10
1055.8501
 20
86.9382
 10
1055.533
 20
87.5405
 10
1055.3347
 20
88.1878
 10
1055.2662
 20
88.8708
 10
1055.3347
 20
89.5546
 10
1055.533
 20
90.202
 10
1055.8501
 20
90.8038
 10
1056.2752
 20
91.3509
 10
1056.7972
 20
91.8342
 10
1057.4052
 20
92.2446
 10
1058.0884
 20
92.573
 10
1058.8358
 20
92.8101
 10
1058.8358
 20
92.9833
  0
LWPOLYLINE
  5
AD
330
1F
100
AcDbEntity
  8
Layer 1
 62
     7
370
    25
100
AcDbPolyline
 90
        5
 70
     1
 43
0.0
 10
1846.1129
 20
-38.9535
 10
1836.0275
 20
-38.9535
 10
1836.0275
 20
-44.3871
 10
1846.1129
 20
-44.3871
 10
1846.1129
 20
-38.9535
  0
LWPOLYLINE
  5
AE
330
1F
100
AcDbEntity
  8
Layer 1
 62
     7
370
    25
100
AcDbPolyline
 90
        5
 70
     1
 43
0.0
 10
1766.7369
 20
-38.9535
 10
1756.6498
 20
-38.9535
 10
1756.6498
 20
-44.3871
 10
1766.7369
 20
-44.3871
 10
1766.7369
 20
-38.9535
  0
LWPOLYLINE
  5
AF
330
1F
100
AcDbEntity
  8
Layer 1
 62
     7
370
    20
100
AcDbPolyline
 90
        2
 70
     0
 43
0.0
 10
1558.778
 20
85.0402
 10
1558.778
 20
66.1971
  0
LWPOLYLINE
  5
B0
330
1F
100
AcDbEntity
  8
Layer 1
 62
     7
370
    20
100
AcDbPolyline
 90
        2
 70
     0
 43
0.0
 10
2039.4734
 20
85.0402
 10
2039.4734
 20
66.1971
  0
LWPOLYLINE
  5
B1
330
1F
100
AcDbEntity
  8
Layer 1
 62
     7
370
    20
100
AcDbPolyline
 90
        2
 70
     0
 43
0.0
 10
2039.4734
 20
76.4016
 10
1558.778
 20
76.4016
  0
LWPOLYLINE
  5
B2
330
1F
100
AcDbEntity
  8
Layer 1
 62
     7
100
AcDbPolyline
 90
      184
 70
     1
 43
0.0
 10
1708.0924
 20
85.9492
 10
1708.0822
 20
85.7005
 10
1708.0515
 20
85.4565
 10
1708.0006
 20
85.2171
 10
1707.9297
 20
84.9824
 10
1707.8387
 20
84.7522
 10
1707.7281
 20
84.5265
 10
1707.5978
 20
84.3054
 10
1707.448
 20
84.0887
 10
1707.28
 20
83.8783
 10
1707.0952
 20
83.6753
 10
1706.8938
 20
83.4796
 10
1706.6761
 20
83.2914
 10
1706.4423
 20
83.1106
 10
1706.1926
 20
82.9373
 10
1705.9274
 20
82.7715
 10
1705.6468
 20
82.6131
 10
1705.3443
 20
82.4589
 10
1705.0243
 20
82.313
 10
1704.6866
 20
82.1755
 10
1704.3313
 20
82.0464
 10
1703.9581
 20
81.9259
 10
1703.5671
 20
81.8139
 10
1703.158
 20
81.7104
 10
1702.7308
 20
81.6156
 10
1702.2876
 20
81.5308
 10
1701.8317
 20
81.4574
 10
1701.363
 20
81.3953
 10
1700.8814
 20
81.3445
 10
1700.3866
 20
81.305
 10
1699.8785
 20
81.2768
 10
1699.3571
 20
81.2598
 10
1698.8222
 20
81.2542
 10
1698.3238
 20
81.2576
 10
1697.8278
 20
81.2678
 10
1697.3342
 20
81.2849
 10
1696.8428
 20
81.3088
 10
1696.3536
 20
81.3395
 10
1695.8666
 20
81.3771
 10
1695.3816
 20
81.4216
 10
1694.8985
 20
81.4729
 10
1694.4237
 20
81.5298
 10
1693.9649
 20
81.5908
 10
1693.5221
 20
81.6561
 10
1693.0953
 20
81.7257
 10
1692.6847
 20
81.7997
 10
1692.2904
 20
81.878
 10
1691.9123
 20
81.9607
 10
1691.5507
 20
82.048
 10
1691.5507
 20
84.0161
 10
1691.8101
 20
84.0161
 10
1692.0487
 20
83.9325
 10
1692.333
 20
83.844
 10
1692.6635
 20
83.7501
 10
1693.0405
 20
83.6505
 10
1694.8148
 20
83.2699
 10
1695.0873
 20
83.2213
 10
1695.3536
 20
83.1757
 10
1695.6138
 20
83.1329
 10
1695.8682
 20
83.0931
 10
1696.1167
 20
83.0561
 10
1696.3595
 20
83.0219
 10
1696.5968
 20
82.9905
 10
1696.8286
 20
82.9619
 10
1697.0605
 20
82.9362
 10
1697.2994
 20
82.9141
 10
1697.5451
 20
82.8956
 10
1697.7978
 20
82.8806
 10
1698.0573
 20
82.869
 10
1698.3238
 20
82.8608
 10
1698.5972
 20
82.8559
 10
1698.8775
 20
82.8543
 10
1699.1586
 20
82.8574
 10
1699.437
 20
82.8668
 10
1699.713
 20
82.8824
 10
1699.9867
 20
82.9043
 10
1700.2582
 20
82.9323
 10
1700.5278
 20
82.9666
 10
1700.7957
 20
83.0071
 10
1701.0619
 20
83.0538
 10
1701.3247
 20
83.1077
 10
1701.5773
 20
83.1694
 10
1701.8198
 20
83.2388
 10
1702.0525
 20
83.316
 10
1702.2756
 20
83.4008
 10
1702.4894
 20
83.4933
 10
1702.6941
 20
83.5935
 10
1702.8899
 20
83.7014
 10
1703.0589
 20
83.8059
 10
1703.2171
 20
83.9147
 10
1703.3646
 20
84.0278
 10
1703.5015
 20
84.1453
 10
1703.6279
 20
84.2673
 10
1703.7441
 20
84.3937
 10
1703.8501
 20
84.5248
 10
1703.9461
 20
84.6605
 10
1704.0314
 20
84.8004
 10
1704.1053
 20
84.9466
 10
1704.1677
 20
85.0991
 10
1704.2188
 20
85.2577
 10
1704.2584
 20
85.4224
 10
1704.2868
 20
85.5931
 10
1704.3037
 20
85.7699
 10
1704.3094
 20
85.9525
 10
1704.3031
 20
86.1327
 10
1704.2843
 20
86.3046
 10
1704.2529
 20
86.4682
 10
1704.2089
 20
86.6236
 10
1704.1524
 20
86.7706
 10
1704.0834
 20
86.9093
 10
1704.0018
 20
87.0398
 10
1703.9076
 20
87.1619
 10
1703.8021
 20
87.2782
 10
1703.6851
 20
87.3892
 10
1703.5567
 20
87.4949
 10
1703.4168
 20
87.5954
 10
1703.2654
 20
87.6907
 10
1703.1026
 20
87.7808
 10
1702.9283
 20
87.8658
 10
1702.7426
 20
87.9457
 10
1702.5361
 20
88.0307
 10
1702.3185
 20
88.1091
 10
1702.0896
 20
88.1811
 10
1701.8495
 20
88.2466
 10
1701.5981
 20
88.3056
 10
1701.3354
 20
88.3584
 10
1701.0612
 20
88.4047
 10
1700.7757
 20
88.4448
 10
1700.4798
 20
88.4782
 10
1700.1758
 20
88.5072
 10
1699.8637
 20
88.5317
 10
1699.5433
 20
88.5518
 10
1699.2146
 20
88.5674
 10
1698.8775
 20
88.5786
 10
1698.5319
 20
88.5853
 10
1698.1778
 20
88.5875
 10
1697.8008
 20
88.5857
 10
1697.4229
 20
88.5803
 10
1697.0443
 20
88.5712
 10
1696.665
 20
88.5584
 10
1696.2848
 20
88.5419
 10
1695.9039
 20
88.5216
 10
1695.5221
 20
88.4976
 10
1695.1396
 20
88.4698
 10
1692.6973
 20
88.2445
 10
1692.6973
 20
95.3874
 10
1707.9368
 20
95.3874
 10
1707.9368
 20
93.7682
 10
1696.2862
 20
93.7682
 10
1696.2862
 20
90.0765
 10
1697.6103
 20
90.13
 10
1698.8021
 20
90.1492
 10
1699.3235
 20
90.1464
 10
1699.8245
 20
90.138
 10
1700.3051
 20
90.124
 10
1700.7654
 20
90.1044
 10
1701.2056
 20
90.0794
 10
1701.6257
 20
90.0488
 10
1702.0258
 20
90.0128
 10
1702.4061
 20
89.9714
 10
1702.7721
 20
89.9221
 10
1703.1347
 20
89.8624
 10
1703.4937
 20
89.7924
 10
1703.8494
 20
89.712
 10
1704.2018
 20
89.6212
 10
1704.551
 20
89.5199
 10
1704.8971
 20
89.4083
 10
1705.2401
 20
89.2861
 10
1705.5731
 20
89.1511
 10
1705.8865
 20
89.0084
 10
1706.1803
 20
88.8578
 10
1706.4543
 20
88.6993
 10
1706.7084
 20
88.5327
 10
1706.9427
 20
88.3581
 10
1707.1569
 20
88.1752
 10
1707.3509
 20
87.9841
 10
1707.524
 20
87.7813
 10
1707.6744
 20
87.5638
 10
1707.8018
 20
87.3314
 10
1707.9062
 20
87.0843
 10
1707.9875
 20
86.8225
 10
1708.0457
 20
86.546
 10
1708.0807
 20
86.2549
 10
1708.0924
 20
85.9492
  0
LWPOLYLINE
  5
B3
330
1F
100
AcDbEntity
  8
Layer 1
 62
     7
100
AcDbPolyline
 90
      162
 70
     1
 43
0.0
 10
1729.2074
 20
81.5397
 10
1712.0948
 20
81.5397
 10
1712.0948
 20
83.492
 10
1715.5849
 20
85.1654
 10
1715.9942
 20
85.3664
 10
1716.4011
 20
85.5695
 10
1716.8055
 20
85.7746
 10
1717.2076
 20
85.9818
 10
1717.6075
 20
86.1911
 10
1718.0051
 20
86.4024
 10
1718.4005
 20
86.6159
 10
1718.7939
 20
86.8314
 10
1719.5552
 20
87.2552
 10
1720.2536
 20
87.6573
 10
1720.889
 20
88.0377
 10
1721.4615
 20
88.3964
 10
1721.9709
 20
88.7335
 10
1722.4173
 20
89.049
 10
1722.8007
 20
89.3431
 10
1723.121
 20
89.6158
 10
1723.3919
 20
89.8777
 10
1723.6271
 20
90.142
 10
1723.8264
 20
90.4086
 10
1723.9898
 20
90.6776
 10
1724.117
 20
90.949
 10
1724.208
 20
91.2228
 10
1724.2627
 20
91.499
 10
1724.281
 20
91.7776
 10
1724.2754
 20
91.9196
 10
1724.2584
 20
92.0571
 10
1724.2302
 20
92.1902
 10
1724.1906
 20
92.3189
 10
1724.1398
 20
92.4433
 10
1724.0776
 20
92.5634
 10
1724.0042
 20
92.6792
 10
1723.9194
 20
92.7908
 10
1723.8239
 20
92.898
 10
1723.7197
 20
93.0004
 10
1723.6067
 20
93.098
 10
1723.4853
 20
93.1909
 10
1723.3554
 20
93.2789
 10
1723.2172
 20
93.3622
 10
1723.071
 20
93.4408
 10
1722.9167
 20
93.5145
 10
1722.7512
 20
93.5824
 10
1722.5786
 20
93.6459
 10
1722.399
 20
93.705
 10
1722.2127
 20
93.7597
 10
1722.0196
 20
93.8099
 10
1721.82
 20
93.8556
 10
1721.614
 20
93.8968
 10
1721.4018
 20
93.9335
 10
1721.1851
 20
93.9658
 10
1720.9632
 20
93.994
 10
1720.736
 20
94.0179
 10
1720.5034
 20
94.0376
 10
1720.2652
 20
94.053
 10
1720.0215
 20
94.064
 10
1719.7721
 20
94.0707
 10
1719.517
 20
94.0729
 10
1719.2713
 20
94.071
 10
1719.0241
 20
94.0652
 10
1718.7752
 20
94.0554
 10
1718.525
 20
94.0417
 10
1718.2734
 20
94.0239
 10
1718.0206
 20
94.0021
 10
1717.7666
 20
93.9761
 10
1717.5116
 20
93.946
 10
1717.2582
 20
93.914
 10
1717.0076
 20
93.88
 10
1716.7598
 20
93.844
 10
1716.515
 20
93.806
 10
1716.2731
 20
93.766
 10
1716.0341
 20
93.7242
 10
1715.798
 20
93.6804
 10
1715.5649
 20
93.6347
 10
1715.3682
 20
93.5945
 10
1715.1737
 20
93.5522
 10
1714.9813
 20
93.5078
 10
1714.7909
 20
93.4613
 10
1714.6024
 20
93.4127
 10
1714.4159
 20
93.3619
 10
1714.2312
 20
93.3091
 10
1714.0483
 20
93.2541
 10
1712.8732
 20
92.8726
 10
1712.669
 20
92.8726
 10
1712.669
 20
94.8382
 10
1712.9717
 20
94.9104
 10
1713.3025
 20
94.9818
 10
1713.6615
 20
95.0524
 10
1714.0487
 20
95.1226
 10
1714.4643
 20
95.1922
 10
1714.9085
 20
95.2616
 10
1715.3813
 20
95.3308
 10
1715.8829
 20
95.4
 10
1716.3947
 20
95.4637
 10
1716.8996
 20
95.519
 10
1717.3976
 20
95.5659
 10
1717.8887
 20
95.6044
 10
1718.3731
 20
95.6343
 10
1718.8508
 20
95.6557
 10
1719.3219
 20
95.6686
 10
1719.7865
 20
95.6729
 10
1720.729
 20
95.6568
 10
1721.6192
 20
95.6086
 10
1722.4572
 20
95.5284
 10
1723.243
 20
95.4161
 10
1723.9766
 20
95.2719
 10
1724.658
 20
95.0957
 10
1725.2873
 20
94.8877
 10
1725.8645
 20
94.6479
 10
1726.38
 20
94.3793
 10
1726.8266
 20
94.0881
 10
1727.2043
 20
93.7742
 10
1727.5134
 20
93.4376
 10
1727.7536
 20
93.0783
 10
1727.9252
 20
92.6962
 10
1728.0281
 20
92.2912
 10
1728.0624
 20
91.8635
 10
1728.0565
 20
91.663
 10
1728.0388
 20
91.4663
 10
1728.0092
 20
91.2736
 10
1727.9676
 20
91.0848
 10
1727.9141
 20
90.8999
 10
1727.8484
 20
90.7189
 10
1727.7707
 20
90.5418
 10
1727.6807
 20
90.3687
 10
1727.5803
 20
90.1987
 10
1727.4713
 20
90.0316
 10
1727.3535
 20
89.8677
 10
1727.2269
 20
89.7068
 10
1727.0914
 20
89.5491
 10
1726.947
 20
89.3945
 10
1726.7936
 20
89.2431
 10
1726.6312
 20
89.095
 10
1726.4547
 20
88.944
 10
1726.2693
 20
88.7932
 10
1726.0749
 20
88.6428
 10
1725.8717
 20
88.4928
 10
1725.6594
 20
88.343
 10
1725.4382
 20
88.1935
 10
1725.2081
 20
88.0444
 10
1724.969
 20
87.8956
 10
1724.7257
 20
87.748
 10
1724.479
 20
87.6008
 10
1724.2289
 20
87.454
 10
1723.9753
 20
87.3076
 10
1723.7182
 20
87.1616
 10
1723.4575
 20
87.0162
 10
1723.1932
 20
86.8714
 10
1722.9251
 20
86.7271
 10
1722.4793
 20
86.489
 10
1722.0219
 20
86.2485
 10
1721.5526
 20
86.0056
 10
1721.0713
 20
85.7604
 10
1720.5777
 20
85.5128
 10
1720.0717
 20
85.2628
 10
1719.553
 20
85.0104
 10
1719.0215
 20
84.7556
 10
1715.5849
 20
83.1397
 10
1729.2074
 20
83.1397
 10
1729.2074
 20
81.5397
  0
LWPOLYLINE
  5
B4
330
1F
100
AcDbEntity
  8
Layer 1
 62
     7
100
AcDbPolyline
 90
       65
 70
     1
 43
0.0
 10
1750.2503
 20
88.4732
 10
1750.2163
 20
87.572
 10
1750.1142
 20
86.7328
 10
1749.9443
 20
85.9554
 10
1749.7065
 20
85.24
 10
1749.401
 20
84.5864
 10
1749.0279
 20
83.9947
 10
1748.5872
 20
83.4649
 10
1748.0792
 20
82.997
 10
1747.4977
 20
82.5886
 10
1746.8429
 20
82.2346
 10
1746.1146
 20
81.935
 10
1745.3129
 20
81.6899
 10
1744.4376
 20
81.4993
 10
1743.4888
 20
81.3631
 10
1742.4663
 20
81.2814
 10
1741.3701
 20
81.2542
 10
1740.2594
 20
81.282
 10
1739.2258
 20
81.3654
 10
1738.2692
 20
81.5044
 10
1737.3891
 20
81.699
 10
1736.5855
 20
81.9491
 10
1735.8581
 20
82.2546
 10
1735.2067
 20
82.6157
 10
1734.6309
 20
83.0321
 10
1734.1283
 20
83.5051
 10
1733.6928
 20
84.0366
 10
1733.3242
 20
84.6266
 10
1733.0227
 20
85.2751
 10
1732.7882
 20
85.982
 10
1732.6206
 20
86.7475
 10
1732.5201
 20
87.5715
 10
1732.4866
 20
88.454
 10
1732.5206
 20
89.3594
 10
1732.6225
 20
90.202
 10
1732.7923
 20
90.9818
 10
1733.03
 20
91.6987
 10
1733.3356
 20
92.3527
 10
1733.709
 20
92.9437
 10
1734.1503
 20
93.4718
 10
1734.6594
 20
93.9368
 10
1735.2399
 20
94.344
 10
1735.8941
 20
94.6968
 10
1736.6222
 20
94.9952
 10
1737.4241
 20
95.2393
 10
1738.2998
 20
95.4291
 10
1739.2493
 20
95.5645
 10
1740.2728
 20
95.6458
 10
1741.3701
 20
95.6729
 10
1742.4793
 20
95.6448
 10
1743.512
 20
95.5604
 10
1744.4682
 20
95.4199
 10
1745.348
 20
95.2232
 10
1746.1515
 20
94.9705
 10
1746.8786
 20
94.6616
 10
1747.5296
 20
94.2968
 10
1748.1044
 20
93.8759
 10
1748.608
 20
93.3988
 10
1749.0442
 20
92.8652
 10
1749.413
 20
92.2749
 10
1749.7147
 20
91.6281
 10
1749.9491
 20
90.9245
 10
1750.1165
 20
90.1642
 10
1750.2169
 20
89.3471
 10
1750.2503
 20
88.4732
  0
LWPOLYLINE
  5
B5
330
1F
100
AcDbEntity
  8
Layer 1
 62
     7
100
AcDbPolyline
 90
      129
 70
     1
 43
0.0
 10
1745.4746
 20
84.254
 10
1745.6057
 20
84.4323
 10
1745.7268
 20
84.6215
 10
1745.8377
 20
84.822
 10
1745.9387
 20
85.0336
 10
1746.0298
 20
85.2564
 10
1746.1111
 20
85.4906
 10
1746.1827
 20
85.7363
 10
1746.2446
 20
85.9934
 10
1746.2965
 20
86.2613
 10
1746.3415
 20
86.5412
 10
1746.3798
 20
86.833
 10
1746.4111
 20
87.1369
 10
1746.4356
 20
87.4528
 10
1746.4531
 20
87.7808
 10
1746.4637
 20
88.1209
 10
1746.4672
 20
88.4732
 10
1746.4637
 20
88.8222
 10
1746.4531
 20
89.1598
 10
1746.4356
 20
89.486
 10
1746.4111
 20
89.8007
 10
1746.3798
 20
90.1038
 10
1746.3415
 20
90.3953
 10
1746.2965
 20
90.675
 10
1746.2446
 20
90.9429
 10
1746.1825
 20
91.2005
 10
1746.1102
 20
91.4467
 10
1746.0278
 20
91.6817
 10
1745.9351
 20
91.9055
 10
1745.8322
 20
92.1181
 10
1745.719
 20
92.3195
 10
1745.5953
 20
92.5098
 10
1745.4612
 20
92.689
 10
1745.314
 20
92.861
 10
1745.1538
 20
93.022
 10
1744.9805
 20
93.1721
 10
1744.7944
 20
93.3114
 10
1744.5955
 20
93.4399
 10
1744.3838
 20
93.5577
 10
1744.1596
 20
93.6649
 10
1743.9229
 20
93.7615
 10
1743.6671
 20
93.8476
 10
1743.3931
 20
93.9223
 10
1743.101
 20
93.9857
 10
1742.7909
 20
94.0377
 10
1742.4627
 20
94.0782
 10
1742.1164
 20
94.1072
 10
1741.7522
 20
94.1247
 10
1741.3701
 20
94.1305
 10
1740.9913
 20
94.1247
 10
1740.6295
 20
94.1072
 10
1740.2848
 20
94.0782
 10
1739.9573
 20
94.0377
 10
1739.6471
 20
93.9857
 10
1739.3542
 20
93.9223
 10
1739.0787
 20
93.8476
 10
1738.8207
 20
93.7615
 10
1738.5768
 20
93.6646
 10
1738.3462
 20
93.5565
 10
1738.1288
 20
93.4373
 10
1737.9248
 20
93.3069
 10
1737.734
 20
93.1653
 10
1737.5567
 20
93.0124
 10
1737.3927
 20
92.8484
 10
1737.2422
 20
92.6731
 10
1737.1072
 20
92.49
 10
1736.9835
 20
92.2956
 10
1736.8709
 20
92.0898
 10
1736.7693
 20
91.8726
 10
1736.6788
 20
91.644
 10
1736.5991
 20
91.4038
 10
1736.5303
 20
91.1521
 10
1736.4722
 20
90.8887
 10
1736.4255
 20
90.6144
 10
1736.3848
 20
90.3316
 10
1736.35
 20
90.0403
 10
1736.3214
 20
89.7405
 10
1736.2989
 20
89.432
 10
1736.2828
 20
89.1148
 10
1736.273
 20
88.7888
 10
1736.2697
 20
88.454
 10
1736.2724
 20
88.0994
 10
1736.2804
 20
87.7595
 10
1736.294
 20
87.4342
 10
1736.313
 20
87.1235
 10
1736.3376
 20
86.8276
 10
1736.3678
 20
86.5464
 10
1736.4037
 20
86.2801
 10
1736.4454
 20
86.0285
 10
1736.4961
 20
85.7886
 10
1736.5602
 20
85.5547
 10
1736.6376
 20
85.3269
 10
1736.7283
 20
85.1054
 10
1736.8322
 20
84.89
 10
1736.9491
 20
84.681
 10
1737.0791
 20
84.4785
 10
1737.2221
 20
84.2824
 10
1737.3634
 20
84.109
 10
1737.5198
 20
83.9457
 10
1737.691
 20
83.7925
 10
1737.8771
 20
83.6495
 10
1738.0777
 20
83.5167
 10
1738.2927
 20
83.3943
 10
1738.522
 20
83.2822
 10
1738.7655
 20
83.1806
 10
1739.0233
 20
83.0903
 10
1739.3008
 20
83.0122
 10
1739.5977
 20
82.9462
 10
1739.914
 20
82.8923
 10
1740.2495
 20
82.8504
 10
1740.6042
 20
82.8205
 10
1740.9777
 20
82.8027
 10
1741.3701
 20
82.7967
 10
1741.7484
 20
82.8025
 10
1742.1099
 20
82.8199
 10
1742.4544
 20
82.8489
 10
1742.7821
 20
82.8893
 10
1743.0928
 20
82.9412
 10
1743.3866
 20
83.0044
 10
1743.6633
 20
83.079
 10
1743.9229
 20
83.1648
 10
1744.1638
 20
83.262
 10
1744.3918
 20
83.3703
 10
1744.6066
 20
83.4897
 10
1744.808
 20
83.6202
 10
1744.9957
 20
83.7618
 10
1745.1695
 20
83.9147
 10
1745.3292
 20
84.0787
 10
1745.4746
 20
84.254
  0
LWPOLYLINE
  5
B6
330
1F
100
AcDbEntity
  8
Layer 1
 62
     7
100
AcDbPolyline
 90
      182
 70
     1
 43
0.0
 10
1789.9141
 20
81.5397
 10
1789.9141
 20
87.5459
 10
1789.9069
 20
87.8966
 10
1789.8856
 20
88.2341
 10
1789.8505
 20
88.5583
 10
1789.8019
 20
88.8696
 10
1789.7708
 20
89.0179
 10
1789.7317
 20
89.1578
 10
1789.6847
 20
89.2895
 10
1789.6299
 20
89.4129
 10
1789.5674
 20
89.5281
 10
1789.4973
 20
89.6353
 10
1789.4198
 20
89.7343
 10
1789.3349
 20
89.8253
 10
1789.2374
 20
89.9151
 10
1789.1295
 20
89.9987
 10
1789.0114
 20
90.0761
 10
1788.8831
 20
90.1474
 10
1788.7449
 20
90.2125
 10
1788.5969
 20
90.2714
 10
1788.4392
 20
90.3243
 10
1788.2719
 20
90.3712
 10
1788.0927
 20
90.4126
 10
1787.8977
 20
90.4486
 10
1787.6872
 20
90.4792
 10
1787.4614
 20
90.5042
 10
1787.2203
 20
90.5238
 10
1786.9641
 20
90.5378
 10
1786.693
 20
90.5462
 10
1786.4072
 20
90.549
 10
1786.1328
 20
90.5438
 10
1785.8542
 20
90.5282
 10
1785.5712
 20
90.5021
 10
1785.2836
 20
90.4657
 10
1784.9911
 20
90.4189
 10
1784.6935
 20
90.3616
 10
1784.3906
 20
90.294
 10
1784.0821
 20
90.2159
 10
1783.7705
 20
90.1291
 10
1783.4558
 20
90.0327
 10
1783.1382
 20
89.9268
 10
1782.8179
 20
89.8115
 10
1782.4948
 20
89.6868
 10
1782.1693
 20
89.5528
 10
1781.8412
 20
89.4094
 10
1781.5109
 20
89.2569
 10
1781.5612
 20
88.8821
 10
1781.5879
 20
88.3655
 10
1781.5879
 20
81.5397
 10
1778.0744
 20
81.5397
 10
1778.0744
 20
87.5459
 10
1778.0672
 20
87.8966
 10
1778.0453
 20
88.2341
 10
1778.0087
 20
88.5583
 10
1777.9572
 20
88.8696
 10
1777.9267
 20
89.0179
 10
1777.8881
 20
89.1578
 10
1777.8414
 20
89.2895
 10
1777.7869
 20
89.4129
 10
1777.7247
 20
89.5281
 10
1777.655
 20
89.6353
 10
1777.5778
 20
89.7343
 10
1777.4935
 20
89.8253
 10
1777.3955
 20
89.9151
 10
1777.2872
 20
89.9987
 10
1777.1687
 20
90.0761
 10
1777.0403
 20
90.1474
 10
1776.902
 20
90.2125
 10
1776.7539
 20
90.2714
 10
1776.5962
 20
90.3243
 10
1776.4289
 20
90.3712
 10
1776.2502
 20
90.4126
 10
1776.0556
 20
90.4486
 10
1775.8454
 20
90.4792
 10
1775.6198
 20
90.5042
 10
1775.3788
 20
90.5238
 10
1775.1227
 20
90.5378
 10
1774.8516
 20
90.5462
 10
1774.5658
 20
90.549
 10
1774.278
 20
90.5435
 10
1773.987
 20
90.527
 10
1773.6927
 20
90.4994
 10
1773.3951
 20
90.4607
 10
1773.0941
 20
90.4108
 10
1772.7897
 20
90.3497
 10
1772.4818
 20
90.2772
 10
1772.1704
 20
90.1934
 10
1771.859
 20
90.1012
 10
1771.5499
 20
90.003
 10
1771.2433
 20
89.8988
 10
1770.939
 20
89.7886
 10
1770.6372
 20
89.6722
 10
1770.3379
 20
89.5497
 10
1770.041
 20
89.421
 10
1769.7466
 20
89.2861
 10
1769.7466
 20
81.5397
 10
1766.2313
 20
81.5397
 10
1766.2313
 20
91.9203
 10
1769.7466
 20
91.9203
 10
1769.7466
 20
90.7651
 10
1770.0919
 20
90.9318
 10
1770.4362
 20
91.089
 10
1770.7794
 20
91.2365
 10
1771.1217
 20
91.3744
 10
1771.463
 20
91.5026
 10
1771.8035
 20
91.621
 10
1772.143
 20
91.7297
 10
1772.4818
 20
91.8285
 10
1772.8256
 20
91.9169
 10
1773.1776
 20
91.9936
 10
1773.5379
 20
92.0585
 10
1773.9065
 20
92.1118
 10
1774.2833
 20
92.1532
 10
1774.6684
 20
92.1828
 10
1775.0616
 20
92.2007
 10
1775.463
 20
92.2066
 10
1775.9175
 20
92.2
 10
1776.3593
 20
92.1803
 10
1776.7884
 20
92.1475
 10
1777.2048
 20
92.1017
 10
1777.6082
 20
92.0427
 10
1777.9988
 20
91.9707
 10
1778.3762
 20
91.8857
 10
1778.7406
 20
91.7876
 10
1779.0861
 20
91.6744
 10
1779.4106
 20
91.5445
 10
1779.7141
 20
91.3979
 10
1779.9965
 20
91.2345
 10
1780.2577
 20
91.0544
 10
1780.4976
 20
90.8574
 10
1780.7162
 20
90.6436
 10
1780.9134
 20
90.4129
 10
1781.3105
 20
90.6264
 10
1781.7047
 20
90.8269
 10
1782.096
 20
91.0141
 10
1782.4845
 20
91.1881
 10
1782.8703
 20
91.3487
 10
1783.2534
 20
91.4958
 10
1783.6339
 20
91.6293
 10
1784.0118
 20
91.7492
 10
1784.3954
 20
91.8563
 10
1784.7868
 20
91.9492
 10
1785.1862
 20
92.0278
 10
1785.5935
 20
92.0921
 10
1786.0088
 20
92.1422
 10
1786.4324
 20
92.178
 10
1786.8642
 20
92.1994
 10
1787.3044
 20
92.2066
 10
1787.6371
 20
92.2033
 10
1787.9622
 20
92.1935
 10
1788.2796
 20
92.1771
 10
1788.5893
 20
92.1541
 10
1788.8913
 20
92.1246
 10
1789.1854
 20
92.0886
 10
1789.4717
 20
92.0461
 10
1789.75
 20
91.9971
 10
1790.0202
 20
91.9407
 10
1790.2822
 20
91.8765
 10
1790.5357
 20
91.8044
 10
1790.7807
 20
91.7245
 10
1791.0171
 20
91.6365
 10
1791.2448
 20
91.5404
 10
1791.4636
 20
91.4361
 10
1791.6734
 20
91.3235
 10
1791.8772
 20
91.2011
 10
1792.0691
 20
91.0717
 10
1792.2492
 20
90.9352
 10
1792.4175
 20
90.7915
 10
1792.5737
 20
90.6405
 10
1792.7181
 20
90.4821
 10
1792.8504
 20
90.3161
 10
1792.9707
 20
90.1425
 10
1793.0779
 20
89.9609
 10
1793.1709
 20
89.7678
 10
1793.2497
 20
89.5633
 10
1793.3142
 20
89.3473
 10
1793.3645
 20
89.1198
 10
1793.4005
 20
88.8807
 10
1793.4221
 20
88.6301
 10
1793.4293
 20
88.368
 10
1793.4293
 20
81.5397
 10
1789.9141
 20
81.5397
  0
LWPOLYLINE
  5
B7
330
1F
100
AcDbEntity
  8
Layer 1
 62
     7
100
AcDbPolyline
 90
      182
 70
     1
 43
0.0
 10
1821.9966
 20
81.5397
 10
1821.9966
 20
87.5459
 10
1821.9896
 20
87.8966
 10
1821.9686
 20
88.2341
 10
1821.9331
 20
88.5583
 10
1821.8828
 20
88.8696
 10
1821.8524
 20
89.0179
 10
1821.8139
 20
89.1578
 10
1821.7673
 20
89.2895
 10
1821.7129
 20
89.4129
 10
1821.6506
 20
89.5281
 10
1821.5805
 20
89.6353
 10
1821.5028
 20
89.7343
 10
1821.4174
 20
89.8253
 10
1821.32
 20
89.9151
 10
1821.2122
 20
89.9987
 10
1821.0943
 20
90.0761
 10
1820.9663
 20
90.1474
 10
1820.8282
 20
90.2125
 10
1820.6802
 20
90.2714
 10
1820.5222
 20
90.3243
 10
1820.3545
 20
90.3712
 10
1820.1752
 20
90.4126
 10
1819.9803
 20
90.4486
 10
1819.7697
 20
90.4792
 10
1819.5439
 20
90.5042
 10
1819.3028
 20
90.5238
 10
1819.0466
 20
90.5378
 10
1818.7755
 20
90.5462
 10
1818.4897
 20
90.549
 10
1818.2152
 20
90.5438
 10
1817.9364
 20
90.5282
 10
1817.6532
 20
90.5021
 10
1817.3654
 20
90.4657
 10
1817.0728
 20
90.4189
 10
1816.7753
 20
90.3616
 10
1816.4726
 20
90.294
 10
1816.1646
 20
90.2159
 10
1815.8535
 20
90.1291
 10
1815.5393
 20
90.0327
 10
1815.2219
 20
89.9268
 10
1814.9017
 20
89.8115
 10
1814.5786
 20
89.6868
 10
1814.2528
 20
89.5528
 10
1813.9244
 20
89.4094
 10
1813.5935
 20
89.2569
 10
1813.6437
 20
88.8821
 10
1813.6705
 20
88.3655
 10
1813.6705
 20
81.5397
 10
1810.1569
 20
81.5397
 10
1810.1569
 20
87.5459
 10
1810.1497
 20
87.8966
 10
1810.1278
 20
88.2341
 10
1810.0912
 20
88.5583
 10
1810.0397
 20
88.8696
 10
1810.0093
 20
89.0179
 10
1809.9708
 20
89.1578
 10
1809.9243
 20
89.2895
 10
1809.87
 20
89.4129
 10
1809.8079
 20
89.5281
 10
1809.7382
 20
89.6353
 10
1809.6608
 20
89.7343
 10
1809.576
 20
89.8253
 10
1809.478
 20
89.9151
 10
1809.3699
 20
89.9987
 10
1809.2517
 20
90.0761
 10
1809.1234
 20
90.1474
 10
1808.9852
 20
90.2125
 10
1808.8371
 20
90.2714
 10
1808.6791
 20
90.3243
 10
1808.5114
 20
90.3712
 10
1808.3323
 20
90.4126
 10
1808.1376
 20
90.4486
 10
1807.9275
 20
90.4792
 10
1807.7021
 20
90.5042
 10
1807.4612
 20
90.5238
 10
1807.205
 20
90.5378
 10
1806.9335
 20
90.5462
 10
1806.6467
 20
90.549
 10
1806.3593
 20
90.5435
 10
1806.0686
 20
90.527
 10
1805.7745
 20
90.4994
 10
1805.477
 20
90.4607
 10
1805.1763
 20
90.4108
 10
1804.8723
 20
90.3497
 10
1804.565
 20
90.2772
 10
1804.2546
 20
90.1934
 10
1803.9426
 20
90.1012
 10
1803.6331
 20
90.003
 10
1803.3261
 20
89.8988
 10
1803.0215
 20
89.7886
 10
1802.7194
 20
89.6722
 10
1802.4197
 20
89.5497
 10
1802.1224
 20
89.421
 10
1801.8274
 20
89.2861
 10
1801.8274
 20
81.5397
 10
1798.3138
 20
81.5397
 10
1798.3138
 20
91.9203
 10
1801.8274
 20
91.9203
 10
1801.8274
 20
90.7651
 10
1802.1728
 20
90.9318
 10
1802.5171
 20
91.089
 10
1802.8604
 20
91.2365
 10
1803.2028
 20
91.3744
 10
1803.5443
 20
91.5026
 10
1803.885
 20
91.621
 10
1804.225
 20
91.7297
 10
1804.5643
 20
91.8285
 10
1804.9081
 20
91.9169
 10
1805.2601
 20
91.9936
 10
1805.6204
 20
92.0585
 10
1805.989
 20
92.1118
 10
1806.3659
 20
92.1532
 10
1806.7509
 20
92.1828
 10
1807.1442
 20
92.2007
 10
1807.5456
 20
92.2066
 10
1807.9996
 20
92.2
 10
1808.4412
 20
92.1803
 10
1808.8703
 20
92.1475
 10
1809.2869
 20
92.1017
 10
1809.6907
 20
92.0427
 10
1810.0817
 20
91.9707
 10
1810.4598
 20
91.8857
 10
1810.8248
 20
91.7876
 10
1811.1696
 20
91.6744
 10
1811.4935
 20
91.5445
 10
1811.7965
 20
91.3979
 10
1812.0783
 20
91.2345
 10
1812.3391
 20
91.0544
 10
1812.5787
 20
90.8574
 10
1812.7971
 20
90.6436
 10
1812.9942
 20
90.4129
 10
1813.3914
 20
90.6264
 10
1813.7858
 20
90.8269
 10
1814.1774
 20
91.0141
 10
1814.5662
 20
91.1881
 10
1814.9523
 20
91.3487
 10
1815.3357
 20
91.4958
 10
1815.7163
 20
91.6293
 10
1816.0943
 20
91.7492
 10
1816.478
 20
91.8563
 10
1816.8696
 20
91.9492
 10
1817.2692
 20
92.0278
 10
1817.6768
 20
92.0921
 10
1818.0925
 20
92.1422
 10
1818.5163
 20
92.178
 10
1818.9483
 20
92.1994
 10
1819.3886
 20
92.2066
 10
1819.7207
 20
92.2033
 10
1820.0454
 20
92.1935
 10
1820.3625
 20
92.1771
 10
1820.6719
 20
92.1541
 10
1820.9735
 20
92.1246
 10
1821.2673
 20
92.0886
 10
1821.5531
 20
92.0461
 10
1821.8309
 20
91.9971
 10
1822.1016
 20
91.9407
 10
1822.364
 20
91.8765
 10
1822.6177
 20
91.8044
 10
1822.8628
 20
91.7245
 10
1823.0991
 20
91.6365
 10
1823.3266
 20
91.5404
 10
1823.545
 20
91.4361
 10
1823.7542
 20
91.3235
 10
1823.9585
 20
91.2011
 10
1824.1507
 20
91.0717
 10
1824.3309
 20
90.9352
 10
1824.4991
 20
90.7915
 10
1824.6554
 20
90.6405
 10
1824.7998
 20
90.4821
 10
1824.9324
 20
90.3161
 10
1825.0532
 20
90.1425
 10
1825.1604
 20
89.9609
 10
1825.2536
 20
89.7678
 10
1825.3327
 20
89.5633
 10
1825.3976
 20
89.3473
 10
1825.4482
 20
89.1198
 10
1825.4844
 20
88.8807
 10
1825.5062
 20
88.6301
 10
1825.5135
 20
88.368
 10
1825.5135
 20
81.5397
 10
1821.9966
 20
81.5397
  0
LWPOLYLINE
  5
B8
330
1F
100
AcDbEntity
  8
Layer 1
  6
New Line1
 62
     7
370
    20
100
AcDbPolyline
 90
        2
 70
     0
 43
0.0
 10
1799.1257
 20
63.492
 10
1799.1257
 20
-26.5455
  0
LWPOLYLINE
  5
BA
330
1F
100
AcDbEntity
  8
Layer 1
 62
     7
100
AcDbPolyline
 90
      162
 70
     1
 43
0.0
 10
1646.0299
 20
13.2391
 10
1628.9156
 20
13.2391
 10
1628.9156
 20
15.1914
 10
1632.4041
 20
16.8649
 10
1632.8135
 20
17.0659
 10
1633.2207
 20
17.269
 10
1633.6255
 20
17.4741
 10
1634.028
 20
17.6812
 10
1634.428
 20
17.8905
 10
1634.8256
 20
18.1018
 10
1635.2206
 20
18.3153
 10
1635.613
 20
18.5308
 10
1636.375
 20
18.9547
 10
1637.0739
 20
19.3567
 10
1637.7099
 20
19.7371
 10
1638.2829
 20
20.0958
 10
1638.7928
 20
20.4329
 10
1639.2395
 20
20.7485
 10
1639.6231
 20
21.0425
 10
1639.9435
 20
21.3152
 10
1640.2143
 20
21.5771
 10
1640.4491
 20
21.8414
 10
1640.6478
 20
22.108
 10
1640.8106
 20
22.377
 10
1640.9372
 20
22.6484
 10
1641.0277
 20
22.9222
 10
1641.082
 20
23.1984
 10
1641.1001
 20
23.477
 10
1641.0945
 20
23.619
 10
1641.0775
 20
23.7566
 10
1641.0493
 20
23.8897
 10
1641.0097
 20
24.0184
 10
1640.9589
 20
24.1427
 10
1640.8968
 20
24.2628
 10
1640.8233
 20
24.3786
 10
1640.7386
 20
24.4903
 10
1640.6432
 20
24.5975
 10
1640.5391
 20
24.6998
 10
1640.4264
 20
24.7974
 10
1640.3052
 20
24.8903
 10
1640.1757
 20
24.9783
 10
1640.0378
 20
25.0616
 10
1639.8918
 20
25.1402
 10
1639.7376
 20
25.2139
 10
1639.5726
 20
25.2818
 10
1639.4004
 20
25.3454
 10
1639.2211
 20
25.4044
 10
1639.035
 20
25.4591
 10
1638.842
 20
25.5093
 10
1638.6425
 20
25.555
 10
1638.4365
 20
25.5962
 10
1638.2243
 20
25.6329
 10
1638.0067
 20
25.6652
 10
1637.7844
 20
25.6934
 10
1637.5571
 20
25.7173
 10
1637.3246
 20
25.737
 10
1637.0868
 20
25.7524
 10
1636.8435
 20
25.7634
 10
1636.5945
 20
25.7701
 10
1636.3395
 20
25.7723
 10
1636.0934
 20
25.7704
 10
1635.8458
 20
25.7646
 10
1635.597
 20
25.7548
 10
1635.3469
 20
25.7411
 10
1635.0954
 20
25.7233
 10
1634.8428
 20
25.7015
 10
1634.589
 20
25.6755
 10
1634.3341
 20
25.6454
 10
1634.0796
 20
25.6134
 10
1633.8282
 20
25.5794
 10
1633.5798
 20
25.5434
 10
1633.3346
 20
25.5054
 10
1633.0924
 20
25.4655
 10
1632.8533
 20
25.4236
 10
1632.6171
 20
25.3798
 10
1632.384
 20
25.3341
 10
1632.1878
 20
25.2939
 10
1631.9936
 20
25.2516
 10
1631.8013
 20
25.2072
 10
1631.6109
 20
25.1607
 10
1631.4224
 20
25.1121
 10
1631.236
 20
25.0613
 10
1631.0515
 20
25.0085
 10
1630.8691
 20
24.9535
 10
1629.6923
 20
24.5721
 10
1629.4881
 20
24.5721
 10
1629.4881
 20
26.5377
 10
1629.791
 20
26.6099
 10
1630.1221
 20
26.6812
 10
1630.4816
 20
26.7519
 10
1630.8695
 20
26.822
 10
1631.2858
 20
26.8916
 10
1631.7305
 20
26.961
 10
1632.2037
 20
27.0302
 10
1632.7054
 20
27.0994
 10
1633.2167
 20
27.1631
 10
1633.7213
 20
27.2184
 10
1634.2191
 20
27.2653
 10
1634.7101
 20
27.3038
 10
1635.1943
 20
27.3337
 10
1635.6716
 20
27.3551
 10
1636.142
 20
27.368
 10
1636.6056
 20
27.3723
 10
1637.5486
 20
27.3562
 10
1638.4393
 20
27.3081
 10
1639.2776
 20
27.2278
 10
1640.0638
 20
27.1156
 10
1640.7977
 20
26.9713
 10
1641.4795
 20
26.7952
 10
1642.1092
 20
26.5872
 10
1642.687
 20
26.3474
 10
1643.2015
 20
26.0788
 10
1643.6476
 20
25.7876
 10
1644.0253
 20
25.4736
 10
1644.3346
 20
25.137
 10
1644.5752
 20
24.7777
 10
1644.7472
 20
24.3956
 10
1644.8505
 20
23.9907
 10
1644.8849
 20
23.563
 10
1644.8789
 20
23.3624
 10
1644.8608
 20
23.1658
 10
1644.8307
 20
22.973
 10
1644.7887
 20
22.7842
 10
1644.7347
 20
22.5993
 10
1644.6688
 20
22.4183
 10
1644.5911
 20
22.2412
 10
1644.5016
 20
22.0681
 10
1644.4016
 20
21.8981
 10
1644.2926
 20
21.731
 10
1644.1745
 20
21.5671
 10
1644.0475
 20
21.4062
 10
1643.9115
 20
21.2485
 10
1643.7666
 20
21.0939
 10
1643.6129
 20
20.9425
 10
1643.4503
 20
20.7944
 10
1643.2743
 20
20.6434
 10
1643.0892
 20
20.4927
 10
1642.8948
 20
20.3423
 10
1642.6914
 20
20.1922
 10
1642.479
 20
20.0425
 10
1642.2576
 20
19.893
 10
1642.0273
 20
19.7438
 10
1641.7881
 20
19.595
 10
1641.5457
 20
19.4474
 10
1641.2995
 20
19.3002
 10
1641.0495
 20
19.1534
 10
1640.7957
 20
19.007
 10
1640.5382
 20
18.8611
 10
1640.2771
 20
18.7156
 10
1640.0125
 20
18.5708
 10
1639.7443
 20
18.4265
 10
1639.299
 20
18.1884
 10
1638.8418
 20
17.9479
 10
1638.3726
 20
17.7051
 10
1637.8914
 20
17.4599
 10
1637.3981
 20
17.2123
 10
1636.8924
 20
16.9623
 10
1636.3744
 20
16.7098
 10
1635.844
 20
16.455
 10
1632.4041
 20
14.8392
 10
1646.0299
 20
14.8392
 10
1646.0299
 20
13.2391
  0
LWPOLYLINE
  5
BB
330
1F
100
AcDbEntity
  8
Layer 1
 62
     7
100
AcDbPolyline
 90
       27
 70
     1
 43
0.0
 10
1665.506
 20
13.2391
 10
1651.9422
 20
13.2391
 10
1651.9422
 20
14.6489
 10
1656.9857
 20
14.6489
 10
1656.9857
 20
23.9436
 10
1651.9422
 20
23.9436
 10
1651.9422
 20
25.2014
 10
1652.6331
 20
25.2078
 10
1653.2773
 20
25.2269
 10
1653.8746
 20
25.2586
 10
1654.425
 20
25.3031
 10
1654.9285
 20
25.3602
 10
1655.3851
 20
25.4299
 10
1655.7946
 20
25.5122
 10
1656.1571
 20
25.607
 10
1656.4759
 20
25.7198
 10
1656.7581
 20
25.8555
 10
1657.0037
 20
26.0138
 10
1657.2125
 20
26.1947
 10
1657.3847
 20
26.3983
 10
1657.5201
 20
26.6243
 10
1657.6187
 20
26.8728
 10
1657.6804
 20
27.1436
 10
1660.578
 20
27.1436
 10
1660.578
 20
14.6489
 10
1665.506
 20
14.6489
 10
1665.506
 20
13.2391
  0
LWPOLYLINE
  5
BC
330
1F
100
AcDbEntity
  8
Layer 1
 62
     7
100
AcDbPolyline
 90
      184
 70
     1
 43
0.0
 10
1687.4646
 20
17.6486
 10
1687.4543
 20
17.3999
 10
1687.4237
 20
17.1559
 10
1687.3727
 20
16.9165
 10
1687.3016
 20
16.6818
 10
1687.2105
 20
16.4516
 10
1687.0995
 20
16.2259
 10
1686.9688
 20
16.0048
 10
1686.8185
 20
15.7882
 10
1686.6506
 20
15.5778
 10
1686.466
 20
15.3748
 10
1686.2648
 20
15.1791
 10
1686.0472
 20
14.9909
 10
1685.8135
 20
14.8101
 10
1685.5638
 20
14.6367
 10
1685.2983
 20
14.4709
 10
1685.0173
 20
14.3125
 10
1684.7154
 20
14.1583
 10
1684.3957
 20
14.0124
 10
1684.0583
 20
13.8749
 10
1683.7031
 20
13.7459
 10
1683.3298
 20
13.6253
 10
1682.9385
 20
13.5133
 10
1682.529
 20
13.4099
 10
1682.1013
 20
13.3151
 10
1681.6582
 20
13.2303
 10
1681.2025
 20
13.1569
 10
1680.734
 20
13.0948
 10
1680.2525
 20
13.044
 10
1679.7578
 20
13.0045
 10
1679.2497
 20
12.9763
 10
1678.7281
 20
12.9593
 10
1678.1927
 20
12.9537
 10
1677.6954
 20
12.9571
 10
1677.2002
 20
12.9673
 10
1676.7072
 20
12.9844
 10
1676.2162
 20
13.0083
 10
1675.7273
 20
13.039
 10
1675.2404
 20
13.0766
 10
1674.7554
 20
13.121
 10
1674.2724
 20
13.1723
 10
1673.7975
 20
13.2292
 10
1673.3385
 20
13.2902
 10
1672.8954
 20
13.3555
 10
1672.4683
 20
13.4251
 10
1672.0574
 20
13.4991
 10
1671.6628
 20
13.5774
 10
1671.2845
 20
13.6601
 10
1670.9228
 20
13.7474
 10
1670.9228
 20
15.7155
 10
1671.184
 20
15.7155
 10
1671.4214
 20
15.6319
 10
1671.7046
 20
15.5434
 10
1672.0342
 20
15.4496
 10
1672.411
 20
15.35
 10
1674.187
 20
14.9694
 10
1674.4595
 20
14.9208
 10
1674.7257
 20
14.8751
 10
1674.9859
 20
14.8324
 10
1675.2402
 20
14.7925
 10
1675.4885
 20
14.7555
 10
1675.731
 20
14.7214
 10
1675.9678
 20
14.69
 10
1676.1991
 20
14.6614
 10
1676.4321
 20
14.6357
 10
1676.6716
 20
14.6136
 10
1676.9177
 20
14.595
 10
1677.1706
 20
14.58
 10
1677.4303
 20
14.5684
 10
1677.6969
 20
14.5602
 10
1677.9705
 20
14.5553
 10
1678.2513
 20
14.5537
 10
1678.5314
 20
14.5568
 10
1678.8094
 20
14.5662
 10
1679.0853
 20
14.5818
 10
1679.3592
 20
14.6037
 10
1679.6312
 20
14.6318
 10
1679.9012
 20
14.666
 10
1680.1694
 20
14.7065
 10
1680.4358
 20
14.7532
 10
1680.6977
 20
14.8071
 10
1680.9497
 20
14.8688
 10
1681.1921
 20
14.9382
 10
1681.4249
 20
15.0154
 10
1681.6482
 20
15.1002
 10
1681.862
 20
15.1928
 10
1682.0666
 20
15.293
 10
1682.262
 20
15.4009
 10
1682.4311
 20
15.5054
 10
1682.5892
 20
15.6141
 10
1682.7367
 20
15.7272
 10
1682.8735
 20
15.8447
 10
1682.9997
 20
15.9667
 10
1683.1156
 20
16.0931
 10
1683.2212
 20
16.2242
 10
1683.3166
 20
16.3599
 10
1683.4019
 20
16.4998
 10
1683.4758
 20
16.646
 10
1683.5382
 20
16.7985
 10
1683.5893
 20
16.9571
 10
1683.6289
 20
17.1218
 10
1683.6573
 20
17.2925
 10
1683.6742
 20
17.4693
 10
1683.6799
 20
17.6519
 10
1683.6737
 20
17.8321
 10
1683.6551
 20
18.004
 10
1683.624
 20
18.1677
 10
1683.5805
 20
18.323
 10
1683.5245
 20
18.47
 10
1683.456
 20
18.6088
 10
1683.375
 20
18.7392
 10
1683.2815
 20
18.8614
 10
1683.1749
 20
18.9777
 10
1683.0573
 20
19.0886
 10
1682.9286
 20
19.1943
 10
1682.7887
 20
19.2948
 10
1682.6376
 20
19.3901
 10
1682.4752
 20
19.4802
 10
1682.3015
 20
19.5652
 10
1682.1164
 20
19.6451
 10
1681.9099
 20
19.7301
 10
1681.6921
 20
19.8085
 10
1681.4629
 20
19.8805
 10
1681.2224
 20
19.946
 10
1680.9704
 20
20.0051
 10
1680.7071
 20
20.0578
 10
1680.4324
 20
20.1041
 10
1680.1462
 20
20.1442
 10
1679.8508
 20
20.1777
 10
1679.5473
 20
20.2067
 10
1679.2355
 20
20.2312
 10
1678.9154
 20
20.2513
 10
1678.587
 20
20.2669
 10
1678.2503
 20
20.278
 10
1677.9052
 20
20.2847
 10
1677.5516
 20
20.2869
 10
1677.1735
 20
20.2851
 10
1676.7949
 20
20.2797
 10
1676.4158
 20
20.2706
 10
1676.0363
 20
20.2578
 10
1675.6563
 20
20.2413
 10
1675.2758
 20
20.2211
 10
1674.8948
 20
20.1971
 10
1674.5134
 20
20.1693
 10
1672.0678
 20
19.9439
 10
1672.0678
 20
27.0869
 10
1687.3106
 20
27.0869
 10
1687.3106
 20
25.4676
 10
1675.6601
 20
25.4676
 10
1675.6601
 20
21.776
 10
1676.9841
 20
21.8294
 10
1678.1726
 20
21.8486
 10
1678.6946
 20
21.8458
 10
1679.1962
 20
21.8374
 10
1679.6772
 20
21.8234
 10
1680.1378
 20
21.8038
 10
1680.578
 20
21.7788
 10
1680.9978
 20
21.7482
 10
1681.3974
 20
21.7122
 10
1681.7766
 20
21.6708
 10
1682.1426
 20
21.6215
 10
1682.5052
 20
21.5618
 10
1682.8642
 20
21.4918
 10
1683.2199
 20
21.4114
 10
1683.5723
 20
21.3206
 10
1683.9215
 20
21.2193
 10
1684.2676
 20
21.1077
 10
1684.6106
 20
20.9855
 10
1684.9446
 20
20.8505
 10
1685.2587
 20
20.7078
 10
1685.5529
 20
20.5572
 10
1685.8271
 20
20.3987
 10
1686.0814
 20
20.2321
 10
1686.3158
 20
20.0575
 10
1686.5302
 20
19.8746
 10
1686.7247
 20
19.6835
 10
1686.8968
 20
19.4808
 10
1687.0465
 20
19.2632
 10
1687.1736
 20
19.0309
 10
1687.278
 20
18.7838
 10
1687.3594
 20
18.5219
 10
1687.4177
 20
18.2455
 10
1687.4529
 20
17.9543
 10
1687.4646
 20
17.6486
  0
LWPOLYLINE
  5
BD
330
1F
100
AcDbEntity
  8
Layer 1
 62
     7
100
AcDbPolyline
 90
      182
 70
     1
 43
0.0
 10
1727.5853
 20
13.2391
 10
1727.5853
 20
19.2453
 10
1727.5781
 20
19.596
 10
1727.5566
 20
19.9335
 10
1727.521
 20
20.2578
 10
1727.4715
 20
20.5691
 10
1727.441
 20
20.7173
 10
1727.4023
 20
20.8572
 10
1727.3556
 20
20.9889
 10
1727.301
 20
21.1123
 10
1727.2386
 20
21.2275
 10
1727.1686
 20
21.3347
 10
1727.0911
 20
21.4337
 10
1727.0062
 20
21.5247
 10
1726.9087
 20
21.6145
 10
1726.8008
 20
21.6981
 10
1726.6827
 20
21.7755
 10
1726.5544
 20
21.8468
 10
1726.4162
 20
21.9119
 10
1726.2682
 20
21.9708
 10
1726.1105
 20
22.0237
 10
1725.9432
 20
22.0706
 10
1725.7639
 20
22.112
 10
1725.569
 20
22.148
 10
1725.3585
 20
22.1786
 10
1725.1326
 20
22.2036
 10
1724.8915
 20
22.2232
 10
1724.6354
 20
22.2372
 10
1724.3643
 20
22.2456
 10
1724.0785
 20
22.2484
 10
1723.804
 20
22.2432
 10
1723.5252
 20
22.2276
 10
1723.242
 20
22.2016
 10
1722.9542
 20
22.1651
 10
1722.6616
 20
22.1183
 10
1722.3641
 20
22.061
 10
1722.0614
 20
21.9934
 10
1721.7534
 20
21.9153
 10
1721.4417
 20
21.8285
 10
1721.127
 20
21.7322
 10
1720.8095
 20
21.6263
 10
1720.4891
 20
21.511
 10
1720.1661
 20
21.3862
 10
1719.8405
 20
21.2522
 10
1719.5125
 20
21.1088
 10
1719.1822
 20
20.9563
 10
1719.2324
 20
20.5816
 10
1719.2592
 20
20.0649
 10
1719.2592
 20
13.2391
 10
1715.7456
 20
13.2391
 10
1715.7456
 20
19.2453
 10
1715.7384
 20
19.596
 10
1715.7165
 20
19.9335
 10
1715.68
 20
20.2578
 10
1715.6285
 20
20.5691
 10
1715.598
 20
20.7173
 10
1715.5593
 20
20.8572
 10
1715.5127
 20
20.9889
 10
1715.4582
 20
21.1123
 10
1715.3959
 20
21.2275
 10
1715.3262
 20
21.3347
 10
1715.2491
 20
21.4337
 10
1715.1648
 20
21.5247
 10
1715.0667
 20
21.6145
 10
1714.9584
 20
21.6981
 10
1714.84
 20
21.7755
 10
1714.7116
 20
21.8468
 10
1714.5732
 20
21.9119
 10
1714.4252
 20
21.9708
 10
1714.2674
 20
22.0237
 10
1714.1002
 20
22.0706
 10
1713.921
 20
22.112
 10
1713.7262
 20
22.148
 10
1713.516
 20
22.1786
 10
1713.2904
 20
22.2036
 10
1713.0496
 20
22.2232
 10
1712.7937
 20
22.2372
 10
1712.5228
 20
22.2456
 10
1712.2371
 20
22.2484
 10
1711.9493
 20
22.2429
 10
1711.6583
 20
22.2264
 10
1711.3641
 20
22.1988
 10
1711.0666
 20
22.1601
 10
1710.7658
 20
22.1102
 10
1710.4618
 20
22.0491
 10
1710.1543
 20
21.9766
 10
1709.8434
 20
21.8928
 10
1709.5314
 20
21.8006
 10
1709.2219
 20
21.7024
 10
1708.915
 20
21.5982
 10
1708.6105
 20
21.488
 10
1708.3086
 20
21.3716
 10
1708.0092
 20
21.2491
 10
1707.7122
 20
21.1204
 10
1707.4178
 20
20.9855
 10
1707.4178
 20
13.2391
 10
1703.9026
 20
13.2391
 10
1703.9026
 20
23.6197
 10
1707.4178
 20
23.6197
 10
1707.4178
 20
22.4646
 10
1707.7627
 20
22.6313
 10
1708.1067
 20
22.7885
 10
1708.45
 20
22.936
 10
1708.7923
 20
23.0738
 10
1709.1339
 20
23.202
 10
1709.4745
 20
23.3204
 10
1709.8142
 20
23.4291
 10
1710.153
 20
23.5279
 10
1710.4968
 20
23.6163
 10
1710.8488
 20
23.693
 10
1711.2092
 20
23.7579
 10
1711.5778
 20
23.8112
 10
1711.9546
 20
23.8526
 10
1712.3396
 20
23.8822
 10
1712.7329
 20
23.9001
 10
1713.1343
 20
23.906
 10
1713.5888
 20
23.8994
 10
1714.0306
 20
23.8797
 10
1714.4598
 20
23.8469
 10
1714.8762
 20
23.8011
 10
1715.2799
 20
23.7421
 10
1715.6707
 20
23.6701
 10
1716.0486
 20
23.5851
 10
1716.4135
 20
23.487
 10
1716.7584
 20
23.3738
 10
1717.0826
 20
23.2439
 10
1717.3858
 20
23.0973
 10
1717.668
 20
22.9339
 10
1717.929
 20
22.7538
 10
1718.1689
 20
22.5568
 10
1718.3875
 20
22.343
 10
1718.5846
 20
22.1123
 10
1718.9817
 20
22.3258
 10
1719.376
 20
22.5263
 10
1719.7673
 20
22.7135
 10
1720.1558
 20
22.8875
 10
1720.5416
 20
23.0481
 10
1720.9247
 20
23.1952
 10
1721.3052
 20
23.3287
 10
1721.6831
 20
23.4486
 10
1722.0667
 20
23.5557
 10
1722.4581
 20
23.6486
 10
1722.8574
 20
23.7272
 10
1723.2647
 20
23.7916
 10
1723.6801
 20
23.8416
 10
1724.1036
 20
23.8774
 10
1724.5355
 20
23.8988
 10
1724.9757
 20
23.906
 10
1725.3084
 20
23.9027
 10
1725.6335
 20
23.8929
 10
1725.9509
 20
23.8765
 10
1726.2606
 20
23.8535
 10
1726.5626
 20
23.824
 10
1726.8567
 20
23.788
 10
1727.143
 20
23.7455
 10
1727.4213
 20
23.6965
 10
1727.6915
 20
23.6401
 10
1727.9535
 20
23.5759
 10
1728.207
 20
23.5039
 10
1728.452
 20
23.4239
 10
1728.6884
 20
23.3359
 10
1728.9161
 20
23.2398
 10
1729.1348
 20
23.1355
 10
1729.3446
 20
23.0229
 10
1729.5484
 20
22.9005
 10
1729.7403
 20
22.7711
 10
1729.9205
 20
22.6346
 10
1730.0887
 20
22.4909
 10
1730.245
 20
22.3399
 10
1730.3893
 20
22.1815
 10
1730.5216
 20
22.0155
 10
1730.6419
 20
21.8419
 10
1730.7492
 20
21.6603
 10
1730.8424
 20
21.4672
 10
1730.9215
 20
21.2627
 10
1730.9864
 20
21.0467
 10
1731.037
 20
20.8192
 10
1731.0732
 20
20.5801
 10
1731.095
 20
20.3295
 10
1731.1023
 20
20.0674
 10
1731.1023
 20
13.2391
 10
1727.5853
 20
13.2391
  0
LWPOLYLINE
  5
BE
330
1F
100
AcDbEntity
  8
Layer 1
 62
     7
100
AcDbPolyline
 90
      182
 70
     1
 43
0.0
 10
1759.6679
 20
13.2391
 10
1759.6679
 20
19.2453
 10
1759.6609
 20
19.596
 10
1759.6398
 20
19.9335
 10
1759.6043
 20
20.2578
 10
1759.554
 20
20.5691
 10
1759.5236
 20
20.7173
 10
1759.4851
 20
20.8572
 10
1759.4386
 20
20.9889
 10
1759.3841
 20
21.1123
 10
1759.3218
 20
21.2275
 10
1759.2518
 20
21.3347
 10
1759.1741
 20
21.4337
 10
1759.0887
 20
21.5247
 10
1758.9913
 20
21.6145
 10
1758.8835
 20
21.6981
 10
1758.7656
 20
21.7755
 10
1758.6376
 20
21.8468
 10
1758.4995
 20
21.9119
 10
1758.3514
 20
21.9708
 10
1758.1935
 20
22.0237
 10
1758.0257
 20
22.0706
 10
1757.8464
 20
22.112
 10
1757.6515
 20
22.148
 10
1757.441
 20
22.1786
 10
1757.2151
 20
22.2036
 10
1756.974
 20
22.2232
 10
1756.7179
 20
22.2372
 10
1756.4468
 20
22.2456
 10
1756.161
 20
22.2484
 10
1755.8865
 20
22.2432
 10
1755.6077
 20
22.2276
 10
1755.3245
 20
22.2016
 10
1755.0367
 20
22.1651
 10
1754.7441
 20
22.1183
 10
1754.4466
 20
22.061
 10
1754.1439
 20
21.9934
 10
1753.8359
 20
21.9153
 10
1753.5248
 20
21.8285
 10
1753.2105
 20
21.7322
 10
1752.8932
 20
21.6263
 10
1752.5729
 20
21.511
 10
1752.2498
 20
21.3862
 10
1751.924
 20
21.2522
 10
1751.5956
 20
21.1088
 10
1751.2647
 20
20.9563
 10
1751.3149
 20
20.5816
 10
1751.3417
 20
20.0649
 10
1751.3417
 20
13.2391
 10
1747.8282
 20
13.2391
 10
1747.8282
 20
19.2453
 10
1747.821
 20
19.596
 10
1747.7991
 20
19.9335
 10
1747.7625
 20
20.2578
 10
1747.711
 20
20.5691
 10
1747.6806
 20
20.7173
 10
1747.6421
 20
20.8572
 10
1747.5957
 20
20.9889
 10
1747.5415
 20
21.1123
 10
1747.4796
 20
21.2275
 10
1747.4101
 20
21.3347
 10
1747.3332
 20
21.4337
 10
1747.249
 20
21.5247
 10
1747.1505
 20
21.6145
 10
1747.0419
 20
21.6981
 10
1746.9234
 20
21.7755
 10
1746.7949
 20
21.8468
 10
1746.6566
 20
21.9119
 10
1746.5084
 20
21.9708
 10
1746.3504
 20
22.0237
 10
1746.1827
 20
22.0706
 10
1746.0036
 20
22.112
 10
1745.8089
 20
22.148
 10
1745.5988
 20
22.1786
 10
1745.3733
 20
22.2036
 10
1745.1325
 20
22.2232
 10
1744.8762
 20
22.2372
 10
1744.6047
 20
22.2456
 10
1744.3179
 20
22.2484
 10
1744.0306
 20
22.2429
 10
1743.7398
 20
22.2264
 10
1743.4457
 20
22.1988
 10
1743.1483
 20
22.1601
 10
1742.8475
 20
22.1102
 10
1742.5435
 20
22.0491
 10
1742.2363
 20
21.9766
 10
1741.9259
 20
21.8928
 10
1741.6139
 20
21.8006
 10
1741.3044
 20
21.7024
 10
1740.9974
 20
21.5982
 10
1740.6928
 20
21.488
 10
1740.3907
 20
21.3716
 10
1740.091
 20
21.2491
 10
1739.7937
 20
21.1204
 10
1739.4987
 20
20.9855
 10
1739.4987
 20
13.2391
 10
1735.9851
 20
13.2391
 10
1735.9851
 20
23.6197
 10
1739.4987
 20
23.6197
 10
1739.4987
 20
22.4646
 10
1739.844
 20
22.6313
 10
1740.1883
 20
22.7885
 10
1740.5316
 20
22.936
 10
1740.874
 20
23.0738
 10
1741.2155
 20
23.202
 10
1741.5563
 20
23.3204
 10
1741.8963
 20
23.4291
 10
1742.2356
 20
23.5279
 10
1742.5794
 20
23.6163
 10
1742.9314
 20
23.693
 10
1743.2917
 20
23.7579
 10
1743.6603
 20
23.8112
 10
1744.0371
 20
23.8526
 10
1744.4222
 20
23.8822
 10
1744.8154
 20
23.9001
 10
1745.2168
 20
23.906
 10
1745.6708
 20
23.8994
 10
1746.1124
 20
23.8797
 10
1746.5416
 20
23.8469
 10
1746.9581
 20
23.8011
 10
1747.362
 20
23.7421
 10
1747.753
 20
23.6701
 10
1748.1311
 20
23.5851
 10
1748.4961
 20
23.487
 10
1748.8409
 20
23.3738
 10
1749.1648
 20
23.2439
 10
1749.4678
 20
23.0973
 10
1749.7496
 20
22.9339
 10
1750.0104
 20
22.7538
 10
1750.25
 20
22.5568
 10
1750.4684
 20
22.343
 10
1750.6655
 20
22.1123
 10
1751.0626
 20
22.3258
 10
1751.4568
 20
22.5263
 10
1751.8482
 20
22.7135
 10
1752.2369
 20
22.8875
 10
1752.6228
 20
23.0481
 10
1753.0062
 20
23.1952
 10
1753.3871
 20
23.3287
 10
1753.7656
 20
23.4486
 10
1754.1493
 20
23.5557
 10
1754.5409
 20
23.6486
 10
1754.9405
 20
23.7272
 10
1755.3481
 20
23.7916
 10
1755.7637
 20
23.8416
 10
1756.1876
 20
23.8774
 10
1756.6196
 20
23.8988
 10
1757.0599
 20
23.906
 10
1757.392
 20
23.9027
 10
1757.7167
 20
23.8929
 10
1758.0337
 20
23.8765
 10
1758.3431
 20
23.8535
 10
1758.6448
 20
23.824
 10
1758.9386
 20
23.788
 10
1759.2244
 20
23.7455
 10
1759.5021
 20
23.6965
 10
1759.7734
 20
23.6401
 10
1760.0359
 20
23.5759
 10
1760.2897
 20
23.5039
 10
1760.5348
 20
23.4239
 10
1760.7709
 20
23.3359
 10
1760.9981
 20
23.2398
 10
1761.2163
 20
23.1355
 10
1761.4255
 20
23.0229
 10
1761.6297
 20
22.9005
 10
1761.8219
 20
22.7711
 10
1762.0021
 20
22.6346
 10
1762.1704
 20
22.4909
 10
1762.3267
 20
22.3399
 10
1762.4711
 20
22.1815
 10
1762.6036
 20
22.0155
 10
1762.7244
 20
21.8419
 10
1762.8317
 20
21.6603
 10
1762.9249
 20
21.4672
 10
1763.004
 20
21.2627
 10
1763.0689
 20
21.0467
 10
1763.1195
 20
20.8192
 10
1763.1557
 20
20.5801
 10
1763.1775
 20
20.3295
 10
1763.1848
 20
20.0674
 10
1763.1848
 20
13.2391
 10
1759.6679
 20
13.2391
  0
LWPOLYLINE
  5
BF
330
1F
100
AcDbEntity
  8
Layer 1
 62
     7
370
    20
100
AcDbPolyline
 90
        2
 70
     0
 43
0.0
 10
1766.7435
 20
-45.0114
 10
1766.7435
 20
-63.8545
  0
LWPOLYLINE
  5
C0
330
1F
100
AcDbEntity
  8
Layer 1
 62
     7
370
    20
100
AcDbPolyline
 90
        2
 70
     0
 43
0.0
 10
1835.9956
 20
-45.0114
 10
1835.9956
 20
-63.8545
  0
LWPOLYLINE
  5
C1
330
1F
100
AcDbEntity
  8
Layer 1
 62
     7
370
    20
100
AcDbPolyline
 90
        2
 70
     0
 43
0.0
 10
1835.9956
 20
-53.6501
 10
1766.7435
 20
-53.6501
  0
LWPOLYLINE
  5
C2
330
1F
100
AcDbEntity
  8
Layer 1
 62
     7
100
AcDbPolyline
 90
       99
 70
     1
 43
0.0
 10
1758.5195
 20
-71.1285
 10
1758.5115
 20
-70.7855
 10
1758.4873
 20
-70.4588
 10
1758.447
 20
-70.1485
 10
1758.3902
 20
-69.8543
 10
1758.317
 20
-69.5764
 10
1758.2272
 20
-69.3148
 10
1758.1207
 20
-69.0693
 10
1757.9973
 20
-68.8399
 10
1757.8626
 20
-68.6258
 10
1757.7148
 20
-68.4242
 10
1757.5541
 20
-68.2352
 10
1757.3809
 20
-68.0587
 10
1757.1952
 20
-67.8947
 10
1756.9973
 20
-67.7432
 10
1756.7875
 20
-67.6042
 10
1756.5661
 20
-67.4778
 10
1756.361
 20
-67.3705
 10
1756.1551
 20
-67.272
 10
1755.9486
 20
-67.1822
 10
1755.7417
 20
-67.1013
 10
1755.5344
 20
-67.0292
 10
1755.3269
 20
-66.9658
 10
1755.1195
 20
-66.9111
 10
1754.9122
 20
-66.8651
 10
1754.6987
 20
-66.8261
 10
1754.4801
 20
-66.7925
 10
1754.2564
 20
-66.7641
 10
1754.0278
 20
-66.7409
 10
1753.7941
 20
-66.7229
 10
1753.5556
 20
-66.7101
 10
1753.3123
 20
-66.7024
 10
1753.0642
 20
-66.6999
 10
1752.5058
 20
-66.7126
 10
1751.9766
 20
-66.7506
 10
1751.4768
 20
-66.8141
 10
1751.0063
 20
-66.9029
 10
1750.565
 20
-67.0172
 10
1750.153
 20
-67.1569
 10
1749.7703
 20
-67.3221
 10
1749.4167
 20
-67.5128
 10
1749.0966
 20
-67.7277
 10
1748.8194
 20
-67.9656
 10
1748.5849
 20
-68.2264
 10
1748.3931
 20
-68.51
 10
1748.244
 20
-68.8164
 10
1748.1376
 20
-69.1455
 10
1748.0738
 20
-69.4973
 10
1748.0525
 20
-69.8716
 10
1748.0595
 20
-70.0846
 10
1748.0804
 20
-70.2878
 10
1748.1153
 20
-70.4814
 10
1748.1642
 20
-70.6653
 10
1748.227
 20
-70.8398
 10
1748.3039
 20
-71.0047
 10
1748.3946
 20
-71.1602
 10
1748.4994
 20
-71.3063
 10
1748.6203
 20
-71.4445
 10
1748.7584
 20
-71.5778
 10
1748.9138
 20
-71.7063
 10
1749.0865
 20
-71.8299
 10
1749.2767
 20
-71.9485
 10
1749.4843
 20
-72.0622
 10
1749.7095
 20
-72.1709
 10
1749.9524
 20
-72.2745
 10
1750.1314
 20
-72.344
 10
1750.3167
 20
-72.4073
 10
1750.5082
 20
-72.4644
 10
1750.7059
 20
-72.5153
 10
1750.9096
 20
-72.5602
 10
1751.1192
 20
-72.599
 10
1751.3347
 20
-72.6317
 10
1751.556
 20
-72.6585
 10
1751.7819
 20
-72.6819
 10
1752.0115
 20
-72.702
 10
1752.2449
 20
-72.719
 10
1752.4821
 20
-72.7328
 10
1752.7233
 20
-72.7434
 10
1752.9684
 20
-72.751
 10
1753.2176
 20
-72.7555
 10
1753.471
 20
-72.757
 10
1753.7728
 20
-72.7537
 10
1754.0804
 20
-72.744
 10
1754.3938
 20
-72.7277
 10
1754.7129
 20
-72.7048
 10
1755.0375
 20
-72.6754
 10
1755.3676
 20
-72.6394
 10
1755.7031
 20
-72.5968
 10
1756.0438
 20
-72.5475
 10
1756.3824
 20
-72.4942
 10
1756.7101
 20
-72.4364
 10
1757.0269
 20
-72.3742
 10
1757.3327
 20
-72.3076
 10
1757.6276
 20
-72.2366
 10
1757.9114
 20
-72.1614
 10
1758.1842
 20
-72.0819
 10
1758.4459
 20
-71.9983
 10
1758.4961
 20
-71.6335
 10
1758.5195
 20
-71.1285
  0
LWPOLYLINE
  5
C3
330
1F
100
AcDbEntity
  8
Layer 1
 62
     7
100
AcDbPolyline
 90
      184
 70
     1
 43
0.0
 10
1744.2727
 20
-69.9417
 10
1744.2838
 20
-69.6777
 10
1744.3168
 20
-69.4191
 10
1744.3719
 20
-69.1662
 10
1744.4487
 20
-68.9189
 10
1744.5473
 20
-68.6775
 10
1744.6675
 20
-68.442
 10
1744.8092
 20
-68.2126
 10
1744.9724
 20
-67.9894
 10
1745.1549
 20
-67.7716
 10
1745.3532
 20
-67.5613
 10
1745.5676
 20
-67.3587
 10
1745.7981
 20
-67.1638
 10
1746.0447
 20
-66.9766
 10
1746.3076
 20
-66.7972
 10
1746.5868
 20
-66.6256
 10
1746.8824
 20
-66.462
 10
1747.1814
 20
-66.3125
 10
1747.4958
 20
-66.1714
 10
1747.8259
 20
-66.0388
 10
1748.1717
 20
-65.9146
 10
1748.5334
 20
-65.7989
 10
1748.911
 20
-65.6917
 10
1749.3048
 20
-65.5931
 10
1749.7147
 20
-65.503
 10
1750.132
 20
-65.4218
 10
1750.5513
 20
-65.3515
 10
1750.9726
 20
-65.292
 10
1751.3957
 20
-65.2435
 10
1751.8206
 20
-65.2058
 10
1752.2471
 20
-65.1789
 10
1752.675
 20
-65.1628
 10
1753.1044
 20
-65.1574
 10
1753.5778
 20
-65.1624
 10
1754.0402
 20
-65.1776
 10
1754.4915
 20
-65.2027
 10
1754.9315
 20
-65.2379
 10
1755.3602
 20
-65.283
 10
1755.7775
 20
-65.338
 10
1756.1834
 20
-65.403
 10
1756.5778
 20
-65.4779
 10
1756.9626
 20
-65.5633
 10
1757.3337
 20
-65.6573
 10
1757.6913
 20
-65.76
 10
1758.0353
 20
-65.8715
 10
1758.3661
 20
-65.9917
 10
1758.6836
 20
-66.1207
 10
1758.988
 20
-66.2585
 10
1759.2795
 20
-66.4052
 10
1759.6294
 20
-66.6041
 10
1759.9585
 20
-66.8176
 10
1760.2671
 20
-67.0458
 10
1760.5552
 20
-67.2888
 10
1760.823
 20
-67.5465
 10
1761.0706
 20
-67.819
 10
1761.2982
 20
-68.1063
 10
1761.5058
 20
-68.4084
 10
1761.692
 20
-68.7282
 10
1761.8537
 20
-69.0685
 10
1761.9909
 20
-69.4292
 10
1762.1034
 20
-69.8103
 10
1762.1911
 20
-70.2118
 10
1762.2539
 20
-70.6337
 10
1762.2917
 20
-71.0759
 10
1762.3043
 20
-71.5384
 10
1762.2921
 20
-71.9665
 10
1762.2554
 20
-72.3889
 10
1762.1945
 20
-72.8056
 10
1762.1093
 20
-73.2165
 10
1761.9999
 20
-73.6216
 10
1761.8665
 20
-74.0208
 10
1761.709
 20
-74.4143
 10
1761.5276
 20
-74.8019
 10
1761.322
 20
-75.1792
 10
1761.0933
 20
-75.54
 10
1760.8415
 20
-75.8843
 10
1760.5668
 20
-76.2121
 10
1760.2691
 20
-76.5236
 10
1759.9486
 20
-76.8187
 10
1759.6053
 20
-77.0975
 10
1759.2393
 20
-77.3601
 10
1758.8281
 20
-77.6225
 10
1758.3967
 20
-77.8687
 10
1757.9452
 20
-78.0988
 10
1757.4738
 20
-78.3128
 10
1756.9823
 20
-78.5107
 10
1756.4711
 20
-78.6925
 10
1755.94
 20
-78.8582
 10
1755.3893
 20
-79.0077
 10
1754.8087
 20
-79.1407
 10
1754.1956
 20
-79.256
 10
1753.55
 20
-79.3537
 10
1752.8717
 20
-79.4337
 10
1752.1608
 20
-79.4959
 10
1751.4172
 20
-79.5405
 10
1750.6409
 20
-79.5672
 10
1749.8318
 20
-79.5761
 10
1748.245
 20
-79.5352
 10
1748.037
 20
-79.5235
 10
1747.8323
 20
-79.5096
 10
1747.6311
 20
-79.4936
 10
1747.4333
 20
-79.4753
 10
1747.2391
 20
-79.4548
 10
1747.0485
 20
-79.4319
 10
1746.8615
 20
-79.4067
 10
1746.6782
 20
-79.3791
 10
1746.6782
 20
-77.5954
 10
1746.8623
 20
-77.5954
 10
1747.1284
 20
-77.6613
 10
1747.4595
 20
-77.7262
 10
1747.8552
 20
-77.7899
 10
1748.3153
 20
-77.8525
 10
1748.5636
 20
-77.8815
 10
1748.8126
 20
-77.9066
 10
1749.0624
 20
-77.9279
 10
1749.3132
 20
-77.9452
 10
1749.5649
 20
-77.9587
 10
1749.8178
 20
-77.9683
 10
1750.0719
 20
-77.9741
 10
1750.3273
 20
-77.976
 10
1751.2151
 20
-77.9573
 10
1752.0543
 20
-77.901
 10
1752.8448
 20
-77.8072
 10
1753.5864
 20
-77.6757
 10
1754.2791
 20
-77.5067
 10
1754.9227
 20
-77.2999
 10
1755.5171
 20
-77.0555
 10
1756.0622
 20
-76.7733
 10
1756.5546
 20
-76.4561
 10
1756.9908
 20
-76.1066
 10
1757.3709
 20
-75.7249
 10
1757.6947
 20
-75.3109
 10
1757.9622
 20
-74.8646
 10
1758.1732
 20
-74.3861
 10
1758.3278
 20
-73.8752
 10
1758.4258
 20
-73.332
 10
1758.0558
 20
-73.4539
 10
1757.6903
 20
-73.5671
 10
1757.3291
 20
-73.6718
 10
1756.9722
 20
-73.7681
 10
1756.6195
 20
-73.8558
 10
1756.2708
 20
-73.935
 10
1755.926
 20
-74.0058
 10
1755.5851
 20
-74.0682
 10
1755.2453
 20
-74.123
 10
1754.8976
 20
-74.1703
 10
1754.542
 20
-74.2102
 10
1754.1786
 20
-74.2427
 10
1753.8076
 20
-74.268
 10
1753.4289
 20
-74.2859
 10
1753.0427
 20
-74.2966
 10
1752.6491
 20
-74.3002
 10
1752.2694
 20
-74.2975
 10
1751.8974
 20
-74.2895
 10
1751.5335
 20
-74.2761
 10
1751.1779
 20
-74.2575
 10
1750.8309
 20
-74.2337
 10
1750.4926
 20
-74.2048
 10
1750.1635
 20
-74.1707
 10
1749.8436
 20
-74.1316
 10
1749.5253
 20
-74.0851
 10
1749.2067
 20
-74.0287
 10
1748.888
 20
-73.9625
 10
1748.5691
 20
-73.8863
 10
1748.2499
 20
-73.8002
 10
1747.9305
 20
-73.704
 10
1747.6108
 20
-73.5978
 10
1747.2908
 20
-73.4814
 10
1746.9298
 20
-73.3349
 10
1746.5913
 20
-73.1789
 10
1746.2753
 20
-73.0134
 10
1745.982
 20
-72.8384
 10
1745.7113
 20
-72.6539
 10
1745.4634
 20
-72.4599
 10
1745.2383
 20
-72.2564
 10
1745.036
 20
-72.0433
 10
1744.8571
 20
-71.8199
 10
1744.7021
 20
-71.5855
 10
1744.5709
 20
-71.3398
 10
1744.4636
 20
-71.083
 10
1744.3801
 20
-70.8148
 10
1744.3204
 20
-70.5352
 10
1744.2846
 20
-70.2442
 10
1744.2727
 20
-69.9417
  0
LWPOLYLINE
  5
C4
330
1F
100
AcDbEntity
  8
Layer 1
 62
     7
100
AcDbPolyline
 90
       65
 70
     1
 43
0.0
 10
1783.1899
 20
-72.3572
 10
1783.1559
 20
-73.2583
 10
1783.0541
 20
-74.0976
 10
1782.8844
 20
-74.8749
 10
1782.6469
 20
-75.5904
 10
1782.3417
 20
-76.244
 10
1781.9689
 20
-76.8356
 10
1781.5285
 20
-77.3654
 10
1781.0205
 20
-77.8333
 10
1780.439
 20
-78.2418
 10
1779.7841
 20
-78.5958
 10
1779.0558
 20
-78.8953
 10
1778.2541
 20
-79.1404
 10
1777.3788
 20
-79.331
 10
1776.43
 20
-79.4672
 10
1775.4076
 20
-79.5489
 10
1774.3114
 20
-79.5761
 10
1773.2007
 20
-79.5483
 10
1772.1671
 20
-79.4649
 10
1771.2104
 20
-79.3259
 10
1770.3304
 20
-79.1313
 10
1769.5267
 20
-78.8813
 10
1768.7993
 20
-78.5757
 10
1768.1479
 20
-78.2147
 10
1767.5721
 20
-77.7983
 10
1767.0695
 20
-77.3252
 10
1766.634
 20
-76.7937
 10
1766.2654
 20
-76.2037
 10
1765.9639
 20
-75.5552
 10
1765.7294
 20
-74.8483
 10
1765.5618
 20
-74.0828
 10
1765.4613
 20
-73.2589
 10
1765.4278
 20
-72.3764
 10
1765.4618
 20
-71.471
 10
1765.5637
 20
-70.6283
 10
1765.7335
 20
-69.8485
 10
1765.9712
 20
-69.1316
 10
1766.2768
 20
-68.4776
 10
1766.6503
 20
-67.8866
 10
1767.0915
 20
-67.3585
 10
1767.6006
 20
-66.8935
 10
1768.181
 20
-66.4863
 10
1768.8351
 20
-66.1335
 10
1769.563
 20
-65.8351
 10
1770.3647
 20
-65.591
 10
1771.2403
 20
-65.4012
 10
1772.1899
 20
-65.2658
 10
1773.2136
 20
-65.1845
 10
1774.3114
 20
-65.1574
 10
1775.4206
 20
-65.1855
 10
1776.4533
 20
-65.2699
 10
1777.4095
 20
-65.4104
 10
1778.2893
 20
-65.6071
 10
1779.0927
 20
-65.8598
 10
1779.8199
 20
-66.1687
 10
1780.4708
 20
-66.5335
 10
1781.0456
 20
-66.9544
 10
1781.5491
 20
-67.4315
 10
1781.9852
 20
-67.9651
 10
1782.3538
 20
-68.5554
 10
1782.6551
 20
-69.2022
 10
1782.8892
 20
-69.9058
 10
1783.0564
 20
-70.6661
 10
1783.1565
 20
-71.4832
 10
1783.1899
 20
-72.3572
  0
LWPOLYLINE
  5
C5
330
1F
100
AcDbEntity
  8
Layer 1
 62
     7
100
AcDbPolyline
 90
      129
 70
     1
 43
0.0
 10
1778.4159
 20
-76.5763
 10
1778.547
 20
-76.398
 10
1778.668
 20
-76.2088
 10
1778.779
 20
-76.0083
 10
1778.88
 20
-75.7968
 10
1778.9711
 20
-75.5739
 10
1779.0524
 20
-75.3397
 10
1779.124
 20
-75.094
 10
1779.1859
 20
-74.8369
 10
1779.2378
 20
-74.569
 10
1779.2828
 20
-74.2891
 10
1779.3211
 20
-73.9973
 10
1779.3524
 20
-73.6934
 10
1779.3769
 20
-73.3775
 10
1779.3944
 20
-73.0496
 10
1779.405
 20
-72.7095
 10
1779.4085
 20
-72.3572
 10
1779.405
 20
-72.0082
 10
1779.3944
 20
-71.6706
 10
1779.3769
 20
-71.3444
 10
1779.3524
 20
-71.0296
 10
1779.3211
 20
-70.7265
 10
1779.2828
 20
-70.435
 10
1779.2378
 20
-70.1553
 10
1779.1859
 20
-69.8874
 10
1779.1237
 20
-69.6299
 10
1779.0515
 20
-69.3836
 10
1778.969
 20
-69.1486
 10
1778.8764
 20
-68.9249
 10
1778.7735
 20
-68.7123
 10
1778.6602
 20
-68.5109
 10
1778.5366
 20
-68.3206
 10
1778.4025
 20
-68.1413
 10
1778.2553
 20
-67.9694
 10
1778.095
 20
-67.8084
 10
1777.9218
 20
-67.6583
 10
1777.7356
 20
-67.519
 10
1777.5367
 20
-67.3905
 10
1777.325
 20
-67.2726
 10
1777.1008
 20
-67.1654
 10
1776.8641
 20
-67.0688
 10
1776.6083
 20
-66.9827
 10
1776.3344
 20
-66.908
 10
1776.0423
 20
-66.8446
 10
1775.7321
 20
-66.7926
 10
1775.4039
 20
-66.7521
 10
1775.0577
 20
-66.7231
 10
1774.6935
 20
-66.7057
 10
1774.3114
 20
-66.6999
 10
1773.9326
 20
-66.7057
 10
1773.5708
 20
-66.7231
 10
1773.2261
 20
-66.7521
 10
1772.8986
 20
-66.7926
 10
1772.5883
 20
-66.8446
 10
1772.2954
 20
-66.908
 10
1772.02
 20
-66.9827
 10
1771.762
 20
-67.0688
 10
1771.5181
 20
-67.1657
 10
1771.2875
 20
-67.2738
 10
1771.0701
 20
-67.393
 10
1770.866
 20
-67.5235
 10
1770.6753
 20
-67.665
 10
1770.4979
 20
-67.8179
 10
1770.334
 20
-67.9819
 10
1770.1835
 20
-68.1572
 10
1770.0485
 20
-68.3403
 10
1769.9248
 20
-68.5347
 10
1769.8121
 20
-68.7405
 10
1769.7106
 20
-68.9577
 10
1769.62
 20
-69.1864
 10
1769.5404
 20
-69.4266
 10
1769.4716
 20
-69.6783
 10
1769.4135
 20
-69.9417
 10
1769.3668
 20
-70.216
 10
1769.326
 20
-70.4988
 10
1769.2913
 20
-70.79
 10
1769.2626
 20
-71.0899
 10
1769.2401
 20
-71.3984
 10
1769.224
 20
-71.7156
 10
1769.2142
 20
-72.0416
 10
1769.2109
 20
-72.3764
 10
1769.2136
 20
-72.7309
 10
1769.2216
 20
-73.0708
 10
1769.2352
 20
-73.3962
 10
1769.2542
 20
-73.7068
 10
1769.2788
 20
-74.0027
 10
1769.3091
 20
-74.2839
 10
1769.345
 20
-74.5503
 10
1769.3867
 20
-74.8019
 10
1769.4374
 20
-75.0418
 10
1769.5015
 20
-75.2756
 10
1769.5789
 20
-75.5034
 10
1769.6696
 20
-75.725
 10
1769.7735
 20
-75.9403
 10
1769.8904
 20
-76.1493
 10
1770.0204
 20
-76.3519
 10
1770.1634
 20
-76.548
 10
1770.3047
 20
-76.7214
 10
1770.461
 20
-76.8847
 10
1770.6323
 20
-77.0378
 10
1770.8183
 20
-77.1808
 10
1771.0189
 20
-77.3136
 10
1771.2339
 20
-77.436
 10
1771.4632
 20
-77.5481
 10
1771.7067
 20
-77.6497
 10
1771.9645
 20
-77.74
 10
1772.242
 20
-77.8181
 10
1772.5389
 20
-77.8842
 10
1772.8553
 20
-77.9381
 10
1773.1908
 20
-77.9799
 10
1773.5454
 20
-78.0098
 10
1773.919
 20
-78.0276
 10
1774.3114
 20
-78.0336
 10
1774.6897
 20
-78.0278
 10
1775.0511
 20
-78.0104
 10
1775.3957
 20
-77.9814
 10
1775.7233
 20
-77.941
 10
1776.034
 20
-77.8891
 10
1776.3278
 20
-77.8259
 10
1776.6045
 20
-77.7514
 10
1776.8641
 20
-77.6656
 10
1777.105
 20
-77.5684
 10
1777.333
 20
-77.4601
 10
1777.5478
 20
-77.3407
 10
1777.7492
 20
-77.2102
 10
1777.9369
 20
-77.0685
 10
1778.1108
 20
-76.9157
 10
1778.2705
 20
-76.7516
 10
1778.4159
 20
-76.5763
  0
LWPOLYLINE
  5
C6
330
1F
100
AcDbEntity
  8
Layer 1
 62
     7
100
AcDbPolyline
 90
      182
 70
     1
 43
0.0
 10
1822.8553
 20
-79.2906
 10
1822.8553
 20
-73.2845
 10
1822.8481
 20
-72.9338
 10
1822.8269
 20
-72.5963
 10
1822.7918
 20
-72.272
 10
1822.7432
 20
-71.9607
 10
1822.7121
 20
-71.8124
 10
1822.673
 20
-71.6725
 10
1822.626
 20
-71.5408
 10
1822.5712
 20
-71.4174
 10
1822.5087
 20
-71.3022
 10
1822.4386
 20
-71.195
 10
1822.361
 20
-71.096
 10
1822.2761
 20
-71.005
 10
1822.1786
 20
-70.9152
 10
1822.0707
 20
-70.8316
 10
1821.9526
 20
-70.7542
 10
1821.8244
 20
-70.6829
 10
1821.6862
 20
-70.6179
 10
1821.5382
 20
-70.5589
 10
1821.3805
 20
-70.506
 10
1821.2132
 20
-70.4592
 10
1821.0339
 20
-70.4178
 10
1820.839
 20
-70.3818
 10
1820.6285
 20
-70.3512
 10
1820.4026
 20
-70.3262
 10
1820.1615
 20
-70.3066
 10
1819.9053
 20
-70.2926
 10
1819.6342
 20
-70.2842
 10
1819.3484
 20
-70.2814
 10
1819.074
 20
-70.2866
 10
1818.7954
 20
-70.3022
 10
1818.5124
 20
-70.3282
 10
1818.2248
 20
-70.3647
 10
1817.9323
 20
-70.4115
 10
1817.6347
 20
-70.4687
 10
1817.3318
 20
-70.5364
 10
1817.0233
 20
-70.6144
 10
1816.7117
 20
-70.7012
 10
1816.397
 20
-70.7976
 10
1816.0794
 20
-70.9035
 10
1815.7591
 20
-71.0188
 10
1815.4361
 20
-71.1435
 10
1815.1105
 20
-71.2775
 10
1814.7825
 20
-71.4209
 10
1814.4522
 20
-71.5734
 10
1814.5024
 20
-71.9482
 10
1814.5292
 20
-72.4648
 10
1814.5292
 20
-79.2906
 10
1811.0156
 20
-79.2906
 10
1811.0156
 20
-73.2845
 10
1811.0084
 20
-72.9338
 10
1810.9865
 20
-72.5963
 10
1810.9499
 20
-72.272
 10
1810.8984
 20
-71.9607
 10
1810.8679
 20
-71.8124
 10
1810.8293
 20
-71.6725
 10
1810.7826
 20
-71.5408
 10
1810.7281
 20
-71.4174
 10
1810.6659
 20
-71.3022
 10
1810.5962
 20
-71.195
 10
1810.5191
 20
-71.096
 10
1810.4348
 20
-71.005
 10
1810.3367
 20
-70.9152
 10
1810.2284
 20
-70.8316
 10
1810.11
 20
-70.7542
 10
1809.9815
 20
-70.6829
 10
1809.8432
 20
-70.6179
 10
1809.6951
 20
-70.5589
 10
1809.5374
 20
-70.506
 10
1809.3701
 20
-70.4592
 10
1809.1909
 20
-70.4178
 10
1808.9962
 20
-70.3818
 10
1808.786
 20
-70.3512
 10
1808.5604
 20
-70.3262
 10
1808.3196
 20
-70.3066
 10
1808.0637
 20
-70.2926
 10
1807.7928
 20
-70.2842
 10
1807.5071
 20
-70.2814
 10
1807.2193
 20
-70.2869
 10
1806.9282
 20
-70.3034
 10
1806.6339
 20
-70.3309
 10
1806.3364
 20
-70.3696
 10
1806.0354
 20
-70.4195
 10
1805.731
 20
-70.4807
 10
1805.4231
 20
-70.5531
 10
1805.1117
 20
-70.6369
 10
1804.8002
 20
-70.7291
 10
1804.4912
 20
-70.8273
 10
1804.1845
 20
-70.9315
 10
1803.8803
 20
-71.0417
 10
1803.5784
 20
-71.1581
 10
1803.2791
 20
-71.2806
 10
1802.9822
 20
-71.4093
 10
1802.6878
 20
-71.5442
 10
1802.6878
 20
-79.2906
 10
1799.1726
 20
-79.2906
 10
1799.1726
 20
-68.91
 10
1802.6878
 20
-68.91
 10
1802.6878
 20
-70.0652
 10
1803.0332
 20
-69.8985
 10
1803.3774
 20
-69.7413
 10
1803.7207
 20
-69.5938
 10
1804.063
 20
-69.4559
 10
1804.4043
 20
-69.3277
 10
1804.7447
 20
-69.2093
 10
1805.0843
 20
-69.1006
 10
1805.423
 20
-69.0018
 10
1805.7668
 20
-68.9134
 10
1806.1188
 20
-68.8367
 10
1806.4791
 20
-68.7718
 10
1806.8477
 20
-68.7186
 10
1807.2246
 20
-68.6771
 10
1807.6096
 20
-68.6475
 10
1808.0029
 20
-68.6296
 10
1808.4043
 20
-68.6237
 10
1808.8587
 20
-68.6303
 10
1809.3006
 20
-68.65
 10
1809.7298
 20
-68.6828
 10
1810.1462
 20
-68.7287
 10
1810.5499
 20
-68.7877
 10
1810.9407
 20
-68.8597
 10
1811.3186
 20
-68.9447
 10
1811.6835
 20
-69.0427
 10
1812.0284
 20
-69.1559
 10
1812.3525
 20
-69.2858
 10
1812.6557
 20
-69.4324
 10
1812.9379
 20
-69.5958
 10
1813.199
 20
-69.7759
 10
1813.4389
 20
-69.9729
 10
1813.6574
 20
-70.1867
 10
1813.8546
 20
-70.4174
 10
1814.2517
 20
-70.2039
 10
1814.6459
 20
-70.0035
 10
1815.0372
 20
-69.8162
 10
1815.4258
 20
-69.6422
 10
1815.8116
 20
-69.4816
 10
1816.1947
 20
-69.3345
 10
1816.5751
 20
-69.201
 10
1816.953
 20
-69.0811
 10
1817.3367
 20
-68.974
 10
1817.7281
 20
-68.8811
 10
1818.1274
 20
-68.8025
 10
1818.5347
 20
-68.7382
 10
1818.9501
 20
-68.6881
 10
1819.3736
 20
-68.6523
 10
1819.8055
 20
-68.6309
 10
1820.2457
 20
-68.6237
 10
1820.5784
 20
-68.627
 10
1820.9035
 20
-68.6368
 10
1821.2209
 20
-68.6533
 10
1821.5306
 20
-68.6762
 10
1821.8326
 20
-68.7057
 10
1822.1267
 20
-68.7417
 10
1822.413
 20
-68.7842
 10
1822.6913
 20
-68.8332
 10
1822.9615
 20
-68.8897
 10
1823.2234
 20
-68.9539
 10
1823.477
 20
-69.0259
 10
1823.722
 20
-69.1059
 10
1823.9584
 20
-69.1939
 10
1824.186
 20
-69.29
 10
1824.4048
 20
-69.3942
 10
1824.6146
 20
-69.5068
 10
1824.8184
 20
-69.6292
 10
1825.0103
 20
-69.7586
 10
1825.1904
 20
-69.8951
 10
1825.3587
 20
-70.0388
 10
1825.5149
 20
-70.1898
 10
1825.6593
 20
-70.3482
 10
1825.7916
 20
-70.5142
 10
1825.9119
 20
-70.6878
 10
1826.0191
 20
-70.8694
 10
1826.1121
 20
-71.0625
 10
1826.1909
 20
-71.267
 10
1826.2555
 20
-71.4831
 10
1826.3058
 20
-71.7106
 10
1826.3418
 20
-71.9496
 10
1826.3634
 20
-72.2002
 10
1826.3706
 20
-72.4623
 10
1826.3706
 20
-79.2906
 10
1822.8553
 20
-79.2906
  0
LWPOLYLINE
  5
C7
330
1F
100
AcDbEntity
  8
Layer 1
 62
     7
100
AcDbPolyline
 90
      182
 70
     1
 43
0.0
 10
1854.9378
 20
-79.2906
 10
1854.9378
 20
-73.2845
 10
1854.9308
 20
-72.9338
 10
1854.9098
 20
-72.5963
 10
1854.8743
 20
-72.272
 10
1854.824
 20
-71.9607
 10
1854.7936
 20
-71.8124
 10
1854.7551
 20
-71.6725
 10
1854.7085
 20
-71.5408
 10
1854.6541
 20
-71.4174
 10
1854.5918
 20
-71.3022
 10
1854.5217
 20
-71.195
 10
1854.444
 20
-71.096
 10
1854.3586
 20
-71.005
 10
1854.2612
 20
-70.9152
 10
1854.1535
 20
-70.8316
 10
1854.0356
 20
-70.7542
 10
1853.9075
 20
-70.6829
 10
1853.7694
 20
-70.6179
 10
1853.6214
 20
-70.5589
 10
1853.4634
 20
-70.506
 10
1853.2957
 20
-70.4592
 10
1853.1164
 20
-70.4178
 10
1852.9215
 20
-70.3818
 10
1852.711
 20
-70.3512
 10
1852.4851
 20
-70.3262
 10
1852.244
 20
-70.3066
 10
1851.9878
 20
-70.2926
 10
1851.7167
 20
-70.2842
 10
1851.4309
 20
-70.2814
 10
1851.1564
 20
-70.2866
 10
1850.8777
 20
-70.3022
 10
1850.5945
 20
-70.3282
 10
1850.3067
 20
-70.3647
 10
1850.0141
 20
-70.4115
 10
1849.7166
 20
-70.4687
 10
1849.4139
 20
-70.5364
 10
1849.1059
 20
-70.6144
 10
1848.7948
 20
-70.7012
 10
1848.4805
 20
-70.7976
 10
1848.1632
 20
-70.9035
 10
1847.8429
 20
-71.0188
 10
1847.5198
 20
-71.1435
 10
1847.194
 20
-71.2775
 10
1846.8656
 20
-71.4209
 10
1846.5347
 20
-71.5734
 10
1846.5849
 20
-71.9482
 10
1846.6117
 20
-72.4648
 10
1846.6117
 20
-79.2906
 10
1843.0981
 20
-79.2906
 10
1843.0981
 20
-73.2845
 10
1843.0909
 20
-72.9338
 10
1843.069
 20
-72.5963
 10
1843.0325
 20
-72.272
 10
1842.981
 20
-71.9607
 10
1842.9505
 20
-71.8124
 10
1842.912
 20
-71.6725
 10
1842.8656
 20
-71.5408
 10
1842.8113
 20
-71.4174
 10
1842.7492
 20
-71.3022
 10
1842.6794
 20
-71.195
 10
1842.6021
 20
-71.096
 10
1842.5173
 20
-71.005
 10
1842.4193
 20
-70.9152
 10
1842.3111
 20
-70.8316
 10
1842.1929
 20
-70.7542
 10
1842.0647
 20
-70.6829
 10
1841.9265
 20
-70.6179
 10
1841.7784
 20
-70.5589
 10
1841.6204
 20
-70.506
 10
1841.4527
 20
-70.4592
 10
1841.2736
 20
-70.4178
 10
1841.0789
 20
-70.3818
 10
1840.8688
 20
-70.3512
 10
1840.6433
 20
-70.3262
 10
1840.4025
 20
-70.3066
 10
1840.1462
 20
-70.2926
 10
1839.8747
 20
-70.2842
 10
1839.5879
 20
-70.2814
 10
1839.3006
 20
-70.2869
 10
1839.0098
 20
-70.3034
 10
1838.7157
 20
-70.3309
 10
1838.4183
 20
-70.3696
 10
1838.1175
 20
-70.4195
 10
1837.8135
 20
-70.4807
 10
1837.5063
 20
-70.5531
 10
1837.1959
 20
-70.6369
 10
1836.8839
 20
-70.7291
 10
1836.5744
 20
-70.8273
 10
1836.2674
 20
-70.9315
 10
1835.9628
 20
-71.0417
 10
1835.6607
 20
-71.1581
 10
1835.361
 20
-71.2806
 10
1835.0637
 20
-71.4093
 10
1834.7687
 20
-71.5442
 10
1834.7687
 20
-79.2906
 10
1831.2551
 20
-79.2906
 10
1831.2551
 20
-68.91
 10
1834.7687
 20
-68.91
 10
1834.7687
 20
-70.0652
 10
1835.114
 20
-69.8985
 10
1835.4583
 20
-69.7413
 10
1835.8016
 20
-69.5938
 10
1836.144
 20
-69.4559
 10
1836.4855
 20
-69.3277
 10
1836.8262
 20
-69.2093
 10
1837.1662
 20
-69.1006
 10
1837.5055
 20
-69.0018
 10
1837.8493
 20
-68.9134
 10
1838.2013
 20
-68.8367
 10
1838.5616
 20
-68.7718
 10
1838.9302
 20
-68.7186
 10
1839.3071
 20
-68.6771
 10
1839.6921
 20
-68.6475
 10
1840.0854
 20
-68.6296
 10
1840.4868
 20
-68.6237
 10
1840.9408
 20
-68.6303
 10
1841.3824
 20
-68.65
 10
1841.8116
 20
-68.6828
 10
1842.2281
 20
-68.7287
 10
1842.6319
 20
-68.7877
 10
1843.0229
 20
-68.8597
 10
1843.401
 20
-68.9447
 10
1843.766
 20
-69.0427
 10
1844.1109
 20
-69.1559
 10
1844.4348
 20
-69.2858
 10
1844.7377
 20
-69.4324
 10
1845.0196
 20
-69.5958
 10
1845.2804
 20
-69.7759
 10
1845.52
 20
-69.9729
 10
1845.7383
 20
-70.1867
 10
1845.9354
 20
-70.4174
 10
1846.3325
 20
-70.2039
 10
1846.7268
 20
-70.0035
 10
1847.1182
 20
-69.8162
 10
1847.5068
 20
-69.6422
 10
1847.8928
 20
-69.4816
 10
1848.2762
 20
-69.3345
 10
1848.6571
 20
-69.201
 10
1849.0356
 20
-69.0811
 10
1849.4193
 20
-68.974
 10
1849.8109
 20
-68.8811
 10
1850.2105
 20
-68.8025
 10
1850.6181
 20
-68.7382
 10
1851.0337
 20
-68.6881
 10
1851.4575
 20
-68.6523
 10
1851.8895
 20
-68.6309
 10
1852.3298
 20
-68.6237
 10
1852.6619
 20
-68.627
 10
1852.9866
 20
-68.6368
 10
1853.3037
 20
-68.6533
 10
1853.6131
 20
-68.6762
 10
1853.9148
 20
-68.7057
 10
1854.2086
 20
-68.7417
 10
1854.4944
 20
-68.7842
 10
1854.7721
 20
-68.8332
 10
1855.0429
 20
-68.8897
 10
1855.3052
 20
-68.9539
 10
1855.559
 20
-69.0259
 10
1855.8041
 20
-69.1059
 10
1856.0404
 20
-69.1939
 10
1856.2679
 20
-69.29
 10
1856.4863
 20
-69.3942
 10
1856.6955
 20
-69.5068
 10
1856.8997
 20
-69.6292
 10
1857.0919
 20
-69.7586
 10
1857.2721
 20
-69.8951
 10
1857.4404
 20
-70.0388
 10
1857.5967
 20
-70.1898
 10
1857.7411
 20
-70.3482
 10
1857.8736
 20
-70.5142
 10
1857.9944
 20
-70.6878
 10
1858.1017
 20
-70.8694
 10
1858.1949
 20
-71.0625
 10
1858.274
 20
-71.267
 10
1858.3389
 20
-71.4831
 10
1858.3895
 20
-71.7106
 10
1858.4257
 20
-71.9496
 10
1858.4475
 20
-72.2002
 10
1858.4548
 20
-72.4623
 10
1858.4548
 20
-79.2906
 10
1854.9378
 20
-79.2906
  0
LWPOLYLINE
  5
C8
330
1F
100
AcDbEntity
  8
Layer 1
 62
     7
370
    25
100
AcDbPolyline
 90
       79
 70
     1
 43
0.0
 10
1505.1453
 20
58.1978
 10
1544.4056
 20
58.1986
 10
1547.5445
 20
58.0868
 10
1550.5927
 20
57.6921
 10
1553.4548
 20
57.0155
 10
1556.0355
 20
56.0579
 10
1558.2392
 20
54.8205
 10
1559.9707
 20
53.3041
 10
1561.1346
 20
51.5099
 10
1561.6354
 20
49.4389
 10
1562.6855
 20
41.2834
 10
1563.7149
 20
33.1733
 10
1564.7304
 20
25.0935
 10
1565.7391
 20
17.0288
 10
1566.7477
 20
8.964
 10
1567.7632
 20
0.8841
 10
1568.7926
 20
-7.2262
 10
1569.8427
 20
-15.382
 10
1570.597
 20
-18.1152
 10
1571.9915
 20
-20.5379
 10
1574.0341
 20
-22.6475
 10
1576.7325
 20
-24.441
 10
1580.0948
 20
-25.9157
 10
1584.1288
 20
-27.0685
 10
1588.8424
 20
-27.8968
 10
1594.2435
 20
-28.3976
 10
1610.0137
 20
-28.8955
 10
1626.1735
 20
-29.3276
 10
1642.5901
 20
-29.6916
 10
1659.1307
 20
-29.9856
 10
1675.6623
 20
-30.2075
 10
1692.0523
 20
-30.3553
 10
1708.1678
 20
-30.4268
 10
1723.8759
 20
-30.42
 10
1736.8087
 20
-31.7679
 10
1740.592
 20
-32.0699
 10
1744.3251
 20
-32.3545
 10
1748.0247
 20
-32.6275
 10
1751.7075
 20
-32.8947
 10
1755.3903
 20
-33.1619
 10
1759.0899
 20
-33.4349
 10
1762.823
 20
-33.7195
 10
1766.6063
 20
-34.0215
 10
1766.7335
 20
-38.9885
 10
1745.6268
 20
-38.9019
 10
1724.4983
 20
-38.7526
 10
1703.3552
 20
-38.5613
 10
1682.2047
 20
-38.3492
 10
1661.0541
 20
-38.137
 10
1639.9105
 20
-37.9458
 10
1618.7812
 20
-37.7964
 10
1597.6734
 20
-37.7098
 10
1586.4095
 20
-36.9754
 10
1576.9749
 20
-35.7181
 10
1569.2439
 20
-33.9676
 10
1563.0909
 20
-31.7541
 10
1558.3901
 20
-29.1073
 10
1555.0159
 20
-26.0572
 10
1552.8425
 20
-22.6337
 10
1551.7442
 20
-18.8667
 10
1550.8105
 20
-10.7317
 10
1549.8497
 20
-2.5967
 10
1548.8707
 20
5.5383
 10
1547.8826
 20
13.6733
 10
1546.8942
 20
21.8083
 10
1545.9145
 20
29.9433
 10
1544.9526
 20
38.0785
 10
1544.0173
 20
46.2138
 10
1543.8804
 20
46.9869
 10
1543.6158
 20
47.7225
 10
1543.1432
 20
48.3995
 10
1542.3823
 20
48.9972
 10
1541.2527
 20
49.4946
 10
1539.6743
 20
49.8709
 10
1537.5665
 20
50.1052
 10
1534.8492
 20
50.1767
 10
1504.7302
 20
50.1776
 10
1504.6883
 20
58.2003
 10
1505.1453
 20
58.1978
  0
LWPOLYLINE
  5
C9
330
1F
100
AcDbEntity
  8
Layer 1
 62
     7
370
    25
100
AcDbPolyline
 90
       82
 70
     1
 43
0.0
 10
2098.0375
 20
50.2577
 10
2098.0375
 20
50.2694
 10
2416.6748
 20
50.2694
 10
2416.6748
 20
58.146
 10
2098.0375
 20
58.146
 10
2098.0375
 20
58.1502
 10
2058.3603
 20
58.2003
 10
2055.2205
 20
58.0882
 10
2052.1718
 20
57.6932
 10
2049.3094
 20
57.0163
 10
2046.7286
 20
56.0585
 10
2044.5246
 20
54.8208
 10
2042.7927
 20
53.3043
 10
2041.6279
 20
51.51
 10
2041.1256
 20
49.4389
 10
2040.0761
 20
41.2834
 10
2039.0471
 20
33.1733
 10
2038.0319
 20
25.0935
 10
2037.0236
 20
17.0288
 10
2036.0153
 20
8.964
 10
2035.0001
 20
0.8841
 10
2033.9711
 20
-7.2262
 10
2032.9216
 20
-15.382
 10
2032.1668
 20
-18.1152
 10
2030.7723
 20
-20.538
 10
2028.7299
 20
-22.6476
 10
2026.0317
 20
-24.4413
 10
2022.6697
 20
-25.9161
 10
2018.6359
 20
-27.0692
 10
2013.9223
 20
-27.8979
 10
2008.5208
 20
-28.3993
 10
1992.7501
 20
-28.8968
 10
1976.5901
 20
-29.3285
 10
1960.1735
 20
-29.6925
 10
1943.6331
 20
-29.9866
 10
1927.1016
 20
-30.2086
 10
1910.7118
 20
-30.3564
 10
1894.5965
 20
-30.4278
 10
1878.8884
 20
-30.4208
 10
1865.9523
 20
-31.7679
 10
1862.1705
 20
-32.0702
 10
1858.4385
 20
-32.3549
 10
1854.7395
 20
-32.6279
 10
1851.0568
 20
-32.895
 10
1847.3738
 20
-33.1621
 10
1843.6739
 20
-33.435
 10
1839.9403
 20
-33.7195
 10
1836.1563
 20
-34.0215
 10
1836.0275
 20
-38.9885
 10
1857.1348
 20
-38.9019
 10
1878.2639
 20
-38.7526
 10
1899.4076
 20
-38.5613
 10
1920.5586
 20
-38.3492
 10
1941.7096
 20
-38.137
 10
1962.8535
 20
-37.9458
 10
1983.983
 20
-37.7964
 10
2005.0909
 20
-37.7098
 10
2016.3553
 20
-36.9759
 10
2025.7902
 20
-35.7188
 10
2033.5212
 20
-33.9684
 10
2039.6743
 20
-31.7548
 10
2044.3751
 20
-29.1079
 10
2047.7494
 20
-26.0577
 10
2049.923
 20
-22.6343
 10
2051.0218
 20
-18.8675
 10
2051.9545
 20
-10.7321
 10
2052.9148
 20
-2.5968
 10
2053.8936
 20
5.5385
 10
2054.8817
 20
13.6738
 10
2055.8701
 20
21.8089
 10
2056.8495
 20
29.944
 10
2057.811
 20
38.079
 10
2058.7453
 20
46.2138
 10
2058.8826
 20
46.9874
 10
2059.1473
 20
47.724
 10
2059.6199
 20
48.4026
 10
2060.3808
 20
49.002
 10
2061.5104
 20
49.501
 10
2063.0893
 20
49.8787
 10
2065.198
 20
50.1137
 10
2067.9168
 20
50.1851
 10
2098.0375
 20
50.2577
  0
LWPOLYLINE
  5
CA
330
1F
100
AcDbEntity
  8
Layer 1
 62
     7
370
    20
100
AcDbPolyline
 90
        2
 70
     0
 43
0.0
 10
1504.6917
 20
113.7473
 10
1504.6917
 20
94.9042
  0
LWPOLYLINE
  5
CB
330
1F
100
AcDbEntity
  8
Layer 1
 62
     7
370
    20
100
AcDbPolyline
 90
        2
 70
     0
 43
0.0
 10
2416.6848
 20
113.7473
 10
2416.6848
 20
94.9042
  0
LWPOLYLINE
  5
CC
330
1F
100
AcDbEntity
  8
Layer 1
 62
     7
370
    20
100
AcDbPolyline
 90
        2
 70
     0
 43
0.0
 10
2416.6848
 20
105.1087
 10
1504.6917
 20
105.1087
  0
LWPOLYLINE
  5
CD
330
1F
100
AcDbEntity
  8
Layer 1
 62
     7
100
AcDbPolyline
 90
       99
 70
     1
 43
0.0
 10
1907.1544
 20
129.4522
 10
1907.1464
 20
129.7952
 10
1907.1225
 20
130.1219
 10
1907.0824
 20
130.4323
 10
1907.0259
 20
130.7264
 10
1906.953
 20
131.0043
 10
1906.8634
 20
131.266
 10
1906.7571
 20
131.5114
 10
1906.6338
 20
131.7408
 10
1906.4985
 20
131.9549
 10
1906.3501
 20
132.1565
 10
1906.189
 20
132.3455
 10
1906.0155
 20
132.522
 10
1905.8298
 20
132.686
 10
1905.6322
 20
132.8375
 10
1905.423
 20
132.9765
 10
1905.2026
 20
133.103
 10
1904.9965
 20
133.2103
 10
1904.7902
 20
133.3088
 10
1904.5836
 20
133.3985
 10
1904.3767
 20
133.4794
 10
1904.1696
 20
133.5515
 10
1903.9622
 20
133.6149
 10
1903.7547
 20
133.6696
 10
1903.547
 20
133.7156
 10
1903.3341
 20
133.7546
 10
1903.1159
 20
133.7882
 10
1902.8925
 20
133.8166
 10
1902.6641
 20
133.8398
 10
1902.4306
 20
133.8578
 10
1902.1921
 20
133.8706
 10
1901.9488
 20
133.8783
 10
1901.7007
 20
133.8808
 10
1901.1421
 20
133.8681
 10
1900.6126
 20
133.8301
 10
1900.1123
 20
133.7666
 10
1899.6412
 20
133.6778
 10
1899.1993
 20
133.5635
 10
1898.7868
 20
133.4238
 10
1898.4036
 20
133.2586
 10
1898.0499
 20
133.0679
 10
1897.73
 20
132.853
 10
1897.4531
 20
132.6151
 10
1897.2191
 20
132.3543
 10
1897.0279
 20
132.0707
 10
1896.8795
 20
131.7644
 10
1896.7736
 20
131.4353
 10
1896.7101
 20
131.0835
 10
1896.689
 20
130.7092
 10
1896.6958
 20
130.4962
 10
1896.7165
 20
130.293
 10
1896.751
 20
130.0994
 10
1896.7995
 20
129.9154
 10
1896.8621
 20
129.741
 10
1896.939
 20
129.5761
 10
1897.0302
 20
129.4205
 10
1897.1359
 20
129.2744
 10
1897.2559
 20
129.1362
 10
1897.3935
 20
129.0029
 10
1897.5487
 20
128.8744
 10
1897.7214
 20
128.7509
 10
1897.9115
 20
128.6322
 10
1898.1189
 20
128.5185
 10
1898.3436
 20
128.4098
 10
1898.5855
 20
128.3062
 10
1898.7654
 20
128.2367
 10
1898.9512
 20
128.1735
 10
1899.1428
 20
128.1164
 10
1899.3402
 20
128.0654
 10
1899.5436
 20
128.0206
 10
1899.7528
 20
127.9818
 10
1899.968
 20
127.9491
 10
1900.1891
 20
127.9223
 10
1900.4161
 20
127.8989
 10
1900.6464
 20
127.8787
 10
1900.8801
 20
127.8618
 10
1901.1176
 20
127.848
 10
1901.3588
 20
127.8374
 10
1901.6041
 20
127.8298
 10
1901.8536
 20
127.8253
 10
1902.1075
 20
127.8238
 10
1902.4086
 20
127.827
 10
1902.7157
 20
127.8368
 10
1903.0286
 20
127.8531
 10
1903.3474
 20
127.8759
 10
1903.672
 20
127.9054
 10
1904.0024
 20
127.9414
 10
1904.3385
 20
127.984
 10
1904.6803
 20
128.0333
 10
1905.0179
 20
128.0866
 10
1905.3451
 20
128.1443
 10
1905.6617
 20
128.2065
 10
1905.9676
 20
128.2731
 10
1906.2624
 20
128.3441
 10
1906.546
 20
128.4193
 10
1906.8183
 20
128.4988
 10
1907.079
 20
128.5825
 10
1907.1292
 20
128.9472
 10
1907.1544
 20
129.4522
  0
LWPOLYLINE
  5
CE
330
1F
100
AcDbEntity
  8
Layer 1
 62
     7
100
AcDbPolyline
 90
      184
 70
     1
 43
0.0
 10
1892.9075
 20
130.6391
 10
1892.9185
 20
130.9031
 10
1892.9514
 20
131.1616
 10
1893.0061
 20
131.4146
 10
1893.0827
 20
131.6618
 10
1893.1809
 20
131.9032
 10
1893.3009
 20
132.1387
 10
1893.4425
 20
132.3681
 10
1893.6056
 20
132.5913
 10
1893.7882
 20
132.8091
 10
1893.9869
 20
133.0194
 10
1894.2018
 20
133.222
 10
1894.4329
 20
133.417
 10
1894.6802
 20
133.6042
 10
1894.9436
 20
133.7836
 10
1895.2232
 20
133.9551
 10
1895.5189
 20
134.1187
 10
1895.8179
 20
134.2682
 10
1896.1323
 20
134.4093
 10
1896.4624
 20
134.5419
 10
1896.8082
 20
134.6661
 10
1897.1699
 20
134.7818
 10
1897.5475
 20
134.889
 10
1897.9413
 20
134.9876
 10
1898.3512
 20
135.0777
 10
1898.7673
 20
135.1589
 10
1899.1858
 20
135.2292
 10
1899.6065
 20
135.2887
 10
1900.0293
 20
135.3372
 10
1900.4539
 20
135.3749
 10
1900.8803
 20
135.4018
 10
1901.3082
 20
135.4179
 10
1901.7375
 20
135.4233
 10
1902.2119
 20
135.4183
 10
1902.6748
 20
135.4031
 10
1903.1263
 20
135.378
 10
1903.5663
 20
135.3429
 10
1903.9951
 20
135.2977
 10
1904.4126
 20
135.2427
 10
1904.819
 20
135.1777
 10
1905.2143
 20
135.1028
 10
1905.599
 20
135.0174
 10
1905.9699
 20
134.9234
 10
1906.3272
 20
134.8207
 10
1906.6708
 20
134.7092
 10
1907.0011
 20
134.589
 10
1907.318
 20
134.46
 10
1907.6218
 20
134.3222
 10
1907.9126
 20
134.1755
 10
1908.2625
 20
133.9766
 10
1908.5917
 20
133.7631
 10
1908.9004
 20
133.5349
 10
1909.1886
 20
133.2919
 10
1909.4566
 20
133.0342
 10
1909.7045
 20
132.7617
 10
1909.9324
 20
132.4744
 10
1910.1406
 20
132.1723
 10
1910.3272
 20
131.8525
 10
1910.489
 20
131.5122
 10
1910.6259
 20
131.1515
 10
1910.738
 20
130.7704
 10
1910.8252
 20
130.3689
 10
1910.8875
 20
129.9471
 10
1910.9249
 20
129.5049
 10
1910.9374
 20
129.0424
 10
1910.9252
 20
128.6142
 10
1910.8885
 20
128.1918
 10
1910.8276
 20
127.7752
 10
1910.7424
 20
127.3643
 10
1910.633
 20
126.9592
 10
1910.4996
 20
126.5599
 10
1910.3421
 20
126.1665
 10
1910.1607
 20
125.7789
 10
1909.9553
 20
125.4016
 10
1909.727
 20
125.0408
 10
1909.4757
 20
124.6965
 10
1909.2016
 20
124.3686
 10
1908.9045
 20
124.0571
 10
1908.5845
 20
123.762
 10
1908.2416
 20
123.4832
 10
1907.8758
 20
123.2206
 10
1907.4646
 20
122.9582
 10
1907.0332
 20
122.712
 10
1906.5816
 20
122.4819
 10
1906.1098
 20
122.2679
 10
1905.618
 20
122.07
 10
1905.1061
 20
121.8882
 10
1904.5743
 20
121.7225
 10
1904.0224
 20
121.573
 10
1903.4429
 20
121.44
 10
1902.8306
 20
121.3247
 10
1902.1855
 20
121.227
 10
1901.5074
 20
121.147
 10
1900.7963
 20
121.0848
 10
1900.0523
 20
121.0402
 10
1899.2752
 20
121.0135
 10
1898.465
 20
121.0046
 10
1896.8781
 20
121.0455
 10
1896.6702
 20
121.0572
 10
1896.466
 20
121.0711
 10
1896.2653
 20
121.0871
 10
1896.0681
 20
121.1054
 10
1895.8745
 20
121.1259
 10
1895.6844
 20
121.1488
 10
1895.4978
 20
121.174
 10
1895.3147
 20
121.2016
 10
1895.3147
 20
122.9853
 10
1895.4988
 20
122.9853
 10
1895.7648
 20
122.9194
 10
1896.0955
 20
122.8545
 10
1896.4903
 20
122.7908
 10
1896.9484
 20
122.7282
 10
1897.1978
 20
122.6992
 10
1897.4476
 20
122.6741
 10
1897.6979
 20
122.6528
 10
1897.9488
 20
122.6355
 10
1898.2004
 20
122.622
 10
1898.4529
 20
122.6124
 10
1898.7062
 20
122.6066
 10
1898.9605
 20
122.6047
 10
1899.8485
 20
122.6234
 10
1900.688
 20
122.6797
 10
1901.479
 20
122.7735
 10
1902.2213
 20
122.905
 10
1902.9146
 20
123.074
 10
1903.5587
 20
123.2808
 10
1904.1535
 20
123.5252
 10
1904.6987
 20
123.8074
 10
1905.1911
 20
124.1246
 10
1905.6273
 20
124.4741
 10
1906.0072
 20
124.8558
 10
1906.3308
 20
125.2698
 10
1906.5979
 20
125.7161
 10
1906.8083
 20
126.1947
 10
1906.962
 20
126.7055
 10
1907.0589
 20
127.2487
 10
1906.6891
 20
127.1269
 10
1906.3239
 20
127.0136
 10
1905.9633
 20
126.9089
 10
1905.607
 20
126.8127
 10
1905.2549
 20
126.725
 10
1904.9067
 20
126.6457
 10
1904.5624
 20
126.5749
 10
1904.2216
 20
126.5125
 10
1903.8812
 20
126.4577
 10
1903.5329
 20
126.4104
 10
1903.1768
 20
126.3705
 10
1902.8132
 20
126.338
 10
1902.4422
 20
126.3127
 10
1902.0638
 20
126.2948
 10
1901.6782
 20
126.2841
 10
1901.2856
 20
126.2805
 10
1900.9047
 20
126.2832
 10
1900.5319
 20
126.2912
 10
1900.1674
 20
126.3046
 10
1899.8114
 20
126.3232
 10
1899.4641
 20
126.347
 10
1899.1258
 20
126.3759
 10
1898.7966
 20
126.41
 10
1898.4767
 20
126.4491
 10
1898.1593
 20
126.4956
 10
1897.8413
 20
126.552
 10
1897.5226
 20
126.6182
 10
1897.2035
 20
126.6944
 10
1896.884
 20
126.7805
 10
1896.5641
 20
126.8767
 10
1896.2441
 20
126.9829
 10
1895.924
 20
127.0993
 10
1895.5631
 20
127.2458
 10
1895.225
 20
127.4018
 10
1894.9095
 20
127.5673
 10
1894.6168
 20
127.7423
 10
1894.3468
 20
127.9268
 10
1894.0994
 20
128.1208
 10
1893.8746
 20
128.3243
 10
1893.6725
 20
128.5374
 10
1893.4926
 20
128.7608
 10
1893.3369
 20
128.9952
 10
1893.2054
 20
129.2409
 10
1893.0979
 20
129.4978
 10
1893.0145
 20
129.766
 10
1892.955
 20
130.0455
 10
1892.9194
 20
130.3366
 10
1892.9075
 20
130.6391
  0
LWPOLYLINE
  5
CF
330
1F
100
AcDbEntity
  8
Layer 1
 62
     7
100
AcDbPolyline
 90
       27
 70
     1
 43
0.0
 10
1930.2613
 20
121.2901
 10
1916.6974
 20
121.2901
 10
1916.6974
 20
122.6998
 10
1921.741
 20
122.6998
 10
1921.741
 20
131.9945
 10
1916.6974
 20
131.9945
 10
1916.6974
 20
133.2524
 10
1917.3884
 20
133.2588
 10
1918.0326
 20
133.2779
 10
1918.63
 20
133.3096
 10
1919.1805
 20
133.3541
 10
1919.6842
 20
133.4112
 10
1920.1411
 20
133.4809
 10
1920.551
 20
133.5632
 10
1920.9141
 20
133.658
 10
1921.2324
 20
133.7708
 10
1921.5143
 20
133.9064
 10
1921.7598
 20
134.0647
 10
1921.9686
 20
134.2457
 10
1922.1408
 20
134.4492
 10
1922.2761
 20
134.6753
 10
1922.3744
 20
134.9238
 10
1922.4357
 20
135.1946
 10
1925.3315
 20
135.1946
 10
1925.3315
 20
122.6998
 10
1930.2613
 20
122.6998
 10
1930.2613
 20
121.2901
  0
LWPOLYLINE
  5
D0
330
1F
100
AcDbEntity
  8
Layer 1
 62
     7
100
AcDbPolyline
 90
      162
 70
     1
 43
0.0
 10
1952.4843
 20
121.2901
 10
1935.3734
 20
121.2901
 10
1935.3734
 20
123.2423
 10
1938.8602
 20
124.9158
 10
1939.2701
 20
125.1168
 10
1939.6773
 20
125.3199
 10
1940.082
 20
125.525
 10
1940.4842
 20
125.7322
 10
1940.8839
 20
125.9415
 10
1941.2813
 20
126.1528
 10
1941.6764
 20
126.3663
 10
1942.0692
 20
126.5818
 10
1942.8307
 20
127.0056
 10
1943.5294
 20
127.4077
 10
1944.1653
 20
127.7881
 10
1944.7382
 20
128.1468
 10
1945.2481
 20
128.4839
 10
1945.6947
 20
128.7994
 10
1946.078
 20
129.0935
 10
1946.3979
 20
129.3662
 10
1946.6687
 20
129.6281
 10
1946.9037
 20
129.8924
 10
1947.1028
 20
130.159
 10
1947.2659
 20
130.428
 10
1947.3928
 20
130.6994
 10
1947.4836
 20
130.9732
 10
1947.5381
 20
131.2494
 10
1947.5563
 20
131.528
 10
1947.5507
 20
131.67
 10
1947.534
 20
131.8075
 10
1947.506
 20
131.9406
 10
1947.4667
 20
132.0693
 10
1947.4162
 20
132.1937
 10
1947.3543
 20
132.3138
 10
1947.2811
 20
132.4296
 10
1947.1964
 20
132.5412
 10
1947.1009
 20
132.6484
 10
1946.9965
 20
132.7508
 10
1946.8834
 20
132.8484
 10
1946.7618
 20
132.9413
 10
1946.632
 20
133.0293
 10
1946.4942
 20
133.1126
 10
1946.3486
 20
133.1912
 10
1946.1954
 20
133.2649
 10
1946.0294
 20
133.3328
 10
1945.8565
 20
133.3963
 10
1945.6768
 20
133.4554
 10
1945.4904
 20
133.5101
 10
1945.2974
 20
133.5603
 10
1945.0977
 20
133.606
 10
1944.8915
 20
133.6472
 10
1944.6788
 20
133.6839
 10
1944.4621
 20
133.7162
 10
1944.2402
 20
133.7444
 10
1944.013
 20
133.7683
 10
1943.7804
 20
133.788
 10
1943.5422
 20
133.8034
 10
1943.2985
 20
133.8144
 10
1943.0491
 20
133.8211
 10
1942.794
 20
133.8233
 10
1942.5479
 20
133.8214
 10
1942.3004
 20
133.8156
 10
1942.0516
 20
133.8058
 10
1941.8016
 20
133.7921
 10
1941.5504
 20
133.7743
 10
1941.298
 20
133.7525
 10
1941.0447
 20
133.7265
 10
1940.7903
 20
133.6964
 10
1940.5362
 20
133.6644
 10
1940.285
 20
133.6304
 10
1940.0367
 20
133.5944
 10
1939.7914
 20
133.5564
 10
1939.549
 20
133.5164
 10
1939.3096
 20
133.4746
 10
1939.0734
 20
133.4308
 10
1938.8402
 20
133.3851
 10
1938.6436
 20
133.3449
 10
1938.4493
 20
133.3026
 10
1938.2572
 20
133.2582
 10
1938.0672
 20
133.2117
 10
1937.8793
 20
133.1631
 10
1937.6933
 20
133.1123
 10
1937.5092
 20
133.0595
 10
1937.3269
 20
133.0045
 10
1936.1501
 20
132.623
 10
1935.9443
 20
132.623
 10
1935.9443
 20
134.5886
 10
1936.2471
 20
134.6608
 10
1936.5781
 20
134.7322
 10
1936.9373
 20
134.8028
 10
1937.3249
 20
134.873
 10
1937.7408
 20
134.9426
 10
1938.1852
 20
135.012
 10
1938.6582
 20
135.0812
 10
1939.1599
 20
135.1504
 10
1939.6722
 20
135.2141
 10
1940.1773
 20
135.2694
 10
1940.6752
 20
135.3163
 10
1941.1663
 20
135.3548
 10
1941.6505
 20
135.3847
 10
1942.128
 20
135.4061
 10
1942.5989
 20
135.419
 10
1943.0635
 20
135.4233
 10
1944.0065
 20
135.4072
 10
1944.8971
 20
135.359
 10
1945.7353
 20
135.2788
 10
1946.5212
 20
135.1665
 10
1947.2547
 20
135.0223
 10
1947.9359
 20
134.8461
 10
1948.5649
 20
134.6381
 10
1949.1415
 20
134.3983
 10
1949.657
 20
134.1297
 10
1950.1036
 20
133.8385
 10
1950.4813
 20
133.5245
 10
1950.7904
 20
133.1879
 10
1951.0306
 20
132.8286
 10
1951.2022
 20
132.4465
 10
1951.3051
 20
132.0416
 10
1951.3394
 20
131.6139
 10
1951.3335
 20
131.4134
 10
1951.3157
 20
131.2167
 10
1951.2861
 20
131.024
 10
1951.2444
 20
130.8352
 10
1951.1906
 20
130.6503
 10
1951.1247
 20
130.4693
 10
1951.0465
 20
130.2922
 10
1950.956
 20
130.1191
 10
1950.8562
 20
129.9491
 10
1950.7476
 20
129.782
 10
1950.6301
 20
129.6181
 10
1950.5037
 20
129.4572
 10
1950.3683
 20
129.2995
 10
1950.224
 20
129.1449
 10
1950.0706
 20
128.9935
 10
1949.9082
 20
128.8454
 10
1949.7312
 20
128.6944
 10
1949.5455
 20
128.5436
 10
1949.3511
 20
128.3932
 10
1949.1478
 20
128.2432
 10
1948.9355
 20
128.0934
 10
1948.7142
 20
127.9439
 10
1948.4838
 20
127.7948
 10
1948.2443
 20
127.646
 10
1948.002
 20
127.4984
 10
1947.756
 20
127.3512
 10
1947.5062
 20
127.2044
 10
1947.2527
 20
127.058
 10
1946.9955
 20
126.912
 10
1946.7347
 20
126.7666
 10
1946.4702
 20
126.6218
 10
1946.2021
 20
126.4775
 10
1945.7568
 20
126.2394
 10
1945.2995
 20
125.9989
 10
1944.8303
 20
125.756
 10
1944.3488
 20
125.5108
 10
1943.855
 20
125.2632
 10
1943.3488
 20
125.0132
 10
1942.83
 20
124.7608
 10
1942.2985
 20
124.506
 10
1938.8602
 20
122.8901
 10
1952.4843
 20
122.8901
 10
1952.4843
 20
121.2901
  0
LWPOLYLINE
  5
D1
330
1F
100
AcDbEntity
  8
Layer 1
 62
     7
100
AcDbPolyline
 90
      182
 70
     1
 43
0.0
 10
1992.3406
 20
121.2901
 10
1992.3406
 20
127.2963
 10
1992.3336
 20
127.647
 10
1992.3126
 20
127.9844
 10
1992.2771
 20
128.3087
 10
1992.2268
 20
128.62
 10
1992.1963
 20
128.7683
 10
1992.1576
 20
128.9082
 10
1992.1109
 20
129.0399
 10
1992.0562
 20
129.1633
 10
1991.9938
 20
129.2785
 10
1991.9238
 20
129.3857
 10
1991.8463
 20
129.4847
 10
1991.7614
 20
129.5757
 10
1991.6639
 20
129.6655
 10
1991.556
 20
129.7491
 10
1991.4379
 20
129.8265
 10
1991.3096
 20
129.8978
 10
1991.1715
 20
129.9629
 10
1991.0234
 20
130.0218
 10
1990.8657
 20
130.0747
 10
1990.6985
 20
130.1216
 10
1990.5192
 20
130.163
 10
1990.3243
 20
130.199
 10
1990.1137
 20
130.2295
 10
1989.8879
 20
130.2546
 10
1989.6468
 20
130.2741
 10
1989.3906
 20
130.2881
 10
1989.1195
 20
130.2965
 10
1988.8337
 20
130.2993
 10
1988.5592
 20
130.2941
 10
1988.2804
 20
130.2785
 10
1987.9972
 20
130.2525
 10
1987.7094
 20
130.2161
 10
1987.4168
 20
130.1692
 10
1987.1193
 20
130.112
 10
1986.8166
 20
130.0443
 10
1986.5086
 20
129.9663
 10
1986.1975
 20
129.8795
 10
1985.8833
 20
129.7831
 10
1985.5659
 20
129.6772
 10
1985.2457
 20
129.5619
 10
1984.9226
 20
129.4372
 10
1984.5968
 20
129.3032
 10
1984.2684
 20
129.1598
 10
1983.9375
 20
129.0073
 10
1983.9877
 20
128.6325
 10
1984.0145
 20
128.1159
 10
1984.0145
 20
121.2901
 10
1980.5009
 20
121.2901
 10
1980.5009
 20
127.2963
 10
1980.4937
 20
127.647
 10
1980.4718
 20
127.9844
 10
1980.4352
 20
128.3087
 10
1980.3837
 20
128.62
 10
1980.3533
 20
128.7683
 10
1980.3148
 20
128.9082
 10
1980.2683
 20
129.0399
 10
1980.214
 20
129.1633
 10
1980.1519
 20
129.2785
 10
1980.0822
 20
129.3857
 10
1980.0048
 20
129.4847
 10
1979.92
 20
129.5757
 10
1979.822
 20
129.6655
 10
1979.7139
 20
129.7491
 10
1979.5957
 20
129.8265
 10
1979.4674
 20
129.8978
 10
1979.3292
 20
129.9629
 10
1979.1811
 20
130.0218
 10
1979.0231
 20
130.0747
 10
1978.8554
 20
130.1216
 10
1978.6762
 20
130.163
 10
1978.4814
 20
130.199
 10
1978.2711
 20
130.2295
 10
1978.0455
 20
130.2546
 10
1977.8045
 20
130.2741
 10
1977.5483
 20
130.2881
 10
1977.277
 20
130.2965
 10
1976.9907
 20
130.2993
 10
1976.7034
 20
130.2938
 10
1976.4128
 20
130.2773
 10
1976.1189
 20
130.2498
 10
1975.8216
 20
130.2111
 10
1975.521
 20
130.1612
 10
1975.2169
 20
130.1
 10
1974.9095
 20
130.0276
 10
1974.5986
 20
129.9438
 10
1974.2866
 20
129.8516
 10
1973.9771
 20
129.7534
 10
1973.6701
 20
129.6492
 10
1973.3655
 20
129.539
 10
1973.0634
 20
129.4226
 10
1972.7637
 20
129.3001
 10
1972.4664
 20
129.1714
 10
1972.1714
 20
129.0365
 10
1972.1714
 20
121.2901
 10
1968.6578
 20
121.2901
 10
1968.6578
 20
131.6707
 10
1972.1714
 20
131.6707
 10
1972.1714
 20
130.5155
 10
1972.5168
 20
130.6822
 10
1972.8611
 20
130.8394
 10
1973.2044
 20
130.9869
 10
1973.5468
 20
131.1248
 10
1973.8883
 20
131.253
 10
1974.229
 20
131.3714
 10
1974.569
 20
131.4801
 10
1974.9083
 20
131.5789
 10
1975.2521
 20
131.6673
 10
1975.6041
 20
131.744
 10
1975.9644
 20
131.8089
 10
1976.333
 20
131.8622
 10
1976.7099
 20
131.9036
 10
1977.0949
 20
131.9332
 10
1977.4882
 20
131.9511
 10
1977.8896
 20
131.957
 10
1978.3436
 20
131.9504
 10
1978.7852
 20
131.9307
 10
1979.2143
 20
131.8979
 10
1979.6309
 20
131.8521
 10
1980.0347
 20
131.7931
 10
1980.4257
 20
131.7211
 10
1980.8038
 20
131.6361
 10
1981.1688
 20
131.538
 10
1981.5137
 20
131.4248
 10
1981.8378
 20
131.2949
 10
1982.1409
 20
131.1483
 10
1982.423
 20
130.9849
 10
1982.6838
 20
130.8048
 10
1982.9234
 20
130.6078
 10
1983.1416
 20
130.394
 10
1983.3382
 20
130.1633
 10
1983.7354
 20
130.3768
 10
1984.1298
 20
130.5773
 10
1984.5214
 20
130.7645
 10
1984.9102
 20
130.9385
 10
1985.2963
 20
131.0991
 10
1985.6797
 20
131.2462
 10
1986.0603
 20
131.3797
 10
1986.4383
 20
131.4996
 10
1986.822
 20
131.6067
 10
1987.2136
 20
131.6996
 10
1987.6132
 20
131.7782
 10
1988.0208
 20
131.8425
 10
1988.4365
 20
131.8926
 10
1988.8603
 20
131.9284
 10
1989.2923
 20
131.9498
 10
1989.7326
 20
131.957
 10
1990.0647
 20
131.9537
 10
1990.3894
 20
131.9439
 10
1990.7066
 20
131.9275
 10
1991.0161
 20
131.9045
 10
1991.3179
 20
131.875
 10
1991.612
 20
131.839
 10
1991.8982
 20
131.7965
 10
1992.1765
 20
131.7475
 10
1992.4467
 20
131.6911
 10
1992.7087
 20
131.6269
 10
1992.9622
 20
131.5548
 10
1993.2072
 20
131.4749
 10
1993.4436
 20
131.3869
 10
1993.6713
 20
131.2908
 10
1993.8901
 20
131.1865
 10
1994.0999
 20
131.0739
 10
1994.3036
 20
130.9515
 10
1994.4954
 20
130.8221
 10
1994.6753
 20
130.6856
 10
1994.8434
 20
130.5419
 10
1994.9995
 20
130.3909
 10
1995.1439
 20
130.2325
 10
1995.2764
 20
130.0665
 10
1995.3972
 20
129.8929
 10
1995.5044
 20
129.7113
 10
1995.5976
 20
129.5182
 10
1995.6767
 20
129.3137
 10
1995.7416
 20
129.0977
 10
1995.7922
 20
128.8702
 10
1995.8284
 20
128.6311
 10
1995.8502
 20
128.3805
 10
1995.8575
 20
128.1184
 10
1995.8575
 20
121.2901
 10
1992.3406
 20
121.2901
  0
LWPOLYLINE
  5
D2
330
1F
100
AcDbEntity
  8
Layer 1
 62
     7
100
AcDbPolyline
 90
      182
 70
     1
 43
0.0
 10
2024.4248
 20
121.2901
 10
2024.4248
 20
127.2963
 10
2024.4176
 20
127.647
 10
2024.3959
 20
127.9844
 10
2024.3598
 20
128.3087
 10
2024.3093
 20
128.62
 10
2024.2789
 20
128.7683
 10
2024.2404
 20
128.9082
 10
2024.1938
 20
129.0399
 10
2024.1394
 20
129.1633
 10
2024.0771
 20
129.2785
 10
2024.007
 20
129.3857
 10
2023.9293
 20
129.4847
 10
2023.8439
 20
129.5757
 10
2023.7465
 20
129.6655
 10
2023.6388
 20
129.7491
 10
2023.5209
 20
129.8265
 10
2023.3928
 20
129.8978
 10
2023.2547
 20
129.9629
 10
2023.1067
 20
130.0218
 10
2022.9487
 20
130.0747
 10
2022.781
 20
130.1216
 10
2022.6012
 20
130.163
 10
2022.406
 20
130.199
 10
2022.1955
 20
130.2295
 10
2021.9697
 20
130.2546
 10
2021.7288
 20
130.2741
 10
2021.4729
 20
130.2881
 10
2021.2019
 20
130.2965
 10
2020.9162
 20
130.2993
 10
2020.6417
 20
130.2941
 10
2020.3629
 20
130.2785
 10
2020.0797
 20
130.2525
 10
2019.7919
 20
130.2161
 10
2019.4993
 20
130.1692
 10
2019.2018
 20
130.112
 10
2018.8991
 20
130.0443
 10
2018.5911
 20
129.9663
 10
2018.28
 20
129.8795
 10
2017.9658
 20
129.7831
 10
2017.6484
 20
129.6772
 10
2017.3282
 20
129.5619
 10
2017.0051
 20
129.4372
 10
2016.6793
 20
129.3032
 10
2016.3509
 20
129.1598
 10
2016.02
 20
129.0073
 10
2016.0702
 20
128.6325
 10
2016.097
 20
128.1159
 10
2016.097
 20
121.2901
 10
2012.5834
 20
121.2901
 10
2012.5834
 20
127.2963
 10
2012.5759
 20
127.647
 10
2012.5537
 20
127.9844
 10
2012.517
 20
128.3087
 10
2012.4662
 20
128.62
 10
2012.4358
 20
128.7683
 10
2012.3973
 20
128.9082
 10
2012.3509
 20
129.0399
 10
2012.2967
 20
129.1633
 10
2012.2349
 20
129.2785
 10
2012.1654
 20
129.3857
 10
2012.0885
 20
129.4847
 10
2012.0042
 20
129.5757
 10
2011.9057
 20
129.6655
 10
2011.7971
 20
129.7491
 10
2011.6786
 20
129.8265
 10
2011.5502
 20
129.8978
 10
2011.4118
 20
129.9629
 10
2011.2637
 20
130.0218
 10
2011.1057
 20
130.0747
 10
2010.9379
 20
130.1216
 10
2010.7588
 20
130.163
 10
2010.5642
 20
130.199
 10
2010.3541
 20
130.2295
 10
2010.1286
 20
130.2546
 10
2009.8877
 20
130.2741
 10
2009.6315
 20
130.2881
 10
2009.36
 20
130.2965
 10
2009.0732
 20
130.2993
 10
2008.7858
 20
130.2938
 10
2008.4951
 20
130.2773
 10
2008.201
 20
130.2498
 10
2007.9035
 20
130.2111
 10
2007.6028
 20
130.1612
 10
2007.2988
 20
130.1
 10
2006.9915
 20
130.0276
 10
2006.6811
 20
129.9438
 10
2006.3692
 20
129.8516
 10
2006.0599
 20
129.7534
 10
2005.7531
 20
129.6492
 10
2005.4487
 20
129.539
 10
2005.1467
 20
129.4226
 10
2004.8469
 20
129.3001
 10
2004.5493
 20
129.1714
 10
2004.2539
 20
129.0365
 10
2004.2539
 20
121.2901
 10
2000.7404
 20
121.2901
 10
2000.7404
 20
131.6707
 10
2004.2539
 20
131.6707
 10
2004.2539
 20
130.5155
 10
2004.5993
 20
130.6822
 10
2004.9436
 20
130.8394
 10
2005.287
 20
130.9869
 10
2005.6295
 20
131.1248
 10
2005.9712
 20
131.253
 10
2006.3123
 20
131.3714
 10
2006.6527
 20
131.4801
 10
2006.9925
 20
131.5789
 10
2007.3356
 20
131.6673
 10
2007.6871
 20
131.744
 10
2008.0469
 20
131.8089
 10
2008.4151
 20
131.8622
 10
2008.7917
 20
131.9036
 10
2009.1767
 20
131.9332
 10
2009.5702
 20
131.9511
 10
2009.9721
 20
131.957
 10
2010.4262
 20
131.9504
 10
2010.8679
 20
131.9307
 10
2011.2973
 20
131.8979
 10
2011.714
 20
131.8521
 10
2012.118
 20
131.7931
 10
2012.509
 20
131.7211
 10
2012.8868
 20
131.6361
 10
2013.2513
 20
131.538
 10
2013.5966
 20
131.4248
 10
2013.9208
 20
131.2949
 10
2014.2237
 20
131.1483
 10
2014.5055
 20
130.9849
 10
2014.7661
 20
130.8048
 10
2015.0055
 20
130.6078
 10
2015.2237
 20
130.394
 10
2015.4207
 20
130.1633
 10
2015.8178
 20
130.3768
 10
2016.2121
 20
130.5773
 10
2016.6036
 20
130.7645
 10
2016.9923
 20
130.9385
 10
2017.3785
 20
131.0991
 10
2017.7622
 20
131.2462
 10
2018.1435
 20
131.3797
 10
2018.5225
 20
131.4996
 10
2018.9061
 20
131.6067
 10
2019.2975
 20
131.6996
 10
2019.6969
 20
131.7782
 10
2020.1042
 20
131.8425
 10
2020.5195
 20
131.8926
 10
2020.9431
 20
131.9284
 10
2021.3749
 20
131.9498
 10
2021.8151
 20
131.957
 10
2022.1472
 20
131.9537
 10
2022.4719
 20
131.9439
 10
2022.789
 20
131.9275
 10
2023.0984
 20
131.9045
 10
2023.4001
 20
131.875
 10
2023.6939
 20
131.839
 10
2023.9797
 20
131.7965
 10
2024.2574
 20
131.7475
 10
2024.5286
 20
131.6911
 10
2024.7909
 20
131.6269
 10
2025.0445
 20
131.5548
 10
2025.2894
 20
131.4749
 10
2025.5254
 20
131.3869
 10
2025.7526
 20
131.2908
 10
2025.9711
 20
131.1865
 10
2026.1807
 20
131.0739
 10
2026.3855
 20
130.9515
 10
2026.5779
 20
130.8221
 10
2026.7581
 20
130.6856
 10
2026.9263
 20
130.5419
 10
2027.0824
 20
130.3909
 10
2027.2266
 20
130.2325
 10
2027.359
 20
130.0665
 10
2027.4797
 20
129.8929
 10
2027.5874
 20
129.7113
 10
2027.6808
 20
129.5182
 10
2027.7599
 20
129.3137
 10
2027.8247
 20
129.0977
 10
2027.8751
 20
128.8702
 10
2027.9112
 20
128.6311
 10
2027.9328
 20
128.3805
 10
2027.94
 20
128.1184
 10
2027.94
 20
121.2901
 10
2024.4248
 20
121.2901
  0
ENDSEC
  0
SECTION
  2
OBJECTS
  0
DICTIONARY
  5
C
330
0
100
AcDbDictionary
281
     1
  3
ACAD_DETAILVIEWSTYLE
350
DA
  3
ACAD_GROUP
350
D
  3
ACAD_LAYOUT
350
1A
  3
ACAD_MATERIAL
350
43
  3
ACAD_MLEADERSTYLE
350
5B
  3
ACAD_MLINESTYLE
350
17
  3
ACAD_PLOTSETTINGS
350
19
  3
ACAD_PLOTSTYLENAME
350
E
  3
ACAD_SCALELIST
350
47
  3
ACAD_SECTIONVIEWSTYLE
350
DB
  3
ACAD_TABLESTYLE
350
59
  3
ACAD_VISUALSTYLE
350
2A
  3
ACDB_RECOMPOSE_DATA
350
D7
  3
AcDbVariableDictionary
350
D3
  0
SUN
  5
5D
330
29
100
AcDbSun
 90
        1
290
     0
 63
     7
421
 16777215
 40
1.0
291
     1
 91
  2455826
 92
 54000000
292
     0
 70
     2
 71
   256
280
     1
  0
DICTIONARY
  5
DA
102
{ACAD_REACTORS
330
C
102
}
330
C
100
AcDbDictionary
281
     1
  0
DICTIONARY
  5
D
102
{ACAD_REACTORS
330
C
102
}
330
C
100
AcDbDictionary
281
     1
  0
DICTIONARY
  5
1A
102
{ACAD_REACTORS
330
C
102
}
330
C
100
AcDbDictionary
281
     1
  3
Layout1
350
1E
  3
Layout2
350
26
  3
Model
350
22
  0
DICTIONARY
  5
43
102
{ACAD_REACTORS
330
C
102
}
330
C
100
AcDbDictionary
281
     1
  3
ByBlock
350
45
  3
ByLayer
350
44
  3
Global
350
46
  0
DICTIONARY
  5
5B
102
{ACAD_REACTORS
330
C
102
}
330
C
100
AcDbDictionary
281
     1
  3
Standard
350
5C
  0
DICTIONARY
  5
17
102
{ACAD_REACTORS
330
C
102
}
330
C
100
AcDbDictionary
281
     1
  3
Standard
350
18
  0
DICTIONARY
  5
19
102
{ACAD_REACTORS
330
C
102
}
330
C
100
AcDbDictionary
281
     1
  0
ACDBDICTIONARYWDFLT
  5
E
102
{ACAD_REACTORS
330
C
102
}
330
C
100
AcDbDictionary
281
     1
  3
Normal
350
F
100
AcDbDictionaryWithDefault
340
F
  0
DICTIONARY
  5
47
102
{ACAD_REACTORS
330
C
102
}
330
C
100
AcDbDictionary
281
     1
  3
A0
350
48
  3
A1
350
49
  3
A2
350
4A
  3
A3
350
4B
  3
A4
350
4C
  3
A5
350
4D
  3
A6
350
4E
  3
A7
350
4F
  3
A8
350
50
  3
A9
350
51
  3
B1
350
52
  3
B2
350
53
  3
B3
350
54
  3
B4
350
55
  3
B5
350
56
  3
B6
350
57
  3
B7
350
58
  0
DICTIONARY
  5
DB
102
{ACAD_REACTORS
330
C
102
}
330
C
100
AcDbDictionary
281
     1
  0
DICTIONARY
  5
59
102
{ACAD_REACTORS
330
C
102
}
330
C
100
AcDbDictionary
281
     1
  3
Standard
350
5A
  0
DICTIONARY
  5
2A
102
{ACAD_REACTORS
330
C
102
}
330
C
100
AcDbDictionary
281
     1
  3
2dWireframe
350
2F
  3
Basic
350
32
  3
Brighten
350
36
  3
ColorChange
350
3A
  3
Conceptual
350
34
  3
Dim
350
35
  3
EdgeColorOff
350
3D
  3
Facepattern
350
39
  3
Flat
350
2B
  3
FlatWithEdges
350
2C
  3
Gouraud
350
2D
  3
GouraudWithEdges
350
2E
  3
Hidden
350
31
  3
JitterOff
350
3B
  3
Linepattern
350
38
  3
OverhangOff
350
3C
  3
Realistic
350
33
  3
Shaded
350
42
  3
Shaded with edges
350
41
  3
Shades of Gray
350
3E
  3
Sketchy
350
3F
  3
Thicken
350
37
  3
Wireframe
350
30
  3
X-Ray
350
40
  0
XRECORD
  5
D7
102
{ACAD_REACTORS
330
C
102
}
330
C
100
AcDbXrecord
280
     1
 90
        1
330
5A
  0
DICTIONARY
  5
D3
102
{ACAD_REACTORS
330
C
102
}
330
C
100
AcDbDictionary
281
     1
  3
CANNOSCALE
350
D4
  3
CMLEADERSTYLE
350
D9
  3
CTABLESTYLE
350
D8
  0
LAYOUT
  5
1E
102
{ACAD_REACTORS
330
1A
102
}
330
1A
100
AcDbPlotSettings
  1

  2
none_device
  4

  6

 40
0.0
 41
0.0
 42
0.0
 43
0.0
 44
0.0
 45
0.0
 46
0.0
 47
0.0
 48
0.0
 49
0.0
140
0.0
141
0.0
142
1.0
143
1.0
 70
   688
 72
     0
 73
     0
 74
     5
  7

 75
    16
 76
     0
 77
     2
 78
   300
147
1.0
148
0.0
149
0.0
100
AcDbLayout
  1
Layout1
 70
     1
 71
     1
 10
0.0
 20
0.0
 11
12.0
 21
9.0
 12
0.0
 22
0.0
 32
0.0
 14
1.000000000000000E+20
 24
1.000000000000000E+20
 34
1.000000000000000E+20
 15
-1.000000000000000E+20
 25
-1.000000000000000E+20
 35
-1.000000000000000E+20
146
0.0
 13
0.0
 23
0.0
 33
0.0
 16
1.0
 26
0.0
 36
0.0
 17
0.0
 27
1.0
 37
0.0
 76
     0
330
1B
  0
LAYOUT
  5
26
102
{ACAD_REACTORS
330
1A
102
}
330
1A
100
AcDbPlotSettings
  1

  2
none_device
  4

  6

 40
0.0
 41
0.0
 42
0.0
 43
0.0
 44
0.0
 45
0.0
 46
0.0
 47
0.0
 48
0.0
 49
0.0
140
0.0
141
0.0
142
1.0
143
1.0
 70
   688
 72
     0
 73
     0
 74
     5
  7

 75
    16
 76
     0
 77
     2
 78
   300
147
1.0
148
0.0
149
0.0
100
AcDbLayout
  1
Layout2
 70
     1
 71
     2
 10
0.0
 20
0.0
 11
0.0
 21
0.0
 12
0.0
 22
0.0
 32
0.0
 14
0.0
 24
0.0
 34
0.0
 15
0.0
 25
0.0
 35
0.0
146
0.0
 13
0.0
 23
0.0
 33
0.0
 16
1.0
 26
0.0
 36
0.0
 17
0.0
 27
1.0
 37
0.0
 76
     0
330
23
  0
LAYOUT
  5
22
102
{ACAD_REACTORS
330
1A
102
}
330
1A
100
AcDbPlotSettings
  1

  2
none_device
  4
Letter_(8.50_x_11.00_Inches)
  6

 40
6.35
 41
6.35
 42
6.35000508
 43
6.35000508
 44
215.9
 45
279.4
 46
0.0
 47
0.0
 48
0.0
 49
0.0
140
0.0
141
0.0
142
1.0
143
1.0
 70
  1712
 72
     0
 73
     0
 74
     0
  7

 75
     0
 76
     0
 77
     2
 78
   300
147
1.0
148
0.0
149
0.0
100
AcDbLayout
  1
Model
 70
     1
 71
     0
 10
0.0
 20
0.0
 11
12.0
 21
9.0
 12
0.0
 22
0.0
 32
0.0
 14
484.9806
 24
-319.5607
 34
0.0
 15
2490.6303
 25
395.7053
 35
0.0
146
0.0
 13
0.0
 23
0.0
 33
0.0
 16
1.0
 26
0.0
 36
0.0
 17
0.0
 27
1.0
 37
0.0
 76
     0
330
1F
331
29
  0
MATERIAL
  5
45
102
{ACAD_REACTORS
330
43
102
}
330
43
100
AcDbMaterial
  1
ByBlock
 72
     1
 94
      127
  0
MATERIAL
  5
44
102
{ACAD_REACTORS
330
43
102
}
330
43
100
AcDbMaterial
  1
ByLayer
 72
     1
 94
      127
  0
MATERIAL
  5
46
102
{ACAD_REACTORS
330
43
102
}
330
43
100
AcDbMaterial
  1
Global
 72
     1
 94
      127
  0
MLEADERSTYLE
  5
5C
102
{ACAD_REACTORS
330
5B
102
}
330
5B
100
AcDbMLeaderStyle
179
     2
170
     2
171
     1
172
     0
 90
        2
 40
0.0
 41
0.0
173
     1
 91
-1056964608
340
14
 92
       -2
290
     1
 42
0.09
291
     1
 43
0.36
  3
Standard
341
0
 44
0.18
300

342
11
174
     1
178
     6
175
     1
176
     0
 93
-1056964608
 45
0.18
292
     0
297
     0
 46
0.18
343
0
 94
-1056964608
 47
1.0
 49
1.0
140
1.0
293
     1
141
0.0
294
     1
177
     0
142
1.0
295
     0
296
     0
143
0.125
271
     0
272
     9
273
     9
298
     0
  0
MLINESTYLE
  5
18
102
{ACAD_REACTORS
330
17
102
}
330
17
100
AcDbMlineStyle
  2
Standard
 70
     0
  3

 62
   256
 51
90.0
 52
90.0
 71
     2
 49
0.5
 62
   256
  6
BYLAYER
 49
-0.5
 62
   256
  6
BYLAYER
  0
ACDBPLACEHOLDER
  5
F
102
{ACAD_REACTORS
330
E
102
}
330
E
  0
SCALE
  5
48
102
{ACAD_REACTORS
330
47
102
}
330
47
100
AcDbScale
 70
     0
300
1:1
140
1.0
141
1.0
290
     1
  0
SCALE
  5
49
102
{ACAD_REACTORS
330
47
102
}
330
47
100
AcDbScale
 70
     0
300
1/128" = 1'-0"
140
0.0078125
141
12.0
290
     0
  0
SCALE
  5
4A
102
{ACAD_REACTORS
330
47
102
}
330
47
100
AcDbScale
 70
     0
300
1/64" = 1'-0"
140
0.015625
141
12.0
290
     0
  0
SCALE
  5
4B
102
{ACAD_REACTORS
330
47
102
}
330
47
100
AcDbScale
 70
     0
300
1/32" = 1'-0"
140
0.03125
141
12.0
290
     0
  0
SCALE
  5
4C
102
{ACAD_REACTORS
330
47
102
}
330
47
100
AcDbScale
 70
     0
300
1/16" = 1'-0"
140
0.0625
141
12.0
290
     0
  0
SCALE
  5
4D
102
{ACAD_REACTORS
330
47
102
}
330
47
100
AcDbScale
 70
     0
300
3/32" = 1'-0"
140
0.09375
141
12.0
290
     0
  0
SCALE
  5
4E
102
{ACAD_REACTORS
330
47
102
}
330
47
100
AcDbScale
 70
     0
300
1/8" = 1'-0"
140
0.125
141
12.0
290
     0
  0
SCALE
  5
4F
102
{ACAD_REACTORS
330
47
102
}
330
47
100
AcDbScale
 70
     0
300
3/16" = 1'-0"
140
0.1875
141
12.0
290
     0
  0
SCALE
  5
50
102
{ACAD_REACTORS
330
47
102
}
330
47
100
AcDbScale
 70
     0
300
1/4" = 1'-0"
140
0.25
141
12.0
290
     0
  0
SCALE
  5
51
102
{ACAD_REACTORS
330
47
102
}
330
47
100
AcDbScale
 70
     0
300
3/8" = 1'-0"
140
0.375
141
12.0
290
     0
  0
SCALE
  5
52
102
{ACAD_REACTORS
330
47
102
}
330
47
100
AcDbScale
 70
     0
300
1/2" = 1'-0"
140
0.5
141
12.0
290
     0
  0
SCALE
  5
53
102
{ACAD_REACTORS
330
47
102
}
330
47
100
AcDbScale
 70
     0
300
3/4" = 1'-0"
140
0.75
141
12.0
290
     0
  0
SCALE
  5
54
102
{ACAD_REACTORS
330
47
102
}
330
47
100
AcDbScale
 70
     0
300
1" = 1'-0"
140
1.0
141
12.0
290
     0
  0
SCALE
  5
55
102
{ACAD_REACTORS
330
47
102
}
330
47
100
AcDbScale
 70
     0
300
1-1/2" = 1'-0"
140
1.5
141
12.0
290
     0
  0
SCALE
  5
56
102
{ACAD_REACTORS
330
47
102
}
330
47
100
AcDbScale
 70
     0
300
3" = 1'-0"
140
3.0
141
12.0
290
     0
  0
SCALE
  5
57
102
{ACAD_REACTORS
330
47
102
}
330
47
100
AcDbScale
 70
     0
300
6" = 1'-0"
140
6.0
141
12.0
290
     0
  0
SCALE
  5
58
102
{ACAD_REACTORS
330
47
102
}
330
47
100
AcDbScale
 70
     0
300
1'-0" = 1'-0"
140
12.0
141
12.0
290
     0
  0
TABLESTYLE
  5
5A
102
{ACAD_REACTORS
330
59
102
}
102
{ACAD_XDICTIONARY
360
D5
102
}
330
59
100
AcDbTableStyle
  3
Standard
 70
     0
 71
     0
 40
0.06
 41
0.06
280
     0
281
     0
  7
Standard
140
0.18
170
     2
 62
     0
 63
   257
283
     0
 90
        4
 91
        0
  1

274
    -2
284
     1
 64
     0
275
    -2
285
     1
 65
     0
276
    -2
286
     1
 66
     0
277
    -2
287
     1
 67
     0
278
    -2
288
     1
 68
     0
279
    -2
289
     1
 69
     0
  7
Standard
140
0.25
170
     5
 62
     0
 63
   257
283
     0
 90
        4
 91
        0
  1

274
    -2
284
     1
 64
     0
275
    -2
285
     1
 65
     0
276
    -2
286
     1
 66
     0
277
    -2
287
     1
 67
     0
278
    -2
288
     1
 68
     0
279
    -2
289
     1
 69
     0
  7
Standard
140
0.18
170
     5
 62
     0
 63
   257
283
     0
 90
        4
 91
        0
  1

274
    -2
284
     1
 64
     0
275
    -2
285
     1
 65
     0
276
    -2
286
     1
 66
     0
277
    -2
287
     1
 67
     0
278
    -2
288
     1
 68
     0
279
    -2
289
     1
 69
     0
  0
VISUALSTYLE
  5
2F
102
{ACAD_REACTORS
330
2A
102
}
330
2A
100
AcDbVisualStyle
  2
2dWireframe
 70
     4
177
     3
291
     0
 70
    58
 90
        0
176
     1
 90
        2
176
     1
 90
        0
176
     1
 90
        0
176
     1
 40
0.6
176
     1
 40
30.0
176
     1
 62
     7
420
 16777215
176
     1
 90
        1
176
     1
 90
        4
176
     1
 62
     7
176
     1
 62
   257
176
     1
 90
        1
176
     1
 90
        1
176
     1
 40
1.0
176
     1
 90
        0
176
     1
 62
   257
176
     1
 40
1.0
176
     1
 90
        1
176
     1
 90
        6
176
     1
 90
        2
176
     1
 62
     7
176
     1
 90
        5
176
     1
 90
        0
176
     1
 90
        0
176
     1
290
     0
176
     1
 90
        1
176
     1
 40
0.0
176
     1
 90
        0
176
     1
290
     1
176
     1
290
     1
176
     1
290
     0
176
     1
290
     0
176
     1
290
     0
176
     1
290
     0
176
     1
290
     0
176
     1
290
     0
176
     1
290
     0
176
     1
 90
       50
176
     1
 40
0.0
176
     1
 40
1.0
176
     1
 90
        0
176
     1
 62
    18
420
        0
176
     1
 90
       50
176
     1
 90
        3
176
     1
 62
     5
420
      255
176
     1
290
     0
176
     1
 90
       50
176
     1
 90
       50
176
     1
 90
       50
176
     1
290
     0
176
     1
 90
       50
176
     1
 62
   256
176
     0
 40
1.0
176
     0
 90
        2
176
     1
  1
strokes_ogs.tif
176
     1
290
     0
176
     1
 40
1.0
176
     1
 40
1.0
176
     1
  0
VISUALSTYLE
  5
32
102
{ACAD_REACTORS
330
2A
102
}
330
2A
100
AcDbVisualStyle
  2
Basic
 70
     7
177
     3
291
     1
 70
    58
 90
        1
176
     1
 90
        0
176
     1
 90
        1
176
     1
 90
        0
176
     1
 40
0.6
176
     1
 40
30.0
176
     1
 62
     7
420
 16777215
176
     1
 90
        0
176
     1
 90
        4
176
     1
 62
     7
176
     1
 62
   257
176
     1
 90
        1
176
     1
 90
        1
176
     1
 40
1.0
176
     1
 90
        8
176
     1
 62
     7
176
     1
 40
1.0
176
     1
 90
        1
176
     1
 90
        6
176
     1
 90
        2
176
     1
 62
     7
176
     1
 90
        5
176
     1
 90
        0
176
     1
 90
        0
176
     1
290
     0
176
     1
 90
        1
176
     1
 40
0.0
176
     1
 90
        0
176
     1
290
     0
176
     1
290
     1
176
     1
290
     1
176
     1
290
     0
176
     1
290
     0
176
     1
290
     0
176
     1
290
     0
176
     1
290
     0
176
     1
290
     0
176
     1
 90
       50
176
     1
 40
0.0
176
     1
 40
1.0
176
     1
 90
        0
176
     1
 62
    18
420
        0
176
     1
 90
       50
176
     1
 90
        3
176
     1
 62
     5
420
      255
176
     1
290
     0
176
     1
 90
       50
176
     1
 90
       50
176
     1
 90
       50
176
     1
290
     0
176
     1
 90
       50
176
     1
 62
   256
176
     0
 40
1.0
176
     0
 90
        2
176
     1
  1
strokes_ogs.tif
176
     1
290
     0
176
     1
 40
1.0
176
     1
 40
1.0
176
     1
  0
VISUALSTYLE
  5
36
102
{ACAD_REACTORS
330
2A
102
}
330
2A
100
AcDbVisualStyle
  2
Brighten
 70
    12
177
     3
291
     1
 70
    58
 90
        2
176
     1
 90
        2
176
     1
 90
        0
176
     1
 90
        0
176
     1
 40
0.6
176
     1
 40
30.0
176
     1
 62
     7
420
 16777215
176
     1
 90
        1
176
     1
 90
        4
176
     1
 62
     7
176
     1
 62
   257
176
     1
 90
        1
176
     1
 90
        1
176
     1
 40
1.0
176
     1
 90
        8
176
     1
 62
     7
176
     1
 40
1.0
176
     1
 90
        1
176
     1
 90
        6
176
     1
 90
        2
176
     1
 62
     7
176
     1
 90
        5
176
     1
 90
        0
176
     1
 90
        0
176
     1
290
     0
176
     1
 90
        1
176
     1
 40
50.0
176
     1
 90
        0
176
     1
290
     0
176
     1
290
     1
176
     1
290
     1
176
     1
290
     0
176
     1
290
     0
176
     1
290
     0
176
     1
290
     0
176
     1
290
     0
176
     1
290
     0
176
     1
 90
       50
176
     1
 40
0.0
176
     1
 40
1.0
176
     1
 90
        0
176
     1
 62
    18
420
        0
176
     1
 90
       50
176
     1
 90
        3
176
     1
 62
     5
420
      255
176
     1
290
     0
176
     1
 90
       50
176
     1
 90
       50
176
     1
 90
       50
176
     1
290
     0
176
     1
 90
       50
176
     1
 62
   256
176
     0
 40
1.0
176
     0
 90
        2
176
     1
  1
strokes_ogs.tif
176
     1
290
     0
176
     1
 40
1.0
176
     1
 40
1.0
176
     1
  0
VISUALSTYLE
  5
3A
102
{ACAD_REACTORS
330
2A
102
}
330
2A
100
AcDbVisualStyle
  2
ColorChange
 70
    16
177
     3
291
     1
 70
    58
 90
        2
176
     1
 90
        2
176
     1
 90
        3
176
     1
 90
        0
176
     1
 40
0.6
176
     1
 40
30.0
176
     1
 62
     8
420
  8421504
176
     1
 90
        1
176
     1
 90
        4
176
     1
 62
     7
176
     1
 62
   257
176
     1
 90
        1
176
     1
 90
        1
176
     1
 40
1.0
176
     1
 90
        8
176
     1
 62
     8
420
  8421504
176
     1
 40
1.0
176
     1
 90
        1
176
     1
 90
        6
176
     1
 90
        2
176
     1
 62
     7
176
     1
 90
        5
176
     1
 90
        0
176
     1
 90
        0
176
     1
290
     0
176
     1
 90
        1
176
     1
 40
0.0
176
     1
 90
        0
176
     1
290
     0
176
     1
290
     1
176
     1
290
     1
176
     1
290
     0
176
     1
290
     0
176
     1
290
     0
176
     1
290
     0
176
     1
290
     0
176
     1
290
     0
176
     1
 90
       50
176
     1
 40
0.0
176
     1
 40
1.0
176
     1
 90
        0
176
     1
 62
    18
420
        0
176
     1
 90
       50
176
     1
 90
        3
176
     1
 62
     5
420
      255
176
     1
290
     0
176
     1
 90
       50
176
     1
 90
       50
176
     1
 90
       50
176
     1
290
     0
176
     1
 90
       50
176
     1
 62
   256
176
     0
 40
1.0
176
     0
 90
        2
176
     1
  1
strokes_ogs.tif
176
     1
290
     0
176
     1
 40
1.0
176
     1
 40
1.0
176
     1
  0
VISUALSTYLE
  5
34
102
{ACAD_REACTORS
330
2A
102
}
330
2A
100
AcDbVisualStyle
  2
Conceptual
 70
     9
177
     3
291
     0
 70
    58
 90
        3
176
     1
 90
        2
176
     1
 90
        0
176
     1
 90
        0
176
     1
 40
0.6
176
     1
 40
30.0
176
     1
 62
     7
420
 16777215
176
     1
 90
        2
176
     1
 90
        2
176
     1
 62
     7
176
     1
 62
   257
176
     1
 90
        1
176
     1
 90
        1
176
     1
 40
179.0
176
     1
 90
        8
176
     1
 62
     7
176
     1
 40
1.0
176
     1
 90
        1
176
     1
 90
        6
176
     1
 90
        2
176
     1
 62
     7
176
     1
 90
        3
176
     1
 90
        0
176
     1
 90
        0
176
     1
290
     0
176
     1
 90
        1
176
     1
 40
0.0
176
     1
 90
        0
176
     1
290
     0
176
     1
290
     1
176
     1
290
     1
176
     1
290
     0
176
     1
290
     0
176
     1
290
     0
176
     1
290
     0
176
     1
290
     0
176
     1
290
     0
176
     1
 90
       50
176
     1
 40
0.0
176
     1
 40
1.0
176
     1
 90
        0
176
     1
 62
    18
420
        0
176
     1
 90
       50
176
     1
 90
        3
176
     1
 62
     5
420
      255
176
     1
290
     0
176
     1
 90
       50
176
     1
 90
       50
176
     1
 90
       50
176
     1
290
     0
176
     1
 90
       50
176
     1
 62
   256
176
     0
 40
1.0
176
     0
 90
        2
176
     1
  1
strokes_ogs.tif
176
     1
290
     0
176
     1
 40
1.0
176
     1
 40
1.0
176
     1
  0
VISUALSTYLE
  5
35
102
{ACAD_REACTORS
330
2A
102
}
330
2A
100
AcDbVisualStyle
  2
Dim
 70
    11
177
     3
291
     1
 70
    58
 90
        2
176
     1
 90
        2
176
     1
 90
        0
176
     1
 90
        0
176
     1
 40
0.6
176
     1
 40
30.0
176
     1
 62
     7
420
 16777215
176
     1
 90
        1
176
     1
 90
        4
176
     1
 62
     7
176
     1
 62
   257
176
     1
 90
        1
176
     1
 90
        1
176
     1
 40
1.0
176
     1
 90
        8
176
     1
 62
     7
176
     1
 40
1.0
176
     1
 90
        1
176
     1
 90
        6
176
     1
 90
        2
176
     1
 62
     7
176
     1
 90
        5
176
     1
 90
        0
176
     1
 90
        0
176
     1
290
     0
176
     1
 90
        1
176
     1
 40
-50.0
176
     1
 90
        0
176
     1
290
     0
176
     1
290
     1
176
     1
290
     1
176
     1
290
     0
176
     1
290
     0
176
     1
290
     0
176
     1
290
     0
176
     1
290
     0
176
     1
290
     0
176
     1
 90
       50
176
     1
 40
0.0
176
     1
 40
1.0
176
     1
 90
        0
176
     1
 62
    18
420
        0
176
     1
 90
       50
176
     1
 90
        3
176
     1
 62
     5
420
      255
176
     1
290
     0
176
     1
 90
       50
176
     1
 90
       50
176
     1
 90
       50
176
     1
290
     0
176
     1
 90
       50
176
     1
 62
   256
176
     0
 40
1.0
176
     0
 90
        2
176
     1
  1
strokes_ogs.tif
176
     1
290
     0
176
     1
 40
1.0
176
     1
 40
1.0
176
     1
  0
VISUALSTYLE
  5
3D
102
{ACAD_REACTORS
330
2A
102
}
330
2A
100
AcDbVisualStyle
  2
EdgeColorOff
 70
    22
177
     3
291
     1
 70
    58
 90
        2
176
     0
 90
        2
176
     0
 90
        0
176
     0
 90
        0
176
     0
 40
0.6
176
     0
 40
30.0
176
     0
 62
     7
420
 16777215
176
     0
 90
        1
176
     0
 90
        4
176
     0
 62
     7
176
     0
 62
   257
176
     0
 90
        1
176
     0
 90
        1
176
     0
 40
1.0
176
     0
 90
        8
176
     2
 62
     7
176
     0
 40
1.0
176
     0
 90
        1
176
     0
 90
        6
176
     0
 90
        2
176
     0
 62
     7
176
     0
 90
        5
176
     0
 90
        0
176
     0
 90
        0
176
     0
290
     0
176
     0
 90
        1
176
     0
 40
0.0
176
     0
 90
        0
176
     0
290
     0
176
     0
290
     1
176
     0
290
     1
176
     0
290
     0
176
     0
290
     0
176
     0
290
     0
176
     0
290
     0
176
     0
290
     0
176
     0
290
     0
176
     0
 90
       50
176
     0
 40
0.0
176
     0
 40
1.0
176
     0
 90
        0
176
     0
 62
    18
420
        0
176
     0
 90
       50
176
     0
 90
        3
176
     0
 62
     5
420
      255
176
     0
290
     0
176
     0
 90
       50
176
     0
 90
       50
176
     0
 90
       50
176
     0
290
     0
176
     0
 90
       50
176
     0
 62
   256
176
     0
 40
1.0
176
     0
 90
        2
176
     0
  1
strokes_ogs.tif
176
     0
290
     0
176
     0
 40
1.0
176
     0
 40
1.0
176
     0
  0
VISUALSTYLE
  5
39
102
{ACAD_REACTORS
330
2A
102
}
330
2A
100
AcDbVisualStyle
  2
Facepattern
 70
    15
177
     3
291
     1
 70
    58
 90
        2
176
     1
 90
        2
176
     1
 90
        0
176
     1
 90
        0
176
     1
 40
0.6
176
     1
 40
30.0
176
     1
 62
     7
420
 16777215
176
     1
 90
        1
176
     1
 90
        4
176
     1
 62
     7
176
     1
 62
   257
176
     1
 90
        1
176
     1
 90
        1
176
     1
 40
1.0
176
     1
 90
        8
176
     1
 62
     7
176
     1
 40
1.0
176
     1
 90
        1
176
     1
 90
        6
176
     1
 90
        2
176
     1
 62
     7
176
     1
 90
        5
176
     1
 90
        0
176
     1
 90
        0
176
     1
290
     0
176
     1
 90
        1
176
     1
 40
0.0
176
     1
 90
        0
176
     1
290
     0
176
     1
290
     1
176
     1
290
     1
176
     1
290
     0
176
     1
290
     0
176
     1
290
     0
176
     1
290
     0
176
     1
290
     0
176
     1
290
     0
176
     1
 90
       50
176
     1
 40
0.0
176
     1
 40
1.0
176
     1
 90
        0
176
     1
 62
    18
420
        0
176
     1
 90
       50
176
     1
 90
        3
176
     1
 62
     5
420
      255
176
     1
290
     0
176
     1
 90
       50
176
     1
 90
       50
176
     1
 90
       50
176
     1
290
     0
176
     1
 90
       50
176
     1
 62
   256
176
     0
 40
1.0
176
     0
 90
        2
176
     1
  1
strokes_ogs.tif
176
     1
290
     0
176
     1
 40
1.0
176
     1
 40
1.0
176
     1
  0
VISUALSTYLE
  5
2B
102
{ACAD_REACTORS
330
2A
102
}
330
2A
100
AcDbVisualStyle
  2
Flat
 70
     0
177
     3
291
     1
 70
    58
 90
        2
176
     1
 90
        1
176
     1
 90
        1
176
     1
 90
        2
176
     1
 40
0.6
176
     1
 40
30.0
176
     1
 62
     7
420
 16777215
176
     1
 90
        0
176
     1
 90
        0
176
     1
 62
     7
176
     1
 62
   257
176
     1
 90
        1
176
     1
 90
        1
176
     1
 40
1.0
176
     1
 90
        8
176
     1
 62
     7
176
     1
 40
1.0
176
     1
 90
        1
176
     1
 90
        6
176
     1
 90
        2
176
     1
 62
     7
176
     1
 90
        5
176
     1
 90
        0
176
     1
 90
        0
176
     1
290
     0
176
     1
 90
       13
176
     1
 40
0.0
176
     1
 90
        0
176
     1
290
     0
176
     1
290
     1
176
     1
290
     1
176
     1
290
     0
176
     1
290
     0
176
     1
290
     0
176
     1
290
     0
176
     1
290
     0
176
     1
290
     0
176
     1
 90
       50
176
     1
 40
0.0
176
     1
 40
1.0
176
     1
 90
        0
176
     1
 62
    18
420
        0
176
     1
 90
       50
176
     1
 90
        3
176
     1
 62
     5
420
      255
176
     1
290
     0
176
     1
 90
       50
176
     1
 90
       50
176
     1
 90
       50
176
     1
290
     0
176
     1
 90
       50
176
     1
 62
   256
176
     0
 40
1.0
176
     0
 90
        2
176
     1
  1
strokes_ogs.tif
176
     1
290
     0
176
     1
 40
1.0
176
     1
 40
1.0
176
     1
  0
VISUALSTYLE
  5
2C
102
{ACAD_REACTORS
330
2A
102
}
330
2A
100
AcDbVisualStyle
  2
FlatWithEdges
 70
     1
177
     3
291
     1
 70
    58
 90
        2
176
     1
 90
        1
176
     1
 90
        1
176
     1
 90
        2
176
     1
 40
0.6
176
     1
 40
30.0
176
     1
 62
     7
420
 16777215
176
     1
 90
        1
176
     1
 90
        0
176
     1
 62
     7
176
     1
 62
   257
176
     1
 90
        1
176
     1
 90
        1
176
     1
 40
1.0
176
     1
 90
        0
176
     1
 62
   257
176
     1
 40
1.0
176
     1
 90
        1
176
     1
 90
        6
176
     1
 90
        2
176
     1
 62
     7
176
     1
 90
        5
176
     1
 90
        0
176
     1
 90
        0
176
     1
290
     0
176
     1
 90
       13
176
     1
 40
0.0
176
     1
 90
        0
176
     1
290
     0
176
     1
290
     1
176
     1
290
     1
176
     1
290
     0
176
     1
290
     0
176
     1
290
     0
176
     1
290
     0
176
     1
290
     0
176
     1
290
     0
176
     1
 90
       50
176
     1
 40
0.0
176
     1
 40
1.0
176
     1
 90
        0
176
     1
 62
    18
420
        0
176
     1
 90
       50
176
     1
 90
        3
176
     1
 62
     5
420
      255
176
     1
290
     0
176
     1
 90
       50
176
     1
 90
       50
176
     1
 90
       50
176
     1
290
     0
176
     1
 90
       50
176
     1
 62
   256
176
     0
 40
1.0
176
     0
 90
        2
176
     1
  1
strokes_ogs.tif
176
     1
290
     0
176
     1
 40
1.0
176
     1
 40
1.0
176
     1
  0
VISUALSTYLE
  5
2D
102
{ACAD_REACTORS
330
2A
102
}
330
2A
100
AcDbVisualStyle
  2
Gouraud
 70
     2
177
     3
291
     1
 70
    58
 90
        2
176
     1
 90
        2
176
     1
 90
        1
176
     1
 90
        2
176
     1
 40
0.6
176
     1
 40
30.0
176
     1
 62
     7
420
 16777215
176
     1
 90
        0
176
     1
 90
        0
176
     1
 62
     7
176
     1
 62
   257
176
     1
 90
        1
176
     1
 90
        1
176
     1
 40
1.0
176
     1
 90
        0
176
     1
 62
     7
176
     1
 40
1.0
176
     1
 90
        1
176
     1
 90
        6
176
     1
 90
        2
176
     1
 62
     7
176
     1
 90
        5
176
     1
 90
        0
176
     1
 90
        0
176
     1
290
     0
176
     1
 90
       13
176
     1
 40
0.0
176
     1
 90
        0
176
     1
290
     0
176
     1
290
     1
176
     1
290
     1
176
     1
290
     0
176
     1
290
     0
176
     1
290
     0
176
     1
290
     0
176
     1
290
     0
176
     1
290
     0
176
     1
 90
       50
176
     1
 40
0.0
176
     1
 40
1.0
176
     1
 90
        0
176
     1
 62
    18
420
        0
176
     1
 90
       50
176
     1
 90
        3
176
     1
 62
     5
420
      255
176
     1
290
     0
176
     1
 90
       50
176
     1
 90
       50
176
     1
 90
       50
176
     1
290
     0
176
     1
 90
       50
176
     1
 62
   256
176
     0
 40
1.0
176
     0
 90
        2
176
     1
  1
strokes_ogs.tif
176
     1
290
     0
176
     1
 40
1.0
176
     1
 40
1.0
176
     1
  0
VISUALSTYLE
  5
2E
102
{ACAD_REACTORS
330
2A
102
}
330
2A
100
AcDbVisualStyle
  2
GouraudWithEdges
 70
     3
177
     3
291
     1
 70
    58
 90
        2
176
     1
 90
        2
176
     1
 90
        1
176
     1
 90
        2
176
     1
 40
0.6
176
     1
 40
30.0
176
     1
 62
     7
420
 16777215
176
     1
 90
        1
176
     1
 90
        0
176
     1
 62
     7
176
     1
 62
   257
176
     1
 90
        1
176
     1
 90
        1
176
     1
 40
1.0
176
     1
 90
        0
176
     1
 62
   257
176
     1
 40
1.0
176
     1
 90
        1
176
     1
 90
        6
176
     1
 90
        2
176
     1
 62
     7
176
     1
 90
        5
176
     1
 90
        0
176
     1
 90
        0
176
     1
290
     0
176
     1
 90
       13
176
     1
 40
0.0
176
     1
 90
        0
176
     1
290
     0
176
     1
290
     1
176
     1
290
     1
176
     1
290
     0
176
     1
290
     0
176
     1
290
     0
176
     1
290
     0
176
     1
290
     0
176
     1
290
     0
176
     1
 90
       50
176
     1
 40
0.0
176
     1
 40
1.0
176
     1
 90
        0
176
     1
 62
    18
420
        0
176
     1
 90
       50
176
     1
 90
        3
176
     1
 62
     5
420
      255
176
     1
290
     0
176
     1
 90
       50
176
     1
 90
       50
176
     1
 90
       50
176
     1
290
     0
176
     1
 90
       50
176
     1
 62
   256
176
     0
 40
1.0
176
     0
 90
        2
176
     1
  1
strokes_ogs.tif
176
     1
290
     0
176
     1
 40
1.0
176
     1
 40
1.0
176
     1
  0
VISUALSTYLE
  5
31
102
{ACAD_REACTORS
330
2A
102
}
330
2A
100
AcDbVisualStyle
  2
Hidden
 70
     6
177
     3
291
     0
 70
    58
 90
        1
176
     1
 90
        2
176
     1
 90
        2
176
     1
 90
        0
176
     1
 40
0.6
176
     1
 40
30.0
176
     1
 62
     7
420
 16777215
176
     1
 90
        2
176
     1
 90
        2
176
     1
 62
     7
176
     1
 62
   257
176
     1
 90
        2
176
     1
 90
        1
176
     1
 40
40.0
176
     1
 90
        0
176
     1
 62
   257
176
     1
 40
1.0
176
     1
 90
        1
176
     1
 90
        6
176
     1
 90
        2
176
     1
 62
     7
176
     1
 90
        3
176
     1
 90
        0
176
     1
 90
        0
176
     1
290
     0
176
     1
 90
        1
176
     1
 40
0.0
176
     1
 90
        0
176
     1
290
     0
176
     1
290
     1
176
     1
290
     1
176
     1
290
     0
176
     1
290
     0
176
     1
290
     0
176
     1
290
     0
176
     1
290
     0
176
     1
290
     0
176
     1
 90
       50
176
     1
 40
0.0
176
     1
 40
1.0
176
     1
 90
        0
176
     1
 62
    18
420
        0
176
     1
 90
       50
176
     1
 90
        3
176
     1
 62
     5
420
      255
176
     1
290
     0
176
     1
 90
       50
176
     1
 90
       50
176
     1
 90
       50
176
     1
290
     0
176
     1
 90
       50
176
     1
 62
   256
176
     0
 40
1.0
176
     0
 90
        2
176
     1
  1
strokes_ogs.tif
176
     1
290
     0
176
     1
 40
1.0
176
     1
 40
1.0
176
     1
  0
VISUALSTYLE
  5
3B
102
{ACAD_REACTORS
330
2A
102
}
330
2A
100
AcDbVisualStyle
  2
JitterOff
 70
    20
177
     3
291
     1
 70
    58
 90
        2
176
     0
 90
        2
176
     0
 90
        0
176
     0
 90
        0
176
     0
 40
0.6
176
     0
 40
30.0
176
     0
 62
     7
420
 16777215
176
     0
 90
        1
176
     0
 90
        4
176
     0
 62
     7
176
     0
 62
   257
176
     0
 90
        1
176
     0
 90
        1
176
     0
 40
1.0
176
     0
 90
       10
176
     2
 62
     7
176
     0
 40
1.0
176
     0
 90
        1
176
     0
 90
        6
176
     0
 90
        2
176
     0
 62
     7
176
     0
 90
        5
176
     0
 90
        0
176
     0
 90
        0
176
     0
290
     0
176
     0
 90
        1
176
     0
 40
0.0
176
     0
 90
        0
176
     0
290
     0
176
     0
290
     1
176
     0
290
     1
176
     0
290
     0
176
     0
290
     0
176
     0
290
     0
176
     0
290
     0
176
     0
290
     0
176
     0
290
     0
176
     0
 90
       50
176
     0
 40
0.0
176
     0
 40
1.0
176
     0
 90
        0
176
     0
 62
    18
420
        0
176
     0
 90
       50
176
     0
 90
        3
176
     0
 62
     5
420
      255
176
     0
290
     0
176
     0
 90
       50
176
     0
 90
       50
176
     0
 90
       50
176
     0
290
     0
176
     0
 90
       50
176
     0
 62
   256
176
     0
 40
1.0
176
     0
 90
        2
176
     0
  1
strokes_ogs.tif
176
     0
290
     0
176
     0
 40
1.0
176
     0
 40
1.0
176
     0
  0
VISUALSTYLE
  5
38
102
{ACAD_REACTORS
330
2A
102
}
330
2A
100
AcDbVisualStyle
  2
Linepattern
 70
    14
177
     3
291
     1
 70
    58
 90
        2
176
     1
 90
        2
176
     1
 90
        0
176
     1
 90
        0
176
     1
 40
0.6
176
     1
 40
30.0
176
     1
 62
     7
420
 16777215
176
     1
 90
        1
176
     1
 90
        4
176
     1
 62
     7
176
     1
 62
   257
176
     1
 90
        7
176
     1
 90
        7
176
     1
 40
1.0
176
     1
 90
        8
176
     1
 62
     7
176
     1
 40
1.0
176
     1
 90
        1
176
     1
 90
        6
176
     1
 90
        2
176
     1
 62
     7
176
     1
 90
        5
176
     1
 90
        0
176
     1
 90
        0
176
     1
290
     0
176
     1
 90
        1
176
     1
 40
0.0
176
     1
 90
        0
176
     1
290
     0
176
     1
290
     1
176
     1
290
     1
176
     1
290
     0
176
     1
290
     0
176
     1
290
     0
176
     1
290
     0
176
     1
290
     0
176
     1
290
     0
176
     1
 90
       50
176
     1
 40
0.0
176
     1
 40
1.0
176
     1
 90
        0
176
     1
 62
    18
420
        0
176
     1
 90
       50
176
     1
 90
        3
176
     1
 62
     5
420
      255
176
     1
290
     0
176
     1
 90
       50
176
     1
 90
       50
176
     1
 90
       50
176
     1
290
     0
176
     1
 90
       50
176
     1
 62
   256
176
     0
 40
1.0
176
     0
 90
        2
176
     1
  1
strokes_ogs.tif
176
     1
290
     0
176
     1
 40
1.0
176
     1
 40
1.0
176
     1
  0
VISUALSTYLE
  5
3C
102
{ACAD_REACTORS
330
2A
102
}
330
2A
100
AcDbVisualStyle
  2
OverhangOff
 70
    21
177
     3
291
     1
 70
    58
 90
        2
176
     0
 90
        2
176
     0
 90
        0
176
     0
 90
        0
176
     0
 40
0.6
176
     0
 40
30.0
176
     0
 62
     7
420
 16777215
176
     0
 90
        1
176
     0
 90
        4
176
     0
 62
     7
176
     0
 62
   257
176
     0
 90
        1
176
     0
 90
        1
176
     0
 40
1.0
176
     0
 90
        9
176
     2
 62
     7
176
     0
 40
1.0
176
     0
 90
        1
176
     0
 90
        6
176
     0
 90
        2
176
     0
 62
     7
176
     0
 90
        5
176
     0
 90
        0
176
     0
 90
        0
176
     0
290
     0
176
     0
 90
        1
176
     0
 40
0.0
176
     0
 90
        0
176
     0
290
     0
176
     0
290
     1
176
     0
290
     1
176
     0
290
     0
176
     0
290
     0
176
     0
290
     0
176
     0
290
     0
176
     0
290
     0
176
     0
290
     0
176
     0
 90
       50
176
     0
 40
0.0
176
     0
 40
1.0
176
     0
 90
        0
176
     0
 62
    18
420
        0
176
     0
 90
       50
176
     0
 90
        3
176
     0
 62
     5
420
      255
176
     0
290
     0
176
     0
 90
       50
176
     0
 90
       50
176
     0
 90
       50
176
     0
290
     0
176
     0
 90
       50
176
     0
 62
   256
176
     0
 40
1.0
176
     0
 90
        2
176
     0
  1
strokes_ogs.tif
176
     0
290
     0
176
     0
 40
1.0
176
     0
 40
1.0
176
     0
  0
VISUALSTYLE
  5
33
102
{ACAD_REACTORS
330
2A
102
}
330
2A
100
AcDbVisualStyle
  2
Realistic
 70
     8
177
     3
291
     0
 70
    58
 90
        2
176
     1
 90
        3
176
     1
 90
        0
176
     1
 90
        2
176
     1
 40
0.6
176
     1
 40
30.0
176
     1
 62
     7
420
 16777215
176
     1
 90
        0
176
     1
 90
        0
176
     1
 62
     7
176
     1
 62
   257
176
     1
 90
        1
176
     1
 90
        1
176
     1
 40
1.0
176
     1
 90
        8
176
     1
 62
   257
176
     1
 40
1.0
176
     1
 90
        1
176
     1
 90
        6
176
     1
 90
        2
176
     1
 62
     7
176
     1
 90
        3
176
     1
 90
        0
176
     1
 90
        0
176
     1
290
     0
176
     1
 90
       13
176
     1
 40
0.0
176
     1
 90
        0
176
     1
290
     0
176
     1
290
     1
176
     1
290
     1
176
     1
290
     0
176
     1
290
     0
176
     1
290
     0
176
     1
290
     0
176
     1
290
     0
176
     1
290
     0
176
     1
 90
       50
176
     1
 40
0.0
176
     1
 40
1.0
176
     1
 90
        0
176
     1
 62
    18
420
        0
176
     1
 90
       50
176
     1
 90
        3
176
     1
 62
     5
420
      255
176
     1
290
     0
176
     1
 90
       50
176
     1
 90
       50
176
     1
 90
       50
176
     1
290
     0
176
     1
 90
       50
176
     1
 62
   256
176
     0
 40
1.0
176
     0
 90
        2
176
     1
  1
strokes_ogs.tif
176
     1
290
     0
176
     1
 40
1.0
176
     1
 40
1.0
176
     1
  0
VISUALSTYLE
  5
42
102
{ACAD_REACTORS
330
2A
102
}
330
2A
100
AcDbVisualStyle
  2
Shaded
 70
    27
177
     3
291
     0
 70
    58
 90
        2
176
     1
 90
        2
176
     1
 90
        1
176
     1
 90
        2
176
     1
 40
0.6
176
     1
 40
30.0
176
     1
 62
     7
420
 16777215
176
     1
 90
        0
176
     1
 90
        4
176
     1
 62
     7
176
     1
 62
   257
176
     1
 90
        1
176
     1
 90
        1
176
     1
 40
1.0
176
     1
 90
        8
176
     1
 62
   257
176
     1
 40
1.0
176
     1
 90
        1
176
     1
 90
        6
176
     1
 90
        2
176
     1
 62
     8
420
  7895160
176
     1
 90
        3
176
     1
 90
        0
176
     1
 90
        0
176
     1
290
     0
176
     1
 90
        5
176
     1
 40
0.0
176
     1
 90
        0
176
     1
290
     0
176
     1
290
     1
176
     1
290
     1
176
     1
290
     0
176
     1
290
     0
176
     1
290
     0
176
     1
290
     0
176
     1
290
     0
176
     1
290
     0
176
     1
 90
       50
176
     1
 40
0.0
176
     1
 40
1.0
176
     1
 90
        0
176
     1
 62
    18
420
        0
176
     1
 90
       50
176
     1
 90
        3
176
     1
 62
     5
420
      255
176
     1
290
     0
176
     1
 90
       50
176
     1
 90
       50
176
     1
 90
       50
176
     1
290
     0
176
     1
 90
       50
176
     1
 62
   256
176
     0
 40
1.0
176
     0
 90
        2
176
     1
  1
strokes_ogs.tif
176
     1
290
     0
176
     1
 40
1.0
176
     1
 40
1.0
176
     1
  0
VISUALSTYLE
  5
41
102
{ACAD_REACTORS
330
2A
102
}
330
2A
100
AcDbVisualStyle
  2
Shaded with edges
 70
    26
177
     3
291
     0
 70
    58
 90
        2
176
     1
 90
        2
176
     1
 90
        1
176
     1
 90
        2
176
     1
 40
0.6
176
     1
 40
30.0
176
     1
 62
     7
420
 16777215
176
     1
 90
        1
176
     1
 90
       10
176
     1
 62
     7
176
     1
 62
   257
176
     1
 90
        2
176
     1
 90
        1
176
     1
 40
1.0
176
     1
 90
        8
176
     1
 62
   257
176
     1
 40
1.0
176
     1
 90
        1
176
     1
 90
        6
176
     1
 90
        2
176
     1
 62
     7
176
     1
 90
        3
176
     1
 90
        0
176
     1
 90
        0
176
     1
290
     0
176
     1
 90
        5
176
     1
 40
0.0
176
     1
 90
        0
176
     1
290
     0
176
     1
290
     1
176
     1
290
     1
176
     1
290
     0
176
     1
290
     0
176
     1
290
     0
176
     1
290
     0
176
     1
290
     0
176
     1
290
     0
176
     1
 90
       50
176
     1
 40
0.0
176
     1
 40
1.0
176
     1
 90
        0
176
     1
 62
    18
420
        0
176
     1
 90
       50
176
     1
 90
        3
176
     1
 62
     5
420
      255
176
     1
290
     0
176
     1
 90
       50
176
     1
 90
       50
176
     1
 90
       50
176
     1
290
     0
176
     1
 90
       50
176
     1
 62
   256
176
     0
 40
1.0
176
     0
 90
        2
176
     1
  1
strokes_ogs.tif
176
     1
290
     0
176
     1
 40
1.0
176
     1
 40
1.0
176
     1
  0
VISUALSTYLE
  5
3E
102
{ACAD_REACTORS
330
2A
102
}
330
2A
100
AcDbVisualStyle
  2
Shades of Gray
 70
    23
177
     3
291
     0
 70
    58
 90
        2
176
     1
 90
        2
176
     1
 90
        3
176
     1
 90
        0
176
     1
 40
0.6
176
     1
 40
30.0
176
     1
 62
     7
420
 16777215
176
     1
 90
        2
176
     1
 90
        2
176
     1
 62
     7
176
     1
 62
     7
176
     1
 90
        1
176
     1
 90
        1
176
     1
 40
40.0
176
     1
 90
        8
176
     1
 62
     7
176
     1
 40
1.0
176
     1
 90
        1
176
     1
 90
        6
176
     1
 90
        2
176
     1
 62
     7
176
     1
 90
        3
176
     1
 90
        0
176
     1
 90
        0
176
     1
290
     0
176
     1
 90
        1
176
     1
 40
0.0
176
     1
 90
        0
176
     1
290
     0
176
     1
290
     1
176
     1
290
     1
176
     1
290
     0
176
     1
290
     0
176
     1
290
     0
176
     1
290
     0
176
     1
290
     0
176
     1
290
     0
176
     1
 90
       50
176
     1
 40
0.0
176
     1
 40
1.0
176
     1
 90
        0
176
     1
 62
    18
420
        0
176
     1
 90
       50
176
     1
 90
        3
176
     1
 62
     5
420
      255
176
     1
290
     0
176
     1
 90
       50
176
     1
 90
       50
176
     1
 90
       50
176
     1
290
     0
176
     1
 90
       50
176
     1
 62
   256
176
     0
 40
1.0
176
     0
 90
        2
176
     1
  1
strokes_ogs.tif
176
     1
290
     0
176
     1
 40
1.0
176
     1
 40
1.0
176
     1
  0
VISUALSTYLE
  5
3F
102
{ACAD_REACTORS
330
2A
102
}
330
2A
100
AcDbVisualStyle
  2
Sketchy
 70
    24
177
     3
291
     0
 70
    58
 90
        1
176
     1
 90
        2
176
     1
 90
        2
176
     1
 90
        0
176
     1
 40
0.6
176
     1
 40
30.0
176
     1
 62
     7
420
 16777215
176
     1
 90
        2
176
     1
 90
        2
176
     1
 62
     7
176
     1
 62
     7
176
     1
 90
        1
176
     1
 90
        1
176
     1
 40
40.0
176
     1
 90
       11
176
     1
 62
     7
176
     1
 40
1.0
176
     1
 90
        1
176
     1
 90
        6
176
     1
 90
        2
176
     1
 62
     7
176
     1
 90
        6
176
     1
 90
        0
176
     1
 90
        0
176
     1
290
     0
176
     1
 90
        1
176
     1
 40
0.0
176
     1
 90
        0
176
     1
290
     0
176
     1
290
     1
176
     1
290
     1
176
     1
290
     0
176
     1
290
     0
176
     1
290
     0
176
     1
290
     0
176
     1
290
     0
176
     1
290
     0
176
     1
 90
       50
176
     1
 40
0.0
176
     1
 40
1.0
176
     1
 90
        0
176
     1
 62
    18
420
        0
176
     1
 90
       50
176
     1
 90
        3
176
     1
 62
     5
420
      255
176
     1
290
     0
176
     1
 90
       50
176
     1
 90
       50
176
     1
 90
       50
176
     1
290
     0
176
     1
 90
       50
176
     1
 62
   256
176
     0
 40
1.0
176
     0
 90
        2
176
     1
  1
strokes_ogs.tif
176
     1
290
     0
176
     1
 40
1.0
176
     1
 40
1.0
176
     1
  0
VISUALSTYLE
  5
37
102
{ACAD_REACTORS
330
2A
102
}
330
2A
100
AcDbVisualStyle
  2
Thicken
 70
    13
177
     3
291
     1
 70
    58
 90
        2
176
     1
 90
        2
176
     1
 90
        0
176
     1
 90
        0
176
     1
 40
0.6
176
     1
 40
30.0
176
     1
 62
     7
420
 16777215
176
     1
 90
        1
176
     1
 90
        4
176
     1
 62
     7
176
     1
 62
   257
176
     1
 90
        1
176
     1
 90
        1
176
     1
 40
1.0
176
     1
 90
       12
176
     1
 62
     7
176
     1
 40
1.0
176
     1
 90
        1
176
     1
 90
        6
176
     1
 90
        2
176
     1
 62
     7
176
     1
 90
        5
176
     1
 90
        0
176
     1
 90
        0
176
     1
290
     0
176
     1
 90
        1
176
     1
 40
0.0
176
     1
 90
        0
176
     1
290
     0
176
     1
290
     1
176
     1
290
     1
176
     1
290
     0
176
     1
290
     0
176
     1
290
     0
176
     1
290
     0
176
     1
290
     0
176
     1
290
     0
176
     1
 90
       50
176
     1
 40
0.0
176
     1
 40
1.0
176
     1
 90
        0
176
     1
 62
    18
420
        0
176
     1
 90
       50
176
     1
 90
        3
176
     1
 62
     5
420
      255
176
     1
290
     0
176
     1
 90
       50
176
     1
 90
       50
176
     1
 90
       50
176
     1
290
     0
176
     1
 90
       50
176
     1
 62
   256
176
     0
 40
1.0
176
     0
 90
        2
176
     1
  1
strokes_ogs.tif
176
     1
290
     0
176
     1
 40
1.0
176
     1
 40
1.0
176
     1
  0
VISUALSTYLE
  5
30
102
{ACAD_REACTORS
330
2A
102
}
330
2A
100
AcDbVisualStyle
  2
Wireframe
 70
     5
177
     3
291
     0
 70
    58
 90
        0
176
     1
 90
        2
176
     1
 90
        0
176
     1
 90
        0
176
     1
 40
0.6
176
     1
 40
30.0
176
     1
 62
     7
420
 16777215
176
     1
 90
        1
176
     1
 90
        4
176
     1
 62
     7
176
     1
 62
   257
176
     1
 90
        1
176
     1
 90
        1
176
     1
 40
1.0
176
     1
 90
        0
176
     1
 62
   257
176
     1
 40
1.0
176
     1
 90
        1
176
     1
 90
        6
176
     1
 90
        2
176
     1
 62
     7
176
     1
 90
        3
176
     1
 90
        0
176
     1
 90
        0
176
     1
290
     0
176
     1
 90
        1
176
     1
 40
0.0
176
     1
 90
        0
176
     1
290
     0
176
     1
290
     1
176
     1
290
     1
176
     1
290
     0
176
     1
290
     0
176
     1
290
     0
176
     1
290
     0
176
     1
290
     0
176
     1
290
     0
176
     1
 90
       50
176
     1
 40
0.0
176
     1
 40
1.0
176
     1
 90
        0
176
     1
 62
    18
420
        0
176
     1
 90
       50
176
     1
 90
        3
176
     1
 62
     5
420
      255
176
     1
290
     0
176
     1
 90
       50
176
     1
 90
       50
176
     1
 90
       50
176
     1
290
     0
176
     1
 90
       50
176
     1
 62
   256
176
     0
 40
1.0
176
     0
 90
        2
176
     1
  1
strokes_ogs.tif
176
     1
290
     0
176
     1
 40
1.0
176
     1
 40
1.0
176
     1
  0
VISUALSTYLE
  5
40
102
{ACAD_REACTORS
330
2A
102
}
330
2A
100
AcDbVisualStyle
  2
X-Ray
 70
    25
177
     3
291
     0
 70
    58
 90
        2
176
     1
 90
        2
176
     1
 90
        1
176
     1
 90
        1
176
     1
 40
0.5
176
     1
 40
30.0
176
     1
 62
     7
420
 16777215
176
     1
 90
        1
176
     1
 90
        0
176
     1
 62
     7
176
     1
 62
   257
176
     1
 90
        1
176
     1
 90
        1
176
     1
 40
1.0
176
     1
 90
        8
176
     1
 62
     7
176
     1
 40
1.0
176
     1
 90
        1
176
     1
 90
        6
176
     1
 90
        2
176
     1
 62
     7
176
     1
 90
        3
176
     1
 90
        0
176
     1
 90
        0
176
     1
290
     0
176
     1
 90
       13
176
     1
 40
0.0
176
     1
 90
        0
176
     1
290
     0
176
     1
290
     1
176
     1
290
     1
176
     1
290
     0
176
     1
290
     0
176
     1
290
     0
176
     1
290
     0
176
     1
290
     0
176
     1
290
     0
176
     1
 90
       50
176
     1
 40
0.0
176
     1
 40
1.0
176
     1
 90
        0
176
     1
 62
    18
420
        0
176
     1
 90
       50
176
     1
 90
        3
176
     1
 62
     5
420
      255
176
     1
290
     0
176
     1
 90
       50
176
     1
 90
       50
176
     1
 90
       50
176
     1
290
     0
176
     1
 90
       50
176
     1
 62
   256
176
     0
 40
1.0
176
     0
 90
        2
176
     1
  1
strokes_ogs.tif
176
     1
290
     0
176
     1
 40
1.0
176
     1
 40
1.0
176
     1
  0
DICTIONARYVAR
  5
D4
102
{ACAD_REACTORS
330
D3
102
}
330
D3
100
DictionaryVariables
280
     0
  1
1:1
  0
DICTIONARYVAR
  5
D9
102
{ACAD_REACTORS
330
D3
102
}
330
D3
100
DictionaryVariables
280
     0
  1
Standard
  0
DICTIONARYVAR
  5
D8
102
{ACAD_REACTORS
330
D3
102
}
330
D3
100
DictionaryVariables
280
     0
  1
Standard
  0
DICTIONARY
  5
D5
330
5A
100
AcDbDictionary
280
     1
281
     1
  3
ACAD_ROUNDTRIP_2008_TABLESTYLE_CELLSTYLEMAP
360
D6
  0
CELLSTYLEMAP
  5
D6
102
{ACAD_REACTORS
330
D5
102
}
330
D5
100
AcDbCellStyleMap
 90
        3
300
CELLSTYLE
  1
TABLEFORMAT_BEGIN
 90
        5
170
     1
 91
        0
 92
    32768
 62
   257
 93
        1
300
CONTENTFORMAT
  1
CONTENTFORMAT_BEGIN
 90
        0
 91
        0
 92
        4
 93
        0
300

 40
0.0
140
1.0
 94
        5
 62
     0
340
11
144
0.25
309
CONTENTFORMAT_END
171
     1
301
MARGIN
  1
CELLMARGIN_BEGIN
 40
0.06
 40
0.06
 40
0.06
 40
0.06
 40
0.06
 40
0.06
309
CELLMARGIN_END
 94
        6
 95
        1
302
GRIDFORMAT
  1
GRIDFORMAT_BEGIN
 90
        0
 91
        1
 62
     0
 92
       -2
340
14
 93
        0
 40
0.045
309
GRIDFORMAT_END
 95
        2
302
GRIDFORMAT
  1
GRIDFORMAT_BEGIN
 90
        0
 91
        1
 62
     0
 92
       -2
340
14
 93
        0
 40
0.045
309
GRIDFORMAT_END
 95
        4
302
GRIDFORMAT
  1
GRIDFORMAT_BEGIN
 90
        0
 91
        1
 62
     0
 92
       -2
340
14
 93
        0
 40
0.045
309
GRIDFORMAT_END
 95
        8
302
GRIDFORMAT
  1
GRIDFORMAT_BEGIN
 90
        0
 91
        1
 62
     0
 92
       -2
340
14
 93
        0
 40
0.045
309
GRIDFORMAT_END
 95
       16
302
GRIDFORMAT
  1
GRIDFORMAT_BEGIN
 90
        0
 91
        1
 62
     0
 92
       -2
340
14
 93
        0
 40
0.045
309
GRIDFORMAT_END
 95
       32
302
GRIDFORMAT
  1
GRIDFORMAT_BEGIN
 90
        0
 91
        1
 62
     0
 92
       -2
340
14
 93
        0
 40
0.045
309
GRIDFORMAT_END
309
TABLEFORMAT_END
  1
CELLSTYLE_BEGIN
 90
        1
 91
        1
300
_TITLE
309
CELLSTYLE_END
300
CELLSTYLE
  1
TABLEFORMAT_BEGIN
 90
        5
170
     1
 91
        0
 92
        0
 62
   257
 93
        1
300
CONTENTFORMAT
  1
CONTENTFORMAT_BEGIN
 90
        0
 91
        0
 92
        4
 93
        0
300

 40
0.0
140
1.0
 94
        5
 62
     0
340
11
144
0.18
309
CONTENTFORMAT_END
171
     1
301
MARGIN
  1
CELLMARGIN_BEGIN
 40
0.06
 40
0.06
 40
0.06
 40
0.06
 40
0.06
 40
0.06
309
CELLMARGIN_END
 94
        6
 95
        1
302
GRIDFORMAT
  1
GRIDFORMAT_BEGIN
 90
        0
 91
        1
 62
     0
 92
       -2
340
14
 93
        0
 40
0.045
309
GRIDFORMAT_END
 95
        2
302
GRIDFORMAT
  1
GRIDFORMAT_BEGIN
 90
        0
 91
        1
 62
     0
 92
       -2
340
14
 93
        0
 40
0.045
309
GRIDFORMAT_END
 95
        4
302
GRIDFORMAT
  1
GRIDFORMAT_BEGIN
 90
        0
 91
        1
 62
     0
 92
       -2
340
14
 93
        0
 40
0.045
309
GRIDFORMAT_END
 95
        8
302
GRIDFORMAT
  1
GRIDFORMAT_BEGIN
 90
        0
 91
        1
 62
     0
 92
       -2
340
14
 93
        0
 40
0.045
309
GRIDFORMAT_END
 95
       16
302
GRIDFORMAT
  1
GRIDFORMAT_BEGIN
 90
        0
 91
        1
 62
     0
 92
       -2
340
14
 93
        0
 40
0.045
309
GRIDFORMAT_END
 95
       32
302
GRIDFORMAT
  1
GRIDFORMAT_BEGIN
 90
        0
 91
        1
 62
     0
 92
       -2
340
14
 93
        0
 40
0.045
309
GRIDFORMAT_END
309
TABLEFORMAT_END
  1
CELLSTYLE_BEGIN
 90
        2
 91
        1
300
_HEADER
309
CELLSTYLE_END
300
CELLSTYLE
  1
TABLEFORMAT_BEGIN
 90
        5
170
     1
 91
        0
 92
        0
 62
   257
 93
        1
300
CONTENTFORMAT
  1
CONTENTFORMAT_BEGIN
 90
        0
 91
        0
 92
        4
 93
        0
300

 40
0.0
140
1.0
 94
        2
 62
     0
340
11
144
0.18
309
CONTENTFORMAT_END
171
     1
301
MARGIN
  1
CELLMARGIN_BEGIN
 40
0.06
 40
0.06
 40
0.06
 40
0.06
 40
0.06
 40
0.06
309
CELLMARGIN_END
 94
        6
 95
        1
302
GRIDFORMAT
  1
GRIDFORMAT_BEGIN
 90
        0
 91
        1
 62
     0
 92
       -2
340
14
 93
        0
 40
0.045
309
GRIDFORMAT_END
 95
        2
302
GRIDFORMAT
  1
GRIDFORMAT_BEGIN
 90
        0
 91
        1
 62
     0
 92
       -2
340
14
 93
        0
 40
0.045
309
GRIDFORMAT_END
 95
        4
302
GRIDFORMAT
  1
GRIDFORMAT_BEGIN
 90
        0
 91
        1
 62
     0
 92
       -2
340
14
 93
        0
 40
0.045
309
GRIDFORMAT_END
 95
        8
302
GRIDFORMAT
  1
GRIDFORMAT_BEGIN
 90
        0
 91
        1
 62
     0
 92
       -2
340
14
 93
        0
 40
0.045
309
GRIDFORMAT_END
 95
       16
302
GRIDFORMAT
  1
GRIDFORMAT_BEGIN
 90
        0
 91
        1
 62
     0
 92
       -2
340
14
 93
        0
 40
0.045
309
GRIDFORMAT_END
 95
       32
302
GRIDFORMAT
  1
GRIDFORMAT_BEGIN
 90
        0
 91
        1
 62
     0
 92
       -2
340
14
 93
        0
 40
0.045
309
GRIDFORMAT_END
309
TABLEFORMAT_END
  1
CELLSTYLE_BEGIN
 90
        3
 91
        2
300
_DATA
309
CELLSTYLE_END
  0
ENDSEC
  0
EOF
