  0
SECTION
  2
HEADER
  9
$ACADVER
  1
AC1027
  9
$ACADMAINTVER
 70
   105
  9
$DWGCODEPAGE
  3
ANSI_1252
  9
$LASTSAVEDBY
  1
Office Desk
  9
$REQUIREDVERSIONS
160
                 0
  9
$INSBASE
 10
0.0
 20
0.0
 30
0.0
  9
$EXTMIN
 10
501.8157
 20
-435.8107
 30
0.0
  9
$EXTMAX
 10
1080.0031
 20
485.5252
 30
0.0
  9
$LIMMIN
 10
0.0
 20
0.0
  9
$LIMMAX
 10
12.0
 20
9.0
  9
$ORTHOMODE
 70
     0
  9
$REGENMODE
 70
     1
  9
$FILLMODE
 70
     1
  9
$QTEXTMODE
 70
     0
  9
$MIRRTEXT
 70
     1
  9
$LTSCALE
 40
1.0
  9
$ATTMODE
 70
     1
  9
$TEXTSIZE
 40
0.2
  9
$TRACEWID
 40
0.05
  9
$TEXTSTYLE
  7
Standard
  9
$CLAYER
  8
0
  9
$CELTYPE
  6
ByLayer
  9
$CECOLOR
 62
   256
  9
$CELTSCALE
 40
1.0
  9
$DISPSILH
 70
     0
  9
$DIMSCALE
 40
1.0
  9
$DIMASZ
 40
0.18
  9
$DIMEXO
 40
0.0625
  9
$DIMDLI
 40
0.38
  9
$DIMRND
 40
0.0
  9
$DIMDLE
 40
0.0
  9
$DIMEXE
 40
0.18
  9
$DIMTP
 40
0.0
  9
$DIMTM
 40
0.0
  9
$DIMTXT
 40
0.18
  9
$DIMCEN
 40
0.09
  9
$DIMTSZ
 40
0.0
  9
$DIMTOL
 70
     0
  9
$DIMLIM
 70
     0
  9
$DIMTIH
 70
     1
  9
$DIMTOH
 70
     1
  9
$DIMSE1
 70
     0
  9
$DIMSE2
 70
     0
  9
$DIMTAD
 70
     0
  9
$DIMZIN
 70
     0
  9
$DIMBLK
  1

  9
$DIMASO
 70
     1
  9
$DIMSHO
 70
     1
  9
$DIMPOST
  1

  9
$DIMAPOST
  1

  9
$DIMALT
 70
     0
  9
$DIMALTD
 70
     2
  9
$DIMALTF
 40
25.4
  9
$DIMLFAC
 40
1.0
  9
$DIMTOFL
 70
     0
  9
$DIMTVP
 40
0.0
  9
$DIMTIX
 70
     0
  9
$DIMSOXD
 70
     0
  9
$DIMSAH
 70
     0
  9
$DIMBLK1
  1

  9
$DIMBLK2
  1

  9
$DIMSTYLE
  2
Standard
  9
$DIMCLRD
 70
     0
  9
$DIMCLRE
 70
     0
  9
$DIMCLRT
 70
     0
  9
$DIMTFAC
 40
1.0
  9
$DIMGAP
 40
0.09
  9
$DIMJUST
 70
     0
  9
$DIMSD1
 70
     0
  9
$DIMSD2
 70
     0
  9
$DIMTOLJ
 70
     1
  9
$DIMTZIN
 70
     0
  9
$DIMALTZ
 70
     0
  9
$DIMALTTZ
 70
     0
  9
$DIMUPT
 70
     0
  9
$DIMDEC
 70
     4
  9
$DIMTDEC
 70
     4
  9
$DIMALTU
 70
     2
  9
$DIMALTTD
 70
     2
  9
$DIMTXSTY
  7
Standard
  9
$DIMAUNIT
 70
     0
  9
$DIMADEC
 70
     0
  9
$DIMALTRND
 40
0.0
  9
$DIMAZIN
 70
     0
  9
$DIMDSEP
 70
    46
  9
$DIMATFIT
 70
     3
  9
$DIMFRAC
 70
     0
  9
$DIMLDRBLK
  1

  9
$DIMLUNIT
 70
     2
  9
$DIMLWD
 70
    -2
  9
$DIMLWE
 70
    -2
  9
$DIMTMOVE
 70
     0
  9
$DIMFXL
 40
1.0
  9
$DIMFXLON
 70
     0
  9
$DIMJOGANG
 40
0.7853981633974483
  9
$DIMTFILL
 70
     0
  9
$DIMTFILLCLR
 70
     0
  9
$DIMARCSYM
 70
     0
  9
$DIMLTYPE
  6

  9
$DIMLTEX1
  6

  9
$DIMLTEX2
  6

  9
$DIMTXTDIRECTION
 70
     0
  9
$LUNITS
 70
     2
  9
$LUPREC
 70
     4
  9
$SKETCHINC
 40
0.1
  9
$FILLETRAD
 40
0.0
  9
$AUNITS
 70
     0
  9
$AUPREC
 70
     0
  9
$MENU
  1
.
  9
$ELEVATION
 40
0.0
  9
$PELEVATION
 40
0.0
  9
$THICKNESS
 40
0.0
  9
$LIMCHECK
 70
     0
  9
$CHAMFERA
 40
0.0
  9
$CHAMFERB
 40
0.0
  9
$CHAMFERC
 40
0.0
  9
$CHAMFERD
 40
0.0
  9
$SKPOLY
 70
     0
  9
$TDCREATE
 40
2461006.675352211
  9
$TDUCREATE
 40
2461006.446185544
  9
$TDUPDATE
 40
2461006.675352211
  9
$TDUUPDATE
 40
2461006.446185544
  9
$TDINDWG
 40
0.0000000116
  9
$TDUSRTIMER
 40
0.0000000116
  9
$USRTIMER
 70
     1
  9
$ANGBASE
 50
0.0
  9
$ANGDIR
 70
     0
  9
$PDMODE
 70
     0
  9
$PDSIZE
 40
0.0
  9
$PLINEWID
 40
0.0
  9
$SPLFRAME
 70
     0
  9
$SPLINETYPE
 70
     6
  9
$SPLINESEGS
 70
     8
  9
$HANDSEED
  5
99
  9
$SURFTAB1
 70
     6
  9
$SURFTAB2
 70
     6
  9
$SURFTYPE
 70
     6
  9
$SURFU
 70
     6
  9
$SURFV
 70
     6
  9
$UCSBASE
  2

  9
$UCSNAME
  2

  9
$UCSORG
 10
0.0
 20
0.0
 30
0.0
  9
$UCSXDIR
 10
1.0
 20
0.0
 30
0.0
  9
$UCSYDIR
 10
0.0
 20
1.0
 30
0.0
  9
$UCSORTHOREF
  2

  9
$UCSORTHOVIEW
 70
     0
  9
$UCSORGTOP
 10
0.0
 20
0.0
 30
0.0
  9
$UCSORGBOTTOM
 10
0.0
 20
0.0
 30
0.0
  9
$UCSORGLEFT
 10
0.0
 20
0.0
 30
0.0
  9
$UCSORGRIGHT
 10
0.0
 20
0.0
 30
0.0
  9
$UCSORGFRONT
 10
0.0
 20
0.0
 30
0.0
  9
$UCSORGBACK
 10
0.0
 20
0.0
 30
0.0
  9
$PUCSBASE
  2

  9
$PUCSNAME
  2

  9
$PUCSORG
 10
0.0
 20
0.0
 30
0.0
  9
$PUCSXDIR
 10
1.0
 20
0.0
 30
0.0
  9
$PUCSYDIR
 10
0.0
 20
1.0
 30
0.0
  9
$PUCSORTHOREF
  2

  9
$PUCSORTHOVIEW
 70
     0
  9
$PUCSORGTOP
 10
0.0
 20
0.0
 30
0.0
  9
$PUCSORGBOTTOM
 10
0.0
 20
0.0
 30
0.0
  9
$PUCSORGLEFT
 10
0.0
 20
0.0
 30
0.0
  9
$PUCSORGRIGHT
 10
0.0
 20
0.0
 30
0.0
  9
$PUCSORGFRONT
 10
0.0
 20
0.0
 30
0.0
  9
$PUCSORGBACK
 10
0.0
 20
0.0
 30
0.0
  9
$USERI1
 70
     0
  9
$USERI2
 70
     0
  9
$USERI3
 70
     0
  9
$USERI4
 70
     0
  9
$USERI5
 70
     0
  9
$USERR1
 40
0.0
  9
$USERR2
 40
0.0
  9
$USERR3
 40
0.0
  9
$USERR4
 40
0.0
  9
$USERR5
 40
0.0
  9
$WORLDVIEW
 70
     1
  9
$SHADEDGE
 70
     3
  9
$SHADEDIF
 70
    70
  9
$TILEMODE
 70
     1
  9
$MAXACTVP
 70
    64
  9
$PINSBASE
 10
0.0
 20
0.0
 30
0.0
  9
$PLIMCHECK
 70
     0
  9
$PEXTMIN
 10
1.000000000000000E+20
 20
1.000000000000000E+20
 30
1.000000000000000E+20
  9
$PEXTMAX
 10
-1.000000000000000E+20
 20
-1.000000000000000E+20
 30
-1.000000000000000E+20
  9
$PLIMMIN
 10
0.0
 20
0.0
  9
$PLIMMAX
 10
12.0
 20
9.0
  9
$UNITMODE
 70
     0
  9
$VISRETAIN
 70
     1
  9
$PLINEGEN
 70
     0
  9
$PSLTSCALE
 70
     1
  9
$TREEDEPTH
 70
  3020
  9
$CMLSTYLE
  2
Standard
  9
$CMLJUST
 70
     0
  9
$CMLSCALE
 40
1.0
  9
$PROXYGRAPHICS
 70
     1
  9
$MEASUREMENT
 70
     0
  9
$CELWEIGHT
370
    -1
  9
$ENDCAPS
280
     0
  9
$JOINSTYLE
280
     0
  9
$LWDISPLAY
290
     0
  9
$INSUNITS
 70
     4
  9
$HYPERLINKBASE
  1

  9
$STYLESHEET
  1

  9
$XEDIT
290
     1
  9
$CEPSNTYPE
380
     0
  9
$PSTYLEMODE
290
     1
  9
$FINGERPRINTGUID
  2
{103c0a72-136f-42c4-a2e2-8bb209ddf39f}
  9
$VERSIONGUID
  2
{FAEB1C32-E019-11D5-929B-00C0DF256EC4}
  9
$EXTNAMES
290
     1
  9
$PSVPSCALE
 40
0.0
  9
$OLESTARTUP
290
     0
  9
$SORTENTS
280
   127
  9
$INDEXCTL
280
     0
  9
$HIDETEXT
280
     1
  9
$XCLIPFRAME
280
     2
  9
$HALOGAP
280
     0
  9
$OBSCOLOR
 70
   257
  9
$OBSLTYPE
280
     0
  9
$INTERSECTIONDISPLAY
280
     0
  9
$INTERSECTIONCOLOR
 70
   257
  9
$DIMASSOC
280
     2
  9
$PROJECTNAME
  1

  9
$CAMERADISPLAY
290
     0
  9
$LENSLENGTH
 40
50.0
  9
$CAMERAHEIGHT
 40
0.0
  9
$STEPSPERSEC
 40
2.0
  9
$STEPSIZE
 40
6.0
  9
$3DDWFPREC
 40
2.0
  9
$PSOLWIDTH
 40
0.25
  9
$PSOLHEIGHT
 40
4.0
  9
$LOFTANG1
 40
1.570796326794897
  9
$LOFTANG2
 40
1.570796326794897
  9
$LOFTMAG1
 40
0.0
  9
$LOFTMAG2
 40
0.0
  9
$LOFTPARAM
 70
     7
  9
$LOFTNORMALS
280
     1
  9
$LATITUDE
 40
37.795
  9
$LONGITUDE
 40
-122.394
  9
$NORTHDIRECTION
 40
0.0
  9
$TIMEZONE
 70
 -8000
  9
$LIGHTGLYPHDISPLAY
280
     1
  9
$TILEMODELIGHTSYNCH
280
     1
  9
$CMATERIAL
347
44
  9
$SOLIDHIST
280
     0
  9
$SHOWHIST
280
     1
  9
$DWFFRAME
280
     2
  9
$DGNFRAME
280
     2
  9
$REALWORLDSCALE
290
     1
  9
$INTERFERECOLOR
 62
   256
  9
$CSHADOW
280
     0
  9
$SHADOWPLANELOCATION
 40
0.0
  0
ENDSEC
  0
SECTION
  2
CLASSES
  0
CLASS
  1
ACDBDICTIONARYWDFLT
  2
AcDbDictionaryWithDefault
  3
ObjectDBX Classes
 90
        0
 91
        3
280
     0
281
     0
  0
CLASS
  1
VISUALSTYLE
  2
AcDbVisualStyle
  3
ObjectDBX Classes
 90
     4095
 91
        3
280
     0
281
     0
  0
CLASS
  1
MATERIAL
  2
AcDbMaterial
  3
ObjectDBX Classes
 90
     1153
 91
        3
280
     0
281
     0
  0
CLASS
  1
SCALE
  2
AcDbScale
  3
ObjectDBX Classes
 90
     1153
 91
        3
280
     0
281
     0
  0
CLASS
  1
TABLESTYLE
  2
AcDbTableStyle
  3
ObjectDBX Classes
 90
     4095
 91
        3
280
     0
281
     0
  0
CLASS
  1
MLEADERSTYLE
  2
AcDbMLeaderStyle
  3
ACDB_MLEADERSTYLE_CLASS
 90
     4095
 91
        3
280
     0
281
     0
  0
CLASS
  1
SUN
  2
AcDbSun
  3
SCENEOE
 90
     1153
 91
        3
280
     0
281
     0
  0
CLASS
  1
DICTIONARYVAR
  2
AcDbDictionaryVar
  3
ObjectDBX Classes
 90
        0
 91
        3
280
     0
281
     0
  0
CLASS
  1
CELLSTYLEMAP
  2
AcDbCellStyleMap
  3
ObjectDBX Classes
 90
     1152
 91
        3
280
     0
281
     0
  0
ENDSEC
  0
SECTION
  2
TABLES
  0
TABLE
  2
VPORT
  5
8
330
0
100
AcDbSymbolTable
 70
     1
  0
VPORT
  5
29
330
8
100
AcDbSymbolTableRecord
100
AcDbViewportTableRecord
  2
*Active
 70
     0
 10
0.0
 20
0.0
 11
1.0
 21
1.0
 12
10.42990654205607
 22
4.5
 13
0.0
 23
0.0
 14
0.5
 24
0.5
 15
0.5
 25
0.5
 16
0.0
 26
0.0
 36
1.0
 17
0.0
 27
0.0
 37
0.0
 40
9.0
 41
1.972972972850329
 42
50.0
 43
0.0
 44
0.0
 50
0.0
 51
0.0
 71
     0
 72
   100
 73
     1
 74
     3
 75
     0
 76
     0
 77
     0
 78
     0
281
     0
 65
     1
110
0.0
120
0.0
130
0.0
111
1.0
121
0.0
131
0.0
112
0.0
122
1.0
132
0.0
 79
     0
146
0.0
348
2F
 60
     3
 61
     5
292
     1
282
     1
141
0.0
142
0.0
 63
   250
361
5D
  0
ENDTAB
  0
TABLE
  2
LTYPE
  5
5
330
0
100
AcDbSymbolTable
 70
     1
  0
LTYPE
  5
14
330
5
100
AcDbSymbolTableRecord
100
AcDbLinetypeTableRecord
  2
ByBlock
 70
     0
  3

 72
    65
 73
     0
 40
0.0
  0
LTYPE
  5
15
330
5
100
AcDbSymbolTableRecord
100
AcDbLinetypeTableRecord
  2
ByLayer
 70
     0
  3

 72
    65
 73
     0
 40
0.0
  0
LTYPE
  5
16
330
5
100
AcDbSymbolTableRecord
100
AcDbLinetypeTableRecord
  2
Continuous
 70
     0
  3
Solid line
 72
    65
 73
     0
 40
0.0
  0
ENDTAB
  0
TABLE
  2
LAYER
  5
2
330
0
100
AcDbSymbolTable
 70
     2
  0
LAYER
  5
10
330
2
100
AcDbSymbolTableRecord
100
AcDbLayerTableRecord
  2
0
 70
     0
 62
     7
  6
Continuous
370
    -3
390
F
347
46
348
0
  0
LAYER
  5
5F
330
2
100
AcDbSymbolTableRecord
100
AcDbLayerTableRecord
  2
Layer 1
 70
     0
 62
     7
  6
Continuous
370
    -3
390
F
347
46
348
0
  0
ENDTAB
  0
TABLE
  2
STYLE
  5
3
330
0
100
AcDbSymbolTable
 70
     1
  0
STYLE
  5
11
330
3
100
AcDbSymbolTableRecord
100
AcDbTextStyleTableRecord
  2
Standard
 70
     0
 40
0.0
 41
1.0
 50
0.0
 71
     0
 42
0.2
  3
txt
  4

  0
ENDTAB
  0
TABLE
  2
VIEW
  5
6
330
0
100
AcDbSymbolTable
 70
     0
  0
ENDTAB
  0
TABLE
  2
UCS
  5
7
330
0
100
AcDbSymbolTable
 70
     0
  0
ENDTAB
  0
TABLE
  2
APPID
  5
9
330
0
100
AcDbSymbolTable
 70
     2
  0
APPID
  5
12
330
9
100
AcDbSymbolTableRecord
100
AcDbRegAppTableRecord
  2
ACAD
 70
     0
  0
APPID
  5
5E
330
9
100
AcDbSymbolTableRecord
100
AcDbRegAppTableRecord
  2
ODA
 70
     0
  0
ENDTAB
  0
TABLE
  2
DIMSTYLE
  5
A
330
0
100
AcDbSymbolTable
 70
     1
100
AcDbDimStyleTable
  0
DIMSTYLE
105
27
330
A
100
AcDbSymbolTableRecord
100
AcDbDimStyleTableRecord
  2
Standard
 70
     0
178
     0
340
11
  0
ENDTAB
  0
TABLE
  2
BLOCK_RECORD
  5
1
330
0
100
AcDbSymbolTable
 70
     1
  0
BLOCK_RECORD
  5
1F
330
1
100
AcDbSymbolTableRecord
100
AcDbBlockTableRecord
  2
*Model_Space
340
22
 70
     0
280
     1
281
     0
  0
BLOCK_RECORD
  5
1B
330
1
100
AcDbSymbolTableRecord
100
AcDbBlockTableRecord
  2
*Paper_Space
340
1E
 70
     0
280
     1
281
     0
  0
BLOCK_RECORD
  5
23
330
1
100
AcDbSymbolTableRecord
100
AcDbBlockTableRecord
  2
*Paper_Space0
340
26
 70
     0
280
     1
281
     0
  0
ENDTAB
  0
ENDSEC
  0
SECTION
  2
BLOCKS
  0
BLOCK
  5
20
330
1F
100
AcDbEntity
  8
0
100
AcDbBlockBegin
  2
*Model_Space
 70
     0
 10
0.0
 20
0.0
 30
0.0
  3
*Model_Space
  1

  0
ENDBLK
  5
21
330
1F
100
AcDbEntity
  8
0
100
AcDbBlockEnd
  0
BLOCK
  5
1C
330
1B
100
AcDbEntity
 67
     1
  8
0
100
AcDbBlockBegin
  2
*Paper_Space
 70
     0
 10
0.0
 20
0.0
 30
0.0
  3
*Paper_Space
  1

  0
ENDBLK
  5
1D
330
1B
100
AcDbEntity
 67
     1
  8
0
100
AcDbBlockEnd
  0
BLOCK
  5
24
330
23
100
AcDbEntity
  8
0
100
AcDbBlockBegin
  2
*Paper_Space0
 70
     0
 10
0.0
 20
0.0
 30
0.0
  3
*Paper_Space0
  1

  0
ENDBLK
  5
25
330
23
100
AcDbEntity
  8
0
100
AcDbBlockEnd
  0
ENDSEC
  0
SECTION
  2
ENTITIES
  0
LWPOLYLINE
  5
60
330
1F
100
AcDbEntity
  8
Layer 1
 62
   250
370
    18
100
AcDbPolyline
 90
        5
 70
     1
 43
0.0
 10
501.9039
 20
-435.7224
 10
1079.9149
 20
-435.7224
 10
1079.9149
 20
485.437
 10
501.9039
 20
485.437
 10
501.9039
 20
-435.7224
  0
LWPOLYLINE
  5
61
330
1F
100
AcDbEntity
  8
Layer 1
 62
     7
100
AcDbPolyline
 90
      136
 70
     1
 43
0.0
 10
763.6225
 20
422.8592
 10
764.8385
 20
429.8296
 10
771.3443
 20
429.8296
 10
771.3443
 20
432.5102
 10
763.4371
 20
432.5102
 10
761.3745
 20
420.8297
 10
763.3843
 20
419.5276
 10
763.6758
 20
419.8148
 10
763.9818
 20
420.0638
 10
764.3022
 20
420.2744
 10
764.6372
 20
420.4468
 10
764.9865
 20
420.5809
 10
765.3504
 20
420.6767
 10
765.7286
 20
420.7342
 10
766.1213
 20
420.7534
 10
766.5164
 20
420.7253
 10
766.8982
 20
420.6409
 10
767.2669
 20
420.5002
 10
767.6223
 20
420.3034
 10
767.9644
 20
420.0503
 10
768.2934
 20
419.741
 10
768.609
 20
419.3755
 10
768.9115
 20
418.9538
 10
769.1965
 20
418.4831
 10
769.4436
 20
417.9951
 10
769.6527
 20
417.4897
 10
769.8239
 20
416.967
 10
769.957
 20
416.427
 10
770.0521
 20
415.8695
 10
770.1092
 20
415.2947
 10
770.1282
 20
414.7026
 10
770.1088
 20
414.09
 10
770.0505
 20
413.5021
 10
769.9534
 20
412.9387
 10
769.8174
 20
412.3998
 10
769.6426
 20
411.8856
 10
769.4289
 20
411.3958
 10
769.1763
 20
410.9307
 10
768.8849
 20
410.49
 10
768.7368
 20
410.294
 10
768.5833
 20
410.1082
 10
768.4244
 20
409.9325
 10
768.2601
 20
409.767
 10
768.0904
 20
409.6117
 10
767.9154
 20
409.4666
 10
767.7351
 20
409.3318
 10
767.5494
 20
409.2072
 10
767.3556
 20
409.0949
 10
767.1511
 20
408.9976
 10
766.9358
 20
408.9152
 10
766.7098
 20
408.8479
 10
766.473
 20
408.7955
 10
766.2255
 20
408.758
 10
765.9672
 20
408.7356
 10
765.6983
 20
408.7281
 10
765.4241
 20
408.7448
 10
765.1503
 20
408.7951
 10
764.8769
 20
408.8788
 10
764.604
 20
408.996
 10
764.3315
 20
409.1468
 10
764.0594
 20
409.3311
 10
763.7877
 20
409.5489
 10
763.5164
 20
409.8003
 10
763.2553
 20
410.0786
 10
763.0139
 20
410.3773
 10
762.7925
 20
410.6962
 10
762.5908
 20
411.0355
 10
762.4091
 20
411.3951
 10
762.2471
 20
411.775
 10
762.1051
 20
412.1753
 10
761.9829
 20
412.5958
 10
760.1845
 20
411.7535
 10
760.3612
 20
411.1231
 10
760.5671
 20
410.5245
 10
760.8024
 20
409.9576
 10
761.0671
 20
409.4225
 10
761.3611
 20
408.919
 10
761.6844
 20
408.4473
 10
762.0371
 20
408.0072
 10
762.4191
 20
407.5988
 10
762.8252
 20
407.2262
 10
763.2404
 20
406.9032
 10
763.6647
 20
406.63
 10
764.0982
 20
406.4064
 10
764.5408
 20
406.2325
 10
764.9925
 20
406.1083
 10
765.4532
 20
406.0337
 10
765.9231
 20
406.0089
 10
766.5491
 20
406.0499
 10
767.1512
 20
406.1729
 10
767.7293
 20
406.3779
 10
768.2835
 20
406.6649
 10
768.8136
 20
407.0338
 10
769.3198
 20
407.4847
 10
769.8021
 20
408.0176
 10
770.2603
 20
408.6324
 10
770.6755
 20
409.3
 10
771.0353
 20
410.0004
 10
771.3398
 20
410.7337
 10
771.589
 20
411.4999
 10
771.7828
 20
412.299
 10
771.9212
 20
413.131
 10
772.0043
 20
413.9959
 10
772.032
 20
414.8938
 10
772.0047
 20
415.787
 10
771.9229
 20
416.6425
 10
771.7866
 20
417.4603
 10
771.5957
 20
418.2403
 10
771.3502
 20
418.9826
 10
771.0501
 20
419.6872
 10
770.6955
 20
420.3541
 10
770.2863
 20
420.9833
 10
770.0772
 20
421.2631
 10
769.8599
 20
421.5279
 10
769.6344
 20
421.7777
 10
769.4006
 20
422.0125
 10
769.1585
 20
422.2324
 10
768.9081
 20
422.4373
 10
768.6495
 20
422.6272
 10
768.3826
 20
422.8022
 10
768.1103
 20
422.9592
 10
767.8355
 20
423.0954
 10
767.5584
 20
423.2106
 10
767.2789
 20
423.3049
 10
766.9971
 20
423.3782
 10
766.7132
 20
423.4307
 10
766.427
 20
423.4621
 10
766.1388
 20
423.4726
 10
765.8451
 20
423.463
 10
765.5455
 20
423.4343
 10
765.24
 20
423.3863
 10
764.9286
 20
423.3192
 10
764.6112
 20
423.233
 10
764.2877
 20
423.1275
 10
763.9582
 20
423.003
 10
763.6225
 20
422.8592
  0
LWPOLYLINE
  5
62
330
1F
100
AcDbEntity
  8
Layer 1
 62
     7
100
AcDbPolyline
 90
      129
 70
     1
 43
0.0
 10
782.2799
 20
429.4848
 10
782.5852
 20
429.1844
 10
782.8699
 20
428.8434
 10
783.1339
 20
428.4616
 10
783.3773
 20
428.0391
 10
783.6
 20
427.576
 10
783.8021
 20
427.0722
 10
783.9835
 20
426.5277
 10
784.1443
 20
425.9426
 10
784.3239
 20
425.1663
 10
784.4796
 20
424.3785
 10
784.6113
 20
423.5793
 10
784.7191
 20
422.7688
 10
784.803
 20
421.9468
 10
784.8629
 20
421.1135
 10
784.8988
 20
420.2688
 10
784.9108
 20
419.4127
 10
784.9096
 20
419.2071
 10
784.9059
 20
418.9926
 10
784.8997
 20
418.7692
 10
784.8911
 20
418.5368
 10
784.8799
 20
418.2954
 10
784.8663
 20
418.045
 10
784.8501
 20
417.7857
 10
784.8314
 20
417.5174
 10
784.7398
 20
416.4879
 10
784.6201
 20
415.5152
 10
784.4722
 20
414.5993
 10
784.2962
 20
413.7402
 10
784.0921
 20
412.938
 10
783.8598
 20
412.1926
 10
783.5995
 20
411.5041
 10
783.3111
 20
410.8725
 10
783.0478
 20
410.3968
 10
782.7705
 20
409.9846
 10
782.4791
 20
409.6358
 10
782.1737
 20
409.3504
 10
781.8542
 20
409.1284
 10
781.5207
 20
408.9698
 10
781.1732
 20
408.8747
 10
780.8117
 20
408.843
 10
780.4083
 20
408.8744
 10
780.0243
 20
408.9687
 10
779.6597
 20
409.1258
 10
779.3144
 20
409.3457
 10
778.9886
 20
409.6284
 10
778.6821
 20
409.9739
 10
778.3951
 20
410.3822
 10
778.1275
 20
410.8532
 10
778.0143
 20
411.0819
 10
777.9061
 20
411.3177
 10
777.8028
 20
411.5607
 10
777.7044
 20
411.8108
 10
777.611
 20
412.0682
 10
777.5225
 20
412.3328
 10
777.439
 20
412.6046
 10
777.3604
 20
412.8836
 10
777.2867
 20
413.1668
 10
777.2176
 20
413.4519
 10
777.153
 20
413.7387
 10
777.0929
 20
414.0274
 10
777.0373
 20
414.3178
 10
776.9863
 20
414.6101
 10
776.9399
 20
414.9042
 10
776.8981
 20
415.2001
 10
776.8598
 20
415.4957
 10
776.8244
 20
415.7889
 10
776.7919
 20
416.0797
 10
776.7623
 20
416.3682
 10
776.7356
 20
416.6542
 10
776.7119
 20
416.9379
 10
776.6911
 20
417.2192
 10
776.6733
 20
417.4981
 10
776.6578
 20
417.7812
 10
776.6443
 20
418.0749
 10
776.633
 20
418.3793
 10
776.6237
 20
418.6943
 10
776.6165
 20
419.0196
 10
776.6114
 20
419.3554
 10
776.6083
 20
419.7014
 10
776.6073
 20
420.0576
 10
776.6118
 20
420.4297
 10
776.6255
 20
420.8235
 10
776.6482
 20
421.239
 10
776.68
 20
421.6764
 10
776.7209
 20
422.1355
 10
776.7709
 20
422.6166
 10
776.8299
 20
423.1196
 10
776.8981
 20
423.6446
 10
776.9397
 20
423.9364
 10
776.9855
 20
424.2276
 10
777.0355
 20
424.5182
 10
777.0897
 20
424.8082
 10
777.148
 20
425.0975
 10
777.2105
 20
425.3862
 10
777.277
 20
425.6744
 10
777.3477
 20
425.9619
 10
777.4231
 20
426.2455
 10
777.5038
 20
426.522
 10
777.5899
 20
426.7912
 10
777.6814
 20
427.0532
 10
777.7783
 20
427.3081
 10
777.8806
 20
427.5558
 10
777.9883
 20
427.7965
 10
778.1015
 20
428.03
 10
778.22
 20
428.254
 10
778.3444
 20
428.4667
 10
778.4745
 20
428.6679
 10
778.6105
 20
428.8579
 10
778.7522
 20
429.0365
 10
778.8997
 20
429.2037
 10
779.053
 20
429.3596
 10
779.2121
 20
429.5041
 10
779.3778
 20
429.6343
 10
779.5509
 20
429.7471
 10
779.7314
 20
429.8426
 10
779.9194
 20
429.9207
 10
780.1147
 20
429.9814
 10
780.3176
 20
430.0248
 10
780.5279
 20
430.0508
 10
780.7457
 20
430.0595
 10
780.9635
 20
430.0505
 10
781.1739
 20
430.0236
 10
781.3768
 20
429.9788
 10
781.5723
 20
429.9159
 10
781.7603
 20
429.8351
 10
781.941
 20
429.7363
 10
782.1141
 20
429.6196
 10
782.2799
 20
429.4848
  0
LWPOLYLINE
  5
63
330
1F
100
AcDbEntity
  8
Layer 1
 62
     7
100
AcDbPolyline
 90
       65
 70
     1
 43
0.0
 10
780.8384
 20
406.1238
 10
781.6104
 20
406.1947
 10
782.3334
 20
406.4074
 10
783.0071
 20
406.762
 10
783.6318
 20
407.2583
 10
784.2072
 20
407.8965
 10
784.7335
 20
408.6765
 10
785.2106
 20
409.5983
 10
785.6385
 20
410.6619
 10
785.939
 20
411.5902
 10
786.1995
 20
412.5699
 10
786.4199
 20
413.601
 10
786.6001
 20
414.6835
 10
786.7403
 20
415.8174
 10
786.8405
 20
417.0027
 10
786.9006
 20
418.2395
 10
786.9206
 20
419.5276
 10
786.9006
 20
420.816
 10
786.8405
 20
422.053
 10
786.7403
 20
423.2384
 10
786.6001
 20
424.3724
 10
786.4199
 20
425.4549
 10
786.1995
 20
426.4858
 10
785.939
 20
427.4653
 10
785.6385
 20
428.3933
 10
785.2106
 20
429.4569
 10
784.7335
 20
430.3787
 10
784.2072
 20
431.1587
 10
783.6318
 20
431.7969
 10
783.0071
 20
432.2932
 10
782.3334
 20
432.6478
 10
781.6104
 20
432.8605
 10
780.8384
 20
432.9314
 10
780.0663
 20
432.8605
 10
779.3434
 20
432.6478
 10
778.6696
 20
432.2932
 10
778.045
 20
431.7969
 10
777.4696
 20
431.1587
 10
776.9433
 20
430.3787
 10
776.4662
 20
429.4569
 10
776.0383
 20
428.3933
 10
775.7377
 20
427.4653
 10
775.4772
 20
426.4858
 10
775.2568
 20
425.4549
 10
775.0764
 20
424.3724
 10
774.936
 20
423.2384
 10
774.8358
 20
422.053
 10
774.7757
 20
420.816
 10
774.7556
 20
419.5276
 10
774.7757
 20
418.2395
 10
774.8358
 20
417.0027
 10
774.936
 20
415.8174
 10
775.0764
 20
414.6835
 10
775.2568
 20
413.601
 10
775.4772
 20
412.5699
 10
775.7377
 20
411.5902
 10
776.0383
 20
410.6619
 10
776.4662
 20
409.5983
 10
776.9433
 20
408.6765
 10
777.4696
 20
407.8965
 10
778.045
 20
407.2583
 10
778.6696
 20
406.762
 10
779.3434
 20
406.4074
 10
780.0663
 20
406.1947
 10
780.8384
 20
406.1238
  0
LWPOLYLINE
  5
64
330
1F
100
AcDbEntity
  8
Layer 1
 62
     7
100
AcDbPolyline
 90
      129
 70
     1
 43
0.0
 10
797.0897
 20
429.4848
 10
797.395
 20
429.1844
 10
797.6797
 20
428.8434
 10
797.9437
 20
428.4616
 10
798.1871
 20
428.0391
 10
798.4098
 20
427.576
 10
798.6119
 20
427.0722
 10
798.7933
 20
426.5277
 10
798.9541
 20
425.9426
 10
799.1337
 20
425.1663
 10
799.2894
 20
424.3785
 10
799.4211
 20
423.5793
 10
799.5289
 20
422.7688
 10
799.6128
 20
421.9468
 10
799.6727
 20
421.1135
 10
799.7086
 20
420.2688
 10
799.7206
 20
419.4127
 10
799.7194
 20
419.2071
 10
799.7157
 20
418.9926
 10
799.7095
 20
418.7692
 10
799.7009
 20
418.5368
 10
799.6897
 20
418.2954
 10
799.6761
 20
418.045
 10
799.6599
 20
417.7857
 10
799.6412
 20
417.5174
 10
799.5496
 20
416.4879
 10
799.4299
 20
415.5152
 10
799.282
 20
414.5993
 10
799.106
 20
413.7402
 10
798.9019
 20
412.938
 10
798.6697
 20
412.1926
 10
798.4094
 20
411.5041
 10
798.121
 20
410.8725
 10
797.8577
 20
410.3968
 10
797.5803
 20
409.9846
 10
797.2889
 20
409.6358
 10
796.9835
 20
409.3504
 10
796.664
 20
409.1284
 10
796.3305
 20
408.9698
 10
795.983
 20
408.8747
 10
795.6215
 20
408.843
 10
795.2181
 20
408.8744
 10
794.8341
 20
408.9687
 10
794.4695
 20
409.1258
 10
794.1243
 20
409.3457
 10
793.7984
 20
409.6284
 10
793.492
 20
409.9739
 10
793.2049
 20
410.3822
 10
792.9373
 20
410.8532
 10
792.8241
 20
411.0819
 10
792.7159
 20
411.3177
 10
792.6126
 20
411.5607
 10
792.5142
 20
411.8108
 10
792.4208
 20
412.0682
 10
792.3323
 20
412.3328
 10
792.2488
 20
412.6046
 10
792.1702
 20
412.8836
 10
792.0966
 20
413.1668
 10
792.0275
 20
413.4519
 10
791.9628
 20
413.7387
 10
791.9028
 20
414.0274
 10
791.8472
 20
414.3178
 10
791.7962
 20
414.6101
 10
791.7498
 20
414.9042
 10
791.7079
 20
415.2001
 10
791.6696
 20
415.4957
 10
791.6342
 20
415.7889
 10
791.6017
 20
416.0797
 10
791.5721
 20
416.3682
 10
791.5455
 20
416.6542
 10
791.5218
 20
416.9379
 10
791.501
 20
417.2192
 10
791.4831
 20
417.4981
 10
791.4676
 20
417.7812
 10
791.4541
 20
418.0749
 10
791.4428
 20
418.3793
 10
791.4335
 20
418.6943
 10
791.4263
 20
419.0196
 10
791.4212
 20
419.3554
 10
791.4181
 20
419.7014
 10
791.4171
 20
420.0576
 10
791.4216
 20
420.4297
 10
791.4353
 20
420.8235
 10
791.458
 20
421.239
 10
791.4898
 20
421.6764
 10
791.5307
 20
422.1355
 10
791.5807
 20
422.6166
 10
791.6397
 20
423.1196
 10
791.7079
 20
423.6446
 10
791.7496
 20
423.9364
 10
791.7954
 20
424.2276
 10
791.8454
 20
424.5182
 10
791.8996
 20
424.8082
 10
791.9579
 20
425.0975
 10
792.0203
 20
425.3862
 10
792.0868
 20
425.6744
 10
792.1575
 20
425.9619
 10
792.2329
 20
426.2455
 10
792.3136
 20
426.522
 10
792.3997
 20
426.7912
 10
792.4912
 20
427.0532
 10
792.5881
 20
427.3081
 10
792.6904
 20
427.5558
 10
792.7981
 20
427.7965
 10
792.9113
 20
428.03
 10
793.0298
 20
428.254
 10
793.1542
 20
428.4667
 10
793.2843
 20
428.6679
 10
793.4203
 20
428.8579
 10
793.562
 20
429.0365
 10
793.7095
 20
429.2037
 10
793.8628
 20
429.3596
 10
794.0219
 20
429.5041
 10
794.1876
 20
429.6343
 10
794.3607
 20
429.7471
 10
794.5412
 20
429.8426
 10
794.7292
 20
429.9207
 10
794.9245
 20
429.9814
 10
795.1274
 20
430.0248
 10
795.3377
 20
430.0508
 10
795.5555
 20
430.0595
 10
795.7733
 20
430.0505
 10
795.9837
 20
430.0236
 10
796.1867
 20
429.9788
 10
796.3822
 20
429.9159
 10
796.5702
 20
429.8351
 10
796.7508
 20
429.7363
 10
796.924
 20
429.6196
 10
797.0897
 20
429.4848
  0
LWPOLYLINE
  5
65
330
1F
100
AcDbEntity
  8
Layer 1
 62
     7
100
AcDbPolyline
 90
       65
 70
     1
 43
0.0
 10
795.6482
 20
406.1238
 10
796.4203
 20
406.1947
 10
797.1432
 20
406.4074
 10
797.817
 20
406.762
 10
798.4416
 20
407.2583
 10
799.017
 20
407.8965
 10
799.5433
 20
408.6765
 10
800.0204
 20
409.5983
 10
800.4483
 20
410.6619
 10
800.7488
 20
411.5902
 10
801.0093
 20
412.5699
 10
801.2297
 20
413.601
 10
801.4099
 20
414.6835
 10
801.5501
 20
415.8174
 10
801.6503
 20
417.0027
 10
801.7104
 20
418.2395
 10
801.7304
 20
419.5276
 10
801.7104
 20
420.816
 10
801.6503
 20
422.053
 10
801.5501
 20
423.2384
 10
801.4099
 20
424.3724
 10
801.2297
 20
425.4549
 10
801.0093
 20
426.4858
 10
800.7488
 20
427.4653
 10
800.4483
 20
428.3933
 10
800.0204
 20
429.4569
 10
799.5433
 20
430.3787
 10
799.017
 20
431.1587
 10
798.4416
 20
431.7969
 10
797.817
 20
432.2932
 10
797.1432
 20
432.6478
 10
796.4203
 20
432.8605
 10
795.6482
 20
432.9314
 10
794.8762
 20
432.8605
 10
794.1532
 20
432.6478
 10
793.4795
 20
432.2932
 10
792.8549
 20
431.7969
 10
792.2794
 20
431.1587
 10
791.7531
 20
430.3787
 10
791.276
 20
429.4569
 10
790.8481
 20
428.3933
 10
790.5475
 20
427.4653
 10
790.287
 20
426.4858
 10
790.0666
 20
425.4549
 10
789.8862
 20
424.3724
 10
789.7458
 20
423.2384
 10
789.6456
 20
422.053
 10
789.5855
 20
420.816
 10
789.5654
 20
419.5276
 10
789.5855
 20
418.2395
 10
789.6456
 20
417.0027
 10
789.7458
 20
415.8174
 10
789.8862
 20
414.6835
 10
790.0666
 20
413.601
 10
790.287
 20
412.5699
 10
790.5475
 20
411.5902
 10
790.8481
 20
410.6619
 10
791.276
 20
409.5983
 10
791.7531
 20
408.6765
 10
792.2794
 20
407.8965
 10
792.8549
 20
407.2583
 10
793.4795
 20
406.762
 10
794.1532
 20
406.4074
 10
794.8762
 20
406.1947
 10
795.6482
 20
406.1238
  0
LWPOLYLINE
  5
66
330
1F
100
AcDbEntity
  8
Layer 1
 62
     7
100
AcDbPolyline
 90
      165
 70
     1
 43
0.0
 10
819.7934
 20
406.545
 10
821.6445
 20
406.545
 10
821.6445
 20
417.0769
 10
821.6294
 20
417.7761
 10
821.5842
 20
418.4424
 10
821.5087
 20
419.0758
 10
821.4032
 20
419.6763
 10
821.2674
 20
420.2439
 10
821.1015
 20
420.7786
 10
820.9054
 20
421.2804
 10
820.6792
 20
421.7493
 10
820.553
 20
421.9733
 10
820.419
 20
422.1859
 10
820.2771
 20
422.3872
 10
820.1273
 20
422.5771
 10
819.9696
 20
422.7557
 10
819.8042
 20
422.923
 10
819.6309
 20
423.0789
 10
819.4498
 20
423.2234
 10
819.2572
 20
423.3536
 10
819.0497
 20
423.4664
 10
818.8273
 20
423.5619
 10
818.5901
 20
423.64
 10
818.338
 20
423.7007
 10
818.0711
 20
423.7441
 10
817.7893
 20
423.7701
 10
817.4927
 20
423.7788
 10
817.1932
 20
423.7638
 10
816.9033
 20
423.7189
 10
816.6229
 20
423.6441
 10
816.352
 20
423.5394
 10
816.0906
 20
423.4047
 10
815.8388
 20
423.2402
 10
815.5964
 20
423.0458
 10
815.3635
 20
422.8215
 10
815.1615
 20
422.5977
 10
814.9686
 20
422.3573
 10
814.7848
 20
422.1004
 10
814.61
 20
421.8273
 10
814.4443
 20
421.538
 10
814.2876
 20
421.2326
 10
814.14
 20
420.9114
 10
814.0014
 20
420.5744
 10
813.8942
 20
420.8853
 10
813.7769
 20
421.1856
 10
813.6497
 20
421.4739
 10
813.5125
 20
421.7493
 10
813.3863
 20
421.9733
 10
813.2522
 20
422.1859
 10
813.1103
 20
422.3872
 10
812.9604
 20
422.5771
 10
812.8027
 20
422.7557
 10
812.6371
 20
422.923
 10
812.4637
 20
423.0789
 10
812.2824
 20
423.2234
 10
812.09
 20
423.3536
 10
811.8826
 20
423.4664
 10
811.6604
 20
423.5619
 10
811.4233
 20
423.64
 10
811.1712
 20
423.7007
 10
810.9043
 20
423.7441
 10
810.6225
 20
423.7701
 10
810.3259
 20
423.7788
 10
810.0264
 20
423.7638
 10
809.7365
 20
423.7189
 10
809.4561
 20
423.6441
 10
809.1852
 20
423.5394
 10
808.9238
 20
423.4047
 10
808.672
 20
423.2402
 10
808.4296
 20
423.0458
 10
808.1967
 20
422.8215
 10
808.0043
 20
422.6083
 10
807.82
 20
422.3808
 10
807.644
 20
422.1388
 10
807.4762
 20
421.8822
 10
807.3167
 20
421.611
 10
807.1655
 20
421.325
 10
807.0226
 20
421.0243
 10
806.888
 20
420.7086
 10
806.888
 20
423.3962
 10
805.0363
 20
423.3962
 10
805.0363
 20
406.545
 10
806.888
 20
406.545
 10
806.888
 20
415.1685
 10
806.931
 20
415.6709
 10
806.9871
 20
416.1537
 10
807.0565
 20
416.617
 10
807.1392
 20
417.0609
 10
807.235
 20
417.4857
 10
807.344
 20
417.8915
 10
807.4663
 20
418.2784
 10
807.6017
 20
418.6467
 10
807.7121
 20
418.9089
 10
807.8316
 20
419.159
 10
807.9601
 20
419.3972
 10
808.0977
 20
419.6234
 10
808.2443
 20
419.8376
 10
808.4001
 20
420.0399
 10
808.565
 20
420.2302
 10
808.739
 20
420.4086
 10
808.9192
 20
420.5702
 10
809.1027
 20
420.7103
 10
809.2895
 20
420.8288
 10
809.4795
 20
420.9258
 10
809.6728
 20
421.0012
 10
809.8694
 20
421.0551
 10
810.0693
 20
421.0874
 10
810.2726
 20
421.0982
 10
810.471
 20
421.0925
 10
810.6562
 20
421.0755
 10
810.8281
 20
421.0471
 10
810.9869
 20
421.0073
 10
811.1323
 20
420.9561
 10
811.2646
 20
420.8935
 10
811.3836
 20
420.8195
 10
811.4893
 20
420.7341
 10
811.7558
 20
420.4487
 10
811.9868
 20
420.1142
 10
812.1823
 20
419.7306
 10
812.3422
 20
419.2981
 10
812.4666
 20
418.8164
 10
812.5555
 20
418.2857
 10
812.6088
 20
417.7058
 10
812.6266
 20
417.0769
 10
812.6266
 20
406.545
 10
814.4777
 20
406.545
 10
814.4777
 20
417.0769
 10
814.4644
 20
417.7218
 10
814.5331
 20
417.9659
 10
814.6067
 20
418.201
 10
814.6851
 20
418.4278
 10
814.7685
 20
418.6467
 10
814.8789
 20
418.9089
 10
814.9984
 20
419.159
 10
815.1269
 20
419.3972
 10
815.2645
 20
419.6234
 10
815.4111
 20
419.8376
 10
815.5669
 20
420.0399
 10
815.7318
 20
420.2302
 10
815.9058
 20
420.4086
 10
816.086
 20
420.5702
 10
816.2695
 20
420.7103
 10
816.4563
 20
420.8288
 10
816.6463
 20
420.9258
 10
816.8396
 20
421.0012
 10
817.0362
 20
421.0551
 10
817.2361
 20
421.0874
 10
817.4394
 20
421.0982
 10
817.6377
 20
421.0925
 10
817.8229
 20
421.0755
 10
817.9949
 20
421.0471
 10
818.1536
 20
421.0073
 10
818.2991
 20
420.9561
 10
818.4314
 20
420.8935
 10
818.5504
 20
420.8195
 10
818.6561
 20
420.7341
 10
818.9226
 20
420.4487
 10
819.1536
 20
420.1142
 10
819.3491
 20
419.7306
 10
819.509
 20
419.2981
 10
819.6334
 20
418.8164
 10
819.7223
 20
418.2857
 10
819.7756
 20
417.7058
 10
819.7934
 20
417.0769
 10
819.7934
 20
406.545
  0
LWPOLYLINE
  5
67
330
1F
100
AcDbEntity
  8
Layer 1
 62
     7
100
AcDbPolyline
 90
      162
 70
     1
 43
0.0
 10
839.9716
 20
406.545
 10
841.8227
 20
406.545
 10
841.8227
 20
417.0769
 10
841.8076
 20
417.7761
 10
841.7624
 20
418.4424
 10
841.687
 20
419.0758
 10
841.5814
 20
419.6763
 10
841.4457
 20
420.2439
 10
841.2798
 20
420.7786
 10
841.0837
 20
421.2804
 10
840.8575
 20
421.7493
 10
840.7313
 20
421.9733
 10
840.5972
 20
422.1859
 10
840.4553
 20
422.3872
 10
840.3055
 20
422.5771
 10
840.1479
 20
422.7557
 10
839.9824
 20
422.923
 10
839.8092
 20
423.0789
 10
839.6281
 20
423.2234
 10
839.4355
 20
423.3536
 10
839.228
 20
423.4664
 10
839.0056
 20
423.5619
 10
838.7684
 20
423.64
 10
838.5163
 20
423.7007
 10
838.2494
 20
423.7441
 10
837.9676
 20
423.7701
 10
837.671
 20
423.7788
 10
837.3715
 20
423.7638
 10
837.0815
 20
423.7189
 10
836.8011
 20
423.6441
 10
836.5302
 20
423.5394
 10
836.2689
 20
423.4047
 10
836.017
 20
423.2402
 10
835.7747
 20
423.0458
 10
835.5418
 20
422.8215
 10
835.3398
 20
422.5977
 10
835.1469
 20
422.3573
 10
834.963
 20
422.1004
 10
834.7883
 20
421.8273
 10
834.6226
 20
421.538
 10
834.4659
 20
421.2326
 10
834.3183
 20
420.9114
 10
834.1797
 20
420.5744
 10
834.0724
 20
420.8853
 10
833.9552
 20
421.1856
 10
833.828
 20
421.4739
 10
833.6907
 20
421.7493
 10
833.5645
 20
421.9733
 10
833.4304
 20
422.1859
 10
833.2885
 20
422.3872
 10
833.1386
 20
422.5771
 10
832.9809
 20
422.7557
 10
832.8154
 20
422.923
 10
832.642
 20
423.0789
 10
832.4607
 20
423.2234
 10
832.2683
 20
423.3536
 10
832.0609
 20
423.4664
 10
831.8387
 20
423.5619
 10
831.6015
 20
423.64
 10
831.3495
 20
423.7007
 10
831.0826
 20
423.7441
 10
830.8008
 20
423.7701
 10
830.5042
 20
423.7788
 10
830.2047
 20
423.7638
 10
829.9148
 20
423.7189
 10
829.6344
 20
423.6441
 10
829.3635
 20
423.5394
 10
829.1021
 20
423.4047
 10
828.8502
 20
423.2402
 10
828.6079
 20
423.0458
 10
828.375
 20
422.8215
 10
828.1826
 20
422.6083
 10
827.9983
 20
422.3808
 10
827.8223
 20
422.1388
 10
827.6545
 20
421.8822
 10
827.495
 20
421.611
 10
827.3437
 20
421.325
 10
827.2008
 20
421.0243
 10
827.0662
 20
420.7086
 10
827.0662
 20
423.3962
 10
825.2145
 20
423.3962
 10
825.2145
 20
406.545
 10
827.0662
 20
406.545
 10
827.0662
 20
415.1685
 10
827.1092
 20
415.6709
 10
827.1654
 20
416.1537
 10
827.2348
 20
416.617
 10
827.3175
 20
417.0609
 10
827.4133
 20
417.4857
 10
827.5223
 20
417.8915
 10
827.6446
 20
418.2784
 10
827.78
 20
418.6467
 10
827.8904
 20
418.9089
 10
828.0098
 20
419.159
 10
828.1383
 20
419.3972
 10
828.2759
 20
419.6234
 10
828.4226
 20
419.8376
 10
828.5784
 20
420.0399
 10
828.7433
 20
420.2302
 10
828.9173
 20
420.4086
 10
829.0975
 20
420.5702
 10
829.281
 20
420.7103
 10
829.4677
 20
420.8288
 10
829.6577
 20
420.9258
 10
829.851
 20
421.0012
 10
830.0476
 20
421.0551
 10
830.2476
 20
421.0874
 10
830.4509
 20
421.0982
 10
830.6492
 20
421.0925
 10
830.8344
 20
421.0755
 10
831.0064
 20
421.0471
 10
831.1651
 20
421.0073
 10
831.3106
 20
420.9561
 10
831.4428
 20
420.8935
 10
831.5618
 20
420.8195
 10
831.6675
 20
420.7341
 10
831.934
 20
420.4487
 10
832.165
 20
420.1142
 10
832.3605
 20
419.7306
 10
832.5205
 20
419.2981
 10
832.6449
 20
418.8164
 10
832.7338
 20
418.2857
 10
832.7871
 20
417.7058
 10
832.8049
 20
417.0769
 10
832.8049
 20
406.545
 10
834.6559
 20
406.545
 10
834.6559
 20
417.0769
 10
834.6426
 20
417.7218
 10
834.9468
 20
418.6467
 10
835.0572
 20
418.9089
 10
835.1766
 20
419.159
 10
835.3051
 20
419.3972
 10
835.4427
 20
419.6234
 10
835.5894
 20
419.8376
 10
835.7452
 20
420.0399
 10
835.9101
 20
420.2302
 10
836.0841
 20
420.4086
 10
836.2643
 20
420.5702
 10
836.4478
 20
420.7103
 10
836.6345
 20
420.8288
 10
836.8245
 20
420.9258
 10
837.0178
 20
421.0012
 10
837.2144
 20
421.0551
 10
837.4144
 20
421.0874
 10
837.6177
 20
421.0982
 10
837.816
 20
421.0925
 10
838.0012
 20
421.0755
 10
838.1732
 20
421.0471
 10
838.3319
 20
421.0073
 10
838.4774
 20
420.9561
 10
838.6096
 20
420.8935
 10
838.7286
 20
420.8195
 10
838.8343
 20
420.7341
 10
839.1008
 20
420.4487
 10
839.3318
 20
420.1142
 10
839.5273
 20
419.7306
 10
839.6872
 20
419.2981
 10
839.8116
 20
418.8164
 10
839.9005
 20
418.2857
 10
839.9538
 20
417.7058
 10
839.9716
 20
417.0769
 10
839.9716
 20
406.545
  0
LWPOLYLINE
  5
68
330
1F
100
AcDbEntity
  8
Layer 1
 62
     7
100
AcDbPolyline
 90
        7
 70
     1
 43
0.0
 10
534.4713
 20
310.8005
 10
536.3224
 20
310.8005
 10
536.3224
 20
337.1482
 10
531.8792
 20
336.4595
 10
531.8792
 20
334.1228
 10
534.4713
 20
334.1228
 10
534.4713
 20
310.8005
  0
LWPOLYLINE
  5
69
330
1F
100
AcDbEntity
  8
Layer 1
 62
     7
100
AcDbPolyline
 90
      129
 70
     1
 43
0.0
 10
546.9932
 20
333.8166
 10
547.2985
 20
333.5162
 10
547.5832
 20
333.1752
 10
547.8472
 20
332.7934
 10
548.0906
 20
332.3709
 10
548.3133
 20
331.9078
 10
548.5154
 20
331.404
 10
548.6968
 20
330.8595
 10
548.8576
 20
330.2744
 10
549.0372
 20
329.4981
 10
549.1929
 20
328.7103
 10
549.3246
 20
327.9111
 10
549.4324
 20
327.1006
 10
549.5163
 20
326.2786
 10
549.5762
 20
325.4453
 10
549.6121
 20
324.6006
 10
549.6241
 20
323.7445
 10
549.6229
 20
323.5389
 10
549.6192
 20
323.3244
 10
549.6131
 20
323.101
 10
549.6044
 20
322.8686
 10
549.5933
 20
322.6272
 10
549.5796
 20
322.3768
 10
549.5634
 20
322.1175
 10
549.5447
 20
321.8492
 10
549.4531
 20
320.8197
 10
549.3334
 20
319.847
 10
549.1856
 20
318.9311
 10
549.0096
 20
318.072
 10
548.8054
 20
317.2698
 10
548.5732
 20
316.5244
 10
548.3129
 20
315.8359
 10
548.0245
 20
315.2043
 10
547.7612
 20
314.7286
 10
547.4838
 20
314.3164
 10
547.1924
 20
313.9676
 10
546.887
 20
313.6822
 10
546.5676
 20
313.4602
 10
546.2341
 20
313.3016
 10
545.8866
 20
313.2065
 10
545.5251
 20
313.1748
 10
545.1217
 20
313.2062
 10
544.7377
 20
313.3005
 10
544.373
 20
313.4576
 10
544.0278
 20
313.6775
 10
543.7019
 20
313.9602
 10
543.3955
 20
314.3057
 10
543.1085
 20
314.714
 10
542.8409
 20
315.185
 10
542.7277
 20
315.4137
 10
542.6195
 20
315.6495
 10
542.5162
 20
315.8925
 10
542.4178
 20
316.1426
 10
542.3244
 20
316.4
 10
542.2359
 20
316.6646
 10
542.1524
 20
316.9364
 10
542.0738
 20
317.2154
 10
542.0001
 20
317.4986
 10
541.931
 20
317.7837
 10
541.8664
 20
318.0705
 10
541.8063
 20
318.3592
 10
541.7507
 20
318.6496
 10
541.6997
 20
318.9419
 10
541.6533
 20
319.236
 10
541.6115
 20
319.5319
 10
541.5732
 20
319.8275
 10
541.5377
 20
320.1207
 10
541.5052
 20
320.4115
 10
541.4757
 20
320.7
 10
541.449
 20
320.986
 10
541.4253
 20
321.2697
 10
541.4045
 20
321.551
 10
541.3867
 20
321.8299
 10
541.3711
 20
322.113
 10
541.3577
 20
322.4067
 10
541.3463
 20
322.7111
 10
541.337
 20
323.0261
 10
541.3298
 20
323.3514
 10
541.3247
 20
323.6872
 10
541.3216
 20
324.0332
 10
541.3206
 20
324.3894
 10
541.3251
 20
324.7615
 10
541.3388
 20
325.1553
 10
541.3615
 20
325.5708
 10
541.3933
 20
326.0082
 10
541.4342
 20
326.4673
 10
541.4842
 20
326.9484
 10
541.5433
 20
327.4514
 10
541.6115
 20
327.9764
 10
541.6531
 20
328.2682
 10
541.6989
 20
328.5594
 10
541.7489
 20
328.85
 10
541.8031
 20
329.14
 10
541.8614
 20
329.4293
 10
541.9239
 20
329.718
 10
541.9904
 20
330.0062
 10
542.0611
 20
330.2937
 10
542.1365
 20
330.5773
 10
542.2172
 20
330.8538
 10
542.3033
 20
331.123
 10
542.3948
 20
331.385
 10
542.4917
 20
331.6399
 10
542.5939
 20
331.8876
 10
542.7017
 20
332.1283
 10
542.8148
 20
332.3618
 10
542.9333
 20
332.5858
 10
543.0577
 20
332.7985
 10
543.1878
 20
332.9997
 10
543.3238
 20
333.1897
 10
543.4655
 20
333.3683
 10
543.613
 20
333.5355
 10
543.7664
 20
333.6914
 10
543.9255
 20
333.8359
 10
544.0912
 20
333.9661
 10
544.2643
 20
334.0789
 10
544.4448
 20
334.1744
 10
544.6327
 20
334.2525
 10
544.8281
 20
334.3132
 10
545.0309
 20
334.3566
 10
545.2412
 20
334.3826
 10
545.459
 20
334.3913
 10
545.6768
 20
334.3823
 10
545.8872
 20
334.3554
 10
546.0902
 20
334.3106
 10
546.2857
 20
334.2477
 10
546.4737
 20
334.1669
 10
546.6543
 20
334.0681
 10
546.8275
 20
333.9514
 10
546.9932
 20
333.8166
  0
LWPOLYLINE
  5
6A
330
1F
100
AcDbEntity
  8
Layer 1
 62
     7
100
AcDbPolyline
 90
       65
 70
     1
 43
0.0
 10
545.5517
 20
310.4556
 10
546.3238
 20
310.5265
 10
547.0467
 20
310.7392
 10
547.7205
 20
311.0938
 10
548.3451
 20
311.5901
 10
548.9205
 20
312.2283
 10
549.4468
 20
313.0083
 10
549.9239
 20
313.9301
 10
550.3518
 20
314.9938
 10
550.6524
 20
315.9221
 10
550.9128
 20
316.9017
 10
551.1332
 20
317.9328
 10
551.3135
 20
319.0153
 10
551.4537
 20
320.1492
 10
551.5538
 20
321.3345
 10
551.6139
 20
322.5713
 10
551.6339
 20
323.8594
 10
551.6139
 20
325.1478
 10
551.5538
 20
326.3848
 10
551.4537
 20
327.5702
 10
551.3135
 20
328.7042
 10
551.1332
 20
329.7867
 10
550.9128
 20
330.8176
 10
550.6524
 20
331.7971
 10
550.3518
 20
332.7251
 10
549.9239
 20
333.7887
 10
549.4468
 20
334.7105
 10
548.9205
 20
335.4905
 10
548.3451
 20
336.1287
 10
547.7205
 20
336.625
 10
547.0467
 20
336.9796
 10
546.3238
 20
337.1923
 10
545.5517
 20
337.2632
 10
544.7797
 20
337.1923
 10
544.0568
 20
336.9796
 10
543.383
 20
336.625
 10
542.7584
 20
336.1287
 10
542.183
 20
335.4905
 10
541.6567
 20
334.7105
 10
541.1796
 20
333.7887
 10
540.7517
 20
332.7251
 10
540.4511
 20
331.7971
 10
540.1906
 20
330.8176
 10
539.9701
 20
329.7867
 10
539.7897
 20
328.7042
 10
539.6493
 20
327.5702
 10
539.5491
 20
326.3848
 10
539.489
 20
325.1478
 10
539.4689
 20
323.8594
 10
539.489
 20
322.5713
 10
539.5491
 20
321.3345
 10
539.6493
 20
320.1492
 10
539.7897
 20
319.0153
 10
539.9701
 20
317.9328
 10
540.1906
 20
316.9017
 10
540.4511
 20
315.9221
 10
540.7517
 20
314.9938
 10
541.1796
 20
313.9301
 10
541.6567
 20
313.0083
 10
542.183
 20
312.2283
 10
542.7584
 20
311.5901
 10
543.383
 20
311.0938
 10
544.0568
 20
310.7392
 10
544.7797
 20
310.5265
 10
545.5517
 20
310.4556
  0
LWPOLYLINE
  5
6B
330
1F
100
AcDbEntity
  8
Layer 1
 62
     7
100
AcDbPolyline
 90
      129
 70
     1
 43
0.0
 10
561.803
 20
333.8166
 10
562.1083
 20
333.5162
 10
562.393
 20
333.1752
 10
562.657
 20
332.7934
 10
562.9004
 20
332.3709
 10
563.1232
 20
331.9078
 10
563.3253
 20
331.404
 10
563.5067
 20
330.8595
 10
563.6675
 20
330.2744
 10
563.8471
 20
329.4981
 10
564.0027
 20
328.7103
 10
564.1344
 20
327.9111
 10
564.2422
 20
327.1006
 10
564.3261
 20
326.2786
 10
564.386
 20
325.4453
 10
564.4219
 20
324.6006
 10
564.4339
 20
323.7445
 10
564.4327
 20
323.5389
 10
564.429
 20
323.3244
 10
564.4229
 20
323.101
 10
564.4142
 20
322.8686
 10
564.4031
 20
322.6272
 10
564.3895
 20
322.3768
 10
564.3733
 20
322.1175
 10
564.3546
 20
321.8492
 10
564.263
 20
320.8197
 10
564.1433
 20
319.847
 10
563.9954
 20
318.9311
 10
563.8194
 20
318.072
 10
563.6153
 20
317.2698
 10
563.383
 20
316.5244
 10
563.1227
 20
315.8359
 10
562.8343
 20
315.2043
 10
562.571
 20
314.7286
 10
562.2936
 20
314.3164
 10
562.0022
 20
313.9676
 10
561.6968
 20
313.6822
 10
561.3774
 20
313.4602
 10
561.0439
 20
313.3016
 10
560.6964
 20
313.2065
 10
560.3349
 20
313.1748
 10
559.9315
 20
313.2062
 10
559.5475
 20
313.3005
 10
559.1829
 20
313.4576
 10
558.8376
 20
313.6775
 10
558.5118
 20
313.9602
 10
558.2053
 20
314.3057
 10
557.9183
 20
314.714
 10
557.6507
 20
315.185
 10
557.5375
 20
315.4137
 10
557.4293
 20
315.6495
 10
557.326
 20
315.8925
 10
557.2276
 20
316.1426
 10
557.1342
 20
316.4
 10
557.0457
 20
316.6646
 10
556.9622
 20
316.9364
 10
556.8836
 20
317.2154
 10
556.8099
 20
317.4986
 10
556.7408
 20
317.7837
 10
556.6762
 20
318.0705
 10
556.6161
 20
318.3592
 10
556.5605
 20
318.6496
 10
556.5095
 20
318.9419
 10
556.4631
 20
319.236
 10
556.4213
 20
319.5319
 10
556.383
 20
319.8275
 10
556.3476
 20
320.1207
 10
556.3151
 20
320.4115
 10
556.2855
 20
320.7
 10
556.2588
 20
320.986
 10
556.2351
 20
321.2697
 10
556.2143
 20
321.551
 10
556.1965
 20
321.8299
 10
556.181
 20
322.113
 10
556.1675
 20
322.4067
 10
556.1562
 20
322.7111
 10
556.1469
 20
323.0261
 10
556.1397
 20
323.3514
 10
556.1345
 20
323.6872
 10
556.1314
 20
324.0332
 10
556.1304
 20
324.3894
 10
556.1349
 20
324.7615
 10
556.1486
 20
325.1553
 10
556.1713
 20
325.5708
 10
556.2031
 20
326.0082
 10
556.244
 20
326.4673
 10
556.294
 20
326.9484
 10
556.3531
 20
327.4514
 10
556.4213
 20
327.9764
 10
556.4629
 20
328.2682
 10
556.5087
 20
328.5594
 10
556.5587
 20
328.85
 10
556.6129
 20
329.14
 10
556.6712
 20
329.4293
 10
556.7337
 20
329.718
 10
556.8002
 20
330.0062
 10
556.8709
 20
330.2937
 10
556.9463
 20
330.5773
 10
557.027
 20
330.8538
 10
557.1131
 20
331.123
 10
557.2046
 20
331.385
 10
557.3015
 20
331.6399
 10
557.4037
 20
331.8876
 10
557.5115
 20
332.1283
 10
557.6246
 20
332.3618
 10
557.7432
 20
332.5858
 10
557.8675
 20
332.7985
 10
557.9977
 20
332.9997
 10
558.1336
 20
333.1897
 10
558.2754
 20
333.3683
 10
558.4229
 20
333.5355
 10
558.5762
 20
333.6914
 10
558.7353
 20
333.8359
 10
558.901
 20
333.9661
 10
559.0741
 20
334.0789
 10
559.2546
 20
334.1744
 10
559.4426
 20
334.2525
 10
559.6379
 20
334.3132
 10
559.8408
 20
334.3566
 10
560.0511
 20
334.3826
 10
560.2689
 20
334.3913
 10
560.4867
 20
334.3823
 10
560.6971
 20
334.3554
 10
560.9
 20
334.3106
 10
561.0955
 20
334.2477
 10
561.2835
 20
334.1669
 10
561.4641
 20
334.0681
 10
561.6373
 20
333.9514
 10
561.803
 20
333.8166
  0
LWPOLYLINE
  5
6C
330
1F
100
AcDbEntity
  8
Layer 1
 62
     7
100
AcDbPolyline
 90
       65
 70
     1
 43
0.0
 10
560.3616
 20
310.4556
 10
561.1336
 20
310.5265
 10
561.8565
 20
310.7392
 10
562.5303
 20
311.0938
 10
563.1549
 20
311.5901
 10
563.7303
 20
312.2283
 10
564.2566
 20
313.0083
 10
564.7337
 20
313.9301
 10
565.1616
 20
314.9938
 10
565.4622
 20
315.9221
 10
565.7226
 20
316.9017
 10
565.943
 20
317.9328
 10
566.1233
 20
319.0153
 10
566.2635
 20
320.1492
 10
566.3637
 20
321.3345
 10
566.4238
 20
322.5713
 10
566.4438
 20
323.8594
 10
566.4238
 20
325.1478
 10
566.3637
 20
326.3848
 10
566.2635
 20
327.5702
 10
566.1233
 20
328.7042
 10
565.943
 20
329.7867
 10
565.7226
 20
330.8176
 10
565.4622
 20
331.7971
 10
565.1616
 20
332.7251
 10
564.7337
 20
333.7887
 10
564.2566
 20
334.7105
 10
563.7303
 20
335.4905
 10
563.1549
 20
336.1287
 10
562.5303
 20
336.625
 10
561.8565
 20
336.9796
 10
561.1336
 20
337.1923
 10
560.3616
 20
337.2632
 10
559.5895
 20
337.1923
 10
558.8666
 20
336.9796
 10
558.1928
 20
336.625
 10
557.5682
 20
336.1287
 10
556.9928
 20
335.4905
 10
556.4665
 20
334.7105
 10
555.9894
 20
333.7887
 10
555.5615
 20
332.7251
 10
555.2609
 20
331.7971
 10
555.0004
 20
330.8176
 10
554.7799
 20
329.7867
 10
554.5995
 20
328.7042
 10
554.4592
 20
327.5702
 10
554.359
 20
326.3848
 10
554.2988
 20
325.1478
 10
554.2788
 20
323.8594
 10
554.2988
 20
322.5713
 10
554.359
 20
321.3345
 10
554.4592
 20
320.1492
 10
554.5995
 20
319.0153
 10
554.7799
 20
317.9328
 10
555.0004
 20
316.9017
 10
555.2609
 20
315.9221
 10
555.5615
 20
314.9938
 10
555.9894
 20
313.9301
 10
556.4665
 20
313.0083
 10
556.9928
 20
312.2283
 10
557.5682
 20
311.5901
 10
558.1928
 20
311.0938
 10
558.8666
 20
310.7392
 10
559.5895
 20
310.5265
 10
560.3616
 20
310.4556
  0
LWPOLYLINE
  5
6D
330
1F
100
AcDbEntity
  8
Layer 1
 62
     7
100
AcDbPolyline
 90
      162
 70
     1
 43
0.0
 10
584.5068
 20
310.8768
 10
586.3578
 20
310.8768
 10
586.3578
 20
321.4087
 10
586.3427
 20
322.1079
 10
586.2975
 20
322.7742
 10
586.2221
 20
323.4077
 10
586.1165
 20
324.0082
 10
585.9808
 20
324.5757
 10
585.8149
 20
325.1104
 10
585.6188
 20
325.6122
 10
585.3926
 20
326.0811
 10
585.2664
 20
326.3051
 10
585.1323
 20
326.5177
 10
584.9904
 20
326.719
 10
584.8406
 20
326.9089
 10
584.683
 20
327.0875
 10
584.5175
 20
327.2548
 10
584.3443
 20
327.4107
 10
584.1632
 20
327.5552
 10
583.9706
 20
327.6854
 10
583.7631
 20
327.7982
 10
583.5407
 20
327.8937
 10
583.3035
 20
327.9718
 10
583.0514
 20
328.0325
 10
582.7845
 20
328.0759
 10
582.5027
 20
328.1019
 10
582.2061
 20
328.1106
 10
581.9066
 20
328.0956
 10
581.6167
 20
328.0507
 10
581.3363
 20
327.9759
 10
581.0654
 20
327.8712
 10
580.804
 20
327.7365
 10
580.5521
 20
327.572
 10
580.3098
 20
327.3776
 10
580.0769
 20
327.1533
 10
579.8749
 20
326.9295
 10
579.682
 20
326.6891
 10
579.4981
 20
326.4322
 10
579.3234
 20
326.1591
 10
579.1577
 20
325.8698
 10
579.001
 20
325.5644
 10
578.8534
 20
325.2432
 10
578.7148
 20
324.9062
 10
578.6076
 20
325.2171
 10
578.4903
 20
325.5174
 10
578.3631
 20
325.8057
 10
578.2258
 20
326.0811
 10
578.0996
 20
326.3051
 10
577.9655
 20
326.5177
 10
577.8236
 20
326.719
 10
577.6737
 20
326.9089
 10
577.516
 20
327.0875
 10
577.3505
 20
327.2548
 10
577.1771
 20
327.4107
 10
576.9958
 20
327.5552
 10
576.8034
 20
327.6854
 10
576.596
 20
327.7982
 10
576.3738
 20
327.8937
 10
576.1366
 20
327.9718
 10
575.8846
 20
328.0325
 10
575.6177
 20
328.0759
 10
575.3359
 20
328.1019
 10
575.0393
 20
328.1106
 10
574.7398
 20
328.0956
 10
574.4499
 20
328.0507
 10
574.1695
 20
327.9759
 10
573.8986
 20
327.8712
 10
573.6372
 20
327.7365
 10
573.3853
 20
327.572
 10
573.143
 20
327.3776
 10
572.9101
 20
327.1533
 10
572.7177
 20
326.9401
 10
572.5334
 20
326.7126
 10
572.3574
 20
326.4706
 10
572.1896
 20
326.214
 10
572.0301
 20
325.9428
 10
571.8788
 20
325.6568
 10
571.7359
 20
325.3561
 10
571.6013
 20
325.0404
 10
571.6013
 20
327.728
 10
569.7496
 20
327.728
 10
569.7496
 20
310.8768
 10
571.6013
 20
310.8768
 10
571.6013
 20
319.5003
 10
571.6443
 20
320.0027
 10
571.7005
 20
320.4855
 10
571.7699
 20
320.9488
 10
571.8526
 20
321.3927
 10
571.9484
 20
321.8175
 10
572.0574
 20
322.2233
 10
572.1797
 20
322.6102
 10
572.3151
 20
322.9785
 10
572.4255
 20
323.2407
 10
572.545
 20
323.4908
 10
572.6735
 20
323.729
 10
572.8111
 20
323.9552
 10
572.9577
 20
324.1694
 10
573.1135
 20
324.3717
 10
573.2784
 20
324.562
 10
573.4524
 20
324.7404
 10
573.6326
 20
324.902
 10
573.8161
 20
325.0421
 10
574.0028
 20
325.1606
 10
574.1928
 20
325.2576
 10
574.3861
 20
325.333
 10
574.5828
 20
325.3869
 10
574.7827
 20
325.4192
 10
574.986
 20
325.43
 10
575.1843
 20
325.4243
 10
575.3695
 20
325.4073
 10
575.5415
 20
325.3789
 10
575.7002
 20
325.3391
 10
575.8457
 20
325.2879
 10
575.978
 20
325.2253
 10
576.097
 20
325.1513
 10
576.2027
 20
325.0659
 10
576.4692
 20
324.7805
 10
576.7002
 20
324.446
 10
576.8957
 20
324.0624
 10
577.0556
 20
323.6299
 10
577.18
 20
323.1482
 10
577.2689
 20
322.6175
 10
577.3222
 20
322.0376
 10
577.34
 20
321.4087
 10
577.34
 20
310.8768
 10
579.191
 20
310.8768
 10
579.191
 20
321.4087
 10
579.1777
 20
322.0536
 10
579.4819
 20
322.9785
 10
579.5923
 20
323.2407
 10
579.7117
 20
323.4908
 10
579.8402
 20
323.729
 10
579.9778
 20
323.9552
 10
580.1245
 20
324.1694
 10
580.2803
 20
324.3717
 10
580.4452
 20
324.562
 10
580.6192
 20
324.7404
 10
580.7994
 20
324.902
 10
580.9829
 20
325.0421
 10
581.1696
 20
325.1606
 10
581.3596
 20
325.2576
 10
581.5529
 20
325.333
 10
581.7495
 20
325.3869
 10
581.9495
 20
325.4192
 10
582.1528
 20
325.43
 10
582.3511
 20
325.4243
 10
582.5363
 20
325.4073
 10
582.7083
 20
325.3789
 10
582.867
 20
325.3391
 10
583.0125
 20
325.2879
 10
583.1447
 20
325.2253
 10
583.2637
 20
325.1513
 10
583.3694
 20
325.0659
 10
583.6359
 20
324.7805
 10
583.8669
 20
324.446
 10
584.0624
 20
324.0624
 10
584.2224
 20
323.6299
 10
584.3468
 20
323.1482
 10
584.4357
 20
322.6175
 10
584.489
 20
322.0376
 10
584.5068
 20
321.4087
 10
584.5068
 20
310.8768
  0
LWPOLYLINE
  5
6E
330
1F
100
AcDbEntity
  8
Layer 1
 62
     7
100
AcDbPolyline
 90
      165
 70
     1
 43
0.0
 10
604.685
 20
310.8768
 10
606.5361
 20
310.8768
 10
606.5361
 20
321.4087
 10
606.521
 20
322.1079
 10
606.4758
 20
322.7742
 10
606.4003
 20
323.4077
 10
606.2948
 20
324.0082
 10
606.159
 20
324.5757
 10
605.9931
 20
325.1104
 10
605.797
 20
325.6122
 10
605.5708
 20
326.0811
 10
605.4446
 20
326.3051
 10
605.3106
 20
326.5177
 10
605.1687
 20
326.719
 10
605.0189
 20
326.9089
 10
604.8612
 20
327.0875
 10
604.6958
 20
327.2548
 10
604.5225
 20
327.4107
 10
604.3414
 20
327.5552
 10
604.1488
 20
327.6854
 10
603.9413
 20
327.7982
 10
603.7189
 20
327.8937
 10
603.4817
 20
327.9718
 10
603.2296
 20
328.0325
 10
602.9627
 20
328.0759
 10
602.6809
 20
328.1019
 10
602.3843
 20
328.1106
 10
602.0848
 20
328.0956
 10
601.7949
 20
328.0507
 10
601.5145
 20
327.9759
 10
601.2436
 20
327.8712
 10
600.9822
 20
327.7365
 10
600.7304
 20
327.572
 10
600.488
 20
327.3776
 10
600.2551
 20
327.1533
 10
600.0531
 20
326.9295
 10
599.8602
 20
326.6891
 10
599.6764
 20
326.4322
 10
599.5016
 20
326.1591
 10
599.3359
 20
325.8698
 10
599.1792
 20
325.5644
 10
599.0316
 20
325.2432
 10
598.893
 20
324.9062
 10
598.7858
 20
325.2171
 10
598.6685
 20
325.5174
 10
598.5413
 20
325.8057
 10
598.4041
 20
326.0811
 10
598.2779
 20
326.3051
 10
598.1438
 20
326.5177
 10
598.0019
 20
326.719
 10
597.852
 20
326.9089
 10
597.6943
 20
327.0875
 10
597.5288
 20
327.2548
 10
597.3554
 20
327.4107
 10
597.1741
 20
327.5552
 10
596.9817
 20
327.6854
 10
596.7743
 20
327.7982
 10
596.552
 20
327.8937
 10
596.3149
 20
327.9718
 10
596.0628
 20
328.0325
 10
595.7959
 20
328.0759
 10
595.5141
 20
328.1019
 10
595.2175
 20
328.1106
 10
594.918
 20
328.0956
 10
594.6281
 20
328.0507
 10
594.3477
 20
327.9759
 10
594.0768
 20
327.8712
 10
593.8155
 20
327.7365
 10
593.5636
 20
327.572
 10
593.3213
 20
327.3776
 10
593.0884
 20
327.1533
 10
592.8959
 20
326.9401
 10
592.7117
 20
326.7126
 10
592.5356
 20
326.4706
 10
592.3679
 20
326.214
 10
592.2083
 20
325.9428
 10
592.0571
 20
325.6568
 10
591.9142
 20
325.3561
 10
591.7796
 20
325.0404
 10
591.7796
 20
327.728
 10
589.9279
 20
327.728
 10
589.9279
 20
310.8768
 10
591.7796
 20
310.8768
 10
591.7796
 20
319.5003
 10
591.8226
 20
320.0027
 10
591.8787
 20
320.4855
 10
591.9481
 20
320.9488
 10
592.0308
 20
321.3927
 10
592.1266
 20
321.8175
 10
592.2356
 20
322.2233
 10
592.3579
 20
322.6102
 10
592.4933
 20
322.9785
 10
592.6037
 20
323.2407
 10
592.7232
 20
323.4908
 10
592.8517
 20
323.729
 10
592.9893
 20
323.9552
 10
593.1359
 20
324.1694
 10
593.2917
 20
324.3717
 10
593.4566
 20
324.562
 10
593.6306
 20
324.7404
 10
593.8108
 20
324.902
 10
593.9943
 20
325.0421
 10
594.1811
 20
325.1606
 10
594.3711
 20
325.2576
 10
594.5644
 20
325.333
 10
594.761
 20
325.3869
 10
594.9609
 20
325.4192
 10
595.1642
 20
325.43
 10
595.3626
 20
325.4243
 10
595.5478
 20
325.4073
 10
595.7197
 20
325.3789
 10
595.8785
 20
325.3391
 10
596.0239
 20
325.2879
 10
596.1562
 20
325.2253
 10
596.2752
 20
325.1513
 10
596.3809
 20
325.0659
 10
596.6474
 20
324.7805
 10
596.8784
 20
324.446
 10
597.0739
 20
324.0624
 10
597.2338
 20
323.6299
 10
597.3582
 20
323.1482
 10
597.4471
 20
322.6175
 10
597.5004
 20
322.0376
 10
597.5182
 20
321.4087
 10
597.5182
 20
310.8768
 10
599.3693
 20
310.8768
 10
599.3693
 20
321.4087
 10
599.356
 20
322.0536
 10
599.4247
 20
322.2977
 10
599.4983
 20
322.5328
 10
599.5767
 20
322.7596
 10
599.6601
 20
322.9785
 10
599.7705
 20
323.2407
 10
599.89
 20
323.4908
 10
600.0185
 20
323.729
 10
600.1561
 20
323.9552
 10
600.3027
 20
324.1694
 10
600.4585
 20
324.3717
 10
600.6234
 20
324.562
 10
600.7974
 20
324.7404
 10
600.9776
 20
324.902
 10
601.1611
 20
325.0421
 10
601.3479
 20
325.1606
 10
601.5379
 20
325.2576
 10
601.7312
 20
325.333
 10
601.9278
 20
325.3869
 10
602.1277
 20
325.4192
 10
602.331
 20
325.43
 10
602.5293
 20
325.4243
 10
602.7145
 20
325.4073
 10
602.8865
 20
325.3789
 10
603.0452
 20
325.3391
 10
603.1907
 20
325.2879
 10
603.323
 20
325.2253
 10
603.442
 20
325.1513
 10
603.5477
 20
325.0659
 10
603.8142
 20
324.7805
 10
604.0452
 20
324.446
 10
604.2407
 20
324.0624
 10
604.4006
 20
323.6299
 10
604.525
 20
323.1482
 10
604.6139
 20
322.6175
 10
604.6672
 20
322.0376
 10
604.685
 20
321.4087
 10
604.685
 20
310.8768
  0
LWPOLYLINE
  5
6F
330
1F
100
AcDbEntity
  8
Layer 1
 62
     7
100
AcDbPolyline
 90
       65
 70
     1
 43
0.0
 10
956.7991
 20
-29.513
 10
957.1914
 20
-29.5376
 10
957.5684
 20
-29.6112
 10
957.9302
 20
-29.734
 10
958.2768
 20
-29.9058
 10
958.608
 20
-30.1267
 10
958.924
 20
-30.3966
 10
959.2247
 20
-30.7156
 10
959.51
 20
-31.0836
 10
959.7671
 20
-31.4826
 10
959.99
 20
-31.9044
 10
960.1786
 20
-32.349
 10
960.3329
 20
-32.8164
 10
960.4529
 20
-33.3065
 10
960.5387
 20
-33.8194
 10
960.5901
 20
-34.3552
 10
960.6073
 20
-34.9137
 10
960.5903
 20
-35.4668
 10
960.5395
 20
-36.0013
 10
960.4547
 20
-36.5173
 10
960.3361
 20
-37.0148
 10
960.1835
 20
-37.4937
 10
959.9971
 20
-37.9541
 10
959.7768
 20
-38.3959
 10
959.5227
 20
-38.8192
 10
959.2445
 20
-39.2054
 10
958.9485
 20
-39.54
 10
958.6347
 20
-39.823
 10
958.3031
 20
-40.0546
 10
957.9538
 20
-40.2347
 10
957.5866
 20
-40.3632
 10
957.2017
 20
-40.4404
 10
956.7991
 20
-40.4661
 10
956.3965
 20
-40.4404
 10
956.0116
 20
-40.3632
 10
955.6444
 20
-40.2347
 10
955.295
 20
-40.0546
 10
954.9633
 20
-39.823
 10
954.6494
 20
-39.54
 10
954.3533
 20
-39.2054
 10
954.0749
 20
-38.8192
 10
953.8208
 20
-38.3959
 10
953.6006
 20
-37.9541
 10
953.4142
 20
-37.4937
 10
953.2618
 20
-37.0148
 10
953.1433
 20
-36.5173
 10
953.0586
 20
-36.0013
 10
953.0078
 20
-35.4668
 10
952.9909
 20
-34.9137
 10
953.0081
 20
-34.3552
 10
953.0595
 20
-33.8194
 10
953.1453
 20
-33.3065
 10
953.2653
 20
-32.8164
 10
953.4196
 20
-32.349
 10
953.6082
 20
-31.9044
 10
953.8311
 20
-31.4826
 10
954.0882
 20
-31.0836
 10
954.3735
 20
-30.7156
 10
954.6742
 20
-30.3966
 10
954.9901
 20
-30.1267
 10
955.3214
 20
-29.9058
 10
955.6679
 20
-29.734
 10
956.0298
 20
-29.6112
 10
956.4068
 20
-29.5376
 10
956.7991
 20
-29.513
  0
LWPOLYLINE
  5
70
330
1F
100
AcDbEntity
  8
Layer 1
 62
     7
100
AcDbPolyline
 90
       65
 70
     1
 43
0.0
 10
956.7991
 20
-18.9434
 10
957.1153
 20
-18.9626
 10
957.4196
 20
-19.0201
 10
957.712
 20
-19.1159
 10
957.9924
 20
-19.25
 10
958.2608
 20
-19.4224
 10
958.5173
 20
-19.633
 10
958.7618
 20
-19.882
 10
958.9943
 20
-20.1692
 10
959.2112
 20
-20.492
 10
959.3991
 20
-20.8334
 10
959.5582
 20
-21.1933
 10
959.6883
 20
-21.5717
 10
959.7895
 20
-21.9686
 10
959.8618
 20
-22.3841
 10
959.9051
 20
-22.8182
 10
959.9196
 20
-23.2709
 10
959.9051
 20
-23.7138
 10
959.8618
 20
-24.1423
 10
959.7895
 20
-24.5565
 10
959.6883
 20
-24.9562
 10
959.5582
 20
-25.3416
 10
959.3991
 20
-25.7125
 10
959.2112
 20
-26.0691
 10
958.9943
 20
-26.4113
 10
958.7632
 20
-26.7164
 10
958.5198
 20
-26.9809
 10
958.264
 20
-27.2047
 10
957.9958
 20
-27.3878
 10
957.7152
 20
-27.5302
 10
957.4223
 20
-27.632
 10
957.1169
 20
-27.693
 10
956.7991
 20
-27.7134
 10
956.4813
 20
-27.693
 10
956.1759
 20
-27.632
 10
955.883
 20
-27.5302
 10
955.6024
 20
-27.3878
 10
955.3342
 20
-27.2047
 10
955.0784
 20
-26.9809
 10
954.835
 20
-26.7164
 10
954.6039
 20
-26.4113
 10
954.387
 20
-26.0691
 10
954.1991
 20
-25.7125
 10
954.04
 20
-25.3416
 10
953.9099
 20
-24.9562
 10
953.8087
 20
-24.5565
 10
953.7364
 20
-24.1423
 10
953.6931
 20
-23.7138
 10
953.6786
 20
-23.2709
 10
953.6931
 20
-22.8182
 10
953.7364
 20
-22.3841
 10
953.8087
 20
-21.9686
 10
953.9099
 20
-21.5717
 10
954.04
 20
-21.1933
 10
954.1991
 20
-20.8334
 10
954.387
 20
-20.492
 10
954.6039
 20
-20.1692
 10
954.8364
 20
-19.882
 10
955.0808
 20
-19.633
 10
955.3372
 20
-19.4224
 10
955.6056
 20
-19.25
 10
955.886
 20
-19.1159
 10
956.1783
 20
-19.0201
 10
956.4827
 20
-18.9626
 10
956.7991
 20
-18.9434
  0
LWPOLYLINE
  5
71
330
1F
100
AcDbEntity
  8
Layer 1
 62
     7
100
AcDbPolyline
 90
      121
 70
     1
 43
0.0
 10
956.7991
 20
-43.1467
 10
957.405
 20
-43.1135
 10
957.9865
 20
-43.0139
 10
958.5437
 20
-42.8479
 10
959.0766
 20
-42.6155
 10
959.5851
 20
-42.3167
 10
960.0692
 20
-41.9514
 10
960.5289
 20
-41.5197
 10
960.9642
 20
-41.0215
 10
961.1606
 20
-40.7612
 10
961.3461
 20
-40.4878
 10
961.5209
 20
-40.2012
 10
961.685
 20
-39.9015
 10
961.8382
 20
-39.5885
 10
961.9808
 20
-39.2625
 10
962.1125
 20
-38.9232
 10
962.2336
 20
-38.5708
 10
962.342
 20
-38.2052
 10
962.436
 20
-37.8264
 10
962.5156
 20
-37.4344
 10
962.5807
 20
-37.0292
 10
962.6314
 20
-36.6108
 10
962.6675
 20
-36.1793
 10
962.6893
 20
-35.7346
 10
962.6965
 20
-35.2769
 10
962.6843
 20
-34.8132
 10
962.6477
 20
-34.3507
 10
962.5868
 20
-33.8893
 10
962.5015
 20
-33.4292
 10
962.3917
 20
-32.9702
 10
962.2576
 20
-32.5124
 10
962.099
 20
-32.0558
 10
961.9161
 20
-31.6004
 10
961.7106
 20
-31.1562
 10
961.484
 20
-30.7329
 10
961.2363
 20
-30.3306
 10
960.9676
 20
-29.9492
 10
960.6777
 20
-29.5888
 10
960.3667
 20
-29.2492
 10
960.0346
 20
-28.9306
 10
959.6814
 20
-28.6329
 10
960.1835
 20
-27.9844
 10
960.6187
 20
-27.3222
 10
960.987
 20
-26.6462
 10
961.2883
 20
-25.9565
 10
961.5226
 20
-25.2531
 10
961.6901
 20
-24.5359
 10
961.7905
 20
-23.805
 10
961.824
 20
-23.0603
 10
961.8011
 20
-22.3258
 10
961.7322
 20
-21.6254
 10
961.6175
 20
-20.959
 10
961.4569
 20
-20.3268
 10
961.2504
 20
-19.7288
 10
960.9981
 20
-19.1649
 10
960.6999
 20
-18.6351
 10
960.3558
 20
-18.1396
 10
959.9923
 20
-17.7087
 10
959.6056
 20
-17.3353
 10
959.1957
 20
-17.0193
 10
958.7627
 20
-16.7609
 10
958.3065
 20
-16.5598
 10
957.8272
 20
-16.4163
 10
957.3247
 20
-16.3301
 10
956.7991
 20
-16.3014
 10
956.2735
 20
-16.3301
 10
955.771
 20
-16.4163
 10
955.2917
 20
-16.5598
 10
954.8355
 20
-16.7609
 10
954.4025
 20
-17.0193
 10
953.9926
 20
-17.3353
 10
953.6059
 20
-17.7087
 10
953.2424
 20
-18.1396
 10
952.8983
 20
-18.6348
 10
952.6001
 20
-19.1637
 10
952.3478
 20
-19.7261
 10
952.1413
 20
-20.3221
 10
951.9807
 20
-20.9517
 10
951.866
 20
-21.6147
 10
951.7971
 20
-22.3111
 10
951.7742
 20
-23.041
 10
951.8077
 20
-23.7903
 10
951.9081
 20
-24.5252
 10
952.0755
 20
-25.2457
 10
952.3098
 20
-25.9518
 10
952.6111
 20
-26.6436
 10
952.9792
 20
-27.321
 10
953.4142
 20
-27.9841
 10
953.9161
 20
-28.6329
 10
953.5631
 20
-28.9306
 10
953.2312
 20
-29.2492
 10
952.9203
 20
-29.5888
 10
952.6305
 20
-29.9492
 10
952.3617
 20
-30.3306
 10
952.1139
 20
-30.7329
 10
951.8872
 20
-31.1562
 10
951.6815
 20
-31.6004
 10
951.4987
 20
-32.0567
 10
951.3403
 20
-32.516
 10
951.2063
 20
-32.9783
 10
951.0966
 20
-33.4436
 10
951.0114
 20
-33.912
 10
950.9504
 20
-34.3833
 10
950.9139
 20
-34.8576
 10
950.9017
 20
-35.3348
 10
950.9288
 20
-36.1901
 10
951.01
 20
-37.0042
 10
951.1453
 20
-37.777
 10
951.3348
 20
-38.5085
 10
951.5784
 20
-39.1988
 10
951.8761
 20
-39.8477
 10
952.228
 20
-40.4553
 10
952.634
 20
-41.0215
 10
953.0693
 20
-41.5197
 10
953.5289
 20
-41.9514
 10
954.0129
 20
-42.3167
 10
954.5214
 20
-42.6155
 10
955.0542
 20
-42.8479
 10
955.6114
 20
-43.0139
 10
956.193
 20
-43.1135
 10
956.7991
 20
-43.1467
  0
LWPOLYLINE
  5
72
330
1F
100
AcDbEntity
  8
Layer 1
 62
     7
100
AcDbPolyline
 90
      136
 70
     1
 43
0.0
 10
968.4884
 20
-26.3735
 10
969.7045
 20
-19.4032
 10
976.2102
 20
-19.4032
 10
976.2102
 20
-16.7226
 10
968.303
 20
-16.7226
 10
966.2405
 20
-28.4031
 10
968.2503
 20
-29.7052
 10
968.5418
 20
-29.418
 10
968.8478
 20
-29.169
 10
969.1682
 20
-28.9584
 10
969.5031
 20
-28.786
 10
969.8525
 20
-28.6519
 10
970.2163
 20
-28.5561
 10
970.5945
 20
-28.4986
 10
970.9872
 20
-28.4794
 10
971.3823
 20
-28.5075
 10
971.7642
 20
-28.5919
 10
972.1328
 20
-28.7326
 10
972.4883
 20
-28.9294
 10
972.8304
 20
-29.1825
 10
973.1594
 20
-29.4918
 10
973.475
 20
-29.8573
 10
973.7775
 20
-30.279
 10
974.0625
 20
-30.7497
 10
974.3096
 20
-31.2377
 10
974.5187
 20
-31.7431
 10
974.6899
 20
-32.2658
 10
974.823
 20
-32.8058
 10
974.9181
 20
-33.3633
 10
974.9752
 20
-33.9381
 10
974.9942
 20
-34.5302
 10
974.9748
 20
-35.1428
 10
974.9165
 20
-35.7307
 10
974.8193
 20
-36.2941
 10
974.6833
 20
-36.833
 10
974.5085
 20
-37.3472
 10
974.2948
 20
-37.837
 10
974.0422
 20
-38.3021
 10
973.7508
 20
-38.7428
 10
973.6027
 20
-38.9388
 10
973.4492
 20
-39.1246
 10
973.2903
 20
-39.3003
 10
973.126
 20
-39.4658
 10
972.9564
 20
-39.6211
 10
972.7814
 20
-39.7662
 10
972.6011
 20
-39.901
 10
972.4154
 20
-40.0256
 10
972.2216
 20
-40.1379
 10
972.0171
 20
-40.2352
 10
971.8018
 20
-40.3176
 10
971.5758
 20
-40.3849
 10
971.339
 20
-40.4373
 10
971.0915
 20
-40.4748
 10
970.8332
 20
-40.4972
 10
970.5643
 20
-40.5047
 10
970.2901
 20
-40.488
 10
970.0163
 20
-40.4377
 10
969.7429
 20
-40.354
 10
969.47
 20
-40.2368
 10
969.1975
 20
-40.086
 10
968.9254
 20
-39.9017
 10
968.6537
 20
-39.6839
 10
968.3824
 20
-39.4325
 10
968.1212
 20
-39.1542
 10
967.8799
 20
-38.8555
 10
967.6584
 20
-38.5366
 10
967.4568
 20
-38.1973
 10
967.275
 20
-37.8377
 10
967.1131
 20
-37.4578
 10
966.971
 20
-37.0575
 10
966.8488
 20
-36.637
 10
965.0505
 20
-37.4793
 10
965.2272
 20
-38.1097
 10
965.4331
 20
-38.7083
 10
965.6684
 20
-39.2752
 10
965.9331
 20
-39.8103
 10
966.2271
 20
-40.3138
 10
966.5504
 20
-40.7855
 10
966.9031
 20
-41.2256
 10
967.2851
 20
-41.634
 10
967.6912
 20
-42.0066
 10
968.1064
 20
-42.3296
 10
968.5307
 20
-42.6028
 10
968.9642
 20
-42.8264
 10
969.4067
 20
-43.0003
 10
969.8584
 20
-43.1245
 10
970.3192
 20
-43.1991
 10
970.7891
 20
-43.2239
 10
971.4151
 20
-43.1829
 10
972.0172
 20
-43.0599
 10
972.5953
 20
-42.8549
 10
973.1494
 20
-42.5679
 10
973.6796
 20
-42.199
 10
974.1858
 20
-41.7481
 10
974.668
 20
-41.2152
 10
975.1263
 20
-40.6004
 10
975.5415
 20
-39.9328
 10
975.9013
 20
-39.2324
 10
976.2058
 20
-38.499
 10
976.455
 20
-37.7329
 10
976.6488
 20
-36.9338
 10
976.7872
 20
-36.1018
 10
976.8703
 20
-35.2368
 10
976.898
 20
-34.3389
 10
976.8707
 20
-33.4457
 10
976.7889
 20
-32.5902
 10
976.6526
 20
-31.7725
 10
976.4617
 20
-30.9925
 10
976.2162
 20
-30.2502
 10
975.9161
 20
-29.5456
 10
975.5615
 20
-28.8787
 10
975.1523
 20
-28.2495
 10
974.9432
 20
-27.9697
 10
974.7259
 20
-27.7049
 10
974.5004
 20
-27.4551
 10
974.2666
 20
-27.2203
 10
974.0245
 20
-27.0004
 10
973.7741
 20
-26.7955
 10
973.5154
 20
-26.6056
 10
973.2485
 20
-26.4306
 10
972.9762
 20
-26.2736
 10
972.7015
 20
-26.1374
 10
972.4243
 20
-26.0222
 10
972.1448
 20
-25.9279
 10
971.8631
 20
-25.8546
 10
971.5791
 20
-25.8021
 10
971.293
 20
-25.7707
 10
971.0048
 20
-25.7602
 10
970.711
 20
-25.7698
 10
970.4115
 20
-25.7985
 10
970.106
 20
-25.8465
 10
969.7946
 20
-25.9136
 10
969.4771
 20
-25.9998
 10
969.1537
 20
-26.1052
 10
968.8241
 20
-26.2298
 10
968.4884
 20
-26.3735
  0
LWPOLYLINE
  5
73
330
1F
100
AcDbEntity
  8
Layer 1
 62
     7
100
AcDbPolyline
 90
      129
 70
     1
 43
0.0
 10
987.1458
 20
-19.748
 10
987.4511
 20
-20.0484
 10
987.7358
 20
-20.3894
 10
987.9998
 20
-20.7712
 10
988.2432
 20
-21.1937
 10
988.466
 20
-21.6568
 10
988.668
 20
-22.1606
 10
988.8495
 20
-22.7051
 10
989.0102
 20
-23.2902
 10
989.1898
 20
-24.0665
 10
989.3455
 20
-24.8543
 10
989.4772
 20
-25.6535
 10
989.585
 20
-26.464
 10
989.6689
 20
-27.286
 10
989.7288
 20
-28.1193
 10
989.7647
 20
-28.964
 10
989.7767
 20
-29.8201
 10
989.7755
 20
-30.0256
 10
989.7718
 20
-30.2401
 10
989.7657
 20
-30.4636
 10
989.757
 20
-30.696
 10
989.7459
 20
-30.9374
 10
989.7323
 20
-31.1878
 10
989.7161
 20
-31.4471
 10
989.6974
 20
-31.7154
 10
989.6058
 20
-32.7449
 10
989.4861
 20
-33.7176
 10
989.3382
 20
-34.6335
 10
989.1622
 20
-35.4926
 10
988.9581
 20
-36.2948
 10
988.7258
 20
-37.0402
 10
988.4655
 20
-37.7287
 10
988.1771
 20
-38.3603
 10
987.9138
 20
-38.836
 10
987.6364
 20
-39.2482
 10
987.345
 20
-39.597
 10
987.0396
 20
-39.8824
 10
986.7202
 20
-40.1044
 10
986.3867
 20
-40.263
 10
986.0392
 20
-40.3581
 10
985.6777
 20
-40.3898
 10
985.2743
 20
-40.3584
 10
984.8903
 20
-40.2641
 10
984.5256
 20
-40.107
 10
984.1804
 20
-39.8871
 10
983.8545
 20
-39.6044
 10
983.5481
 20
-39.2589
 10
983.2611
 20
-38.8506
 10
982.9935
 20
-38.3796
 10
982.8803
 20
-38.1509
 10
982.7721
 20
-37.9151
 10
982.6688
 20
-37.6721
 10
982.5704
 20
-37.422
 10
982.477
 20
-37.1646
 10
982.3885
 20
-36.9
 10
982.305
 20
-36.6282
 10
982.2264
 20
-36.3492
 10
982.1527
 20
-36.066
 10
982.0836
 20
-35.7809
 10
982.019
 20
-35.4941
 10
981.9589
 20
-35.2054
 10
981.9033
 20
-34.915
 10
981.8523
 20
-34.6227
 10
981.8059
 20
-34.3286
 10
981.7641
 20
-34.0327
 10
981.7258
 20
-33.7371
 10
981.6903
 20
-33.4439
 10
981.6578
 20
-33.1531
 10
981.6283
 20
-32.8647
 10
981.6016
 20
-32.5786
 10
981.5779
 20
-32.2949
 10
981.5571
 20
-32.0136
 10
981.5393
 20
-31.7347
 10
981.5238
 20
-31.4516
 10
981.5103
 20
-31.1578
 10
981.499
 20
-30.8534
 10
981.4897
 20
-30.5385
 10
981.4825
 20
-30.2131
 10
981.4773
 20
-29.8774
 10
981.4742
 20
-29.5314
 10
981.4732
 20
-29.1752
 10
981.4777
 20
-28.8031
 10
981.4914
 20
-28.4093
 10
981.5141
 20
-27.9938
 10
981.5459
 20
-27.5565
 10
981.5868
 20
-27.0973
 10
981.6368
 20
-26.6162
 10
981.6959
 20
-26.1132
 10
981.7641
 20
-25.5882
 10
981.8057
 20
-25.2964
 10
981.8515
 20
-25.0052
 10
981.9015
 20
-24.7146
 10
981.9557
 20
-24.4246
 10
982.014
 20
-24.1353
 10
982.0765
 20
-23.8466
 10
982.143
 20
-23.5584
 10
982.2137
 20
-23.2709
 10
982.2891
 20
-22.9873
 10
982.3698
 20
-22.7108
 10
982.4559
 20
-22.4416
 10
982.5474
 20
-22.1796
 10
982.6443
 20
-21.9247
 10
982.7465
 20
-21.677
 10
982.8543
 20
-21.4363
 10
982.9674
 20
-21.2028
 10
983.086
 20
-20.9788
 10
983.2103
 20
-20.7661
 10
983.3405
 20
-20.5649
 10
983.4764
 20
-20.3749
 10
983.6181
 20
-20.1963
 10
983.7657
 20
-20.0291
 10
983.919
 20
-19.8732
 10
984.0781
 20
-19.7287
 10
984.2438
 20
-19.5985
 10
984.4169
 20
-19.4857
 10
984.5974
 20
-19.3902
 10
984.7854
 20
-19.3121
 10
984.9807
 20
-19.2514
 10
985.1836
 20
-19.208
 10
985.3939
 20
-19.182
 10
985.6117
 20
-19.1733
 10
985.8295
 20
-19.1823
 10
986.0399
 20
-19.2092
 10
986.2428
 20
-19.254
 10
986.4383
 20
-19.3168
 10
986.6263
 20
-19.3976
 10
986.8069
 20
-19.4964
 10
986.9801
 20
-19.6132
 10
987.1458
 20
-19.748
  0
LWPOLYLINE
  5
74
330
1F
100
AcDbEntity
  8
Layer 1
 62
     7
100
AcDbPolyline
 90
       65
 70
     1
 43
0.0
 10
985.7044
 20
-43.109
 10
986.4764
 20
-43.0381
 10
987.1993
 20
-42.8254
 10
987.8731
 20
-42.4708
 10
988.4977
 20
-41.9745
 10
989.0731
 20
-41.3363
 10
989.5994
 20
-40.5563
 10
990.0765
 20
-39.6345
 10
990.5044
 20
-38.5708
 10
990.805
 20
-37.6425
 10
991.0654
 20
-36.6629
 10
991.2858
 20
-35.6318
 10
991.4661
 20
-34.5493
 10
991.6063
 20
-33.4154
 10
991.7065
 20
-32.2301
 10
991.7666
 20
-30.9933
 10
991.7866
 20
-29.7052
 10
991.7666
 20
-28.4168
 10
991.7065
 20
-27.1798
 10
991.6063
 20
-25.9944
 10
991.4661
 20
-24.8604
 10
991.2858
 20
-23.7779
 10
991.0654
 20
-22.747
 10
990.805
 20
-21.7675
 10
990.5044
 20
-20.8395
 10
990.0765
 20
-19.7759
 10
989.5994
 20
-18.8541
 10
989.0731
 20
-18.0741
 10
988.4977
 20
-17.4359
 10
987.8731
 20
-16.9396
 10
987.1993
 20
-16.585
 10
986.4764
 20
-16.3723
 10
985.7044
 20
-16.3014
 10
984.9323
 20
-16.3723
 10
984.2094
 20
-16.585
 10
983.5356
 20
-16.9396
 10
982.911
 20
-17.4359
 10
982.3356
 20
-18.0741
 10
981.8093
 20
-18.8541
 10
981.3322
 20
-19.7759
 10
980.9043
 20
-20.8395
 10
980.6037
 20
-21.7675
 10
980.3432
 20
-22.747
 10
980.1227
 20
-23.7779
 10
979.9423
 20
-24.8604
 10
979.802
 20
-25.9944
 10
979.7018
 20
-27.1798
 10
979.6416
 20
-28.4168
 10
979.6216
 20
-29.7052
 10
979.6416
 20
-30.9933
 10
979.7018
 20
-32.2301
 10
979.802
 20
-33.4154
 10
979.9423
 20
-34.5493
 10
980.1227
 20
-35.6318
 10
980.3432
 20
-36.6629
 10
980.6037
 20
-37.6425
 10
980.9043
 20
-38.5708
 10
981.3322
 20
-39.6345
 10
981.8093
 20
-40.5563
 10
982.3356
 20
-41.3363
 10
982.911
 20
-41.9745
 10
983.5356
 20
-42.4708
 10
984.2094
 20
-42.8254
 10
984.9323
 20
-43.0381
 10
985.7044
 20
-43.109
  0
LWPOLYLINE
  5
75
330
1F
100
AcDbEntity
  8
Layer 1
 62
     7
100
AcDbPolyline
 90
      162
 70
     1
 43
0.0
 10
1009.8495
 20
-42.6878
 10
1011.7006
 20
-42.6878
 10
1011.7006
 20
-32.1559
 10
1011.6855
 20
-31.4567
 10
1011.6403
 20
-30.7904
 10
1011.5649
 20
-30.1569
 10
1011.4593
 20
-29.5565
 10
1011.3236
 20
-28.9889
 10
1011.1577
 20
-28.4542
 10
1010.9616
 20
-27.9524
 10
1010.7354
 20
-27.4835
 10
1010.6092
 20
-27.2595
 10
1010.4751
 20
-27.0468
 10
1010.3332
 20
-26.8456
 10
1010.1834
 20
-26.6556
 10
1010.0258
 20
-26.477
 10
1009.8603
 20
-26.3098
 10
1009.6871
 20
-26.1539
 10
1009.506
 20
-26.0094
 10
1009.3134
 20
-25.8792
 10
1009.1059
 20
-25.7664
 10
1008.8835
 20
-25.6709
 10
1008.6463
 20
-25.5928
 10
1008.3942
 20
-25.5321
 10
1008.1273
 20
-25.4887
 10
1007.8455
 20
-25.4627
 10
1007.5489
 20
-25.454
 10
1007.2494
 20
-25.469
 10
1006.9595
 20
-25.5139
 10
1006.6791
 20
-25.5887
 10
1006.4082
 20
-25.6934
 10
1006.1468
 20
-25.8281
 10
1005.8949
 20
-25.9926
 10
1005.6526
 20
-26.187
 10
1005.4197
 20
-26.4113
 10
1005.2177
 20
-26.6351
 10
1005.0248
 20
-26.8755
 10
1004.8409
 20
-27.1324
 10
1004.6662
 20
-27.4055
 10
1004.5005
 20
-27.6948
 10
1004.3438
 20
-28.0002
 10
1004.1962
 20
-28.3214
 10
1004.0576
 20
-28.6584
 10
1003.9504
 20
-28.3475
 10
1003.8331
 20
-28.0473
 10
1003.7059
 20
-27.7589
 10
1003.5686
 20
-27.4835
 10
1003.4424
 20
-27.2595
 10
1003.3083
 20
-27.0468
 10
1003.1664
 20
-26.8456
 10
1003.0165
 20
-26.6556
 10
1002.8588
 20
-26.477
 10
1002.6933
 20
-26.3098
 10
1002.5199
 20
-26.1539
 10
1002.3386
 20
-26.0094
 10
1002.1462
 20
-25.8792
 10
1001.9388
 20
-25.7664
 10
1001.7166
 20
-25.6709
 10
1001.4794
 20
-25.5928
 10
1001.2274
 20
-25.5321
 10
1000.9605
 20
-25.4887
 10
1000.6787
 20
-25.4627
 10
1000.3821
 20
-25.454
 10
1000.0826
 20
-25.469
 10
999.7927
 20
-25.5139
 10
999.5123
 20
-25.5887
 10
999.2414
 20
-25.6934
 10
998.98
 20
-25.8281
 10
998.7281
 20
-25.9926
 10
998.4858
 20
-26.187
 10
998.2529
 20
-26.4113
 10
998.0605
 20
-26.6244
 10
997.8762
 20
-26.852
 10
997.7002
 20
-27.094
 10
997.5324
 20
-27.3506
 10
997.3729
 20
-27.6218
 10
997.2216
 20
-27.9077
 10
997.0787
 20
-28.2085
 10
996.9441
 20
-28.5241
 10
996.9441
 20
-25.8365
 10
995.0924
 20
-25.8365
 10
995.0924
 20
-42.6878
 10
996.9441
 20
-42.6878
 10
996.9441
 20
-34.0643
 10
996.9871
 20
-33.5619
 10
997.0433
 20
-33.0791
 10
997.1127
 20
-32.6158
 10
997.1954
 20
-32.1719
 10
997.2912
 20
-31.7471
 10
997.4002
 20
-31.3413
 10
997.5225
 20
-30.9544
 10
997.6579
 20
-30.5861
 10
997.7683
 20
-30.3239
 10
997.8877
 20
-30.0738
 10
998.0162
 20
-29.8356
 10
998.1538
 20
-29.6094
 10
998.3005
 20
-29.3952
 10
998.4563
 20
-29.1929
 10
998.6212
 20
-29.0026
 10
998.7952
 20
-28.8242
 10
998.9754
 20
-28.6626
 10
999.1589
 20
-28.5225
 10
999.3456
 20
-28.4039
 10
999.5356
 20
-28.307
 10
999.7289
 20
-28.2316
 10
999.9255
 20
-28.1777
 10
1000.1255
 20
-28.1454
 10
1000.3288
 20
-28.1346
 10
1000.5271
 20
-28.1403
 10
1000.7123
 20
-28.1573
 10
1000.8843
 20
-28.1857
 10
1001.043
 20
-28.2255
 10
1001.1885
 20
-28.2767
 10
1001.3208
 20
-28.3393
 10
1001.4398
 20
-28.4133
 10
1001.5455
 20
-28.4987
 10
1001.812
 20
-28.7841
 10
1002.043
 20
-29.1186
 10
1002.2385
 20
-29.5022
 10
1002.3984
 20
-29.9348
 10
1002.5228
 20
-30.4164
 10
1002.6117
 20
-30.9472
 10
1002.665
 20
-31.527
 10
1002.6828
 20
-32.1559
 10
1002.6828
 20
-42.6878
 10
1004.5338
 20
-42.6878
 10
1004.5338
 20
-32.1559
 10
1004.5205
 20
-31.511
 10
1004.8247
 20
-30.5861
 10
1004.9351
 20
-30.3239
 10
1005.0545
 20
-30.0738
 10
1005.183
 20
-29.8356
 10
1005.3206
 20
-29.6094
 10
1005.4673
 20
-29.3952
 10
1005.6231
 20
-29.1929
 10
1005.788
 20
-29.0026
 10
1005.962
 20
-28.8242
 10
1006.1422
 20
-28.6626
 10
1006.3257
 20
-28.5225
 10
1006.5124
 20
-28.4039
 10
1006.7024
 20
-28.307
 10
1006.8957
 20
-28.2316
 10
1007.0923
 20
-28.1777
 10
1007.2923
 20
-28.1454
 10
1007.4956
 20
-28.1346
 10
1007.6939
 20
-28.1403
 10
1007.8791
 20
-28.1573
 10
1008.0511
 20
-28.1857
 10
1008.2098
 20
-28.2255
 10
1008.3553
 20
-28.2767
 10
1008.4875
 20
-28.3393
 10
1008.6065
 20
-28.4133
 10
1008.7122
 20
-28.4987
 10
1008.9787
 20
-28.7841
 10
1009.2097
 20
-29.1186
 10
1009.4052
 20
-29.5022
 10
1009.5651
 20
-29.9348
 10
1009.6895
 20
-30.4164
 10
1009.7784
 20
-30.9472
 10
1009.8317
 20
-31.527
 10
1009.8495
 20
-32.1559
 10
1009.8495
 20
-42.6878
  0
LWPOLYLINE
  5
76
330
1F
100
AcDbEntity
  8
Layer 1
 62
     7
100
AcDbPolyline
 90
      162
 70
     1
 43
0.0
 10
1030.0278
 20
-42.6878
 10
1031.8789
 20
-42.6878
 10
1031.8789
 20
-32.1559
 10
1031.8638
 20
-31.4567
 10
1031.8186
 20
-30.7904
 10
1031.7431
 20
-30.1569
 10
1031.6376
 20
-29.5565
 10
1031.5018
 20
-28.9889
 10
1031.3359
 20
-28.4542
 10
1031.1398
 20
-27.9524
 10
1030.9136
 20
-27.4835
 10
1030.7874
 20
-27.2595
 10
1030.6534
 20
-27.0468
 10
1030.5115
 20
-26.8456
 10
1030.3617
 20
-26.6556
 10
1030.204
 20
-26.477
 10
1030.0386
 20
-26.3098
 10
1029.8653
 20
-26.1539
 10
1029.6842
 20
-26.0094
 10
1029.4916
 20
-25.8792
 10
1029.2841
 20
-25.7664
 10
1029.0617
 20
-25.6709
 10
1028.8245
 20
-25.5928
 10
1028.5724
 20
-25.5321
 10
1028.3055
 20
-25.4887
 10
1028.0237
 20
-25.4627
 10
1027.7271
 20
-25.454
 10
1027.4276
 20
-25.469
 10
1027.1377
 20
-25.5139
 10
1026.8573
 20
-25.5887
 10
1026.5864
 20
-25.6934
 10
1026.325
 20
-25.8281
 10
1026.0732
 20
-25.9926
 10
1025.8308
 20
-26.187
 10
1025.5979
 20
-26.4113
 10
1025.3959
 20
-26.6351
 10
1025.203
 20
-26.8755
 10
1025.0192
 20
-27.1324
 10
1024.8444
 20
-27.4055
 10
1024.6787
 20
-27.6948
 10
1024.522
 20
-28.0002
 10
1024.3744
 20
-28.3214
 10
1024.2358
 20
-28.6584
 10
1024.1286
 20
-28.3475
 10
1024.0113
 20
-28.0473
 10
1023.8841
 20
-27.7589
 10
1023.7469
 20
-27.4835
 10
1023.6207
 20
-27.2595
 10
1023.4866
 20
-27.0468
 10
1023.3447
 20
-26.8456
 10
1023.1948
 20
-26.6556
 10
1023.0371
 20
-26.477
 10
1022.8715
 20
-26.3098
 10
1022.6981
 20
-26.1539
 10
1022.5168
 20
-26.0094
 10
1022.3244
 20
-25.8792
 10
1022.117
 20
-25.7664
 10
1021.8948
 20
-25.6709
 10
1021.6577
 20
-25.5928
 10
1021.4056
 20
-25.5321
 10
1021.1387
 20
-25.4887
 10
1020.8569
 20
-25.4627
 10
1020.5603
 20
-25.454
 10
1020.2608
 20
-25.469
 10
1019.9709
 20
-25.5139
 10
1019.6905
 20
-25.5887
 10
1019.4196
 20
-25.6934
 10
1019.1582
 20
-25.8281
 10
1018.9064
 20
-25.9926
 10
1018.664
 20
-26.187
 10
1018.4311
 20
-26.4113
 10
1018.2387
 20
-26.6244
 10
1018.0544
 20
-26.852
 10
1017.8784
 20
-27.094
 10
1017.7106
 20
-27.3506
 10
1017.5511
 20
-27.6218
 10
1017.3999
 20
-27.9077
 10
1017.257
 20
-28.2085
 10
1017.1224
 20
-28.5241
 10
1017.1224
 20
-25.8365
 10
1015.2707
 20
-25.8365
 10
1015.2707
 20
-42.6878
 10
1017.1224
 20
-42.6878
 10
1017.1224
 20
-34.0643
 10
1017.1654
 20
-33.5619
 10
1017.2215
 20
-33.0791
 10
1017.2909
 20
-32.6158
 10
1017.3736
 20
-32.1719
 10
1017.4694
 20
-31.7471
 10
1017.5784
 20
-31.3413
 10
1017.7007
 20
-30.9544
 10
1017.8361
 20
-30.5861
 10
1017.9465
 20
-30.3239
 10
1018.066
 20
-30.0738
 10
1018.1945
 20
-29.8356
 10
1018.3321
 20
-29.6094
 10
1018.4787
 20
-29.3952
 10
1018.6345
 20
-29.1929
 10
1018.7994
 20
-29.0026
 10
1018.9734
 20
-28.8242
 10
1019.1536
 20
-28.6626
 10
1019.3371
 20
-28.5225
 10
1019.5239
 20
-28.4039
 10
1019.7139
 20
-28.307
 10
1019.9072
 20
-28.2316
 10
1020.1038
 20
-28.1777
 10
1020.3037
 20
-28.1454
 10
1020.507
 20
-28.1346
 10
1020.7054
 20
-28.1403
 10
1020.8906
 20
-28.1573
 10
1021.0625
 20
-28.1857
 10
1021.2213
 20
-28.2255
 10
1021.3667
 20
-28.2767
 10
1021.499
 20
-28.3393
 10
1021.618
 20
-28.4133
 10
1021.7237
 20
-28.4987
 10
1021.9902
 20
-28.7841
 10
1022.2212
 20
-29.1186
 10
1022.4167
 20
-29.5022
 10
1022.5766
 20
-29.9348
 10
1022.701
 20
-30.4164
 10
1022.7899
 20
-30.9472
 10
1022.8432
 20
-31.527
 10
1022.861
 20
-32.1559
 10
1022.861
 20
-42.6878
 10
1024.7121
 20
-42.6878
 10
1024.7121
 20
-32.1559
 10
1024.6987
 20
-31.511
 10
1025.0029
 20
-30.5861
 10
1025.1133
 20
-30.3239
 10
1025.2328
 20
-30.0738
 10
1025.3613
 20
-29.8356
 10
1025.4989
 20
-29.6094
 10
1025.6455
 20
-29.3952
 10
1025.8013
 20
-29.1929
 10
1025.9662
 20
-29.0026
 10
1026.1402
 20
-28.8242
 10
1026.3204
 20
-28.6626
 10
1026.5039
 20
-28.5225
 10
1026.6907
 20
-28.4039
 10
1026.8807
 20
-28.307
 10
1027.074
 20
-28.2316
 10
1027.2706
 20
-28.1777
 10
1027.4705
 20
-28.1454
 10
1027.6738
 20
-28.1346
 10
1027.8721
 20
-28.1403
 10
1028.0573
 20
-28.1573
 10
1028.2293
 20
-28.1857
 10
1028.388
 20
-28.2255
 10
1028.5335
 20
-28.2767
 10
1028.6658
 20
-28.3393
 10
1028.7848
 20
-28.4133
 10
1028.8905
 20
-28.4987
 10
1029.157
 20
-28.7841
 10
1029.388
 20
-29.1186
 10
1029.5835
 20
-29.5022
 10
1029.7434
 20
-29.9348
 10
1029.8678
 20
-30.4164
 10
1029.9567
 20
-30.9472
 10
1030.01
 20
-31.527
 10
1030.0278
 20
-32.1559
 10
1030.0278
 20
-42.6878
  0
LWPOLYLINE
  5
77
330
1F
100
AcDbEntity
  8
Layer 1
 62
     7
370
     9
100
AcDbPolyline
 90
       29
 70
     1
 43
0.0
 10
627.3587
 20
350.2554
 10
629.7794
 20
280.7391
 10
768.4599
 20
275.5631
 10
917.2611
 20
273.5448
 10
919.6278
 20
344.0384
 10
919.6824
 20
344.2275
 10
919.7733
 20
344.7421
 10
919.7906
 20
345.5036
 10
919.6248
 20
346.4331
 10
919.1661
 20
347.4518
 10
918.3051
 20
348.481
 10
916.9318
 20
349.4418
 10
914.9368
 20
350.2554
 10
894.1799
 20
353.8636
 10
859.1499
 20
357.2129
 10
814.8443
 20
360.0215
 10
766.261
 20
362.0073
 10
718.3977
 20
362.8887
 10
676.252
 20
362.3836
 10
644.8218
 20
360.2103
 10
629.1046
 20
356.0868
 10
629.0296
 20
355.9724
 10
628.8318
 20
355.6425
 10
628.5522
 20
355.117
 10
628.2317
 20
354.416
 10
627.9111
 20
353.5594
 10
627.6315
 20
352.5671
 10
627.4337
 20
351.4591
 10
627.3587
 20
350.2554
  0
LWPOLYLINE
  5
78
330
1F
100
AcDbEntity
  8
Layer 1
 62
     7
370
     9
100
AcDbPolyline
 90
        2
 70
     0
 43
0.0
 10
763.3873
 20
275.7524
 10
763.3293
 20
271.045
  0
LWPOLYLINE
  5
79
330
1F
100
AcDbEntity
  8
Layer 1
 62
     7
370
     9
100
AcDbPolyline
 90
       70
 70
     1
 43
0.0
 10
763.3416
 20
271.9713
 10
763.2187
 20
271.9911
 10
762.8919
 20
272.0345
 10
762.424
 20
272.0773
 10
761.8779
 20
272.0954
 10
761.3164
 20
272.0646
 10
760.8025
 20
271.9608
 10
760.3988
 20
271.7599
 10
760.1684
 20
271.4377
 10
760.0998
 20
268.7839
 10
760.1226
 20
262.436
 10
760.2116
 20
253.6417
 10
760.3413
 20
243.6486
 10
760.4864
 20
233.7043
 10
760.6214
 20
225.0566
 10
760.721
 20
218.953
 10
760.7599
 20
216.6412
 10
760.8064
 20
216.4813
 10
760.9486
 20
216.0506
 10
761.1904
 20
215.4229
 10
761.5355
 20
214.6717
 10
761.9881
 20
213.8707
 10
762.5518
 20
213.0936
 10
763.2307
 20
212.4139
 10
764.0286
 20
211.9054
 10
768.8096
 20
-290.7517
 10
769.168
 20
-292.9134
 10
770.6556
 20
-298.6333
 10
773.8912
 20
-306.7637
 10
779.4937
 20
-316.1569
 10
788.0817
 20
-325.6652
 10
800.274
 20
-334.1408
 10
816.6895
 20
-340.4361
 10
837.9468
 20
-343.4033
 10
859.1572
 20
-341.9085
 10
875.4493
 20
-336.4395
 10
887.4675
 20
-328.2826
 10
895.8559
 20
-318.7243
 10
901.2588
 20
-309.0509
 10
904.3204
 20
-300.5487
 10
905.6849
 20
-294.504
 10
905.9966
 20
-292.2033
 10
914.9131
 20
206.9636
 10
916.0003
 20
207.0038
 10
918.9259
 20
207.1421
 10
923.1858
 20
207.4051
 10
928.2761
 20
207.8193
 10
933.6928
 20
208.4113
 10
938.9318
 20
209.2076
 10
943.4892
 20
210.2349
 10
946.8609
 20
211.5197
 10
949.61
 20
213.2186
 10
951.5103
 20
272.0955
 10
950.6555
 20
272.1494
 10
948.2737
 20
272.2933
 10
944.6389
 20
272.5004
 10
940.0253
 20
272.7438
 10
934.7066
 20
272.9968
 10
928.957
 20
273.2325
 10
923.0505
 20
273.4241
 10
917.2611
 20
273.5448
 10
765.1373
 20
275.7524
 10
765.0613
 20
275.6852
 10
764.8606
 20
275.4882
 10
764.5764
 20
275.1684
 10
764.2498
 20
274.7328
 10
763.9219
 20
274.1882
 10
763.6339
 20
273.5419
 10
763.4267
 20
272.8006
 10
763.3416
 20
271.9713
  0
LWPOLYLINE
  5
7A
330
1F
100
AcDbEntity
  8
Layer 1
 62
     7
370
     9
100
AcDbPolyline
 90
       17
 70
     0
 43
0.0
 10
950.9163
 20
272.1334
 10
944.2194
 20
271.8299
 10
926.2806
 20
271.0764
 10
900.3278
 20
270.1083
 10
869.5888
 20
269.1609
 10
837.2916
 20
268.4698
 10
806.664
 20
268.2703
 10
780.934
 20
268.7978
 10
763.3293
 20
270.2878
 10
763.1007
 20
270.358
 10
762.5457
 20
270.5394
 10
761.8603
 20
270.7878
 10
761.2403
 20
271.0593
 10
760.8818
 20
271.3097
 10
760.9808
 20
271.4951
 10
761.7332
 20
271.5714
 10
763.335
 20
271.4945
  0
LWPOLYLINE
  5
7B
330
1F
100
AcDbEntity
  8
Layer 1
 62
     7
370
     9
100
AcDbPolyline
 90
        9
 70
     0
 43
0.0
 10
764.0286
 20
211.9054
 10
767.2864
 20
211.3774
 10
776.5454
 20
210.0448
 10
791.0337
 20
208.2843
 10
809.9794
 20
206.4728
 10
832.6107
 20
204.9873
 10
858.1558
 20
204.2046
 10
885.8429
 20
204.5015
 10
914.9
 20
206.255
  0
LWPOLYLINE
  5
7C
330
1F
100
AcDbEntity
  8
Layer 1
 62
     7
370
    18
100
AcDbPolyline
 90
        2
 70
     0
 43
0.0
 10
1015.1686
 20
358.8832
 10
999.7391
 20
358.8832
  0
LWPOLYLINE
  5
7D
330
1F
100
AcDbEntity
  8
Layer 1
 62
     7
370
    18
100
AcDbPolyline
 90
        2
 70
     0
 43
0.0
 10
1007.4539
 20
358.8895
 10
1007.4539
 20
17.6025
  0
LWPOLYLINE
  5
7E
330
1F
100
AcDbEntity
  8
Layer 1
 62
     7
370
    18
100
AcDbPolyline
 90
        2
 70
     0
 43
0.0
 10
1015.1686
 20
-340.6541
 10
999.7391
 20
-340.6541
  0
LWPOLYLINE
  5
7F
330
1F
100
AcDbEntity
  8
Layer 1
 62
     7
370
    18
100
AcDbPolyline
 90
        2
 70
     0
 43
0.0
 10
1007.4539
 20
-340.6603
 10
1007.4539
 20
-77.0503
  0
LWPOLYLINE
  5
80
330
1F
100
AcDbEntity
  8
Layer 1
 62
     7
370
    18
100
AcDbPolyline
 90
        2
 70
     0
 43
0.0
 10
583.2949
 20
362.8254
 10
567.8654
 20
362.8254
  0
LWPOLYLINE
  5
81
330
1F
100
AcDbEntity
  8
Layer 1
 62
     7
370
    18
100
AcDbPolyline
 90
        2
 70
     0
 43
0.0
 10
575.5801
 20
362.8258
 10
575.5801
 20
337.2625
  0
LWPOLYLINE
  5
82
330
1F
100
AcDbEntity
  8
Layer 1
 62
     7
370
    18
100
AcDbPolyline
 90
        2
 70
     0
 43
0.0
 10
583.2936
 20
277.0814
 10
567.8641
 20
277.0814
  0
LWPOLYLINE
  5
83
330
1F
100
AcDbEntity
  8
Layer 1
 62
     7
370
    18
100
AcDbPolyline
 90
        2
 70
     0
 43
0.0
 10
575.5789
 20
277.081
 10
575.5789
 20
298.9458
  0
LWPOLYLINE
  5
84
330
1F
100
AcDbEntity
  8
Layer 1
 62
     7
370
    18
100
AcDbPolyline
 90
       33
 70
     1
 43
0.0
 10
739.7312
 20
433.4219
 10
741.6046
 20
433.1484
 10
743.3495
 20
432.364
 10
744.9286
 20
431.1228
 10
746.3044
 20
429.479
 10
747.4395
 20
427.4867
 10
748.2966
 20
425.2
 10
748.8382
 20
422.6731
 10
749.0271
 20
419.9602
 10
748.8382
 20
417.2472
 10
748.2966
 20
414.7203
 10
747.4395
 20
412.4337
 10
746.3044
 20
410.4414
 10
744.9286
 20
408.7976
 10
743.3495
 20
407.5564
 10
741.6046
 20
406.772
 10
739.7312
 20
406.4985
 10
737.8577
 20
406.772
 10
736.1128
 20
407.5564
 10
734.5337
 20
408.7976
 10
733.158
 20
410.4414
 10
732.0228
 20
412.4337
 10
731.1657
 20
414.7203
 10
730.6241
 20
417.2472
 10
730.4352
 20
419.9602
 10
730.6241
 20
422.6731
 10
731.1657
 20
425.2
 10
732.0228
 20
427.4867
 10
733.158
 20
429.479
 10
734.5337
 20
431.1228
 10
736.1128
 20
432.364
 10
737.8577
 20
433.1484
 10
739.7312
 20
433.4219
  0
LWPOLYLINE
  5
85
330
1F
100
AcDbEntity
  8
Layer 1
 62
     7
370
    18
100
AcDbPolyline
 90
        9
 70
     0
 43
0.0
 10
744.3519
 20
442.5674
 10
741.3871
 20
427.5681
 10
739.135
 20
416.2264
 10
737.4977
 20
408.0316
 10
736.3774
 20
402.4725
 10
735.6764
 20
399.0382
 10
735.2967
 20
397.2178
 10
735.1407
 20
396.5002
 10
735.1104
 20
396.3746
  0
LWPOLYLINE
  5
86
330
1F
100
AcDbEntity
  8
Layer 1
 62
     7
100
AcDbPolyline
 90
       87
 70
     1
 43
0.0
 10
807.5102
 20
-397.891
 10
820.1775
 20
-397.891
 10
820.1775
 20
-395.2105
 10
811.9794
 20
-395.2105
 10
818.247
 20
-386.2106
 10
818.656
 20
-385.5626
 10
819.0106
 20
-384.8823
 10
819.3106
 20
-384.1696
 10
819.5561
 20
-383.4245
 10
819.7471
 20
-382.6471
 10
819.8835
 20
-381.8374
 10
819.9654
 20
-380.9954
 10
819.9927
 20
-380.1211
 10
819.9648
 20
-379.2273
 10
819.8811
 20
-378.3693
 10
819.7417
 20
-377.5472
 10
819.5464
 20
-376.7609
 10
819.2954
 20
-376.0106
 10
818.9886
 20
-375.296
 10
818.626
 20
-374.6174
 10
818.2076
 20
-373.9746
 10
817.7426
 20
-373.3777
 10
817.257
 20
-372.8605
 10
816.7508
 20
-372.4228
 10
816.2239
 20
-372.0648
 10
815.6764
 20
-371.7863
 10
815.1082
 20
-371.5874
 10
814.5194
 20
-371.4681
 10
813.9099
 20
-371.4283
 10
813.2771
 20
-371.4702
 10
812.6678
 20
-371.5958
 10
812.0821
 20
-371.8052
 10
811.5199
 20
-372.0984
 10
810.9813
 20
-372.4753
 10
810.4662
 20
-372.936
 10
809.9747
 20
-373.4806
 10
809.5067
 20
-374.1089
 10
809.09
 20
-374.7847
 10
808.7323
 20
-375.4958
 10
808.4337
 20
-376.2423
 10
808.1943
 20
-377.0241
 10
808.0138
 20
-377.8413
 10
807.8925
 20
-378.6937
 10
807.8303
 20
-379.5815
 10
807.8271
 20
-380.5046
 10
809.7048
 20
-380.5046
 10
809.6891
 20
-379.9057
 10
809.7181
 20
-379.3207
 10
809.7917
 20
-378.7494
 10
809.9098
 20
-378.192
 10
810.0726
 20
-377.6483
 10
810.2801
 20
-377.1184
 10
810.5321
 20
-376.6022
 10
810.8288
 20
-376.0998
 10
811.1463
 20
-375.6512
 10
811.4802
 20
-375.2624
 10
811.8307
 20
-374.9334
 10
812.1976
 20
-374.6641
 10
812.5811
 20
-374.4546
 10
812.981
 20
-374.3049
 10
813.3975
 20
-374.2151
 10
813.8305
 20
-374.1852
 10
814.2555
 20
-374.2121
 10
814.6644
 20
-374.293
 10
815.0572
 20
-374.4276
 10
815.4339
 20
-374.6162
 10
815.7944
 20
-374.8585
 10
816.1389
 20
-375.1547
 10
816.4672
 20
-375.5047
 10
816.7795
 20
-375.9085
 10
817.0677
 20
-376.3549
 10
817.3174
 20
-376.8229
 10
817.5288
 20
-377.3125
 10
817.7016
 20
-377.8236
 10
817.8361
 20
-378.3562
 10
817.9321
 20
-378.9104
 10
817.9897
 20
-379.4861
 10
818.0089
 20
-380.0834
 10
817.9903
 20
-380.6936
 10
817.9345
 20
-381.2799
 10
817.8415
 20
-381.8423
 10
817.7113
 20
-382.3808
 10
817.544
 20
-382.8954
 10
817.3394
 20
-383.3862
 10
817.0977
 20
-383.853
 10
816.8189
 20
-384.296
 10
807.5102
 20
-397.891
  0
LWPOLYLINE
  5
87
330
1F
100
AcDbEntity
  8
Layer 1
 62
     7
100
AcDbPolyline
 90
       65
 70
     1
 43
0.0
 10
829.0632
 20
-384.6399
 10
829.4555
 20
-384.6645
 10
829.8326
 20
-384.7381
 10
830.1944
 20
-384.8609
 10
830.5409
 20
-385.0327
 10
830.8722
 20
-385.2536
 10
831.1881
 20
-385.5236
 10
831.4888
 20
-385.8426
 10
831.7741
 20
-386.2106
 10
832.0312
 20
-386.6096
 10
832.2541
 20
-387.0314
 10
832.4427
 20
-387.476
 10
832.597
 20
-387.9433
 10
832.7171
 20
-388.4335
 10
832.8028
 20
-388.9464
 10
832.8542
 20
-389.4821
 10
832.8714
 20
-390.0406
 10
832.8544
 20
-390.5937
 10
832.8036
 20
-391.1282
 10
832.7188
 20
-391.6442
 10
832.6002
 20
-392.1417
 10
832.4477
 20
-392.6206
 10
832.2612
 20
-393.081
 10
832.041
 20
-393.5228
 10
831.7868
 20
-393.9461
 10
831.5086
 20
-394.3323
 10
831.2127
 20
-394.6669
 10
830.8989
 20
-394.9499
 10
830.5673
 20
-395.1815
 10
830.2179
 20
-395.3616
 10
829.8508
 20
-395.4901
 10
829.4659
 20
-395.5673
 10
829.0632
 20
-395.593
 10
828.6606
 20
-395.5673
 10
828.2757
 20
-395.4901
 10
827.9085
 20
-395.3616
 10
827.5591
 20
-395.1815
 10
827.2275
 20
-394.9499
 10
826.9136
 20
-394.6669
 10
826.6174
 20
-394.3323
 10
826.339
 20
-393.9461
 10
826.0849
 20
-393.5228
 10
825.8647
 20
-393.081
 10
825.6784
 20
-392.6206
 10
825.526
 20
-392.1417
 10
825.4075
 20
-391.6442
 10
825.3228
 20
-391.1282
 10
825.272
 20
-390.5937
 10
825.2551
 20
-390.0406
 10
825.2723
 20
-389.4821
 10
825.3237
 20
-388.9464
 10
825.4094
 20
-388.4335
 10
825.5295
 20
-387.9433
 10
825.6838
 20
-387.476
 10
825.8724
 20
-387.0314
 10
826.0953
 20
-386.6096
 10
826.3524
 20
-386.2106
 10
826.6377
 20
-385.8426
 10
826.9384
 20
-385.5236
 10
827.2543
 20
-385.2536
 10
827.5856
 20
-385.0327
 10
827.9321
 20
-384.8609
 10
828.2939
 20
-384.7381
 10
828.6709
 20
-384.6645
 10
829.0632
 20
-384.6399
  0
LWPOLYLINE
  5
88
330
1F
100
AcDbEntity
  8
Layer 1
 62
     7
100
AcDbPolyline
 90
       65
 70
     1
 43
0.0
 10
829.0632
 20
-374.0703
 10
829.3794
 20
-374.0895
 10
829.6837
 20
-374.147
 10
829.9761
 20
-374.2428
 10
830.2565
 20
-374.3769
 10
830.525
 20
-374.5493
 10
830.7815
 20
-374.7599
 10
831.026
 20
-375.0089
 10
831.2585
 20
-375.2961
 10
831.4753
 20
-375.6189
 10
831.6633
 20
-375.9603
 10
831.8223
 20
-376.3202
 10
831.9524
 20
-376.6986
 10
832.0536
 20
-377.0955
 10
832.1259
 20
-377.511
 10
832.1692
 20
-377.9451
 10
832.1837
 20
-378.3978
 10
832.1692
 20
-378.8408
 10
832.1259
 20
-379.2693
 10
832.0536
 20
-379.6835
 10
831.9524
 20
-380.0832
 10
831.8223
 20
-380.4686
 10
831.6633
 20
-380.8395
 10
831.4753
 20
-381.1961
 10
831.2585
 20
-381.5382
 10
831.0274
 20
-381.8433
 10
830.7839
 20
-382.1078
 10
830.5281
 20
-382.3316
 10
830.2599
 20
-382.5147
 10
829.9794
 20
-382.6571
 10
829.6864
 20
-382.7589
 10
829.381
 20
-382.8199
 10
829.0632
 20
-382.8403
 10
828.7454
 20
-382.8199
 10
828.4401
 20
-382.7589
 10
828.1471
 20
-382.6571
 10
827.8666
 20
-382.5147
 10
827.5984
 20
-382.3316
 10
827.3426
 20
-382.1078
 10
827.0991
 20
-381.8433
 10
826.868
 20
-381.5382
 10
826.6512
 20
-381.1961
 10
826.4632
 20
-380.8395
 10
826.3042
 20
-380.4686
 10
826.1741
 20
-380.0832
 10
826.0729
 20
-379.6835
 10
826.0006
 20
-379.2693
 10
825.9573
 20
-378.8408
 10
825.9428
 20
-378.3978
 10
825.9573
 20
-377.9451
 10
826.0006
 20
-377.511
 10
826.0729
 20
-377.0955
 10
826.1741
 20
-376.6986
 10
826.3042
 20
-376.3202
 10
826.4632
 20
-375.9603
 10
826.6512
 20
-375.6189
 10
826.868
 20
-375.2961
 10
827.1005
 20
-375.0089
 10
827.3449
 20
-374.7599
 10
827.6013
 20
-374.5493
 10
827.8697
 20
-374.3769
 10
828.1501
 20
-374.2428
 10
828.4424
 20
-374.147
 10
828.7468
 20
-374.0895
 10
829.0632
 20
-374.0703
  0
LWPOLYLINE
  5
89
330
1F
100
AcDbEntity
  8
Layer 1
 62
     7
100
AcDbPolyline
 90
      121
 70
     1
 43
0.0
 10
829.0632
 20
-398.2736
 10
829.6691
 20
-398.2404
 10
830.2506
 20
-398.1408
 10
830.8079
 20
-397.9748
 10
831.3407
 20
-397.7424
 10
831.8492
 20
-397.4436
 10
832.3333
 20
-397.0783
 10
832.793
 20
-396.6466
 10
833.2283
 20
-396.1484
 10
833.4247
 20
-395.8881
 10
833.6103
 20
-395.6147
 10
833.7851
 20
-395.3281
 10
833.9491
 20
-395.0284
 10
834.1024
 20
-394.7155
 10
834.2449
 20
-394.3894
 10
834.3767
 20
-394.0502
 10
834.4977
 20
-393.6978
 10
834.6061
 20
-393.3322
 10
834.7001
 20
-392.9534
 10
834.7797
 20
-392.5613
 10
834.8448
 20
-392.1561
 10
834.8955
 20
-391.7377
 10
834.9316
 20
-391.3062
 10
834.9534
 20
-390.8615
 10
834.9606
 20
-390.4038
 10
834.9484
 20
-389.9401
 10
834.9119
 20
-389.4776
 10
834.8509
 20
-389.0162
 10
834.7656
 20
-388.5561
 10
834.6559
 20
-388.0971
 10
834.5217
 20
-387.6393
 10
834.3632
 20
-387.1827
 10
834.1802
 20
-386.7274
 10
833.9747
 20
-386.2831
 10
833.7481
 20
-385.8598
 10
833.5005
 20
-385.4575
 10
833.2317
 20
-385.0761
 10
832.9419
 20
-384.7157
 10
832.6309
 20
-384.3762
 10
832.2988
 20
-384.0576
 10
831.9456
 20
-383.7599
 10
832.4477
 20
-383.1114
 10
832.8828
 20
-382.4492
 10
833.2511
 20
-381.7732
 10
833.5524
 20
-381.0835
 10
833.7867
 20
-380.38
 10
833.9542
 20
-379.6628
 10
834.0546
 20
-378.9319
 10
834.0881
 20
-378.1872
 10
834.0652
 20
-377.4527
 10
833.9963
 20
-376.7523
 10
833.8816
 20
-376.086
 10
833.721
 20
-375.4538
 10
833.5145
 20
-374.8558
 10
833.2622
 20
-374.2919
 10
832.964
 20
-373.7621
 10
832.62
 20
-373.2666
 10
832.2564
 20
-372.8357
 10
831.8697
 20
-372.4622
 10
831.4598
 20
-372.1463
 10
831.0268
 20
-371.8878
 10
830.5706
 20
-371.6867
 10
830.0913
 20
-371.5432
 10
829.5888
 20
-371.457
 10
829.0632
 20
-371.4283
 10
828.5376
 20
-371.457
 10
828.0352
 20
-371.5432
 10
827.5559
 20
-371.6867
 10
827.0997
 20
-371.8878
 10
826.6667
 20
-372.1463
 10
826.2568
 20
-372.4622
 10
825.8701
 20
-372.8357
 10
825.5065
 20
-373.2666
 10
825.1625
 20
-373.7618
 10
824.8643
 20
-374.2907
 10
824.612
 20
-374.8531
 10
824.4055
 20
-375.4491
 10
824.2449
 20
-376.0786
 10
824.1302
 20
-376.7416
 10
824.0613
 20
-377.438
 10
824.0384
 20
-378.1679
 10
824.0719
 20
-378.9172
 10
824.1723
 20
-379.6521
 10
824.3397
 20
-380.3726
 10
824.574
 20
-381.0788
 10
824.8752
 20
-381.7706
 10
825.2434
 20
-382.448
 10
825.6784
 20
-383.1111
 10
826.1803
 20
-383.7599
 10
825.8273
 20
-384.0576
 10
825.4953
 20
-384.3762
 10
825.1845
 20
-384.7157
 10
824.8946
 20
-385.0761
 10
824.6258
 20
-385.4575
 10
824.3781
 20
-385.8598
 10
824.1514
 20
-386.2831
 10
823.9457
 20
-386.7274
 10
823.7629
 20
-387.1836
 10
823.6045
 20
-387.6429
 10
823.4705
 20
-388.1052
 10
823.3608
 20
-388.5706
 10
823.2756
 20
-389.0389
 10
823.2146
 20
-389.5102
 10
823.1781
 20
-389.9845
 10
823.1659
 20
-390.4618
 10
823.193
 20
-391.3171
 10
823.2742
 20
-392.1311
 10
823.4095
 20
-392.9039
 10
823.599
 20
-393.6354
 10
823.8426
 20
-394.3257
 10
824.1403
 20
-394.9746
 10
824.4922
 20
-395.5822
 10
824.8982
 20
-396.1484
 10
825.3335
 20
-396.6466
 10
825.7931
 20
-397.0783
 10
826.2771
 20
-397.4436
 10
826.7855
 20
-397.7424
 10
827.3183
 20
-397.9748
 10
827.8755
 20
-398.1408
 10
828.4572
 20
-398.2404
 10
829.0632
 20
-398.2736
  0
LWPOLYLINE
  5
8A
330
1F
100
AcDbEntity
  8
Layer 1
 62
     7
100
AcDbPolyline
 90
      129
 70
     1
 43
0.0
 10
844.865
 20
-374.8749
 10
845.1703
 20
-375.1753
 10
845.4549
 20
-375.5163
 10
845.719
 20
-375.8981
 10
845.9624
 20
-376.3206
 10
846.1851
 20
-376.7837
 10
846.3872
 20
-377.2875
 10
846.5686
 20
-377.832
 10
846.7294
 20
-378.4171
 10
846.909
 20
-379.1934
 10
847.0646
 20
-379.9812
 10
847.1963
 20
-380.7804
 10
847.3041
 20
-381.5909
 10
847.388
 20
-382.4129
 10
847.4479
 20
-383.2462
 10
847.4838
 20
-384.0909
 10
847.4958
 20
-384.947
 10
847.4946
 20
-385.1526
 10
847.4909
 20
-385.3671
 10
847.4848
 20
-385.5905
 10
847.4761
 20
-385.823
 10
847.465
 20
-386.0643
 10
847.4514
 20
-386.3147
 10
847.4352
 20
-386.574
 10
847.4165
 20
-386.8423
 10
847.3249
 20
-387.8718
 10
847.2052
 20
-388.8445
 10
847.0573
 20
-389.7604
 10
846.8813
 20
-390.6195
 10
846.6772
 20
-391.4217
 10
846.4449
 20
-392.1671
 10
846.1846
 20
-392.8556
 10
845.8962
 20
-393.4872
 10
845.6329
 20
-393.9629
 10
845.3555
 20
-394.3751
 10
845.0641
 20
-394.7239
 10
844.7587
 20
-395.0093
 10
844.4393
 20
-395.2313
 10
844.1058
 20
-395.3899
 10
843.7583
 20
-395.485
 10
843.3968
 20
-395.5167
 10
842.9934
 20
-395.4853
 10
842.6094
 20
-395.391
 10
842.2448
 20
-395.2339
 10
841.8995
 20
-395.014
 10
841.5737
 20
-394.7313
 10
841.2672
 20
-394.3858
 10
840.9802
 20
-393.9775
 10
840.7126
 20
-393.5065
 10
840.5994
 20
-393.2778
 10
840.4912
 20
-393.042
 10
840.3879
 20
-392.799
 10
840.2895
 20
-392.5489
 10
840.1961
 20
-392.2915
 10
840.1076
 20
-392.0269
 10
840.0241
 20
-391.7551
 10
839.9455
 20
-391.4761
 10
839.8718
 20
-391.1929
 10
839.8027
 20
-390.9078
 10
839.7381
 20
-390.621
 10
839.678
 20
-390.3323
 10
839.6224
 20
-390.0419
 10
839.5714
 20
-389.7496
 10
839.525
 20
-389.4555
 10
839.4832
 20
-389.1596
 10
839.4449
 20
-388.864
 10
839.4095
 20
-388.5708
 10
839.377
 20
-388.28
 10
839.3474
 20
-387.9916
 10
839.3207
 20
-387.7055
 10
839.297
 20
-387.4218
 10
839.2762
 20
-387.1405
 10
839.2584
 20
-386.8616
 10
839.2429
 20
-386.5785
 10
839.2294
 20
-386.2848
 10
839.2181
 20
-385.9804
 10
839.2088
 20
-385.6655
 10
839.2016
 20
-385.3401
 10
839.1965
 20
-385.0044
 10
839.1934
 20
-384.6583
 10
839.1924
 20
-384.3021
 10
839.1969
 20
-383.93
 10
839.2106
 20
-383.5362
 10
839.2333
 20
-383.1207
 10
839.2651
 20
-382.6834
 10
839.306
 20
-382.2242
 10
839.356
 20
-381.7431
 10
839.415
 20
-381.2401
 10
839.4832
 20
-380.7151
 10
839.5248
 20
-380.4233
 10
839.5706
 20
-380.1321
 10
839.6206
 20
-379.8415
 10
839.6748
 20
-379.5515
 10
839.7331
 20
-379.2622
 10
839.7956
 20
-378.9735
 10
839.8621
 20
-378.6853
 10
839.9328
 20
-378.3978
 10
840.0082
 20
-378.1142
 10
840.0889
 20
-377.8377
 10
840.175
 20
-377.5685
 10
840.2665
 20
-377.3065
 10
840.3634
 20
-377.0516
 10
840.4656
 20
-376.8039
 10
840.5734
 20
-376.5632
 10
840.6865
 20
-376.3297
 10
840.8051
 20
-376.1057
 10
840.9294
 20
-375.893
 10
841.0596
 20
-375.6918
 10
841.1955
 20
-375.5018
 10
841.3373
 20
-375.3232
 10
841.4848
 20
-375.156
 10
841.6381
 20
-375.0001
 10
841.7972
 20
-374.8556
 10
841.9629
 20
-374.7254
 10
842.136
 20
-374.6126
 10
842.3165
 20
-374.5171
 10
842.5045
 20
-374.439
 10
842.6998
 20
-374.3783
 10
842.9027
 20
-374.3349
 10
843.113
 20
-374.3089
 10
843.3308
 20
-374.3002
 10
843.5486
 20
-374.3092
 10
843.759
 20
-374.3361
 10
843.9619
 20
-374.3809
 10
844.1574
 20
-374.4438
 10
844.3454
 20
-374.5246
 10
844.5261
 20
-374.6234
 10
844.6992
 20
-374.7401
 10
844.865
 20
-374.8749
  0
LWPOLYLINE
  5
8B
330
1F
100
AcDbEntity
  8
Layer 1
 62
     7
100
AcDbPolyline
 90
       65
 70
     1
 43
0.0
 10
843.4235
 20
-398.2359
 10
844.1955
 20
-398.165
 10
844.9184
 20
-397.9523
 10
845.5922
 20
-397.5977
 10
846.2168
 20
-397.1014
 10
846.7922
 20
-396.4632
 10
847.3185
 20
-395.6832
 10
847.7956
 20
-394.7614
 10
848.2235
 20
-393.6978
 10
848.5241
 20
-392.7695
 10
848.7845
 20
-391.7898
 10
849.0049
 20
-390.7587
 10
849.1852
 20
-389.6762
 10
849.3254
 20
-388.5423
 10
849.4256
 20
-387.357
 10
849.4857
 20
-386.1202
 10
849.5057
 20
-384.8321
 10
849.4857
 20
-383.5437
 10
849.4256
 20
-382.3067
 10
849.3254
 20
-381.1213
 10
849.1852
 20
-379.9873
 10
849.0049
 20
-378.9048
 10
848.7845
 20
-377.8739
 10
848.5241
 20
-376.8944
 10
848.2235
 20
-375.9664
 10
847.7956
 20
-374.9028
 10
847.3185
 20
-373.981
 10
846.7922
 20
-373.201
 10
846.2168
 20
-372.5628
 10
845.5922
 20
-372.0665
 10
844.9184
 20
-371.7119
 10
844.1955
 20
-371.4992
 10
843.4235
 20
-371.4283
 10
842.6514
 20
-371.4992
 10
841.9285
 20
-371.7119
 10
841.2547
 20
-372.0665
 10
840.6301
 20
-372.5628
 10
840.0547
 20
-373.201
 10
839.5284
 20
-373.981
 10
839.0513
 20
-374.9028
 10
838.6234
 20
-375.9664
 10
838.3228
 20
-376.8944
 10
838.0623
 20
-377.8739
 10
837.8419
 20
-378.9048
 10
837.6615
 20
-379.9873
 10
837.5211
 20
-381.1213
 10
837.4209
 20
-382.3067
 10
837.3608
 20
-383.5437
 10
837.3407
 20
-384.8321
 10
837.3608
 20
-386.1202
 10
837.4209
 20
-387.357
 10
837.5211
 20
-388.5423
 10
837.6615
 20
-389.6762
 10
837.8419
 20
-390.7587
 10
838.0623
 20
-391.7898
 10
838.3228
 20
-392.7695
 10
838.6234
 20
-393.6978
 10
839.0513
 20
-394.7614
 10
839.5284
 20
-395.6832
 10
840.0547
 20
-396.4632
 10
840.6301
 20
-397.1014
 10
841.2547
 20
-397.5977
 10
841.9285
 20
-397.9523
 10
842.6514
 20
-398.165
 10
843.4235
 20
-398.2359
  0
LWPOLYLINE
  5
8C
330
1F
100
AcDbEntity
  8
Layer 1
 62
     7
100
AcDbPolyline
 90
      162
 70
     1
 43
0.0
 10
867.5687
 20
-397.8147
 10
869.4197
 20
-397.8147
 10
869.4197
 20
-387.2828
 10
869.4046
 20
-386.5836
 10
869.3594
 20
-385.9173
 10
869.284
 20
-385.2839
 10
869.1784
 20
-384.6834
 10
869.0427
 20
-384.1158
 10
868.8768
 20
-383.5811
 10
868.6807
 20
-383.0793
 10
868.4545
 20
-382.6104
 10
868.3283
 20
-382.3864
 10
868.1942
 20
-382.1738
 10
868.0523
 20
-381.9725
 10
867.9025
 20
-381.7826
 10
867.7449
 20
-381.604
 10
867.5794
 20
-381.4367
 10
867.4062
 20
-381.2808
 10
867.2251
 20
-381.1363
 10
867.0325
 20
-381.0061
 10
866.825
 20
-380.8933
 10
866.6026
 20
-380.7978
 10
866.3654
 20
-380.7197
 10
866.1133
 20
-380.659
 10
865.8464
 20
-380.6156
 10
865.5646
 20
-380.5896
 10
865.268
 20
-380.5809
 10
864.9685
 20
-380.5959
 10
864.6786
 20
-380.6408
 10
864.3982
 20
-380.7156
 10
864.1273
 20
-380.8203
 10
863.8659
 20
-380.955
 10
863.614
 20
-381.1195
 10
863.3717
 20
-381.3139
 10
863.1388
 20
-381.5382
 10
862.9368
 20
-381.762
 10
862.7439
 20
-382.0025
 10
862.56
 20
-382.2593
 10
862.3853
 20
-382.5325
 10
862.2196
 20
-382.8218
 10
862.0629
 20
-383.1271
 10
861.9153
 20
-383.4483
 10
861.7767
 20
-383.7853
 10
861.6695
 20
-383.4744
 10
861.5522
 20
-383.1742
 10
861.425
 20
-382.8858
 10
861.2877
 20
-382.6104
 10
861.1615
 20
-382.3864
 10
861.0274
 20
-382.1738
 10
860.8855
 20
-381.9725
 10
860.7356
 20
-381.7826
 10
860.5779
 20
-381.604
 10
860.4124
 20
-381.4367
 10
860.239
 20
-381.2808
 10
860.0577
 20
-381.1363
 10
859.8653
 20
-381.0061
 10
859.6579
 20
-380.8933
 10
859.4357
 20
-380.7978
 10
859.1985
 20
-380.7197
 10
858.9465
 20
-380.659
 10
858.6796
 20
-380.6156
 10
858.3978
 20
-380.5896
 10
858.1012
 20
-380.5809
 10
857.8017
 20
-380.5959
 10
857.5118
 20
-380.6408
 10
857.2314
 20
-380.7156
 10
856.9605
 20
-380.8203
 10
856.6991
 20
-380.955
 10
856.4473
 20
-381.1195
 10
856.2049
 20
-381.3139
 10
855.972
 20
-381.5382
 10
855.7796
 20
-381.7514
 10
855.5953
 20
-381.9789
 10
855.4193
 20
-382.2209
 10
855.2515
 20
-382.4775
 10
855.092
 20
-382.7487
 10
854.9407
 20
-383.0347
 10
854.7978
 20
-383.3354
 10
854.6632
 20
-383.6511
 10
854.6632
 20
-380.9635
 10
852.8116
 20
-380.9635
 10
852.8116
 20
-397.8147
 10
854.6632
 20
-397.8147
 10
854.6632
 20
-389.1912
 10
854.7062
 20
-388.6888
 10
854.7624
 20
-388.206
 10
854.8318
 20
-387.7427
 10
854.9145
 20
-387.2988
 10
855.0103
 20
-386.874
 10
855.1193
 20
-386.4682
 10
855.2416
 20
-386.0813
 10
855.377
 20
-385.713
 10
855.4874
 20
-385.4508
 10
855.6069
 20
-385.2007
 10
855.7354
 20
-384.9625
 10
855.873
 20
-384.7363
 10
856.0196
 20
-384.5221
 10
856.1754
 20
-384.3198
 10
856.3403
 20
-384.1295
 10
856.5143
 20
-383.9511
 10
856.6945
 20
-383.7895
 10
856.878
 20
-383.6494
 10
857.0647
 20
-383.5309
 10
857.2547
 20
-383.4339
 10
857.448
 20
-383.3585
 10
857.6447
 20
-383.3046
 10
857.8446
 20
-383.2723
 10
858.0479
 20
-383.2615
 10
858.2462
 20
-383.2672
 10
858.4314
 20
-383.2842
 10
858.6034
 20
-383.3126
 10
858.7621
 20
-383.3524
 10
858.9076
 20
-383.4036
 10
859.0399
 20
-383.4662
 10
859.1589
 20
-383.5402
 10
859.2646
 20
-383.6256
 10
859.5311
 20
-383.911
 10
859.7621
 20
-384.2455
 10
859.9576
 20
-384.6291
 10
860.1175
 20
-385.0617
 10
860.2419
 20
-385.5433
 10
860.3308
 20
-386.0741
 10
860.3841
 20
-386.6539
 10
860.4019
 20
-387.2828
 10
860.4019
 20
-397.8147
 10
862.2529
 20
-397.8147
 10
862.2529
 20
-387.2828
 10
862.2396
 20
-386.6379
 10
862.5438
 20
-385.713
 10
862.6542
 20
-385.4508
 10
862.7736
 20
-385.2007
 10
862.9021
 20
-384.9625
 10
863.0397
 20
-384.7363
 10
863.1864
 20
-384.5221
 10
863.3422
 20
-384.3198
 10
863.5071
 20
-384.1295
 10
863.6811
 20
-383.9511
 10
863.8613
 20
-383.7895
 10
864.0448
 20
-383.6494
 10
864.2315
 20
-383.5309
 10
864.4215
 20
-383.4339
 10
864.6148
 20
-383.3585
 10
864.8114
 20
-383.3046
 10
865.0114
 20
-383.2723
 10
865.2147
 20
-383.2615
 10
865.413
 20
-383.2672
 10
865.5982
 20
-383.2842
 10
865.7702
 20
-383.3126
 10
865.9289
 20
-383.3524
 10
866.0744
 20
-383.4036
 10
866.2067
 20
-383.4662
 10
866.3257
 20
-383.5402
 10
866.4314
 20
-383.6256
 10
866.6979
 20
-383.911
 10
866.9289
 20
-384.2455
 10
867.1244
 20
-384.6291
 10
867.2843
 20
-385.0617
 10
867.4087
 20
-385.5433
 10
867.4976
 20
-386.0741
 10
867.5509
 20
-386.6539
 10
867.5687
 20
-387.2828
 10
867.5687
 20
-397.8147
  0
LWPOLYLINE
  5
8D
330
1F
100
AcDbEntity
  8
Layer 1
 62
     7
100
AcDbPolyline
 90
      165
 70
     1
 43
0.0
 10
887.7469
 20
-397.8147
 10
889.598
 20
-397.8147
 10
889.598
 20
-387.2828
 10
889.5829
 20
-386.5836
 10
889.5377
 20
-385.9173
 10
889.4623
 20
-385.2839
 10
889.3567
 20
-384.6834
 10
889.2209
 20
-384.1158
 10
889.055
 20
-383.5811
 10
888.859
 20
-383.0793
 10
888.6328
 20
-382.6104
 10
888.5066
 20
-382.3864
 10
888.3725
 20
-382.1738
 10
888.2306
 20
-381.9725
 10
888.0808
 20
-381.7826
 10
887.9231
 20
-381.604
 10
887.7577
 20
-381.4367
 10
887.5844
 20
-381.2808
 10
887.4033
 20
-381.1363
 10
887.2107
 20
-381.0061
 10
887.0032
 20
-380.8933
 10
886.7808
 20
-380.7978
 10
886.5436
 20
-380.7197
 10
886.2915
 20
-380.659
 10
886.0246
 20
-380.6156
 10
885.7428
 20
-380.5896
 10
885.4462
 20
-380.5809
 10
885.1467
 20
-380.5959
 10
884.8568
 20
-380.6408
 10
884.5764
 20
-380.7156
 10
884.3055
 20
-380.8203
 10
884.0441
 20
-380.955
 10
883.7923
 20
-381.1195
 10
883.5499
 20
-381.3139
 10
883.317
 20
-381.5382
 10
883.115
 20
-381.762
 10
882.9221
 20
-382.0025
 10
882.7383
 20
-382.2593
 10
882.5635
 20
-382.5325
 10
882.3978
 20
-382.8218
 10
882.2411
 20
-383.1271
 10
882.0935
 20
-383.4483
 10
881.9549
 20
-383.7853
 10
881.8477
 20
-383.4744
 10
881.7304
 20
-383.1742
 10
881.6032
 20
-382.8858
 10
881.466
 20
-382.6104
 10
881.3398
 20
-382.3864
 10
881.2057
 20
-382.1738
 10
881.0638
 20
-381.9725
 10
880.9139
 20
-381.7826
 10
880.7562
 20
-381.604
 10
880.5907
 20
-381.4367
 10
880.4173
 20
-381.2808
 10
880.236
 20
-381.1363
 10
880.0436
 20
-381.0061
 10
879.8362
 20
-380.8933
 10
879.6139
 20
-380.7978
 10
879.3768
 20
-380.7197
 10
879.1247
 20
-380.659
 10
878.8578
 20
-380.6156
 10
878.5761
 20
-380.5896
 10
878.2795
 20
-380.5809
 10
877.98
 20
-380.5959
 10
877.69
 20
-380.6408
 10
877.4096
 20
-380.7156
 10
877.1387
 20
-380.8203
 10
876.8774
 20
-380.955
 10
876.6255
 20
-381.1195
 10
876.3832
 20
-381.3139
 10
876.1503
 20
-381.5382
 10
875.9578
 20
-381.7514
 10
875.7736
 20
-381.9789
 10
875.5975
 20
-382.2209
 10
875.4298
 20
-382.4775
 10
875.2702
 20
-382.7487
 10
875.119
 20
-383.0347
 10
874.9761
 20
-383.3354
 10
874.8415
 20
-383.6511
 10
874.8415
 20
-380.9635
 10
872.9898
 20
-380.9635
 10
872.9898
 20
-397.8147
 10
874.8415
 20
-397.8147
 10
874.8415
 20
-389.1912
 10
874.8845
 20
-388.6888
 10
874.9407
 20
-388.206
 10
875.0101
 20
-387.7427
 10
875.0927
 20
-387.2988
 10
875.1886
 20
-386.874
 10
875.2976
 20
-386.4682
 10
875.4198
 20
-386.0813
 10
875.5552
 20
-385.713
 10
875.6656
 20
-385.4508
 10
875.7851
 20
-385.2007
 10
875.9136
 20
-384.9625
 10
876.0512
 20
-384.7363
 10
876.1979
 20
-384.5221
 10
876.3537
 20
-384.3198
 10
876.5186
 20
-384.1295
 10
876.6926
 20
-383.9511
 10
876.8728
 20
-383.7895
 10
877.0563
 20
-383.6494
 10
877.243
 20
-383.5309
 10
877.433
 20
-383.4339
 10
877.6263
 20
-383.3585
 10
877.8229
 20
-383.3046
 10
878.0228
 20
-383.2723
 10
878.2261
 20
-383.2615
 10
878.4245
 20
-383.2672
 10
878.6097
 20
-383.2842
 10
878.7816
 20
-383.3126
 10
878.9404
 20
-383.3524
 10
879.0858
 20
-383.4036
 10
879.2181
 20
-383.4662
 10
879.3371
 20
-383.5402
 10
879.4428
 20
-383.6256
 10
879.7093
 20
-383.911
 10
879.9403
 20
-384.2455
 10
880.1358
 20
-384.6291
 10
880.2957
 20
-385.0617
 10
880.4201
 20
-385.5433
 10
880.509
 20
-386.0741
 10
880.5623
 20
-386.6539
 10
880.5801
 20
-387.2828
 10
880.5801
 20
-397.8147
 10
882.4312
 20
-397.8147
 10
882.4312
 20
-387.2828
 10
882.4179
 20
-386.6379
 10
882.4866
 20
-386.3938
 10
882.5602
 20
-386.1587
 10
882.6386
 20
-385.9319
 10
882.722
 20
-385.713
 10
882.8324
 20
-385.4508
 10
882.9519
 20
-385.2007
 10
883.0804
 20
-384.9625
 10
883.218
 20
-384.7363
 10
883.3646
 20
-384.5221
 10
883.5204
 20
-384.3198
 10
883.6853
 20
-384.1295
 10
883.8593
 20
-383.9511
 10
884.0395
 20
-383.7895
 10
884.223
 20
-383.6494
 10
884.4098
 20
-383.5309
 10
884.5998
 20
-383.4339
 10
884.7931
 20
-383.3585
 10
884.9897
 20
-383.3046
 10
885.1896
 20
-383.2723
 10
885.3929
 20
-383.2615
 10
885.5913
 20
-383.2672
 10
885.7765
 20
-383.2842
 10
885.9484
 20
-383.3126
 10
886.1072
 20
-383.3524
 10
886.2526
 20
-383.4036
 10
886.3849
 20
-383.4662
 10
886.5039
 20
-383.5402
 10
886.6096
 20
-383.6256
 10
886.8761
 20
-383.911
 10
887.1071
 20
-384.2455
 10
887.3026
 20
-384.6291
 10
887.4625
 20
-385.0617
 10
887.5869
 20
-385.5433
 10
887.6758
 20
-386.0741
 10
887.7291
 20
-386.6539
 10
887.7469
 20
-387.2828
 10
887.7469
 20
-397.8147
  0
LWPOLYLINE
  5
8E
330
1F
100
AcDbEntity
  8
Layer 1
 62
     7
370
    18
100
AcDbPolyline
 90
       33
 70
     1
 43
0.0
 10
787.0708
 20
-364.8616
 10
788.9442
 20
-365.1351
 10
790.6892
 20
-365.9195
 10
792.2682
 20
-367.1607
 10
793.644
 20
-368.8045
 10
794.7792
 20
-370.7968
 10
795.6363
 20
-373.0834
 10
796.1779
 20
-375.6103
 10
796.3668
 20
-378.3232
 10
796.1779
 20
-381.0362
 10
795.6363
 20
-383.5631
 10
794.7792
 20
-385.8497
 10
793.644
 20
-387.842
 10
792.2682
 20
-389.4858
 10
790.6892
 20
-390.727
 10
788.9442
 20
-391.5114
 10
787.0708
 20
-391.7849
 10
785.1973
 20
-391.5114
 10
783.4524
 20
-390.727
 10
781.8733
 20
-389.4858
 10
780.4976
 20
-387.842
 10
779.3624
 20
-385.8497
 10
778.5053
 20
-383.5631
 10
777.9637
 20
-381.0362
 10
777.7748
 20
-378.3232
 10
777.9637
 20
-375.6103
 10
778.5053
 20
-373.0834
 10
779.3624
 20
-370.7968
 10
780.4976
 20
-368.8045
 10
781.8733
 20
-367.1607
 10
783.4524
 20
-365.9195
 10
785.1973
 20
-365.1351
 10
787.0708
 20
-364.8616
  0
LWPOLYLINE
  5
8F
330
1F
100
AcDbEntity
  8
Layer 1
 62
     7
370
    18
100
AcDbPolyline
 90
        9
 70
     0
 43
0.0
 10
791.6915
 20
-355.716
 10
788.7267
 20
-370.7153
 10
786.4746
 20
-382.057
 10
784.8373
 20
-390.2518
 10
783.7171
 20
-395.8109
 10
783.016
 20
-399.2452
 10
782.6364
 20
-401.0656
 10
782.4804
 20
-401.7832
 10
782.4501
 20
-401.9088
  0
ENDSEC
  0
SECTION
  2
OBJECTS
  0
DICTIONARY
  5
C
330
0
100
AcDbDictionary
281
     1
  3
ACAD_DETAILVIEWSTYLE
350
97
  3
ACAD_GROUP
350
D
  3
ACAD_LAYOUT
350
1A
  3
ACAD_MATERIAL
350
43
  3
ACAD_MLEADERSTYLE
350
5B
  3
ACAD_MLINESTYLE
350
17
  3
ACAD_PLOTSETTINGS
350
19
  3
ACAD_PLOTSTYLENAME
350
E
  3
ACAD_SCALELIST
350
47
  3
ACAD_SECTIONVIEWSTYLE
350
98
  3
ACAD_TABLESTYLE
350
59
  3
ACAD_VISUALSTYLE
350
2A
  3
ACDB_RECOMPOSE_DATA
350
94
  3
AcDbVariableDictionary
350
90
  0
SUN
  5
5D
330
29
100
AcDbSun
 90
        1
290
     0
 63
     7
421
 16777215
 40
1.0
291
     1
 91
  2455826
 92
 54000000
292
     0
 70
     2
 71
   256
280
     1
  0
DICTIONARY
  5
97
102
{ACAD_REACTORS
330
C
102
}
330
C
100
AcDbDictionary
281
     1
  0
DICTIONARY
  5
D
102
{ACAD_REACTORS
330
C
102
}
330
C
100
AcDbDictionary
281
     1
  0
DICTIONARY
  5
1A
102
{ACAD_REACTORS
330
C
102
}
330
C
100
AcDbDictionary
281
     1
  3
Layout1
350
1E
  3
Layout2
350
26
  3
Model
350
22
  0
DICTIONARY
  5
43
102
{ACAD_REACTORS
330
C
102
}
330
C
100
AcDbDictionary
281
     1
  3
ByBlock
350
45
  3
ByLayer
350
44
  3
Global
350
46
  0
DICTIONARY
  5
5B
102
{ACAD_REACTORS
330
C
102
}
330
C
100
AcDbDictionary
281
     1
  3
Standard
350
5C
  0
DICTIONARY
  5
17
102
{ACAD_REACTORS
330
C
102
}
330
C
100
AcDbDictionary
281
     1
  3
Standard
350
18
  0
DICTIONARY
  5
19
102
{ACAD_REACTORS
330
C
102
}
330
C
100
AcDbDictionary
281
     1
  0
ACDBDICTIONARYWDFLT
  5
E
102
{ACAD_REACTORS
330
C
102
}
330
C
100
AcDbDictionary
281
     1
  3
Normal
350
F
100
AcDbDictionaryWithDefault
340
F
  0
DICTIONARY
  5
47
102
{ACAD_REACTORS
330
C
102
}
330
C
100
AcDbDictionary
281
     1
  3
A0
350
48
  3
A1
350
49
  3
A2
350
4A
  3
A3
350
4B
  3
A4
350
4C
  3
A5
350
4D
  3
A6
350
4E
  3
A7
350
4F
  3
A8
350
50
  3
A9
350
51
  3
B1
350
52
  3
B2
350
53
  3
B3
350
54
  3
B4
350
55
  3
B5
350
56
  3
B6
350
57
  3
B7
350
58
  0
DICTIONARY
  5
98
102
{ACAD_REACTORS
330
C
102
}
330
C
100
AcDbDictionary
281
     1
  0
DICTIONARY
  5
59
102
{ACAD_REACTORS
330
C
102
}
330
C
100
AcDbDictionary
281
     1
  3
Standard
350
5A
  0
DICTIONARY
  5
2A
102
{ACAD_REACTORS
330
C
102
}
330
C
100
AcDbDictionary
281
     1
  3
2dWireframe
350
2F
  3
Basic
350
32
  3
Brighten
350
36
  3
ColorChange
350
3A
  3
Conceptual
350
34
  3
Dim
350
35
  3
EdgeColorOff
350
3D
  3
Facepattern
350
39
  3
Flat
350
2B
  3
FlatWithEdges
350
2C
  3
Gouraud
350
2D
  3
GouraudWithEdges
350
2E
  3
Hidden
350
31
  3
JitterOff
350
3B
  3
Linepattern
350
38
  3
OverhangOff
350
3C
  3
Realistic
350
33
  3
Shaded
350
42
  3
Shaded with edges
350
41
  3
Shades of Gray
350
3E
  3
Sketchy
350
3F
  3
Thicken
350
37
  3
Wireframe
350
30
  3
X-Ray
350
40
  0
XRECORD
  5
94
102
{ACAD_REACTORS
330
C
102
}
330
C
100
AcDbXrecord
280
     1
 90
        1
330
5A
  0
DICTIONARY
  5
90
102
{ACAD_REACTORS
330
C
102
}
330
C
100
AcDbDictionary
281
     1
  3
CANNOSCALE
350
91
  3
CMLEADERSTYLE
350
96
  3
CTABLESTYLE
350
95
  0
LAYOUT
  5
1E
102
{ACAD_REACTORS
330
1A
102
}
330
1A
100
AcDbPlotSettings
  1

  2
none_device
  4

  6

 40
0.0
 41
0.0
 42
0.0
 43
0.0
 44
0.0
 45
0.0
 46
0.0
 47
0.0
 48
0.0
 49
0.0
140
0.0
141
0.0
142
1.0
143
1.0
 70
   688
 72
     0
 73
     0
 74
     5
  7

 75
    16
 76
     0
 77
     2
 78
   300
147
1.0
148
0.0
149
0.0
100
AcDbLayout
  1
Layout1
 70
     1
 71
     1
 10
0.0
 20
0.0
 11
12.0
 21
9.0
 12
0.0
 22
0.0
 32
0.0
 14
1.000000000000000E+20
 24
1.000000000000000E+20
 34
1.000000000000000E+20
 15
-1.000000000000000E+20
 25
-1.000000000000000E+20
 35
-1.000000000000000E+20
146
0.0
 13
0.0
 23
0.0
 33
0.0
 16
1.0
 26
0.0
 36
0.0
 17
0.0
 27
1.0
 37
0.0
 76
     0
330
1B
  0
LAYOUT
  5
26
102
{ACAD_REACTORS
330
1A
102
}
330
1A
100
AcDbPlotSettings
  1

  2
none_device
  4

  6

 40
0.0
 41
0.0
 42
0.0
 43
0.0
 44
0.0
 45
0.0
 46
0.0
 47
0.0
 48
0.0
 49
0.0
140
0.0
141
0.0
142
1.0
143
1.0
 70
   688
 72
     0
 73
     0
 74
     5
  7

 75
    16
 76
     0
 77
     2
 78
   300
147
1.0
148
0.0
149
0.0
100
AcDbLayout
  1
Layout2
 70
     1
 71
     2
 10
0.0
 20
0.0
 11
0.0
 21
0.0
 12
0.0
 22
0.0
 32
0.0
 14
0.0
 24
0.0
 34
0.0
 15
0.0
 25
0.0
 35
0.0
146
0.0
 13
0.0
 23
0.0
 33
0.0
 16
1.0
 26
0.0
 36
0.0
 17
0.0
 27
1.0
 37
0.0
 76
     0
330
23
  0
LAYOUT
  5
22
102
{ACAD_REACTORS
330
1A
102
}
330
1A
100
AcDbPlotSettings
  1

  2
none_device
  4
Letter_(8.50_x_11.00_Inches)
  6

 40
6.35
 41
6.35
 42
6.35000508
 43
6.35000508
 44
215.9
 45
279.4
 46
0.0
 47
0.0
 48
0.0
 49
0.0
140
0.0
141
0.0
142
1.0
143
1.0
 70
  1712
 72
     0
 73
     0
 74
     0
  7

 75
     0
 76
     0
 77
     2
 78
   300
147
1.0
148
0.0
149
0.0
100
AcDbLayout
  1
Model
 70
     1
 71
     0
 10
0.0
 20
0.0
 11
12.0
 21
9.0
 12
0.0
 22
0.0
 32
0.0
 14
501.8157
 24
-435.8107
 34
0.0
 15
1080.0031
 25
485.5252
 35
0.0
146
0.0
 13
0.0
 23
0.0
 33
0.0
 16
1.0
 26
0.0
 36
0.0
 17
0.0
 27
1.0
 37
0.0
 76
     0
330
1F
331
29
  0
MATERIAL
  5
45
102
{ACAD_REACTORS
330
43
102
}
330
43
100
AcDbMaterial
  1
ByBlock
 72
     1
 94
      127
  0
MATERIAL
  5
44
102
{ACAD_REACTORS
330
43
102
}
330
43
100
AcDbMaterial
  1
ByLayer
 72
     1
 94
      127
  0
MATERIAL
  5
46
102
{ACAD_REACTORS
330
43
102
}
330
43
100
AcDbMaterial
  1
Global
 72
     1
 94
      127
  0
MLEADERSTYLE
  5
5C
102
{ACAD_REACTORS
330
5B
102
}
330
5B
100
AcDbMLeaderStyle
179
     2
170
     2
171
     1
172
     0
 90
        2
 40
0.0
 41
0.0
173
     1
 91
-1056964608
340
14
 92
       -2
290
     1
 42
0.09
291
     1
 43
0.36
  3
Standard
341
0
 44
0.18
300

342
11
174
     1
178
     6
175
     1
176
     0
 93
-1056964608
 45
0.18
292
     0
297
     0
 46
0.18
343
0
 94
-1056964608
 47
1.0
 49
1.0
140
1.0
293
     1
141
0.0
294
     1
177
     0
142
1.0
295
     0
296
     0
143
0.125
271
     0
272
     9
273
     9
298
     0
  0
MLINESTYLE
  5
18
102
{ACAD_REACTORS
330
17
102
}
330
17
100
AcDbMlineStyle
  2
Standard
 70
     0
  3

 62
   256
 51
90.0
 52
90.0
 71
     2
 49
0.5
 62
   256
  6
BYLAYER
 49
-0.5
 62
   256
  6
BYLAYER
  0
ACDBPLACEHOLDER
  5
F
102
{ACAD_REACTORS
330
E
102
}
330
E
  0
SCALE
  5
48
102
{ACAD_REACTORS
330
47
102
}
330
47
100
AcDbScale
 70
     0
300
1:1
140
1.0
141
1.0
290
     1
  0
SCALE
  5
49
102
{ACAD_REACTORS
330
47
102
}
330
47
100
AcDbScale
 70
     0
300
1/128" = 1'-0"
140
0.0078125
141
12.0
290
     0
  0
SCALE
  5
4A
102
{ACAD_REACTORS
330
47
102
}
330
47
100
AcDbScale
 70
     0
300
1/64" = 1'-0"
140
0.015625
141
12.0
290
     0
  0
SCALE
  5
4B
102
{ACAD_REACTORS
330
47
102
}
330
47
100
AcDbScale
 70
     0
300
1/32" = 1'-0"
140
0.03125
141
12.0
290
     0
  0
SCALE
  5
4C
102
{ACAD_REACTORS
330
47
102
}
330
47
100
AcDbScale
 70
     0
300
1/16" = 1'-0"
140
0.0625
141
12.0
290
     0
  0
SCALE
  5
4D
102
{ACAD_REACTORS
330
47
102
}
330
47
100
AcDbScale
 70
     0
300
3/32" = 1'-0"
140
0.09375
141
12.0
290
     0
  0
SCALE
  5
4E
102
{ACAD_REACTORS
330
47
102
}
330
47
100
AcDbScale
 70
     0
300
1/8" = 1'-0"
140
0.125
141
12.0
290
     0
  0
SCALE
  5
4F
102
{ACAD_REACTORS
330
47
102
}
330
47
100
AcDbScale
 70
     0
300
3/16" = 1'-0"
140
0.1875
141
12.0
290
     0
  0
SCALE
  5
50
102
{ACAD_REACTORS
330
47
102
}
330
47
100
AcDbScale
 70
     0
300
1/4" = 1'-0"
140
0.25
141
12.0
290
     0
  0
SCALE
  5
51
102
{ACAD_REACTORS
330
47
102
}
330
47
100
AcDbScale
 70
     0
300
3/8" = 1'-0"
140
0.375
141
12.0
290
     0
  0
SCALE
  5
52
102
{ACAD_REACTORS
330
47
102
}
330
47
100
AcDbScale
 70
     0
300
1/2" = 1'-0"
140
0.5
141
12.0
290
     0
  0
SCALE
  5
53
102
{ACAD_REACTORS
330
47
102
}
330
47
100
AcDbScale
 70
     0
300
3/4" = 1'-0"
140
0.75
141
12.0
290
     0
  0
SCALE
  5
54
102
{ACAD_REACTORS
330
47
102
}
330
47
100
AcDbScale
 70
     0
300
1" = 1'-0"
140
1.0
141
12.0
290
     0
  0
SCALE
  5
55
102
{ACAD_REACTORS
330
47
102
}
330
47
100
AcDbScale
 70
     0
300
1-1/2" = 1'-0"
140
1.5
141
12.0
290
     0
  0
SCALE
  5
56
102
{ACAD_REACTORS
330
47
102
}
330
47
100
AcDbScale
 70
     0
300
3" = 1'-0"
140
3.0
141
12.0
290
     0
  0
SCALE
  5
57
102
{ACAD_REACTORS
330
47
102
}
330
47
100
AcDbScale
 70
     0
300
6" = 1'-0"
140
6.0
141
12.0
290
     0
  0
SCALE
  5
58
102
{ACAD_REACTORS
330
47
102
}
330
47
100
AcDbScale
 70
     0
300
1'-0" = 1'-0"
140
12.0
141
12.0
290
     0
  0
TABLESTYLE
  5
5A
102
{ACAD_REACTORS
330
59
102
}
102
{ACAD_XDICTIONARY
360
92
102
}
330
59
100
AcDbTableStyle
  3
Standard
 70
     0
 71
     0
 40
0.06
 41
0.06
280
     0
281
     0
  7
Standard
140
0.18
170
     2
 62
     0
 63
   257
283
     0
 90
        4
 91
        0
  1

274
    -2
284
     1
 64
     0
275
    -2
285
     1
 65
     0
276
    -2
286
     1
 66
     0
277
    -2
287
     1
 67
     0
278
    -2
288
     1
 68
     0
279
    -2
289
     1
 69
     0
  7
Standard
140
0.25
170
     5
 62
     0
 63
   257
283
     0
 90
        4
 91
        0
  1

274
    -2
284
     1
 64
     0
275
    -2
285
     1
 65
     0
276
    -2
286
     1
 66
     0
277
    -2
287
     1
 67
     0
278
    -2
288
     1
 68
     0
279
    -2
289
     1
 69
     0
  7
Standard
140
0.18
170
     5
 62
     0
 63
   257
283
     0
 90
        4
 91
        0
  1

274
    -2
284
     1
 64
     0
275
    -2
285
     1
 65
     0
276
    -2
286
     1
 66
     0
277
    -2
287
     1
 67
     0
278
    -2
288
     1
 68
     0
279
    -2
289
     1
 69
     0
  0
VISUALSTYLE
  5
2F
102
{ACAD_REACTORS
330
2A
102
}
330
2A
100
AcDbVisualStyle
  2
2dWireframe
 70
     4
177
     3
291
     0
 70
    58
 90
        0
176
     1
 90
        2
176
     1
 90
        0
176
     1
 90
        0
176
     1
 40
0.6
176
     1
 40
30.0
176
     1
 62
     7
420
 16777215
176
     1
 90
        1
176
     1
 90
        4
176
     1
 62
     7
176
     1
 62
   257
176
     1
 90
        1
176
     1
 90
        1
176
     1
 40
1.0
176
     1
 90
        0
176
     1
 62
   257
176
     1
 40
1.0
176
     1
 90
        1
176
     1
 90
        6
176
     1
 90
        2
176
     1
 62
     7
176
     1
 90
        5
176
     1
 90
        0
176
     1
 90
        0
176
     1
290
     0
176
     1
 90
        1
176
     1
 40
0.0
176
     1
 90
        0
176
     1
290
     1
176
     1
290
     1
176
     1
290
     0
176
     1
290
     0
176
     1
290
     0
176
     1
290
     0
176
     1
290
     0
176
     1
290
     0
176
     1
290
     0
176
     1
 90
       50
176
     1
 40
0.0
176
     1
 40
1.0
176
     1
 90
        0
176
     1
 62
    18
420
        0
176
     1
 90
       50
176
     1
 90
        3
176
     1
 62
     5
420
      255
176
     1
290
     0
176
     1
 90
       50
176
     1
 90
       50
176
     1
 90
       50
176
     1
290
     0
176
     1
 90
       50
176
     1
 62
   256
176
     0
 40
1.0
176
     0
 90
        2
176
     1
  1
strokes_ogs.tif
176
     1
290
     0
176
     1
 40
1.0
176
     1
 40
1.0
176
     1
  0
VISUALSTYLE
  5
32
102
{ACAD_REACTORS
330
2A
102
}
330
2A
100
AcDbVisualStyle
  2
Basic
 70
     7
177
     3
291
     1
 70
    58
 90
        1
176
     1
 90
        0
176
     1
 90
        1
176
     1
 90
        0
176
     1
 40
0.6
176
     1
 40
30.0
176
     1
 62
     7
420
 16777215
176
     1
 90
        0
176
     1
 90
        4
176
     1
 62
     7
176
     1
 62
   257
176
     1
 90
        1
176
     1
 90
        1
176
     1
 40
1.0
176
     1
 90
        8
176
     1
 62
     7
176
     1
 40
1.0
176
     1
 90
        1
176
     1
 90
        6
176
     1
 90
        2
176
     1
 62
     7
176
     1
 90
        5
176
     1
 90
        0
176
     1
 90
        0
176
     1
290
     0
176
     1
 90
        1
176
     1
 40
0.0
176
     1
 90
        0
176
     1
290
     0
176
     1
290
     1
176
     1
290
     1
176
     1
290
     0
176
     1
290
     0
176
     1
290
     0
176
     1
290
     0
176
     1
290
     0
176
     1
290
     0
176
     1
 90
       50
176
     1
 40
0.0
176
     1
 40
1.0
176
     1
 90
        0
176
     1
 62
    18
420
        0
176
     1
 90
       50
176
     1
 90
        3
176
     1
 62
     5
420
      255
176
     1
290
     0
176
     1
 90
       50
176
     1
 90
       50
176
     1
 90
       50
176
     1
290
     0
176
     1
 90
       50
176
     1
 62
   256
176
     0
 40
1.0
176
     0
 90
        2
176
     1
  1
strokes_ogs.tif
176
     1
290
     0
176
     1
 40
1.0
176
     1
 40
1.0
176
     1
  0
VISUALSTYLE
  5
36
102
{ACAD_REACTORS
330
2A
102
}
330
2A
100
AcDbVisualStyle
  2
Brighten
 70
    12
177
     3
291
     1
 70
    58
 90
        2
176
     1
 90
        2
176
     1
 90
        0
176
     1
 90
        0
176
     1
 40
0.6
176
     1
 40
30.0
176
     1
 62
     7
420
 16777215
176
     1
 90
        1
176
     1
 90
        4
176
     1
 62
     7
176
     1
 62
   257
176
     1
 90
        1
176
     1
 90
        1
176
     1
 40
1.0
176
     1
 90
        8
176
     1
 62
     7
176
     1
 40
1.0
176
     1
 90
        1
176
     1
 90
        6
176
     1
 90
        2
176
     1
 62
     7
176
     1
 90
        5
176
     1
 90
        0
176
     1
 90
        0
176
     1
290
     0
176
     1
 90
        1
176
     1
 40
50.0
176
     1
 90
        0
176
     1
290
     0
176
     1
290
     1
176
     1
290
     1
176
     1
290
     0
176
     1
290
     0
176
     1
290
     0
176
     1
290
     0
176
     1
290
     0
176
     1
290
     0
176
     1
 90
       50
176
     1
 40
0.0
176
     1
 40
1.0
176
     1
 90
        0
176
     1
 62
    18
420
        0
176
     1
 90
       50
176
     1
 90
        3
176
     1
 62
     5
420
      255
176
     1
290
     0
176
     1
 90
       50
176
     1
 90
       50
176
     1
 90
       50
176
     1
290
     0
176
     1
 90
       50
176
     1
 62
   256
176
     0
 40
1.0
176
     0
 90
        2
176
     1
  1
strokes_ogs.tif
176
     1
290
     0
176
     1
 40
1.0
176
     1
 40
1.0
176
     1
  0
VISUALSTYLE
  5
3A
102
{ACAD_REACTORS
330
2A
102
}
330
2A
100
AcDbVisualStyle
  2
ColorChange
 70
    16
177
     3
291
     1
 70
    58
 90
        2
176
     1
 90
        2
176
     1
 90
        3
176
     1
 90
        0
176
     1
 40
0.6
176
     1
 40
30.0
176
     1
 62
     8
420
  8421504
176
     1
 90
        1
176
     1
 90
        4
176
     1
 62
     7
176
     1
 62
   257
176
     1
 90
        1
176
     1
 90
        1
176
     1
 40
1.0
176
     1
 90
        8
176
     1
 62
     8
420
  8421504
176
     1
 40
1.0
176
     1
 90
        1
176
     1
 90
        6
176
     1
 90
        2
176
     1
 62
     7
176
     1
 90
        5
176
     1
 90
        0
176
     1
 90
        0
176
     1
290
     0
176
     1
 90
        1
176
     1
 40
0.0
176
     1
 90
        0
176
     1
290
     0
176
     1
290
     1
176
     1
290
     1
176
     1
290
     0
176
     1
290
     0
176
     1
290
     0
176
     1
290
     0
176
     1
290
     0
176
     1
290
     0
176
     1
 90
       50
176
     1
 40
0.0
176
     1
 40
1.0
176
     1
 90
        0
176
     1
 62
    18
420
        0
176
     1
 90
       50
176
     1
 90
        3
176
     1
 62
     5
420
      255
176
     1
290
     0
176
     1
 90
       50
176
     1
 90
       50
176
     1
 90
       50
176
     1
290
     0
176
     1
 90
       50
176
     1
 62
   256
176
     0
 40
1.0
176
     0
 90
        2
176
     1
  1
strokes_ogs.tif
176
     1
290
     0
176
     1
 40
1.0
176
     1
 40
1.0
176
     1
  0
VISUALSTYLE
  5
34
102
{ACAD_REACTORS
330
2A
102
}
330
2A
100
AcDbVisualStyle
  2
Conceptual
 70
     9
177
     3
291
     0
 70
    58
 90
        3
176
     1
 90
        2
176
     1
 90
        0
176
     1
 90
        0
176
     1
 40
0.6
176
     1
 40
30.0
176
     1
 62
     7
420
 16777215
176
     1
 90
        2
176
     1
 90
        2
176
     1
 62
     7
176
     1
 62
   257
176
     1
 90
        1
176
     1
 90
        1
176
     1
 40
179.0
176
     1
 90
        8
176
     1
 62
     7
176
     1
 40
1.0
176
     1
 90
        1
176
     1
 90
        6
176
     1
 90
        2
176
     1
 62
     7
176
     1
 90
        3
176
     1
 90
        0
176
     1
 90
        0
176
     1
290
     0
176
     1
 90
        1
176
     1
 40
0.0
176
     1
 90
        0
176
     1
290
     0
176
     1
290
     1
176
     1
290
     1
176
     1
290
     0
176
     1
290
     0
176
     1
290
     0
176
     1
290
     0
176
     1
290
     0
176
     1
290
     0
176
     1
 90
       50
176
     1
 40
0.0
176
     1
 40
1.0
176
     1
 90
        0
176
     1
 62
    18
420
        0
176
     1
 90
       50
176
     1
 90
        3
176
     1
 62
     5
420
      255
176
     1
290
     0
176
     1
 90
       50
176
     1
 90
       50
176
     1
 90
       50
176
     1
290
     0
176
     1
 90
       50
176
     1
 62
   256
176
     0
 40
1.0
176
     0
 90
        2
176
     1
  1
strokes_ogs.tif
176
     1
290
     0
176
     1
 40
1.0
176
     1
 40
1.0
176
     1
  0
VISUALSTYLE
  5
35
102
{ACAD_REACTORS
330
2A
102
}
330
2A
100
AcDbVisualStyle
  2
Dim
 70
    11
177
     3
291
     1
 70
    58
 90
        2
176
     1
 90
        2
176
     1
 90
        0
176
     1
 90
        0
176
     1
 40
0.6
176
     1
 40
30.0
176
     1
 62
     7
420
 16777215
176
     1
 90
        1
176
     1
 90
        4
176
     1
 62
     7
176
     1
 62
   257
176
     1
 90
        1
176
     1
 90
        1
176
     1
 40
1.0
176
     1
 90
        8
176
     1
 62
     7
176
     1
 40
1.0
176
     1
 90
        1
176
     1
 90
        6
176
     1
 90
        2
176
     1
 62
     7
176
     1
 90
        5
176
     1
 90
        0
176
     1
 90
        0
176
     1
290
     0
176
     1
 90
        1
176
     1
 40
-50.0
176
     1
 90
        0
176
     1
290
     0
176
     1
290
     1
176
     1
290
     1
176
     1
290
     0
176
     1
290
     0
176
     1
290
     0
176
     1
290
     0
176
     1
290
     0
176
     1
290
     0
176
     1
 90
       50
176
     1
 40
0.0
176
     1
 40
1.0
176
     1
 90
        0
176
     1
 62
    18
420
        0
176
     1
 90
       50
176
     1
 90
        3
176
     1
 62
     5
420
      255
176
     1
290
     0
176
     1
 90
       50
176
     1
 90
       50
176
     1
 90
       50
176
     1
290
     0
176
     1
 90
       50
176
     1
 62
   256
176
     0
 40
1.0
176
     0
 90
        2
176
     1
  1
strokes_ogs.tif
176
     1
290
     0
176
     1
 40
1.0
176
     1
 40
1.0
176
     1
  0
VISUALSTYLE
  5
3D
102
{ACAD_REACTORS
330
2A
102
}
330
2A
100
AcDbVisualStyle
  2
EdgeColorOff
 70
    22
177
     3
291
     1
 70
    58
 90
        2
176
     0
 90
        2
176
     0
 90
        0
176
     0
 90
        0
176
     0
 40
0.6
176
     0
 40
30.0
176
     0
 62
     7
420
 16777215
176
     0
 90
        1
176
     0
 90
        4
176
     0
 62
     7
176
     0
 62
   257
176
     0
 90
        1
176
     0
 90
        1
176
     0
 40
1.0
176
     0
 90
        8
176
     2
 62
     7
176
     0
 40
1.0
176
     0
 90
        1
176
     0
 90
        6
176
     0
 90
        2
176
     0
 62
     7
176
     0
 90
        5
176
     0
 90
        0
176
     0
 90
        0
176
     0
290
     0
176
     0
 90
        1
176
     0
 40
0.0
176
     0
 90
        0
176
     0
290
     0
176
     0
290
     1
176
     0
290
     1
176
     0
290
     0
176
     0
290
     0
176
     0
290
     0
176
     0
290
     0
176
     0
290
     0
176
     0
290
     0
176
     0
 90
       50
176
     0
 40
0.0
176
     0
 40
1.0
176
     0
 90
        0
176
     0
 62
    18
420
        0
176
     0
 90
       50
176
     0
 90
        3
176
     0
 62
     5
420
      255
176
     0
290
     0
176
     0
 90
       50
176
     0
 90
       50
176
     0
 90
       50
176
     0
290
     0
176
     0
 90
       50
176
     0
 62
   256
176
     0
 40
1.0
176
     0
 90
        2
176
     0
  1
strokes_ogs.tif
176
     0
290
     0
176
     0
 40
1.0
176
     0
 40
1.0
176
     0
  0
VISUALSTYLE
  5
39
102
{ACAD_REACTORS
330
2A
102
}
330
2A
100
AcDbVisualStyle
  2
Facepattern
 70
    15
177
     3
291
     1
 70
    58
 90
        2
176
     1
 90
        2
176
     1
 90
        0
176
     1
 90
        0
176
     1
 40
0.6
176
     1
 40
30.0
176
     1
 62
     7
420
 16777215
176
     1
 90
        1
176
     1
 90
        4
176
     1
 62
     7
176
     1
 62
   257
176
     1
 90
        1
176
     1
 90
        1
176
     1
 40
1.0
176
     1
 90
        8
176
     1
 62
     7
176
     1
 40
1.0
176
     1
 90
        1
176
     1
 90
        6
176
     1
 90
        2
176
     1
 62
     7
176
     1
 90
        5
176
     1
 90
        0
176
     1
 90
        0
176
     1
290
     0
176
     1
 90
        1
176
     1
 40
0.0
176
     1
 90
        0
176
     1
290
     0
176
     1
290
     1
176
     1
290
     1
176
     1
290
     0
176
     1
290
     0
176
     1
290
     0
176
     1
290
     0
176
     1
290
     0
176
     1
290
     0
176
     1
 90
       50
176
     1
 40
0.0
176
     1
 40
1.0
176
     1
 90
        0
176
     1
 62
    18
420
        0
176
     1
 90
       50
176
     1
 90
        3
176
     1
 62
     5
420
      255
176
     1
290
     0
176
     1
 90
       50
176
     1
 90
       50
176
     1
 90
       50
176
     1
290
     0
176
     1
 90
       50
176
     1
 62
   256
176
     0
 40
1.0
176
     0
 90
        2
176
     1
  1
strokes_ogs.tif
176
     1
290
     0
176
     1
 40
1.0
176
     1
 40
1.0
176
     1
  0
VISUALSTYLE
  5
2B
102
{ACAD_REACTORS
330
2A
102
}
330
2A
100
AcDbVisualStyle
  2
Flat
 70
     0
177
     3
291
     1
 70
    58
 90
        2
176
     1
 90
        1
176
     1
 90
        1
176
     1
 90
        2
176
     1
 40
0.6
176
     1
 40
30.0
176
     1
 62
     7
420
 16777215
176
     1
 90
        0
176
     1
 90
        0
176
     1
 62
     7
176
     1
 62
   257
176
     1
 90
        1
176
     1
 90
        1
176
     1
 40
1.0
176
     1
 90
        8
176
     1
 62
     7
176
     1
 40
1.0
176
     1
 90
        1
176
     1
 90
        6
176
     1
 90
        2
176
     1
 62
     7
176
     1
 90
        5
176
     1
 90
        0
176
     1
 90
        0
176
     1
290
     0
176
     1
 90
       13
176
     1
 40
0.0
176
     1
 90
        0
176
     1
290
     0
176
     1
290
     1
176
     1
290
     1
176
     1
290
     0
176
     1
290
     0
176
     1
290
     0
176
     1
290
     0
176
     1
290
     0
176
     1
290
     0
176
     1
 90
       50
176
     1
 40
0.0
176
     1
 40
1.0
176
     1
 90
        0
176
     1
 62
    18
420
        0
176
     1
 90
       50
176
     1
 90
        3
176
     1
 62
     5
420
      255
176
     1
290
     0
176
     1
 90
       50
176
     1
 90
       50
176
     1
 90
       50
176
     1
290
     0
176
     1
 90
       50
176
     1
 62
   256
176
     0
 40
1.0
176
     0
 90
        2
176
     1
  1
strokes_ogs.tif
176
     1
290
     0
176
     1
 40
1.0
176
     1
 40
1.0
176
     1
  0
VISUALSTYLE
  5
2C
102
{ACAD_REACTORS
330
2A
102
}
330
2A
100
AcDbVisualStyle
  2
FlatWithEdges
 70
     1
177
     3
291
     1
 70
    58
 90
        2
176
     1
 90
        1
176
     1
 90
        1
176
     1
 90
        2
176
     1
 40
0.6
176
     1
 40
30.0
176
     1
 62
     7
420
 16777215
176
     1
 90
        1
176
     1
 90
        0
176
     1
 62
     7
176
     1
 62
   257
176
     1
 90
        1
176
     1
 90
        1
176
     1
 40
1.0
176
     1
 90
        0
176
     1
 62
   257
176
     1
 40
1.0
176
     1
 90
        1
176
     1
 90
        6
176
     1
 90
        2
176
     1
 62
     7
176
     1
 90
        5
176
     1
 90
        0
176
     1
 90
        0
176
     1
290
     0
176
     1
 90
       13
176
     1
 40
0.0
176
     1
 90
        0
176
     1
290
     0
176
     1
290
     1
176
     1
290
     1
176
     1
290
     0
176
     1
290
     0
176
     1
290
     0
176
     1
290
     0
176
     1
290
     0
176
     1
290
     0
176
     1
 90
       50
176
     1
 40
0.0
176
     1
 40
1.0
176
     1
 90
        0
176
     1
 62
    18
420
        0
176
     1
 90
       50
176
     1
 90
        3
176
     1
 62
     5
420
      255
176
     1
290
     0
176
     1
 90
       50
176
     1
 90
       50
176
     1
 90
       50
176
     1
290
     0
176
     1
 90
       50
176
     1
 62
   256
176
     0
 40
1.0
176
     0
 90
        2
176
     1
  1
strokes_ogs.tif
176
     1
290
     0
176
     1
 40
1.0
176
     1
 40
1.0
176
     1
  0
VISUALSTYLE
  5
2D
102
{ACAD_REACTORS
330
2A
102
}
330
2A
100
AcDbVisualStyle
  2
Gouraud
 70
     2
177
     3
291
     1
 70
    58
 90
        2
176
     1
 90
        2
176
     1
 90
        1
176
     1
 90
        2
176
     1
 40
0.6
176
     1
 40
30.0
176
     1
 62
     7
420
 16777215
176
     1
 90
        0
176
     1
 90
        0
176
     1
 62
     7
176
     1
 62
   257
176
     1
 90
        1
176
     1
 90
        1
176
     1
 40
1.0
176
     1
 90
        0
176
     1
 62
     7
176
     1
 40
1.0
176
     1
 90
        1
176
     1
 90
        6
176
     1
 90
        2
176
     1
 62
     7
176
     1
 90
        5
176
     1
 90
        0
176
     1
 90
        0
176
     1
290
     0
176
     1
 90
       13
176
     1
 40
0.0
176
     1
 90
        0
176
     1
290
     0
176
     1
290
     1
176
     1
290
     1
176
     1
290
     0
176
     1
290
     0
176
     1
290
     0
176
     1
290
     0
176
     1
290
     0
176
     1
290
     0
176
     1
 90
       50
176
     1
 40
0.0
176
     1
 40
1.0
176
     1
 90
        0
176
     1
 62
    18
420
        0
176
     1
 90
       50
176
     1
 90
        3
176
     1
 62
     5
420
      255
176
     1
290
     0
176
     1
 90
       50
176
     1
 90
       50
176
     1
 90
       50
176
     1
290
     0
176
     1
 90
       50
176
     1
 62
   256
176
     0
 40
1.0
176
     0
 90
        2
176
     1
  1
strokes_ogs.tif
176
     1
290
     0
176
     1
 40
1.0
176
     1
 40
1.0
176
     1
  0
VISUALSTYLE
  5
2E
102
{ACAD_REACTORS
330
2A
102
}
330
2A
100
AcDbVisualStyle
  2
GouraudWithEdges
 70
     3
177
     3
291
     1
 70
    58
 90
        2
176
     1
 90
        2
176
     1
 90
        1
176
     1
 90
        2
176
     1
 40
0.6
176
     1
 40
30.0
176
     1
 62
     7
420
 16777215
176
     1
 90
        1
176
     1
 90
        0
176
     1
 62
     7
176
     1
 62
   257
176
     1
 90
        1
176
     1
 90
        1
176
     1
 40
1.0
176
     1
 90
        0
176
     1
 62
   257
176
     1
 40
1.0
176
     1
 90
        1
176
     1
 90
        6
176
     1
 90
        2
176
     1
 62
     7
176
     1
 90
        5
176
     1
 90
        0
176
     1
 90
        0
176
     1
290
     0
176
     1
 90
       13
176
     1
 40
0.0
176
     1
 90
        0
176
     1
290
     0
176
     1
290
     1
176
     1
290
     1
176
     1
290
     0
176
     1
290
     0
176
     1
290
     0
176
     1
290
     0
176
     1
290
     0
176
     1
290
     0
176
     1
 90
       50
176
     1
 40
0.0
176
     1
 40
1.0
176
     1
 90
        0
176
     1
 62
    18
420
        0
176
     1
 90
       50
176
     1
 90
        3
176
     1
 62
     5
420
      255
176
     1
290
     0
176
     1
 90
       50
176
     1
 90
       50
176
     1
 90
       50
176
     1
290
     0
176
     1
 90
       50
176
     1
 62
   256
176
     0
 40
1.0
176
     0
 90
        2
176
     1
  1
strokes_ogs.tif
176
     1
290
     0
176
     1
 40
1.0
176
     1
 40
1.0
176
     1
  0
VISUALSTYLE
  5
31
102
{ACAD_REACTORS
330
2A
102
}
330
2A
100
AcDbVisualStyle
  2
Hidden
 70
     6
177
     3
291
     0
 70
    58
 90
        1
176
     1
 90
        2
176
     1
 90
        2
176
     1
 90
        0
176
     1
 40
0.6
176
     1
 40
30.0
176
     1
 62
     7
420
 16777215
176
     1
 90
        2
176
     1
 90
        2
176
     1
 62
     7
176
     1
 62
   257
176
     1
 90
        2
176
     1
 90
        1
176
     1
 40
40.0
176
     1
 90
        0
176
     1
 62
   257
176
     1
 40
1.0
176
     1
 90
        1
176
     1
 90
        6
176
     1
 90
        2
176
     1
 62
     7
176
     1
 90
        3
176
     1
 90
        0
176
     1
 90
        0
176
     1
290
     0
176
     1
 90
        1
176
     1
 40
0.0
176
     1
 90
        0
176
     1
290
     0
176
     1
290
     1
176
     1
290
     1
176
     1
290
     0
176
     1
290
     0
176
     1
290
     0
176
     1
290
     0
176
     1
290
     0
176
     1
290
     0
176
     1
 90
       50
176
     1
 40
0.0
176
     1
 40
1.0
176
     1
 90
        0
176
     1
 62
    18
420
        0
176
     1
 90
       50
176
     1
 90
        3
176
     1
 62
     5
420
      255
176
     1
290
     0
176
     1
 90
       50
176
     1
 90
       50
176
     1
 90
       50
176
     1
290
     0
176
     1
 90
       50
176
     1
 62
   256
176
     0
 40
1.0
176
     0
 90
        2
176
     1
  1
strokes_ogs.tif
176
     1
290
     0
176
     1
 40
1.0
176
     1
 40
1.0
176
     1
  0
VISUALSTYLE
  5
3B
102
{ACAD_REACTORS
330
2A
102
}
330
2A
100
AcDbVisualStyle
  2
JitterOff
 70
    20
177
     3
291
     1
 70
    58
 90
        2
176
     0
 90
        2
176
     0
 90
        0
176
     0
 90
        0
176
     0
 40
0.6
176
     0
 40
30.0
176
     0
 62
     7
420
 16777215
176
     0
 90
        1
176
     0
 90
        4
176
     0
 62
     7
176
     0
 62
   257
176
     0
 90
        1
176
     0
 90
        1
176
     0
 40
1.0
176
     0
 90
       10
176
     2
 62
     7
176
     0
 40
1.0
176
     0
 90
        1
176
     0
 90
        6
176
     0
 90
        2
176
     0
 62
     7
176
     0
 90
        5
176
     0
 90
        0
176
     0
 90
        0
176
     0
290
     0
176
     0
 90
        1
176
     0
 40
0.0
176
     0
 90
        0
176
     0
290
     0
176
     0
290
     1
176
     0
290
     1
176
     0
290
     0
176
     0
290
     0
176
     0
290
     0
176
     0
290
     0
176
     0
290
     0
176
     0
290
     0
176
     0
 90
       50
176
     0
 40
0.0
176
     0
 40
1.0
176
     0
 90
        0
176
     0
 62
    18
420
        0
176
     0
 90
       50
176
     0
 90
        3
176
     0
 62
     5
420
      255
176
     0
290
     0
176
     0
 90
       50
176
     0
 90
       50
176
     0
 90
       50
176
     0
290
     0
176
     0
 90
       50
176
     0
 62
   256
176
     0
 40
1.0
176
     0
 90
        2
176
     0
  1
strokes_ogs.tif
176
     0
290
     0
176
     0
 40
1.0
176
     0
 40
1.0
176
     0
  0
VISUALSTYLE
  5
38
102
{ACAD_REACTORS
330
2A
102
}
330
2A
100
AcDbVisualStyle
  2
Linepattern
 70
    14
177
     3
291
     1
 70
    58
 90
        2
176
     1
 90
        2
176
     1
 90
        0
176
     1
 90
        0
176
     1
 40
0.6
176
     1
 40
30.0
176
     1
 62
     7
420
 16777215
176
     1
 90
        1
176
     1
 90
        4
176
     1
 62
     7
176
     1
 62
   257
176
     1
 90
        7
176
     1
 90
        7
176
     1
 40
1.0
176
     1
 90
        8
176
     1
 62
     7
176
     1
 40
1.0
176
     1
 90
        1
176
     1
 90
        6
176
     1
 90
        2
176
     1
 62
     7
176
     1
 90
        5
176
     1
 90
        0
176
     1
 90
        0
176
     1
290
     0
176
     1
 90
        1
176
     1
 40
0.0
176
     1
 90
        0
176
     1
290
     0
176
     1
290
     1
176
     1
290
     1
176
     1
290
     0
176
     1
290
     0
176
     1
290
     0
176
     1
290
     0
176
     1
290
     0
176
     1
290
     0
176
     1
 90
       50
176
     1
 40
0.0
176
     1
 40
1.0
176
     1
 90
        0
176
     1
 62
    18
420
        0
176
     1
 90
       50
176
     1
 90
        3
176
     1
 62
     5
420
      255
176
     1
290
     0
176
     1
 90
       50
176
     1
 90
       50
176
     1
 90
       50
176
     1
290
     0
176
     1
 90
       50
176
     1
 62
   256
176
     0
 40
1.0
176
     0
 90
        2
176
     1
  1
strokes_ogs.tif
176
     1
290
     0
176
     1
 40
1.0
176
     1
 40
1.0
176
     1
  0
VISUALSTYLE
  5
3C
102
{ACAD_REACTORS
330
2A
102
}
330
2A
100
AcDbVisualStyle
  2
OverhangOff
 70
    21
177
     3
291
     1
 70
    58
 90
        2
176
     0
 90
        2
176
     0
 90
        0
176
     0
 90
        0
176
     0
 40
0.6
176
     0
 40
30.0
176
     0
 62
     7
420
 16777215
176
     0
 90
        1
176
     0
 90
        4
176
     0
 62
     7
176
     0
 62
   257
176
     0
 90
        1
176
     0
 90
        1
176
     0
 40
1.0
176
     0
 90
        9
176
     2
 62
     7
176
     0
 40
1.0
176
     0
 90
        1
176
     0
 90
        6
176
     0
 90
        2
176
     0
 62
     7
176
     0
 90
        5
176
     0
 90
        0
176
     0
 90
        0
176
     0
290
     0
176
     0
 90
        1
176
     0
 40
0.0
176
     0
 90
        0
176
     0
290
     0
176
     0
290
     1
176
     0
290
     1
176
     0
290
     0
176
     0
290
     0
176
     0
290
     0
176
     0
290
     0
176
     0
290
     0
176
     0
290
     0
176
     0
 90
       50
176
     0
 40
0.0
176
     0
 40
1.0
176
     0
 90
        0
176
     0
 62
    18
420
        0
176
     0
 90
       50
176
     0
 90
        3
176
     0
 62
     5
420
      255
176
     0
290
     0
176
     0
 90
       50
176
     0
 90
       50
176
     0
 90
       50
176
     0
290
     0
176
     0
 90
       50
176
     0
 62
   256
176
     0
 40
1.0
176
     0
 90
        2
176
     0
  1
strokes_ogs.tif
176
     0
290
     0
176
     0
 40
1.0
176
     0
 40
1.0
176
     0
  0
VISUALSTYLE
  5
33
102
{ACAD_REACTORS
330
2A
102
}
330
2A
100
AcDbVisualStyle
  2
Realistic
 70
     8
177
     3
291
     0
 70
    58
 90
        2
176
     1
 90
        3
176
     1
 90
        0
176
     1
 90
        2
176
     1
 40
0.6
176
     1
 40
30.0
176
     1
 62
     7
420
 16777215
176
     1
 90
        0
176
     1
 90
        0
176
     1
 62
     7
176
     1
 62
   257
176
     1
 90
        1
176
     1
 90
        1
176
     1
 40
1.0
176
     1
 90
        8
176
     1
 62
   257
176
     1
 40
1.0
176
     1
 90
        1
176
     1
 90
        6
176
     1
 90
        2
176
     1
 62
     7
176
     1
 90
        3
176
     1
 90
        0
176
     1
 90
        0
176
     1
290
     0
176
     1
 90
       13
176
     1
 40
0.0
176
     1
 90
        0
176
     1
290
     0
176
     1
290
     1
176
     1
290
     1
176
     1
290
     0
176
     1
290
     0
176
     1
290
     0
176
     1
290
     0
176
     1
290
     0
176
     1
290
     0
176
     1
 90
       50
176
     1
 40
0.0
176
     1
 40
1.0
176
     1
 90
        0
176
     1
 62
    18
420
        0
176
     1
 90
       50
176
     1
 90
        3
176
     1
 62
     5
420
      255
176
     1
290
     0
176
     1
 90
       50
176
     1
 90
       50
176
     1
 90
       50
176
     1
290
     0
176
     1
 90
       50
176
     1
 62
   256
176
     0
 40
1.0
176
     0
 90
        2
176
     1
  1
strokes_ogs.tif
176
     1
290
     0
176
     1
 40
1.0
176
     1
 40
1.0
176
     1
  0
VISUALSTYLE
  5
42
102
{ACAD_REACTORS
330
2A
102
}
330
2A
100
AcDbVisualStyle
  2
Shaded
 70
    27
177
     3
291
     0
 70
    58
 90
        2
176
     1
 90
        2
176
     1
 90
        1
176
     1
 90
        2
176
     1
 40
0.6
176
     1
 40
30.0
176
     1
 62
     7
420
 16777215
176
     1
 90
        0
176
     1
 90
        4
176
     1
 62
     7
176
     1
 62
   257
176
     1
 90
        1
176
     1
 90
        1
176
     1
 40
1.0
176
     1
 90
        8
176
     1
 62
   257
176
     1
 40
1.0
176
     1
 90
        1
176
     1
 90
        6
176
     1
 90
        2
176
     1
 62
     8
420
  7895160
176
     1
 90
        3
176
     1
 90
        0
176
     1
 90
        0
176
     1
290
     0
176
     1
 90
        5
176
     1
 40
0.0
176
     1
 90
        0
176
     1
290
     0
176
     1
290
     1
176
     1
290
     1
176
     1
290
     0
176
     1
290
     0
176
     1
290
     0
176
     1
290
     0
176
     1
290
     0
176
     1
290
     0
176
     1
 90
       50
176
     1
 40
0.0
176
     1
 40
1.0
176
     1
 90
        0
176
     1
 62
    18
420
        0
176
     1
 90
       50
176
     1
 90
        3
176
     1
 62
     5
420
      255
176
     1
290
     0
176
     1
 90
       50
176
     1
 90
       50
176
     1
 90
       50
176
     1
290
     0
176
     1
 90
       50
176
     1
 62
   256
176
     0
 40
1.0
176
     0
 90
        2
176
     1
  1
strokes_ogs.tif
176
     1
290
     0
176
     1
 40
1.0
176
     1
 40
1.0
176
     1
  0
VISUALSTYLE
  5
41
102
{ACAD_REACTORS
330
2A
102
}
330
2A
100
AcDbVisualStyle
  2
Shaded with edges
 70
    26
177
     3
291
     0
 70
    58
 90
        2
176
     1
 90
        2
176
     1
 90
        1
176
     1
 90
        2
176
     1
 40
0.6
176
     1
 40
30.0
176
     1
 62
     7
420
 16777215
176
     1
 90
        1
176
     1
 90
       10
176
     1
 62
     7
176
     1
 62
   257
176
     1
 90
        2
176
     1
 90
        1
176
     1
 40
1.0
176
     1
 90
        8
176
     1
 62
   257
176
     1
 40
1.0
176
     1
 90
        1
176
     1
 90
        6
176
     1
 90
        2
176
     1
 62
     7
176
     1
 90
        3
176
     1
 90
        0
176
     1
 90
        0
176
     1
290
     0
176
     1
 90
        5
176
     1
 40
0.0
176
     1
 90
        0
176
     1
290
     0
176
     1
290
     1
176
     1
290
     1
176
     1
290
     0
176
     1
290
     0
176
     1
290
     0
176
     1
290
     0
176
     1
290
     0
176
     1
290
     0
176
     1
 90
       50
176
     1
 40
0.0
176
     1
 40
1.0
176
     1
 90
        0
176
     1
 62
    18
420
        0
176
     1
 90
       50
176
     1
 90
        3
176
     1
 62
     5
420
      255
176
     1
290
     0
176
     1
 90
       50
176
     1
 90
       50
176
     1
 90
       50
176
     1
290
     0
176
     1
 90
       50
176
     1
 62
   256
176
     0
 40
1.0
176
     0
 90
        2
176
     1
  1
strokes_ogs.tif
176
     1
290
     0
176
     1
 40
1.0
176
     1
 40
1.0
176
     1
  0
VISUALSTYLE
  5
3E
102
{ACAD_REACTORS
330
2A
102
}
330
2A
100
AcDbVisualStyle
  2
Shades of Gray
 70
    23
177
     3
291
     0
 70
    58
 90
        2
176
     1
 90
        2
176
     1
 90
        3
176
     1
 90
        0
176
     1
 40
0.6
176
     1
 40
30.0
176
     1
 62
     7
420
 16777215
176
     1
 90
        2
176
     1
 90
        2
176
     1
 62
     7
176
     1
 62
     7
176
     1
 90
        1
176
     1
 90
        1
176
     1
 40
40.0
176
     1
 90
        8
176
     1
 62
     7
176
     1
 40
1.0
176
     1
 90
        1
176
     1
 90
        6
176
     1
 90
        2
176
     1
 62
     7
176
     1
 90
        3
176
     1
 90
        0
176
     1
 90
        0
176
     1
290
     0
176
     1
 90
        1
176
     1
 40
0.0
176
     1
 90
        0
176
     1
290
     0
176
     1
290
     1
176
     1
290
     1
176
     1
290
     0
176
     1
290
     0
176
     1
290
     0
176
     1
290
     0
176
     1
290
     0
176
     1
290
     0
176
     1
 90
       50
176
     1
 40
0.0
176
     1
 40
1.0
176
     1
 90
        0
176
     1
 62
    18
420
        0
176
     1
 90
       50
176
     1
 90
        3
176
     1
 62
     5
420
      255
176
     1
290
     0
176
     1
 90
       50
176
     1
 90
       50
176
     1
 90
       50
176
     1
290
     0
176
     1
 90
       50
176
     1
 62
   256
176
     0
 40
1.0
176
     0
 90
        2
176
     1
  1
strokes_ogs.tif
176
     1
290
     0
176
     1
 40
1.0
176
     1
 40
1.0
176
     1
  0
VISUALSTYLE
  5
3F
102
{ACAD_REACTORS
330
2A
102
}
330
2A
100
AcDbVisualStyle
  2
Sketchy
 70
    24
177
     3
291
     0
 70
    58
 90
        1
176
     1
 90
        2
176
     1
 90
        2
176
     1
 90
        0
176
     1
 40
0.6
176
     1
 40
30.0
176
     1
 62
     7
420
 16777215
176
     1
 90
        2
176
     1
 90
        2
176
     1
 62
     7
176
     1
 62
     7
176
     1
 90
        1
176
     1
 90
        1
176
     1
 40
40.0
176
     1
 90
       11
176
     1
 62
     7
176
     1
 40
1.0
176
     1
 90
        1
176
     1
 90
        6
176
     1
 90
        2
176
     1
 62
     7
176
     1
 90
        6
176
     1
 90
        0
176
     1
 90
        0
176
     1
290
     0
176
     1
 90
        1
176
     1
 40
0.0
176
     1
 90
        0
176
     1
290
     0
176
     1
290
     1
176
     1
290
     1
176
     1
290
     0
176
     1
290
     0
176
     1
290
     0
176
     1
290
     0
176
     1
290
     0
176
     1
290
     0
176
     1
 90
       50
176
     1
 40
0.0
176
     1
 40
1.0
176
     1
 90
        0
176
     1
 62
    18
420
        0
176
     1
 90
       50
176
     1
 90
        3
176
     1
 62
     5
420
      255
176
     1
290
     0
176
     1
 90
       50
176
     1
 90
       50
176
     1
 90
       50
176
     1
290
     0
176
     1
 90
       50
176
     1
 62
   256
176
     0
 40
1.0
176
     0
 90
        2
176
     1
  1
strokes_ogs.tif
176
     1
290
     0
176
     1
 40
1.0
176
     1
 40
1.0
176
     1
  0
VISUALSTYLE
  5
37
102
{ACAD_REACTORS
330
2A
102
}
330
2A
100
AcDbVisualStyle
  2
Thicken
 70
    13
177
     3
291
     1
 70
    58
 90
        2
176
     1
 90
        2
176
     1
 90
        0
176
     1
 90
        0
176
     1
 40
0.6
176
     1
 40
30.0
176
     1
 62
     7
420
 16777215
176
     1
 90
        1
176
     1
 90
        4
176
     1
 62
     7
176
     1
 62
   257
176
     1
 90
        1
176
     1
 90
        1
176
     1
 40
1.0
176
     1
 90
       12
176
     1
 62
     7
176
     1
 40
1.0
176
     1
 90
        1
176
     1
 90
        6
176
     1
 90
        2
176
     1
 62
     7
176
     1
 90
        5
176
     1
 90
        0
176
     1
 90
        0
176
     1
290
     0
176
     1
 90
        1
176
     1
 40
0.0
176
     1
 90
        0
176
     1
290
     0
176
     1
290
     1
176
     1
290
     1
176
     1
290
     0
176
     1
290
     0
176
     1
290
     0
176
     1
290
     0
176
     1
290
     0
176
     1
290
     0
176
     1
 90
       50
176
     1
 40
0.0
176
     1
 40
1.0
176
     1
 90
        0
176
     1
 62
    18
420
        0
176
     1
 90
       50
176
     1
 90
        3
176
     1
 62
     5
420
      255
176
     1
290
     0
176
     1
 90
       50
176
     1
 90
       50
176
     1
 90
       50
176
     1
290
     0
176
     1
 90
       50
176
     1
 62
   256
176
     0
 40
1.0
176
     0
 90
        2
176
     1
  1
strokes_ogs.tif
176
     1
290
     0
176
     1
 40
1.0
176
     1
 40
1.0
176
     1
  0
VISUALSTYLE
  5
30
102
{ACAD_REACTORS
330
2A
102
}
330
2A
100
AcDbVisualStyle
  2
Wireframe
 70
     5
177
     3
291
     0
 70
    58
 90
        0
176
     1
 90
        2
176
     1
 90
        0
176
     1
 90
        0
176
     1
 40
0.6
176
     1
 40
30.0
176
     1
 62
     7
420
 16777215
176
     1
 90
        1
176
     1
 90
        4
176
     1
 62
     7
176
     1
 62
   257
176
     1
 90
        1
176
     1
 90
        1
176
     1
 40
1.0
176
     1
 90
        0
176
     1
 62
   257
176
     1
 40
1.0
176
     1
 90
        1
176
     1
 90
        6
176
     1
 90
        2
176
     1
 62
     7
176
     1
 90
        3
176
     1
 90
        0
176
     1
 90
        0
176
     1
290
     0
176
     1
 90
        1
176
     1
 40
0.0
176
     1
 90
        0
176
     1
290
     0
176
     1
290
     1
176
     1
290
     1
176
     1
290
     0
176
     1
290
     0
176
     1
290
     0
176
     1
290
     0
176
     1
290
     0
176
     1
290
     0
176
     1
 90
       50
176
     1
 40
0.0
176
     1
 40
1.0
176
     1
 90
        0
176
     1
 62
    18
420
        0
176
     1
 90
       50
176
     1
 90
        3
176
     1
 62
     5
420
      255
176
     1
290
     0
176
     1
 90
       50
176
     1
 90
       50
176
     1
 90
       50
176
     1
290
     0
176
     1
 90
       50
176
     1
 62
   256
176
     0
 40
1.0
176
     0
 90
        2
176
     1
  1
strokes_ogs.tif
176
     1
290
     0
176
     1
 40
1.0
176
     1
 40
1.0
176
     1
  0
VISUALSTYLE
  5
40
102
{ACAD_REACTORS
330
2A
102
}
330
2A
100
AcDbVisualStyle
  2
X-Ray
 70
    25
177
     3
291
     0
 70
    58
 90
        2
176
     1
 90
        2
176
     1
 90
        1
176
     1
 90
        1
176
     1
 40
0.5
176
     1
 40
30.0
176
     1
 62
     7
420
 16777215
176
     1
 90
        1
176
     1
 90
        0
176
     1
 62
     7
176
     1
 62
   257
176
     1
 90
        1
176
     1
 90
        1
176
     1
 40
1.0
176
     1
 90
        8
176
     1
 62
     7
176
     1
 40
1.0
176
     1
 90
        1
176
     1
 90
        6
176
     1
 90
        2
176
     1
 62
     7
176
     1
 90
        3
176
     1
 90
        0
176
     1
 90
        0
176
     1
290
     0
176
     1
 90
       13
176
     1
 40
0.0
176
     1
 90
        0
176
     1
290
     0
176
     1
290
     1
176
     1
290
     1
176
     1
290
     0
176
     1
290
     0
176
     1
290
     0
176
     1
290
     0
176
     1
290
     0
176
     1
290
     0
176
     1
 90
       50
176
     1
 40
0.0
176
     1
 40
1.0
176
     1
 90
        0
176
     1
 62
    18
420
        0
176
     1
 90
       50
176
     1
 90
        3
176
     1
 62
     5
420
      255
176
     1
290
     0
176
     1
 90
       50
176
     1
 90
       50
176
     1
 90
       50
176
     1
290
     0
176
     1
 90
       50
176
     1
 62
   256
176
     0
 40
1.0
176
     0
 90
        2
176
     1
  1
strokes_ogs.tif
176
     1
290
     0
176
     1
 40
1.0
176
     1
 40
1.0
176
     1
  0
DICTIONARYVAR
  5
91
102
{ACAD_REACTORS
330
90
102
}
330
90
100
DictionaryVariables
280
     0
  1
1:1
  0
DICTIONARYVAR
  5
96
102
{ACAD_REACTORS
330
90
102
}
330
90
100
DictionaryVariables
280
     0
  1
Standard
  0
DICTIONARYVAR
  5
95
102
{ACAD_REACTORS
330
90
102
}
330
90
100
DictionaryVariables
280
     0
  1
Standard
  0
DICTIONARY
  5
92
330
5A
100
AcDbDictionary
280
     1
281
     1
  3
ACAD_ROUNDTRIP_2008_TABLESTYLE_CELLSTYLEMAP
360
93
  0
CELLSTYLEMAP
  5
93
102
{ACAD_REACTORS
330
92
102
}
330
92
100
AcDbCellStyleMap
 90
        3
300
CELLSTYLE
  1
TABLEFORMAT_BEGIN
 90
        5
170
     1
 91
        0
 92
    32768
 62
   257
 93
        1
300
CONTENTFORMAT
  1
CONTENTFORMAT_BEGIN
 90
        0
 91
        0
 92
        4
 93
        0
300

 40
0.0
140
1.0
 94
        5
 62
     0
340
11
144
0.25
309
CONTENTFORMAT_END
171
     1
301
MARGIN
  1
CELLMARGIN_BEGIN
 40
0.06
 40
0.06
 40
0.06
 40
0.06
 40
0.06
 40
0.06
309
CELLMARGIN_END
 94
        6
 95
        1
302
GRIDFORMAT
  1
GRIDFORMAT_BEGIN
 90
        0
 91
        1
 62
     0
 92
       -2
340
14
 93
        0
 40
0.045
309
GRIDFORMAT_END
 95
        2
302
GRIDFORMAT
  1
GRIDFORMAT_BEGIN
 90
        0
 91
        1
 62
     0
 92
       -2
340
14
 93
        0
 40
0.045
309
GRIDFORMAT_END
 95
        4
302
GRIDFORMAT
  1
GRIDFORMAT_BEGIN
 90
        0
 91
        1
 62
     0
 92
       -2
340
14
 93
        0
 40
0.045
309
GRIDFORMAT_END
 95
        8
302
GRIDFORMAT
  1
GRIDFORMAT_BEGIN
 90
        0
 91
        1
 62
     0
 92
       -2
340
14
 93
        0
 40
0.045
309
GRIDFORMAT_END
 95
       16
302
GRIDFORMAT
  1
GRIDFORMAT_BEGIN
 90
        0
 91
        1
 62
     0
 92
       -2
340
14
 93
        0
 40
0.045
309
GRIDFORMAT_END
 95
       32
302
GRIDFORMAT
  1
GRIDFORMAT_BEGIN
 90
        0
 91
        1
 62
     0
 92
       -2
340
14
 93
        0
 40
0.045
309
GRIDFORMAT_END
309
TABLEFORMAT_END
  1
CELLSTYLE_BEGIN
 90
        1
 91
        1
300
_TITLE
309
CELLSTYLE_END
300
CELLSTYLE
  1
TABLEFORMAT_BEGIN
 90
        5
170
     1
 91
        0
 92
        0
 62
   257
 93
        1
300
CONTENTFORMAT
  1
CONTENTFORMAT_BEGIN
 90
        0
 91
        0
 92
        4
 93
        0
300

 40
0.0
140
1.0
 94
        5
 62
     0
340
11
144
0.18
309
CONTENTFORMAT_END
171
     1
301
MARGIN
  1
CELLMARGIN_BEGIN
 40
0.06
 40
0.06
 40
0.06
 40
0.06
 40
0.06
 40
0.06
309
CELLMARGIN_END
 94
        6
 95
        1
302
GRIDFORMAT
  1
GRIDFORMAT_BEGIN
 90
        0
 91
        1
 62
     0
 92
       -2
340
14
 93
        0
 40
0.045
309
GRIDFORMAT_END
 95
        2
302
GRIDFORMAT
  1
GRIDFORMAT_BEGIN
 90
        0
 91
        1
 62
     0
 92
       -2
340
14
 93
        0
 40
0.045
309
GRIDFORMAT_END
 95
        4
302
GRIDFORMAT
  1
GRIDFORMAT_BEGIN
 90
        0
 91
        1
 62
     0
 92
       -2
340
14
 93
        0
 40
0.045
309
GRIDFORMAT_END
 95
        8
302
GRIDFORMAT
  1
GRIDFORMAT_BEGIN
 90
        0
 91
        1
 62
     0
 92
       -2
340
14
 93
        0
 40
0.045
309
GRIDFORMAT_END
 95
       16
302
GRIDFORMAT
  1
GRIDFORMAT_BEGIN
 90
        0
 91
        1
 62
     0
 92
       -2
340
14
 93
        0
 40
0.045
309
GRIDFORMAT_END
 95
       32
302
GRIDFORMAT
  1
GRIDFORMAT_BEGIN
 90
        0
 91
        1
 62
     0
 92
       -2
340
14
 93
        0
 40
0.045
309
GRIDFORMAT_END
309
TABLEFORMAT_END
  1
CELLSTYLE_BEGIN
 90
        2
 91
        1
300
_HEADER
309
CELLSTYLE_END
300
CELLSTYLE
  1
TABLEFORMAT_BEGIN
 90
        5
170
     1
 91
        0
 92
        0
 62
   257
 93
        1
300
CONTENTFORMAT
  1
CONTENTFORMAT_BEGIN
 90
        0
 91
        0
 92
        4
 93
        0
300

 40
0.0
140
1.0
 94
        2
 62
     0
340
11
144
0.18
309
CONTENTFORMAT_END
171
     1
301
MARGIN
  1
CELLMARGIN_BEGIN
 40
0.06
 40
0.06
 40
0.06
 40
0.06
 40
0.06
 40
0.06
309
CELLMARGIN_END
 94
        6
 95
        1
302
GRIDFORMAT
  1
GRIDFORMAT_BEGIN
 90
        0
 91
        1
 62
     0
 92
       -2
340
14
 93
        0
 40
0.045
309
GRIDFORMAT_END
 95
        2
302
GRIDFORMAT
  1
GRIDFORMAT_BEGIN
 90
        0
 91
        1
 62
     0
 92
       -2
340
14
 93
        0
 40
0.045
309
GRIDFORMAT_END
 95
        4
302
GRIDFORMAT
  1
GRIDFORMAT_BEGIN
 90
        0
 91
        1
 62
     0
 92
       -2
340
14
 93
        0
 40
0.045
309
GRIDFORMAT_END
 95
        8
302
GRIDFORMAT
  1
GRIDFORMAT_BEGIN
 90
        0
 91
        1
 62
     0
 92
       -2
340
14
 93
        0
 40
0.045
309
GRIDFORMAT_END
 95
       16
302
GRIDFORMAT
  1
GRIDFORMAT_BEGIN
 90
        0
 91
        1
 62
     0
 92
       -2
340
14
 93
        0
 40
0.045
309
GRIDFORMAT_END
 95
       32
302
GRIDFORMAT
  1
GRIDFORMAT_BEGIN
 90
        0
 91
        1
 62
     0
 92
       -2
340
14
 93
        0
 40
0.045
309
GRIDFORMAT_END
309
TABLEFORMAT_END
  1
CELLSTYLE_BEGIN
 90
        3
 91
        2
300
_DATA
309
CELLSTYLE_END
  0
ENDSEC
  0
EOF
