  0
SECTION
  2
HEADER
  9
$ACADVER
  1
AC1027
  9
$ACADMAINTVER
 70
   105
  9
$DWGCODEPAGE
  3
ANSI_1252
  9
$LASTSAVEDBY
  1
Office Desk
  9
$REQUIREDVERSIONS
160
                 0
  9
$INSBASE
 10
0.0
 20
0.0
 30
0.0
  9
$EXTMIN
 10
725.0296
 20
-481.7027
 30
0.0
  9
$EXTMAX
 10
1337.0151
 20
499.6877
 30
0.0
  9
$LIMMIN
 10
0.0
 20
0.0
  9
$LIMMAX
 10
12.0
 20
9.0
  9
$ORTHOMODE
 70
     0
  9
$REGENMODE
 70
     1
  9
$FILLMODE
 70
     1
  9
$QTEXTMODE
 70
     0
  9
$MIRRTEXT
 70
     1
  9
$LTSCALE
 40
1.0
  9
$ATTMODE
 70
     1
  9
$TEXTSIZE
 40
0.2
  9
$TRACEWID
 40
0.05
  9
$TEXTSTYLE
  7
Standard
  9
$CLAYER
  8
0
  9
$CELTYPE
  6
ByLayer
  9
$CECOLOR
 62
   256
  9
$CELTSCALE
 40
1.0
  9
$DISPSILH
 70
     0
  9
$DIMSCALE
 40
1.0
  9
$DIMASZ
 40
0.18
  9
$DIMEXO
 40
0.0625
  9
$DIMDLI
 40
0.38
  9
$DIMRND
 40
0.0
  9
$DIMDLE
 40
0.0
  9
$DIMEXE
 40
0.18
  9
$DIMTP
 40
0.0
  9
$DIMTM
 40
0.0
  9
$DIMTXT
 40
0.18
  9
$DIMCEN
 40
0.09
  9
$DIMTSZ
 40
0.0
  9
$DIMTOL
 70
     0
  9
$DIMLIM
 70
     0
  9
$DIMTIH
 70
     1
  9
$DIMTOH
 70
     1
  9
$DIMSE1
 70
     0
  9
$DIMSE2
 70
     0
  9
$DIMTAD
 70
     0
  9
$DIMZIN
 70
     0
  9
$DIMBLK
  1

  9
$DIMASO
 70
     1
  9
$DIMSHO
 70
     1
  9
$DIMPOST
  1

  9
$DIMAPOST
  1

  9
$DIMALT
 70
     0
  9
$DIMALTD
 70
     2
  9
$DIMALTF
 40
25.4
  9
$DIMLFAC
 40
1.0
  9
$DIMTOFL
 70
     0
  9
$DIMTVP
 40
0.0
  9
$DIMTIX
 70
     0
  9
$DIMSOXD
 70
     0
  9
$DIMSAH
 70
     0
  9
$DIMBLK1
  1

  9
$DIMBLK2
  1

  9
$DIMSTYLE
  2
Standard
  9
$DIMCLRD
 70
     0
  9
$DIMCLRE
 70
     0
  9
$DIMCLRT
 70
     0
  9
$DIMTFAC
 40
1.0
  9
$DIMGAP
 40
0.09
  9
$DIMJUST
 70
     0
  9
$DIMSD1
 70
     0
  9
$DIMSD2
 70
     0
  9
$DIMTOLJ
 70
     1
  9
$DIMTZIN
 70
     0
  9
$DIMALTZ
 70
     0
  9
$DIMALTTZ
 70
     0
  9
$DIMUPT
 70
     0
  9
$DIMDEC
 70
     4
  9
$DIMTDEC
 70
     4
  9
$DIMALTU
 70
     2
  9
$DIMALTTD
 70
     2
  9
$DIMTXSTY
  7
Standard
  9
$DIMAUNIT
 70
     0
  9
$DIMADEC
 70
     0
  9
$DIMALTRND
 40
0.0
  9
$DIMAZIN
 70
     0
  9
$DIMDSEP
 70
    46
  9
$DIMATFIT
 70
     3
  9
$DIMFRAC
 70
     0
  9
$DIMLDRBLK
  1

  9
$DIMLUNIT
 70
     2
  9
$DIMLWD
 70
    -2
  9
$DIMLWE
 70
    -2
  9
$DIMTMOVE
 70
     0
  9
$DIMFXL
 40
1.0
  9
$DIMFXLON
 70
     0
  9
$DIMJOGANG
 40
0.7853981633974483
  9
$DIMTFILL
 70
     0
  9
$DIMTFILLCLR
 70
     0
  9
$DIMARCSYM
 70
     0
  9
$DIMLTYPE
  6

  9
$DIMLTEX1
  6

  9
$DIMLTEX2
  6

  9
$DIMTXTDIRECTION
 70
     0
  9
$LUNITS
 70
     2
  9
$LUPREC
 70
     4
  9
$SKETCHINC
 40
0.1
  9
$FILLETRAD
 40
0.0
  9
$AUNITS
 70
     0
  9
$AUPREC
 70
     0
  9
$MENU
  1
.
  9
$ELEVATION
 40
0.0
  9
$PELEVATION
 40
0.0
  9
$THICKNESS
 40
0.0
  9
$LIMCHECK
 70
     0
  9
$CHAMFERA
 40
0.0
  9
$CHAMFERB
 40
0.0
  9
$CHAMFERC
 40
0.0
  9
$CHAMFERD
 40
0.0
  9
$SKPOLY
 70
     0
  9
$TDCREATE
 40
2461006.666706875
  9
$TDUCREATE
 40
2461006.437540209
  9
$TDUPDATE
 40
2461006.666706945
  9
$TDUUPDATE
 40
2461006.437540278
  9
$TDINDWG
 40
0.0000000116
  9
$TDUSRTIMER
 40
0.0000000116
  9
$USRTIMER
 70
     1
  9
$ANGBASE
 50
0.0
  9
$ANGDIR
 70
     0
  9
$PDMODE
 70
     0
  9
$PDSIZE
 40
0.0
  9
$PLINEWID
 40
0.0
  9
$SPLFRAME
 70
     0
  9
$SPLINETYPE
 70
     6
  9
$SPLINESEGS
 70
     8
  9
$HANDSEED
  5
A7
  9
$SURFTAB1
 70
     6
  9
$SURFTAB2
 70
     6
  9
$SURFTYPE
 70
     6
  9
$SURFU
 70
     6
  9
$SURFV
 70
     6
  9
$UCSBASE
  2

  9
$UCSNAME
  2

  9
$UCSORG
 10
0.0
 20
0.0
 30
0.0
  9
$UCSXDIR
 10
1.0
 20
0.0
 30
0.0
  9
$UCSYDIR
 10
0.0
 20
1.0
 30
0.0
  9
$UCSORTHOREF
  2

  9
$UCSORTHOVIEW
 70
     0
  9
$UCSORGTOP
 10
0.0
 20
0.0
 30
0.0
  9
$UCSORGBOTTOM
 10
0.0
 20
0.0
 30
0.0
  9
$UCSORGLEFT
 10
0.0
 20
0.0
 30
0.0
  9
$UCSORGRIGHT
 10
0.0
 20
0.0
 30
0.0
  9
$UCSORGFRONT
 10
0.0
 20
0.0
 30
0.0
  9
$UCSORGBACK
 10
0.0
 20
0.0
 30
0.0
  9
$PUCSBASE
  2

  9
$PUCSNAME
  2

  9
$PUCSORG
 10
0.0
 20
0.0
 30
0.0
  9
$PUCSXDIR
 10
1.0
 20
0.0
 30
0.0
  9
$PUCSYDIR
 10
0.0
 20
1.0
 30
0.0
  9
$PUCSORTHOREF
  2

  9
$PUCSORTHOVIEW
 70
     0
  9
$PUCSORGTOP
 10
0.0
 20
0.0
 30
0.0
  9
$PUCSORGBOTTOM
 10
0.0
 20
0.0
 30
0.0
  9
$PUCSORGLEFT
 10
0.0
 20
0.0
 30
0.0
  9
$PUCSORGRIGHT
 10
0.0
 20
0.0
 30
0.0
  9
$PUCSORGFRONT
 10
0.0
 20
0.0
 30
0.0
  9
$PUCSORGBACK
 10
0.0
 20
0.0
 30
0.0
  9
$USERI1
 70
     0
  9
$USERI2
 70
     0
  9
$USERI3
 70
     0
  9
$USERI4
 70
     0
  9
$USERI5
 70
     0
  9
$USERR1
 40
0.0
  9
$USERR2
 40
0.0
  9
$USERR3
 40
0.0
  9
$USERR4
 40
0.0
  9
$USERR5
 40
0.0
  9
$WORLDVIEW
 70
     1
  9
$SHADEDGE
 70
     3
  9
$SHADEDIF
 70
    70
  9
$TILEMODE
 70
     1
  9
$MAXACTVP
 70
    64
  9
$PINSBASE
 10
0.0
 20
0.0
 30
0.0
  9
$PLIMCHECK
 70
     0
  9
$PEXTMIN
 10
1.000000000000000E+20
 20
1.000000000000000E+20
 30
1.000000000000000E+20
  9
$PEXTMAX
 10
-1.000000000000000E+20
 20
-1.000000000000000E+20
 30
-1.000000000000000E+20
  9
$PLIMMIN
 10
0.0
 20
0.0
  9
$PLIMMAX
 10
12.0
 20
9.0
  9
$UNITMODE
 70
     0
  9
$VISRETAIN
 70
     1
  9
$PLINEGEN
 70
     0
  9
$PSLTSCALE
 70
     1
  9
$TREEDEPTH
 70
  3020
  9
$CMLSTYLE
  2
Standard
  9
$CMLJUST
 70
     0
  9
$CMLSCALE
 40
1.0
  9
$PROXYGRAPHICS
 70
     1
  9
$MEASUREMENT
 70
     0
  9
$CELWEIGHT
370
    -1
  9
$ENDCAPS
280
     0
  9
$JOINSTYLE
280
     0
  9
$LWDISPLAY
290
     0
  9
$INSUNITS
 70
     4
  9
$HYPERLINKBASE
  1

  9
$STYLESHEET
  1

  9
$XEDIT
290
     1
  9
$CEPSNTYPE
380
     0
  9
$PSTYLEMODE
290
     1
  9
$FINGERPRINTGUID
  2
{907f60d1-0a35-40e1-bca8-f9141250f828}
  9
$VERSIONGUID
  2
{FAEB1C32-E019-11D5-929B-00C0DF256EC4}
  9
$EXTNAMES
290
     1
  9
$PSVPSCALE
 40
0.0
  9
$OLESTARTUP
290
     0
  9
$SORTENTS
280
   127
  9
$INDEXCTL
280
     0
  9
$HIDETEXT
280
     1
  9
$XCLIPFRAME
280
     2
  9
$HALOGAP
280
     0
  9
$OBSCOLOR
 70
   257
  9
$OBSLTYPE
280
     0
  9
$INTERSECTIONDISPLAY
280
     0
  9
$INTERSECTIONCOLOR
 70
   257
  9
$DIMASSOC
280
     2
  9
$PROJECTNAME
  1

  9
$CAMERADISPLAY
290
     0
  9
$LENSLENGTH
 40
50.0
  9
$CAMERAHEIGHT
 40
0.0
  9
$STEPSPERSEC
 40
2.0
  9
$STEPSIZE
 40
6.0
  9
$3DDWFPREC
 40
2.0
  9
$PSOLWIDTH
 40
0.25
  9
$PSOLHEIGHT
 40
4.0
  9
$LOFTANG1
 40
1.570796326794897
  9
$LOFTANG2
 40
1.570796326794897
  9
$LOFTMAG1
 40
0.0
  9
$LOFTMAG2
 40
0.0
  9
$LOFTPARAM
 70
     7
  9
$LOFTNORMALS
280
     1
  9
$LATITUDE
 40
37.795
  9
$LONGITUDE
 40
-122.394
  9
$NORTHDIRECTION
 40
0.0
  9
$TIMEZONE
 70
 -8000
  9
$LIGHTGLYPHDISPLAY
280
     1
  9
$TILEMODELIGHTSYNCH
280
     1
  9
$CMATERIAL
347
44
  9
$SOLIDHIST
280
     0
  9
$SHOWHIST
280
     1
  9
$DWFFRAME
280
     2
  9
$DGNFRAME
280
     2
  9
$REALWORLDSCALE
290
     1
  9
$INTERFERECOLOR
 62
   256
  9
$CSHADOW
280
     0
  9
$SHADOWPLANELOCATION
 40
0.0
  0
ENDSEC
  0
SECTION
  2
CLASSES
  0
CLASS
  1
ACDBDICTIONARYWDFLT
  2
AcDbDictionaryWithDefault
  3
ObjectDBX Classes
 90
        0
 91
        3
280
     0
281
     0
  0
CLASS
  1
VISUALSTYLE
  2
AcDbVisualStyle
  3
ObjectDBX Classes
 90
     4095
 91
        3
280
     0
281
     0
  0
CLASS
  1
MATERIAL
  2
AcDbMaterial
  3
ObjectDBX Classes
 90
     1153
 91
        3
280
     0
281
     0
  0
CLASS
  1
SCALE
  2
AcDbScale
  3
ObjectDBX Classes
 90
     1153
 91
        3
280
     0
281
     0
  0
CLASS
  1
TABLESTYLE
  2
AcDbTableStyle
  3
ObjectDBX Classes
 90
     4095
 91
        3
280
     0
281
     0
  0
CLASS
  1
MLEADERSTYLE
  2
AcDbMLeaderStyle
  3
ACDB_MLEADERSTYLE_CLASS
 90
     4095
 91
        3
280
     0
281
     0
  0
CLASS
  1
SUN
  2
AcDbSun
  3
SCENEOE
 90
     1153
 91
        3
280
     0
281
     0
  0
CLASS
  1
DICTIONARYVAR
  2
AcDbDictionaryVar
  3
ObjectDBX Classes
 90
        0
 91
        3
280
     0
281
     0
  0
CLASS
  1
CELLSTYLEMAP
  2
AcDbCellStyleMap
  3
ObjectDBX Classes
 90
     1152
 91
        3
280
     0
281
     0
  0
ENDSEC
  0
SECTION
  2
TABLES
  0
TABLE
  2
VPORT
  5
8
330
0
100
AcDbSymbolTable
 70
     1
  0
VPORT
  5
29
330
8
100
AcDbSymbolTableRecord
100
AcDbViewportTableRecord
  2
*Active
 70
     0
 10
0.0
 20
0.0
 11
1.0
 21
1.0
 12
10.42990654205607
 22
4.5
 13
0.0
 23
0.0
 14
0.5
 24
0.5
 15
0.5
 25
0.5
 16
0.0
 26
0.0
 36
1.0
 17
0.0
 27
0.0
 37
0.0
 40
9.0
 41
1.972972972850329
 42
50.0
 43
0.0
 44
0.0
 50
0.0
 51
0.0
 71
     0
 72
   100
 73
     1
 74
     3
 75
     0
 76
     0
 77
     0
 78
     0
281
     0
 65
     1
110
0.0
120
0.0
130
0.0
111
1.0
121
0.0
131
0.0
112
0.0
122
1.0
132
0.0
 79
     0
146
0.0
348
2F
 60
     3
 61
     5
292
     1
282
     1
141
0.0
142
0.0
 63
   250
361
5D
  0
ENDTAB
  0
TABLE
  2
LTYPE
  5
5
330
0
100
AcDbSymbolTable
 70
     1
  0
LTYPE
  5
14
330
5
100
AcDbSymbolTableRecord
100
AcDbLinetypeTableRecord
  2
ByBlock
 70
     0
  3

 72
    65
 73
     0
 40
0.0
  0
LTYPE
  5
15
330
5
100
AcDbSymbolTableRecord
100
AcDbLinetypeTableRecord
  2
ByLayer
 70
     0
  3

 72
    65
 73
     0
 40
0.0
  0
LTYPE
  5
16
330
5
100
AcDbSymbolTableRecord
100
AcDbLinetypeTableRecord
  2
Continuous
 70
     0
  3
Solid line
 72
    65
 73
     0
 40
0.0
  0
ENDTAB
  0
TABLE
  2
LAYER
  5
2
330
0
100
AcDbSymbolTable
 70
     2
  0
LAYER
  5
10
330
2
100
AcDbSymbolTableRecord
100
AcDbLayerTableRecord
  2
0
 70
     0
 62
     7
  6
Continuous
370
    -3
390
F
347
46
348
0
  0
LAYER
  5
5F
330
2
100
AcDbSymbolTableRecord
100
AcDbLayerTableRecord
  2
Layer 1
 70
     0
 62
     7
  6
Continuous
370
    -3
390
F
347
46
348
0
  0
ENDTAB
  0
TABLE
  2
STYLE
  5
3
330
0
100
AcDbSymbolTable
 70
     1
  0
STYLE
  5
11
330
3
100
AcDbSymbolTableRecord
100
AcDbTextStyleTableRecord
  2
Standard
 70
     0
 40
0.0
 41
1.0
 50
0.0
 71
     0
 42
0.2
  3
txt
  4

  0
ENDTAB
  0
TABLE
  2
VIEW
  5
6
330
0
100
AcDbSymbolTable
 70
     0
  0
ENDTAB
  0
TABLE
  2
UCS
  5
7
330
0
100
AcDbSymbolTable
 70
     0
  0
ENDTAB
  0
TABLE
  2
APPID
  5
9
330
0
100
AcDbSymbolTable
 70
     2
  0
APPID
  5
12
330
9
100
AcDbSymbolTableRecord
100
AcDbRegAppTableRecord
  2
ACAD
 70
     0
  0
APPID
  5
5E
330
9
100
AcDbSymbolTableRecord
100
AcDbRegAppTableRecord
  2
ODA
 70
     0
  0
ENDTAB
  0
TABLE
  2
DIMSTYLE
  5
A
330
0
100
AcDbSymbolTable
 70
     1
100
AcDbDimStyleTable
  0
DIMSTYLE
105
27
330
A
100
AcDbSymbolTableRecord
100
AcDbDimStyleTableRecord
  2
Standard
 70
     0
178
     0
340
11
  0
ENDTAB
  0
TABLE
  2
BLOCK_RECORD
  5
1
330
0
100
AcDbSymbolTable
 70
     1
  0
BLOCK_RECORD
  5
1F
330
1
100
AcDbSymbolTableRecord
100
AcDbBlockTableRecord
  2
*Model_Space
340
22
 70
     0
280
     1
281
     0
  0
BLOCK_RECORD
  5
1B
330
1
100
AcDbSymbolTableRecord
100
AcDbBlockTableRecord
  2
*Paper_Space
340
1E
 70
     0
280
     1
281
     0
  0
BLOCK_RECORD
  5
23
330
1
100
AcDbSymbolTableRecord
100
AcDbBlockTableRecord
  2
*Paper_Space0
340
26
 70
     0
280
     1
281
     0
  0
ENDTAB
  0
ENDSEC
  0
SECTION
  2
BLOCKS
  0
BLOCK
  5
20
330
1F
100
AcDbEntity
  8
0
100
AcDbBlockBegin
  2
*Model_Space
 70
     0
 10
0.0
 20
0.0
 30
0.0
  3
*Model_Space
  1

  0
ENDBLK
  5
21
330
1F
100
AcDbEntity
  8
0
100
AcDbBlockEnd
  0
BLOCK
  5
1C
330
1B
100
AcDbEntity
 67
     1
  8
0
100
AcDbBlockBegin
  2
*Paper_Space
 70
     0
 10
0.0
 20
0.0
 30
0.0
  3
*Paper_Space
  1

  0
ENDBLK
  5
1D
330
1B
100
AcDbEntity
 67
     1
  8
0
100
AcDbBlockEnd
  0
BLOCK
  5
24
330
23
100
AcDbEntity
  8
0
100
AcDbBlockBegin
  2
*Paper_Space0
 70
     0
 10
0.0
 20
0.0
 30
0.0
  3
*Paper_Space0
  1

  0
ENDBLK
  5
25
330
23
100
AcDbEntity
  8
0
100
AcDbBlockEnd
  0
ENDSEC
  0
SECTION
  2
ENTITIES
  0
LWPOLYLINE
  5
60
330
1F
100
AcDbEntity
  8
Layer 1
 62
   250
370
    18
100
AcDbPolyline
 90
        5
 70
     1
 43
0.0
 10
725.1178
 20
-481.6145
 10
1336.9268
 20
-481.6145
 10
1336.9268
 20
499.5995
 10
725.1178
 20
499.5995
 10
725.1178
 20
-481.6145
  0
LWPOLYLINE
  5
61
330
1F
100
AcDbEntity
  8
Layer 1
 62
     7
370
    18
100
AcDbPolyline
 90
        5
 70
     0
 43
0.0
 10
775.5292
 20
301.9524
 10
778.1937
 20
301.9524
 10
778.1937
 20
301.0564
 10
778.1937
 20
-423.147
 10
774.8436
 20
-423.147
  0
LWPOLYLINE
  5
62
330
1F
100
AcDbEntity
  8
Layer 1
 62
     7
370
    18
100
AcDbPolyline
 90
        2
 70
     0
 43
0.0
 10
1189.2306
 20
301.9524
 10
1192.2006
 20
301.9524
  0
LWPOLYLINE
  5
63
330
1F
100
AcDbEntity
  8
Layer 1
 62
     7
370
    18
100
AcDbPolyline
 90
        4
 70
     0
 43
0.0
 10
1192.2556
 20
-423.147
 10
1189.2306
 20
-423.147
 10
1189.2306
 20
301.0564
 10
1189.2306
 20
301.9524
  0
LWPOLYLINE
  5
64
330
1F
100
AcDbEntity
  8
Layer 1
 62
     7
370
     9
100
AcDbPolyline
 90
        5
 70
     1
 43
0.0
 10
784.5946
 20
301.0564
 10
792.6887
 20
301.0564
 10
792.6887
 20
-424.0428
 10
784.5946
 20
-424.0428
 10
784.5946
 20
301.0564
  0
LWPOLYLINE
  5
65
330
1F
100
AcDbEntity
  8
Layer 1
 62
     7
370
     9
100
AcDbPolyline
 90
        5
 70
     1
 43
0.0
 10
801.5098
 20
301.0564
 10
809.6039
 20
301.0564
 10
809.6039
 20
-424.0428
 10
801.5098
 20
-424.0428
 10
801.5098
 20
301.0564
  0
LWPOLYLINE
  5
66
330
1F
100
AcDbEntity
  8
Layer 1
 62
     7
370
     9
100
AcDbPolyline
 90
        5
 70
     1
 43
0.0
 10
818.425
 20
301.0564
 10
826.5191
 20
301.0564
 10
826.5191
 20
-424.0428
 10
818.425
 20
-424.0428
 10
818.425
 20
301.0564
  0
LWPOLYLINE
  5
67
330
1F
100
AcDbEntity
  8
Layer 1
 62
     7
370
     9
100
AcDbPolyline
 90
        5
 70
     1
 43
0.0
 10
835.3402
 20
301.0564
 10
843.4342
 20
301.0564
 10
843.4342
 20
-424.0428
 10
835.3402
 20
-424.0428
 10
835.3402
 20
301.0564
  0
LWPOLYLINE
  5
68
330
1F
100
AcDbEntity
  8
Layer 1
 62
     7
370
     9
100
AcDbPolyline
 90
        5
 70
     1
 43
0.0
 10
852.2554
 20
301.0564
 10
860.3494
 20
301.0564
 10
860.3494
 20
-424.0428
 10
852.2554
 20
-424.0428
 10
852.2554
 20
301.0564
  0
LWPOLYLINE
  5
69
330
1F
100
AcDbEntity
  8
Layer 1
 62
     7
370
     9
100
AcDbPolyline
 90
        5
 70
     1
 43
0.0
 10
869.1706
 20
301.0564
 10
877.2646
 20
301.0564
 10
877.2646
 20
-424.0428
 10
869.1706
 20
-424.0428
 10
869.1706
 20
301.0564
  0
LWPOLYLINE
  5
6A
330
1F
100
AcDbEntity
  8
Layer 1
 62
     7
370
     9
100
AcDbPolyline
 90
        5
 70
     1
 43
0.0
 10
886.0858
 20
301.0564
 10
894.1798
 20
301.0564
 10
894.1798
 20
-424.0428
 10
886.0858
 20
-424.0428
 10
886.0858
 20
301.0564
  0
LWPOLYLINE
  5
6B
330
1F
100
AcDbEntity
  8
Layer 1
 62
     7
370
     9
100
AcDbPolyline
 90
        5
 70
     1
 43
0.0
 10
903.001
 20
301.0564
 10
911.095
 20
301.0564
 10
911.095
 20
-424.0428
 10
903.001
 20
-424.0428
 10
903.001
 20
301.0564
  0
LWPOLYLINE
  5
6C
330
1F
100
AcDbEntity
  8
Layer 1
 62
     7
370
     9
100
AcDbPolyline
 90
        5
 70
     1
 43
0.0
 10
919.9162
 20
301.0564
 10
928.0102
 20
301.0564
 10
928.0102
 20
-424.0428
 10
919.9162
 20
-424.0428
 10
919.9162
 20
301.0564
  0
LWPOLYLINE
  5
6D
330
1F
100
AcDbEntity
  8
Layer 1
 62
     7
370
     9
100
AcDbPolyline
 90
        5
 70
     1
 43
0.0
 10
936.8314
 20
301.0564
 10
944.9254
 20
301.0564
 10
944.9254
 20
-424.0428
 10
936.8314
 20
-424.0428
 10
936.8314
 20
301.0564
  0
LWPOLYLINE
  5
6E
330
1F
100
AcDbEntity
  8
Layer 1
 62
     7
370
     9
100
AcDbPolyline
 90
        5
 70
     1
 43
0.0
 10
953.7465
 20
301.0564
 10
961.8406
 20
301.0564
 10
961.8406
 20
-424.0428
 10
953.7465
 20
-424.0428
 10
953.7465
 20
301.0564
  0
LWPOLYLINE
  5
6F
330
1F
100
AcDbEntity
  8
Layer 1
 62
     7
370
     9
100
AcDbPolyline
 90
        5
 70
     1
 43
0.0
 10
970.6617
 20
301.0564
 10
978.7558
 20
301.0564
 10
978.7558
 20
-424.0428
 10
970.6617
 20
-424.0428
 10
970.6617
 20
301.0564
  0
LWPOLYLINE
  5
70
330
1F
100
AcDbEntity
  8
Layer 1
 62
     7
370
     9
100
AcDbPolyline
 90
        5
 70
     1
 43
0.0
 10
987.5769
 20
301.0564
 10
995.671
 20
301.0564
 10
995.671
 20
-424.0428
 10
987.5769
 20
-424.0428
 10
987.5769
 20
301.0564
  0
LWPOLYLINE
  5
71
330
1F
100
AcDbEntity
  8
Layer 1
 62
     7
370
     9
100
AcDbPolyline
 90
        5
 70
     1
 43
0.0
 10
1004.4921
 20
301.0564
 10
1012.5861
 20
301.0564
 10
1012.5861
 20
-424.0428
 10
1004.4921
 20
-424.0428
 10
1004.4921
 20
301.0564
  0
LWPOLYLINE
  5
72
330
1F
100
AcDbEntity
  8
Layer 1
 62
     7
370
     9
100
AcDbPolyline
 90
        5
 70
     1
 43
0.0
 10
1021.4073
 20
301.0564
 10
1029.5013
 20
301.0564
 10
1029.5013
 20
-424.0428
 10
1021.4073
 20
-424.0428
 10
1021.4073
 20
301.0564
  0
LWPOLYLINE
  5
73
330
1F
100
AcDbEntity
  8
Layer 1
 62
     7
370
     9
100
AcDbPolyline
 90
        5
 70
     1
 43
0.0
 10
1038.3225
 20
301.0564
 10
1046.4165
 20
301.0564
 10
1046.4165
 20
-424.0428
 10
1038.3225
 20
-424.0428
 10
1038.3225
 20
301.0564
  0
LWPOLYLINE
  5
74
330
1F
100
AcDbEntity
  8
Layer 1
 62
     7
370
     9
100
AcDbPolyline
 90
        5
 70
     1
 43
0.0
 10
1055.2377
 20
301.0564
 10
1063.3317
 20
301.0564
 10
1063.3317
 20
-424.0428
 10
1055.2377
 20
-424.0428
 10
1055.2377
 20
301.0564
  0
LWPOLYLINE
  5
75
330
1F
100
AcDbEntity
  8
Layer 1
 62
     7
370
     9
100
AcDbPolyline
 90
        5
 70
     1
 43
0.0
 10
1072.1529
 20
301.0564
 10
1080.2469
 20
301.0564
 10
1080.2469
 20
-424.0428
 10
1072.1529
 20
-424.0428
 10
1072.1529
 20
301.0564
  0
LWPOLYLINE
  5
76
330
1F
100
AcDbEntity
  8
Layer 1
 62
     7
370
     9
100
AcDbPolyline
 90
        5
 70
     1
 43
0.0
 10
1089.0681
 20
301.0564
 10
1097.1621
 20
301.0564
 10
1097.1621
 20
-424.0428
 10
1089.0681
 20
-424.0428
 10
1089.0681
 20
301.0564
  0
LWPOLYLINE
  5
77
330
1F
100
AcDbEntity
  8
Layer 1
 62
     7
370
     9
100
AcDbPolyline
 90
        5
 70
     1
 43
0.0
 10
1105.9833
 20
301.0564
 10
1114.0773
 20
301.0564
 10
1114.0773
 20
-424.0428
 10
1105.9833
 20
-424.0428
 10
1105.9833
 20
301.0564
  0
LWPOLYLINE
  5
78
330
1F
100
AcDbEntity
  8
Layer 1
 62
     7
370
     9
100
AcDbPolyline
 90
        5
 70
     1
 43
0.0
 10
1122.8984
 20
301.0564
 10
1130.9925
 20
301.0564
 10
1130.9925
 20
-424.0428
 10
1122.8984
 20
-424.0428
 10
1122.8984
 20
301.0564
  0
LWPOLYLINE
  5
79
330
1F
100
AcDbEntity
  8
Layer 1
 62
     7
370
     9
100
AcDbPolyline
 90
        5
 70
     1
 43
0.0
 10
1139.8136
 20
301.0564
 10
1147.9077
 20
301.0564
 10
1147.9077
 20
-424.0428
 10
1139.8136
 20
-424.0428
 10
1139.8136
 20
301.0564
  0
LWPOLYLINE
  5
7A
330
1F
100
AcDbEntity
  8
Layer 1
 62
     7
370
     9
100
AcDbPolyline
 90
        5
 70
     1
 43
0.0
 10
1156.7288
 20
301.0564
 10
1164.8229
 20
301.0564
 10
1164.8229
 20
-424.0428
 10
1156.7288
 20
-424.0428
 10
1156.7288
 20
301.0564
  0
LWPOLYLINE
  5
7B
330
1F
100
AcDbEntity
  8
Layer 1
 62
     7
370
     9
100
AcDbPolyline
 90
        5
 70
     1
 43
0.0
 10
1173.644
 20
301.0564
 10
1181.7381
 20
301.0564
 10
1181.7381
 20
-424.0428
 10
1173.644
 20
-424.0428
 10
1173.644
 20
301.0564
  0
LWPOLYLINE
  5
7C
330
1F
100
AcDbEntity
  8
Layer 1
 62
     7
370
     9
100
AcDbPolyline
 90
        5
 70
     1
 43
0.0
 10
774.9195
 20
301.0564
 10
1193.179
 20
301.0564
 10
1129.1986
 20
359.649
 10
814.3898
 20
359.063
 10
774.9195
 20
301.0564
  0
LWPOLYLINE
  5
7D
330
1F
100
AcDbEntity
  8
Layer 1
 62
     7
370
     9
100
AcDbPolyline
 90
        5
 70
     1
 43
0.0
 10
774.9195
 20
301.0564
 10
1191.4132
 20
301.0564
 10
1192.2566
 20
-424.0428
 10
774.8435
 20
-424.0428
 10
774.9195
 20
301.0564
  0
LWPOLYLINE
  5
7E
330
1F
100
AcDbEntity
  8
Layer 1
 62
     7
370
     9
100
AcDbPolyline
 90
        5
 70
     1
 43
0.0
 10
787.6216
 20
306.8305
 10
1176.4066
 20
306.8305
 10
1122.517
 20
353.8757
 10
822.1997
 20
353.4046
 10
787.6216
 20
306.8305
  0
LWPOLYLINE
  5
7F
330
1F
100
AcDbEntity
  8
Layer 1
 62
     7
100
AcDbPolyline
 90
       65
 70
     1
 43
0.0
 10
1220.6947
 20
-73.2103
 10
1221.1868
 20
-73.2337
 10
1221.6597
 20
-73.304
 10
1222.1134
 20
-73.4212
 10
1222.5479
 20
-73.5852
 10
1222.9632
 20
-73.7961
 10
1223.3593
 20
-74.0538
 10
1223.7362
 20
-74.3583
 10
1224.094
 20
-74.7096
 10
1224.4166
 20
-75.0905
 10
1224.6962
 20
-75.4931
 10
1224.9327
 20
-75.9175
 10
1225.1262
 20
-76.3636
 10
1225.2766
 20
-76.8313
 10
1225.3841
 20
-77.3208
 10
1225.4485
 20
-77.832
 10
1225.47
 20
-78.3649
 10
1225.4488
 20
-78.8931
 10
1225.3851
 20
-79.4036
 10
1225.2789
 20
-79.8964
 10
1225.1303
 20
-80.3714
 10
1224.9392
 20
-80.8287
 10
1224.7055
 20
-81.2682
 10
1224.4294
 20
-81.69
 10
1224.1107
 20
-82.094
 10
1223.7617
 20
-82.4626
 10
1223.3904
 20
-82.782
 10
1222.9969
 20
-83.0522
 10
1222.5811
 20
-83.2733
 10
1222.1429
 20
-83.4452
 10
1221.6825
 20
-83.5679
 10
1221.1998
 20
-83.6416
 10
1220.6947
 20
-83.6661
 10
1220.1898
 20
-83.6416
 10
1219.7072
 20
-83.5679
 10
1219.2468
 20
-83.4452
 10
1218.8087
 20
-83.2733
 10
1218.3929
 20
-83.0522
 10
1217.9994
 20
-82.782
 10
1217.6283
 20
-82.4626
 10
1217.2795
 20
-82.094
 10
1216.9608
 20
-81.69
 10
1216.6846
 20
-81.2682
 10
1216.4508
 20
-80.8287
 10
1216.2595
 20
-80.3714
 10
1216.1107
 20
-79.8964
 10
1216.0044
 20
-79.4036
 10
1215.9407
 20
-78.8931
 10
1215.9194
 20
-78.3649
 10
1215.9409
 20
-77.832
 10
1216.0054
 20
-77.3208
 10
1216.113
 20
-76.8313
 10
1216.2635
 20
-76.3636
 10
1216.457
 20
-75.9175
 10
1216.6935
 20
-75.4931
 10
1216.973
 20
-75.0905
 10
1217.2954
 20
-74.7096
 10
1217.6532
 20
-74.3583
 10
1218.0302
 20
-74.0538
 10
1218.4264
 20
-73.7961
 10
1218.8418
 20
-73.5852
 10
1219.2763
 20
-73.4212
 10
1219.73
 20
-73.304
 10
1220.2028
 20
-73.2337
 10
1220.6947
 20
-73.2103
  0
LWPOLYLINE
  5
80
330
1F
100
AcDbEntity
  8
Layer 1
 62
     7
100
AcDbPolyline
 90
       65
 70
     1
 43
0.0
 10
1220.6947
 20
-63.1205
 10
1221.0914
 20
-63.1388
 10
1221.4731
 20
-63.1935
 10
1221.8397
 20
-63.2849
 10
1222.1913
 20
-63.4127
 10
1222.5278
 20
-63.5771
 10
1222.8493
 20
-63.7781
 10
1223.1559
 20
-64.0157
 10
1223.4474
 20
-64.2898
 10
1223.7194
 20
-64.598
 10
1223.9551
 20
-64.9239
 10
1224.1547
 20
-65.2676
 10
1224.318
 20
-65.629
 10
1224.445
 20
-66.0081
 10
1224.5358
 20
-66.4049
 10
1224.5902
 20
-66.8194
 10
1224.6084
 20
-67.2516
 10
1224.5902
 20
-67.6741
 10
1224.5358
 20
-68.083
 10
1224.445
 20
-68.4782
 10
1224.318
 20
-68.8598
 10
1224.1547
 20
-69.2277
 10
1223.9551
 20
-69.5819
 10
1223.7194
 20
-69.9225
 10
1223.4474
 20
-70.2494
 10
1223.1578
 20
-70.5406
 10
1222.8527
 20
-70.7931
 10
1222.5319
 20
-71.0067
 10
1222.1956
 20
-71.1815
 10
1221.8437
 20
-71.3175
 10
1221.4762
 20
-71.4147
 10
1221.0932
 20
-71.473
 10
1220.6947
 20
-71.4924
 10
1220.2962
 20
-71.473
 10
1219.9133
 20
-71.4147
 10
1219.5459
 20
-71.3175
 10
1219.1941
 20
-71.1815
 10
1218.8578
 20
-71.0067
 10
1218.5371
 20
-70.7931
 10
1218.2318
 20
-70.5406
 10
1217.942
 20
-70.2494
 10
1217.6701
 20
-69.9225
 10
1217.4344
 20
-69.5819
 10
1217.235
 20
-69.2277
 10
1217.0718
 20
-68.8598
 10
1216.9449
 20
-68.4782
 10
1216.8543
 20
-68.083
 10
1216.7999
 20
-67.6741
 10
1216.7818
 20
-67.2516
 10
1216.7999
 20
-66.8194
 10
1216.8543
 20
-66.4049
 10
1216.9449
 20
-66.0081
 10
1217.0718
 20
-65.629
 10
1217.235
 20
-65.2676
 10
1217.4344
 20
-64.9239
 10
1217.6701
 20
-64.598
 10
1217.942
 20
-64.2898
 10
1218.2336
 20
-64.0157
 10
1218.5402
 20
-63.7781
 10
1218.8618
 20
-63.5771
 10
1219.1984
 20
-63.4127
 10
1219.55
 20
-63.2849
 10
1219.9166
 20
-63.1935
 10
1220.2982
 20
-63.1388
 10
1220.6947
 20
-63.1205
  0
LWPOLYLINE
  5
81
330
1F
100
AcDbEntity
  8
Layer 1
 62
     7
100
AcDbPolyline
 90
      121
 70
     1
 43
0.0
 10
1220.6947
 20
-86.225
 10
1221.4547
 20
-86.1933
 10
1222.184
 20
-86.0983
 10
1222.8828
 20
-85.9398
 10
1223.551
 20
-85.718
 10
1224.1886
 20
-85.4327
 10
1224.7957
 20
-85.084
 10
1225.3722
 20
-84.6719
 10
1225.9183
 20
-84.1963
 10
1226.1643
 20
-83.9479
 10
1226.3968
 20
-83.6869
 10
1226.6159
 20
-83.4133
 10
1226.8216
 20
-83.1271
 10
1227.0138
 20
-82.8284
 10
1227.1926
 20
-82.5171
 10
1227.358
 20
-82.1933
 10
1227.51
 20
-81.8569
 10
1227.646
 20
-81.5076
 10
1227.7638
 20
-81.1459
 10
1227.8634
 20
-80.7717
 10
1227.9449
 20
-80.3849
 10
1228.0083
 20
-79.9856
 10
1228.0535
 20
-79.5738
 10
1228.0807
 20
-79.1494
 10
1228.0897
 20
-78.7125
 10
1228.0744
 20
-78.2699
 10
1228.0286
 20
-77.8283
 10
1227.9522
 20
-77.3879
 10
1227.8453
 20
-76.9486
 10
1227.7078
 20
-76.5105
 10
1227.5397
 20
-76.0735
 10
1227.3411
 20
-75.6377
 10
1227.1119
 20
-75.203
 10
1226.854
 20
-74.7789
 10
1226.5697
 20
-74.3747
 10
1226.259
 20
-73.9905
 10
1225.9219
 20
-73.6263
 10
1225.5585
 20
-73.282
 10
1225.1687
 20
-72.9578
 10
1224.7524
 20
-72.6535
 10
1224.3098
 20
-72.3693
 10
1224.9394
 20
-71.7505
 10
1225.485
 20
-71.1186
 10
1225.9466
 20
-70.4734
 10
1226.3243
 20
-69.8151
 10
1226.618
 20
-69.1437
 10
1226.8278
 20
-68.4591
 10
1226.9536
 20
-67.7614
 10
1226.9956
 20
-67.0505
 10
1226.9669
 20
-66.3491
 10
1226.8806
 20
-65.6804
 10
1226.7369
 20
-65.0443
 10
1226.5357
 20
-64.4408
 10
1226.2769
 20
-63.8698
 10
1225.9606
 20
-63.3315
 10
1225.5868
 20
-62.8257
 10
1225.1554
 20
-62.3524
 10
1224.6993
 20
-61.9411
 10
1224.2142
 20
-61.5846
 10
1223.7001
 20
-61.283
 10
1223.157
 20
-61.0362
 10
1222.5849
 20
-60.8443
 10
1221.9839
 20
-60.7072
 10
1221.3538
 20
-60.625
 10
1220.6947
 20
-60.5976
 10
1220.0357
 20
-60.625
 10
1219.4056
 20
-60.7072
 10
1218.8046
 20
-60.8443
 10
1218.2325
 20
-61.0362
 10
1217.6895
 20
-61.283
 10
1217.1755
 20
-61.5846
 10
1216.6906
 20
-61.9411
 10
1216.2347
 20
-62.3524
 10
1215.8033
 20
-62.8254
 10
1215.4294
 20
-63.3304
 10
1215.113
 20
-63.8673
 10
1214.8541
 20
-64.4362
 10
1214.6527
 20
-65.0372
 10
1214.5089
 20
-65.6701
 10
1214.4226
 20
-66.3351
 10
1214.3938
 20
-67.0321
 10
1214.4358
 20
-67.7474
 10
1214.5618
 20
-68.4489
 10
1214.7717
 20
-69.1366
 10
1215.0656
 20
-69.8107
 10
1215.4434
 20
-70.4709
 10
1215.9051
 20
-71.1175
 10
1216.4508
 20
-71.7502
 10
1217.0804
 20
-72.3693
 10
1216.6375
 20
-72.6535
 10
1216.2211
 20
-72.9578
 10
1215.8311
 20
-73.282
 10
1215.4676
 20
-73.6263
 10
1215.1305
 20
-73.9905
 10
1214.8198
 20
-74.3747
 10
1214.5354
 20
-74.7789
 10
1214.2775
 20
-75.203
 10
1214.0483
 20
-75.6385
 10
1213.8497
 20
-76.0769
 10
1213.6816
 20
-76.5182
 10
1213.5441
 20
-76.9624
 10
1213.4372
 20
-77.4093
 10
1213.3608
 20
-77.8591
 10
1213.315
 20
-78.3117
 10
1213.2997
 20
-78.767
 10
1213.3336
 20
-79.5837
 10
1213.4355
 20
-80.3609
 10
1213.6052
 20
-81.0987
 10
1213.8428
 20
-81.797
 10
1214.1482
 20
-82.4559
 10
1214.5216
 20
-83.0754
 10
1214.9628
 20
-83.6556
 10
1215.4719
 20
-84.1963
 10
1216.0177
 20
-84.6719
 10
1216.5941
 20
-85.084
 10
1217.201
 20
-85.4327
 10
1217.8385
 20
-85.718
 10
1218.5067
 20
-85.9398
 10
1219.2054
 20
-86.0983
 10
1219.9347
 20
-86.1933
 10
1220.6947
 20
-86.225
  0
LWPOLYLINE
  5
82
330
1F
100
AcDbEntity
  8
Layer 1
 62
     7
100
AcDbPolyline
 90
      136
 70
     1
 43
0.0
 10
1235.3526
 20
-70.2125
 10
1236.8782
 20
-63.5586
 10
1245.0361
 20
-63.5586
 10
1245.0361
 20
-60.9997
 10
1235.1201
 20
-60.9997
 10
1232.5337
 20
-72.1499
 10
1235.054
 20
-73.3929
 10
1235.4195
 20
-73.1188
 10
1235.8032
 20
-72.8812
 10
1236.205
 20
-72.6802
 10
1236.6249
 20
-72.5158
 10
1237.063
 20
-72.388
 10
1237.5192
 20
-72.2966
 10
1237.9935
 20
-72.2419
 10
1238.4859
 20
-72.2236
 10
1238.9813
 20
-72.2504
 10
1239.4602
 20
-72.3309
 10
1239.9224
 20
-72.465
 10
1240.3681
 20
-72.6529
 10
1240.7972
 20
-72.8944
 10
1241.2096
 20
-73.1897
 10
1241.6055
 20
-73.5387
 10
1241.9848
 20
-73.9415
 10
1242.3424
 20
-74.3908
 10
1242.6523
 20
-74.8566
 10
1242.9146
 20
-75.3391
 10
1243.1291
 20
-75.8381
 10
1243.2959
 20
-76.3536
 10
1243.4151
 20
-76.8858
 10
1243.4866
 20
-77.4345
 10
1243.5104
 20
-77.9997
 10
1243.486
 20
-78.5844
 10
1243.413
 20
-79.1457
 10
1243.2912
 20
-79.6835
 10
1243.1207
 20
-80.1979
 10
1242.9016
 20
-80.6888
 10
1242.6337
 20
-81.1563
 10
1242.3173
 20
-81.6004
 10
1241.9521
 20
-82.0211
 10
1241.7662
 20
-82.2082
 10
1241.5736
 20
-82.3856
 10
1241.3743
 20
-82.5533
 10
1241.1683
 20
-82.7113
 10
1240.9556
 20
-82.8595
 10
1240.7361
 20
-82.998
 10
1240.5099
 20
-83.1268
 10
1240.2768
 20
-83.2457
 10
1240.0339
 20
-83.3529
 10
1239.7774
 20
-83.4458
 10
1239.5075
 20
-83.5244
 10
1239.2242
 20
-83.5887
 10
1238.9273
 20
-83.6387
 10
1238.6169
 20
-83.6744
 10
1238.293
 20
-83.6959
 10
1237.9556
 20
-83.703
 10
1237.6119
 20
-83.687
 10
1237.2687
 20
-83.639
 10
1236.9259
 20
-83.5589
 10
1236.5836
 20
-83.4469
 10
1236.2418
 20
-83.3029
 10
1235.9005
 20
-83.127
 10
1235.5598
 20
-82.9192
 10
1235.2196
 20
-82.6794
 10
1234.8921
 20
-82.4137
 10
1234.5895
 20
-82.1286
 10
1234.3118
 20
-81.8241
 10
1234.0589
 20
-81.5002
 10
1233.831
 20
-81.1568
 10
1233.6279
 20
-80.794
 10
1233.4498
 20
-80.4117
 10
1233.2966
 20
-80.01
 10
1231.0415
 20
-80.8149
 10
1231.263
 20
-81.4167
 10
1231.5213
 20
-81.9881
 10
1231.8164
 20
-82.5293
 10
1232.1483
 20
-83.0401
 10
1232.5169
 20
-83.5207
 10
1232.9223
 20
-83.9711
 10
1233.3645
 20
-84.3911
 10
1233.8436
 20
-84.781
 10
1234.353
 20
-85.1367
 10
1234.8738
 20
-85.445
 10
1235.4059
 20
-85.7058
 10
1235.9494
 20
-85.9193
 10
1236.5042
 20
-86.0853
 10
1237.0706
 20
-86.2038
 10
1237.6483
 20
-86.275
 10
1238.2375
 20
-86.2987
 10
1239.0225
 20
-86.2596
 10
1239.7775
 20
-86.1421
 10
1240.5024
 20
-85.9464
 10
1241.1973
 20
-85.6725
 10
1241.862
 20
-85.3203
 10
1242.4968
 20
-84.8898
 10
1243.1015
 20
-84.3812
 10
1243.6761
 20
-83.7943
 10
1244.1969
 20
-83.157
 10
1244.6483
 20
-82.4884
 10
1245.0303
 20
-81.7884
 10
1245.3428
 20
-81.057
 10
1245.5859
 20
-80.2942
 10
1245.7595
 20
-79.4999
 10
1245.8637
 20
-78.6742
 10
1245.8984
 20
-77.8171
 10
1245.8642
 20
-76.9644
 10
1245.7615
 20
-76.1478
 10
1245.5905
 20
-75.3672
 10
1245.351
 20
-74.6226
 10
1245.0432
 20
-73.914
 10
1244.6669
 20
-73.2414
 10
1244.2224
 20
-72.6048
 10
1243.7095
 20
-72.0041
 10
1243.4473
 20
-71.737
 10
1243.1747
 20
-71.4843
 10
1242.8918
 20
-71.2458
 10
1242.5984
 20
-71.0216
 10
1242.2947
 20
-70.8117
 10
1241.9806
 20
-70.6161
 10
1241.6562
 20
-70.4348
 10
1241.3215
 20
-70.2678
 10
1240.98
 20
-70.1177
 10
1240.6356
 20
-69.9876
 10
1240.2882
 20
-69.8776
 10
1239.9379
 20
-69.7877
 10
1239.5847
 20
-69.7177
 10
1239.2288
 20
-69.6678
 10
1238.8701
 20
-69.6379
 10
1238.5087
 20
-69.6279
 10
1238.1401
 20
-69.637
 10
1237.7642
 20
-69.6645
 10
1237.3811
 20
-69.7102
 10
1236.9905
 20
-69.7741
 10
1236.5924
 20
-69.8564
 10
1236.1868
 20
-69.9568
 10
1235.7735
 20
-70.0756
 10
1235.3526
 20
-70.2125
  0
LWPOLYLINE
  5
83
330
1F
100
AcDbEntity
  8
Layer 1
 62
     7
100
AcDbPolyline
 90
      129
 70
     1
 43
0.0
 10
1258.7488
 20
-63.8877
 10
1259.1316
 20
-64.1744
 10
1259.4886
 20
-64.5001
 10
1259.8196
 20
-64.8645
 10
1260.1249
 20
-65.2679
 10
1260.4042
 20
-65.7101
 10
1260.6576
 20
-66.1912
 10
1260.885
 20
-66.7112
 10
1261.0866
 20
-67.27
 10
1261.3121
 20
-68.0111
 10
1261.5074
 20
-68.7629
 10
1261.6728
 20
-69.5257
 10
1261.808
 20
-70.2993
 10
1261.9132
 20
-71.0838
 10
1261.9884
 20
-71.8792
 10
1262.0335
 20
-72.6854
 10
1262.0485
 20
-73.5026
 10
1262.0469
 20
-73.6988
 10
1262.0422
 20
-73.9037
 10
1262.0344
 20
-74.1171
 10
1262.0235
 20
-74.3392
 10
1262.0095
 20
-74.5698
 10
1261.9924
 20
-74.8089
 10
1261.9723
 20
-75.0565
 10
1261.949
 20
-75.3127
 10
1261.8339
 20
-76.2954
 10
1261.6836
 20
-77.2239
 10
1261.498
 20
-78.0981
 10
1261.2772
 20
-78.9181
 10
1261.0212
 20
-79.6838
 10
1260.73
 20
-80.3954
 10
1260.4035
 20
-81.0527
 10
1260.0419
 20
-81.6559
 10
1259.712
 20
-82.11
 10
1259.3644
 20
-82.5035
 10
1258.9991
 20
-82.8365
 10
1258.6162
 20
-83.109
 10
1258.2157
 20
-83.3209
 10
1257.7976
 20
-83.4722
 10
1257.3619
 20
-83.563
 10
1256.9085
 20
-83.5933
 10
1256.4024
 20
-83.5633
 10
1255.9207
 20
-83.4733
 10
1255.4634
 20
-83.3233
 10
1255.0304
 20
-83.1133
 10
1254.6217
 20
-82.8433
 10
1254.2374
 20
-82.5134
 10
1253.8775
 20
-82.1234
 10
1253.5419
 20
-81.6735
 10
1253.4
 20
-81.4555
 10
1253.2643
 20
-81.2306
 10
1253.1348
 20
-80.9988
 10
1253.0115
 20
-80.7601
 10
1252.8945
 20
-80.5144
 10
1252.7837
 20
-80.2619
 10
1252.6791
 20
-80.0025
 10
1252.5808
 20
-79.7361
 10
1252.4882
 20
-79.4657
 10
1252.4013
 20
-79.1936
 10
1252.3201
 20
-78.9198
 10
1252.2447
 20
-78.6442
 10
1252.175
 20
-78.3668
 10
1252.111
 20
-78.0876
 10
1252.0528
 20
-77.8067
 10
1252.0003
 20
-77.524
 10
1251.9523
 20
-77.2418
 10
1251.9079
 20
-76.962
 10
1251.8673
 20
-76.6845
 10
1251.8303
 20
-76.4093
 10
1251.7969
 20
-76.1364
 10
1251.7672
 20
-75.8658
 10
1251.741
 20
-75.5973
 10
1251.7184
 20
-75.3311
 10
1251.6989
 20
-75.0609
 10
1251.6821
 20
-74.7804
 10
1251.6679
 20
-74.4899
 10
1251.6562
 20
-74.1893
 10
1251.6472
 20
-73.8787
 10
1251.6407
 20
-73.5582
 10
1251.6369
 20
-73.2278
 10
1251.6356
 20
-72.8878
 10
1251.6413
 20
-72.5323
 10
1251.6584
 20
-72.1563
 10
1251.6869
 20
-71.7596
 10
1251.7268
 20
-71.3421
 10
1251.7781
 20
-70.9038
 10
1251.8408
 20
-70.4445
 10
1251.9148
 20
-69.9642
 10
1252.0003
 20
-69.4628
 10
1252.0525
 20
-69.1845
 10
1252.11
 20
-68.9067
 10
1252.1727
 20
-68.6295
 10
1252.2406
 20
-68.3528
 10
1252.3137
 20
-68.0767
 10
1252.392
 20
-67.8011
 10
1252.4755
 20
-67.5261
 10
1252.5641
 20
-67.2516
 10
1252.6586
 20
-66.9808
 10
1252.7599
 20
-66.7168
 10
1252.8678
 20
-66.4597
 10
1252.9826
 20
-66.2095
 10
1253.104
 20
-65.9661
 10
1253.2323
 20
-65.7296
 10
1253.3674
 20
-65.5
 10
1253.5093
 20
-65.2773
 10
1253.6579
 20
-65.0632
 10
1253.8139
 20
-64.86
 10
1253.977
 20
-64.6677
 10
1254.1475
 20
-64.4863
 10
1254.3252
 20
-64.3158
 10
1254.5102
 20
-64.1561
 10
1254.7024
 20
-64.0073
 10
1254.9019
 20
-63.8693
 10
1255.1097
 20
-63.745
 10
1255.3269
 20
-63.6373
 10
1255.5533
 20
-63.5462
 10
1255.7891
 20
-63.4716
 10
1256.0341
 20
-63.4137
 10
1256.2885
 20
-63.3722
 10
1256.5521
 20
-63.3474
 10
1256.825
 20
-63.3391
 10
1257.0981
 20
-63.3477
 10
1257.3619
 20
-63.3735
 10
1257.6164
 20
-63.4164
 10
1257.8615
 20
-63.4765
 10
1258.0973
 20
-63.5536
 10
1258.3238
 20
-63.6479
 10
1258.541
 20
-63.7593
 10
1258.7488
 20
-63.8877
  0
LWPOLYLINE
  5
84
330
1F
100
AcDbEntity
  8
Layer 1
 62
     7
100
AcDbPolyline
 90
       65
 70
     1
 43
0.0
 10
1256.9412
 20
-86.189
 10
1257.9093
 20
-86.1213
 10
1258.8158
 20
-85.9182
 10
1259.6607
 20
-85.5798
 10
1260.4439
 20
-85.106
 10
1261.1655
 20
-84.4968
 10
1261.8254
 20
-83.7522
 10
1262.4237
 20
-82.8722
 10
1262.9603
 20
-81.8569
 10
1263.3372
 20
-80.9708
 10
1263.6639
 20
-80.0356
 10
1263.9403
 20
-79.0513
 10
1264.1665
 20
-78.0179
 10
1264.3424
 20
-76.9353
 10
1264.4681
 20
-75.8037
 10
1264.5436
 20
-74.6228
 10
1264.5687
 20
-73.3929
 10
1264.5436
 20
-72.1632
 10
1264.4681
 20
-70.9826
 10
1264.3424
 20
-69.8511
 10
1264.1665
 20
-68.7687
 10
1263.9403
 20
-67.7353
 10
1263.6639
 20
-66.751
 10
1263.3372
 20
-65.8158
 10
1262.9603
 20
-64.9297
 10
1262.4237
 20
-63.9144
 10
1261.8254
 20
-63.0344
 10
1261.1655
 20
-62.2898
 10
1260.4439
 20
-61.6806
 10
1259.6607
 20
-61.2068
 10
1258.8158
 20
-60.8684
 10
1257.9093
 20
-60.6653
 10
1256.9412
 20
-60.5976
 10
1255.9731
 20
-60.6653
 10
1255.0666
 20
-60.8684
 10
1254.2217
 20
-61.2068
 10
1253.4385
 20
-61.6806
 10
1252.7169
 20
-62.2898
 10
1252.057
 20
-63.0344
 10
1251.4588
 20
-63.9144
 10
1250.9222
 20
-64.9297
 10
1250.5453
 20
-65.8158
 10
1250.2186
 20
-66.751
 10
1249.9421
 20
-67.7353
 10
1249.7159
 20
-68.7687
 10
1249.54
 20
-69.8511
 10
1249.4143
 20
-70.9826
 10
1249.3388
 20
-72.1632
 10
1249.3137
 20
-73.3929
 10
1249.3388
 20
-74.6228
 10
1249.4143
 20
-75.8037
 10
1249.54
 20
-76.9353
 10
1249.7159
 20
-78.0179
 10
1249.9421
 20
-79.0513
 10
1250.2186
 20
-80.0356
 10
1250.5453
 20
-80.9708
 10
1250.9222
 20
-81.8569
 10
1251.4588
 20
-82.8722
 10
1252.057
 20
-83.7522
 10
1252.7169
 20
-84.4968
 10
1253.4385
 20
-85.106
 10
1254.2217
 20
-85.5798
 10
1255.0666
 20
-85.9182
 10
1255.9731
 20
-86.1213
 10
1256.9412
 20
-86.189
  0
LWPOLYLINE
  5
85
330
1F
100
AcDbEntity
  8
Layer 1
 62
     7
100
AcDbPolyline
 90
      165
 70
     1
 43
0.0
 10
1287.2188
 20
-85.787
 10
1289.54
 20
-85.787
 10
1289.54
 20
-75.7332
 10
1289.5211
 20
-75.0657
 10
1289.4643
 20
-74.4297
 10
1289.3698
 20
-73.825
 10
1289.2374
 20
-73.2518
 10
1289.0672
 20
-72.7099
 10
1288.8591
 20
-72.1995
 10
1288.6133
 20
-71.7205
 10
1288.3296
 20
-71.2729
 10
1288.1712
 20
-71.0588
 10
1288.0029
 20
-70.8556
 10
1287.8249
 20
-70.6633
 10
1287.6371
 20
-70.4819
 10
1287.4394
 20
-70.3114
 10
1287.2319
 20
-70.1517
 10
1287.0146
 20
-70.0029
 10
1286.7873
 20
-69.8649
 10
1286.5458
 20
-69.7409
 10
1286.2856
 20
-69.6334
 10
1286.0069
 20
-69.5424
 10
1285.7095
 20
-69.468
 10
1285.3934
 20
-69.41
 10
1285.0587
 20
-69.3686
 10
1284.7053
 20
-69.3438
 10
1284.3331
 20
-69.3355
 10
1283.9578
 20
-69.3498
 10
1283.5944
 20
-69.3925
 10
1283.243
 20
-69.4639
 10
1282.9034
 20
-69.5638
 10
1282.5757
 20
-69.6923
 10
1282.2599
 20
-69.8493
 10
1281.956
 20
-70.0351
 10
1281.664
 20
-70.2494
 10
1281.4105
 20
-70.4628
 10
1281.1684
 20
-70.6922
 10
1280.9377
 20
-70.9373
 10
1280.7185
 20
-71.1981
 10
1280.5108
 20
-71.4742
 10
1280.3144
 20
-71.7656
 10
1280.1295
 20
-72.0722
 10
1279.956
 20
-72.3936
 10
1279.8211
 20
-72.0968
 10
1279.6738
 20
-71.8103
 10
1279.5142
 20
-71.5353
 10
1279.3421
 20
-71.2729
 10
1279.1839
 20
-71.0588
 10
1279.0158
 20
-70.8556
 10
1278.8379
 20
-70.6633
 10
1278.6502
 20
-70.4819
 10
1278.4526
 20
-70.3114
 10
1278.2451
 20
-70.1517
 10
1278.0278
 20
-70.0029
 10
1277.8005
 20
-69.8649
 10
1277.5589
 20
-69.7409
 10
1277.2987
 20
-69.6334
 10
1277.0199
 20
-69.5424
 10
1276.7224
 20
-69.468
 10
1276.4063
 20
-69.41
 10
1276.0716
 20
-69.3686
 10
1275.7183
 20
-69.3438
 10
1275.3464
 20
-69.3355
 10
1274.9709
 20
-69.3498
 10
1274.6073
 20
-69.3925
 10
1274.2557
 20
-69.4639
 10
1273.916
 20
-69.5638
 10
1273.5882
 20
-69.6923
 10
1273.2724
 20
-69.8493
 10
1272.9685
 20
-70.0351
 10
1272.6765
 20
-70.2494
 10
1272.4352
 20
-70.4526
 10
1272.2042
 20
-70.6697
 10
1271.9836
 20
-70.9007
 10
1271.7733
 20
-71.1457
 10
1271.5733
 20
-71.4047
 10
1271.3836
 20
-71.6778
 10
1271.2043
 20
-71.965
 10
1271.0353
 20
-72.2663
 10
1271.0353
 20
-69.7007
 10
1268.7142
 20
-69.7007
 10
1268.7142
 20
-85.787
 10
1271.0353
 20
-85.787
 10
1271.0353
 20
-77.555
 10
1271.0892
 20
-77.0753
 10
1271.1597
 20
-76.6144
 10
1271.2467
 20
-76.172
 10
1271.3504
 20
-75.7481
 10
1271.4705
 20
-75.3424
 10
1271.6073
 20
-74.9549
 10
1271.7605
 20
-74.5855
 10
1271.9303
 20
-74.2339
 10
1272.0688
 20
-73.9838
 10
1272.2185
 20
-73.7451
 10
1272.3797
 20
-73.5178
 10
1272.5522
 20
-73.3018
 10
1272.7362
 20
-73.0972
 10
1272.9315
 20
-72.904
 10
1273.1383
 20
-72.7222
 10
1273.3565
 20
-72.5519
 10
1273.5825
 20
-72.3979
 10
1273.8127
 20
-72.2644
 10
1274.0469
 20
-72.1514
 10
1274.2853
 20
-72.0589
 10
1274.5279
 20
-71.9869
 10
1274.7745
 20
-71.9355
 10
1275.0253
 20
-71.9047
 10
1275.2803
 20
-71.8944
 10
1275.529
 20
-71.8998
 10
1275.7611
 20
-71.9161
 10
1275.9766
 20
-71.9432
 10
1276.1755
 20
-71.9811
 10
1276.3578
 20
-72.0299
 10
1276.5235
 20
-72.0895
 10
1276.6727
 20
-72.1599
 10
1276.8052
 20
-72.2412
 10
1277.1396
 20
-72.5137
 10
1277.4293
 20
-72.8331
 10
1277.6744
 20
-73.1994
 10
1277.875
 20
-73.6125
 10
1278.0309
 20
-74.0724
 10
1278.1422
 20
-74.5792
 10
1278.209
 20
-75.1328
 10
1278.2313
 20
-75.7332
 10
1278.2313
 20
-85.787
 10
1280.5532
 20
-85.787
 10
1280.5532
 20
-75.7332
 10
1280.5365
 20
-75.1175
 10
1280.6222
 20
-74.8845
 10
1280.7143
 20
-74.66
 10
1280.8129
 20
-74.4433
 10
1280.9179
 20
-74.2339
 10
1281.0561
 20
-73.9838
 10
1281.2058
 20
-73.7451
 10
1281.3669
 20
-73.5178
 10
1281.5394
 20
-73.3018
 10
1281.7233
 20
-73.0972
 10
1281.9186
 20
-72.904
 10
1282.1253
 20
-72.7222
 10
1282.3433
 20
-72.5519
 10
1282.5693
 20
-72.3979
 10
1282.7995
 20
-72.2644
 10
1283.0337
 20
-72.1514
 10
1283.2721
 20
-72.0589
 10
1283.5146
 20
-71.9869
 10
1283.7613
 20
-71.9355
 10
1284.0121
 20
-71.9047
 10
1284.267
 20
-71.8944
 10
1284.5157
 20
-71.8998
 10
1284.7479
 20
-71.9161
 10
1284.9634
 20
-71.9432
 10
1285.1624
 20
-71.9811
 10
1285.3448
 20
-72.0299
 10
1285.5106
 20
-72.0895
 10
1285.6599
 20
-72.1599
 10
1285.7927
 20
-72.2412
 10
1286.1269
 20
-72.5137
 10
1286.4165
 20
-72.8331
 10
1286.6616
 20
-73.1994
 10
1286.8622
 20
-73.6125
 10
1287.0182
 20
-74.0724
 10
1287.1296
 20
-74.5792
 10
1287.1965
 20
-75.1328
 10
1287.2188
 20
-75.7332
 10
1287.2188
 20
-85.787
  0
LWPOLYLINE
  5
86
330
1F
100
AcDbEntity
  8
Layer 1
 62
     7
100
AcDbPolyline
 90
      165
 70
     1
 43
0.0
 10
1312.5221
 20
-85.787
 10
1314.8432
 20
-85.787
 10
1314.8432
 20
-75.7332
 10
1314.8243
 20
-75.0657
 10
1314.7676
 20
-74.4297
 10
1314.673
 20
-73.825
 10
1314.5406
 20
-73.2518
 10
1314.3704
 20
-72.7099
 10
1314.1624
 20
-72.1995
 10
1313.9166
 20
-71.7205
 10
1313.6329
 20
-71.2729
 10
1313.4745
 20
-71.0588
 10
1313.3062
 20
-70.8556
 10
1313.1282
 20
-70.6633
 10
1312.9404
 20
-70.4819
 10
1312.7427
 20
-70.3114
 10
1312.5352
 20
-70.1517
 10
1312.3178
 20
-70.0029
 10
1312.0905
 20
-69.8649
 10
1311.849
 20
-69.7409
 10
1311.5889
 20
-69.6334
 10
1311.3102
 20
-69.5424
 10
1311.0128
 20
-69.468
 10
1310.6967
 20
-69.41
 10
1310.362
 20
-69.3686
 10
1310.0086
 20
-69.3438
 10
1309.6364
 20
-69.3355
 10
1309.2611
 20
-69.3498
 10
1308.8977
 20
-69.3925
 10
1308.5463
 20
-69.4639
 10
1308.2067
 20
-69.5638
 10
1307.879
 20
-69.6923
 10
1307.5632
 20
-69.8493
 10
1307.2593
 20
-70.0351
 10
1306.9673
 20
-70.2494
 10
1306.7138
 20
-70.4628
 10
1306.4717
 20
-70.6922
 10
1306.241
 20
-70.9373
 10
1306.0218
 20
-71.1981
 10
1305.8141
 20
-71.4742
 10
1305.6177
 20
-71.7656
 10
1305.4328
 20
-72.0722
 10
1305.2593
 20
-72.3936
 10
1305.1244
 20
-72.0968
 10
1304.9771
 20
-71.8103
 10
1304.8175
 20
-71.5353
 10
1304.6454
 20
-71.2729
 10
1304.4872
 20
-71.0588
 10
1304.3191
 20
-70.8556
 10
1304.1412
 20
-70.6633
 10
1303.9535
 20
-70.4819
 10
1303.7559
 20
-70.3114
 10
1303.5484
 20
-70.1517
 10
1303.331
 20
-70.0029
 10
1303.1037
 20
-69.8649
 10
1302.8622
 20
-69.7409
 10
1302.602
 20
-69.6334
 10
1302.3231
 20
-69.5424
 10
1302.0257
 20
-69.468
 10
1301.7096
 20
-69.41
 10
1301.3749
 20
-69.3686
 10
1301.0215
 20
-69.3438
 10
1300.6496
 20
-69.3355
 10
1300.2741
 20
-69.3498
 10
1299.9105
 20
-69.3925
 10
1299.5589
 20
-69.4639
 10
1299.2193
 20
-69.5638
 10
1298.8915
 20
-69.6923
 10
1298.5757
 20
-69.8493
 10
1298.2717
 20
-70.0351
 10
1297.9797
 20
-70.2494
 10
1297.7384
 20
-70.4526
 10
1297.5075
 20
-70.6697
 10
1297.2868
 20
-70.9007
 10
1297.0765
 20
-71.1457
 10
1296.8766
 20
-71.4047
 10
1296.6869
 20
-71.6778
 10
1296.5076
 20
-71.965
 10
1296.3386
 20
-72.2663
 10
1296.3386
 20
-69.7007
 10
1294.0174
 20
-69.7007
 10
1294.0174
 20
-85.787
 10
1296.3386
 20
-85.787
 10
1296.3386
 20
-77.555
 10
1296.3925
 20
-77.0753
 10
1296.4629
 20
-76.6144
 10
1296.55
 20
-76.172
 10
1296.6536
 20
-75.7481
 10
1296.7738
 20
-75.3424
 10
1296.9105
 20
-74.9549
 10
1297.0638
 20
-74.5855
 10
1297.2336
 20
-74.2339
 10
1297.372
 20
-73.9838
 10
1297.5218
 20
-73.7451
 10
1297.683
 20
-73.5178
 10
1297.8555
 20
-73.3018
 10
1298.0394
 20
-73.0972
 10
1298.2347
 20
-72.904
 10
1298.4415
 20
-72.7222
 10
1298.6597
 20
-72.5519
 10
1298.8857
 20
-72.3979
 10
1299.1159
 20
-72.2644
 10
1299.3501
 20
-72.1514
 10
1299.5886
 20
-72.0589
 10
1299.8311
 20
-71.9869
 10
1300.0778
 20
-71.9355
 10
1300.3286
 20
-71.9047
 10
1300.5835
 20
-71.8944
 10
1300.8322
 20
-71.8998
 10
1301.0643
 20
-71.9161
 10
1301.2798
 20
-71.9432
 10
1301.4787
 20
-71.9811
 10
1301.661
 20
-72.0299
 10
1301.8268
 20
-72.0895
 10
1301.9759
 20
-72.1599
 10
1302.1084
 20
-72.2412
 10
1302.4428
 20
-72.5137
 10
1302.7326
 20
-72.8331
 10
1302.9777
 20
-73.1994
 10
1303.1782
 20
-73.6125
 10
1303.3341
 20
-74.0724
 10
1303.4454
 20
-74.5792
 10
1303.5122
 20
-75.1328
 10
1303.5345
 20
-75.7332
 10
1303.5345
 20
-85.787
 10
1305.8565
 20
-85.787
 10
1305.8565
 20
-75.7332
 10
1305.8397
 20
-75.1175
 10
1305.9255
 20
-74.8845
 10
1306.0176
 20
-74.66
 10
1306.1162
 20
-74.4433
 10
1306.2212
 20
-74.2339
 10
1306.3594
 20
-73.9838
 10
1306.5091
 20
-73.7451
 10
1306.6702
 20
-73.5178
 10
1306.8427
 20
-73.3018
 10
1307.0266
 20
-73.0972
 10
1307.2219
 20
-72.904
 10
1307.4285
 20
-72.7222
 10
1307.6465
 20
-72.5519
 10
1307.8725
 20
-72.3979
 10
1308.1027
 20
-72.2644
 10
1308.3369
 20
-72.1514
 10
1308.5754
 20
-72.0589
 10
1308.8179
 20
-71.9869
 10
1309.0646
 20
-71.9355
 10
1309.3154
 20
-71.9047
 10
1309.5703
 20
-71.8944
 10
1309.819
 20
-71.8998
 10
1310.0511
 20
-71.9161
 10
1310.2666
 20
-71.9432
 10
1310.4656
 20
-71.9811
 10
1310.648
 20
-72.0299
 10
1310.8139
 20
-72.0895
 10
1310.9632
 20
-72.1599
 10
1311.096
 20
-72.2412
 10
1311.4302
 20
-72.5137
 10
1311.7198
 20
-72.8331
 10
1311.9649
 20
-73.1994
 10
1312.1655
 20
-73.6125
 10
1312.3215
 20
-74.0724
 10
1312.4329
 20
-74.5792
 10
1312.4998
 20
-75.1328
 10
1312.5221
 20
-75.7332
 10
1312.5221
 20
-85.787
  0
LWPOLYLINE
  5
87
330
1F
100
AcDbEntity
  8
Layer 1
 62
     7
370
    18
100
AcDbPolyline
 90
        2
 70
     0
 43
0.0
 10
1284.2352
 20
297.5539
 10
1264.8871
 20
297.5539
  0
LWPOLYLINE
  5
88
330
1F
100
AcDbEntity
  8
Layer 1
 62
     7
370
    18
100
AcDbPolyline
 90
        2
 70
     0
 43
0.0
 10
1274.5608
 20
297.5598
 10
1274.5608
 20
-28.2333
  0
LWPOLYLINE
  5
89
330
1F
100
AcDbEntity
  8
Layer 1
 62
     7
370
    18
100
AcDbPolyline
 90
        2
 70
     0
 43
0.0
 10
1284.2352
 20
-424.0357
 10
1264.8871
 20
-424.0357
  0
LWPOLYLINE
  5
8A
330
1F
100
AcDbEntity
  8
Layer 1
 62
     7
370
    18
100
AcDbPolyline
 90
        2
 70
     0
 43
0.0
 10
1274.5608
 20
-424.0428
 10
1274.5608
 20
-118.5893
  0
LWPOLYLINE
  5
8B
330
1F
100
AcDbEntity
  8
Layer 1
 62
     7
370
    18
100
AcDbPolyline
 90
        2
 70
     0
 43
0.0
 10
799.5101
 20
423.9119
 10
799.5101
 20
402.5831
  0
LWPOLYLINE
  5
8C
330
1F
100
AcDbEntity
  8
Layer 1
 62
     7
370
    18
100
AcDbPolyline
 90
        2
 70
     0
 43
0.0
 10
799.5101
 20
413.2475
 10
886.0522
 20
413.2475
  0
LWPOLYLINE
  5
8D
330
1F
100
AcDbEntity
  8
Layer 1
 62
     7
370
    18
100
AcDbPolyline
 90
        2
 70
     0
 43
0.0
 10
1161.1852
 20
423.9119
 10
1161.1852
 20
402.5831
  0
LWPOLYLINE
  5
8E
330
1F
100
AcDbEntity
  8
Layer 1
 62
     7
370
    18
100
AcDbPolyline
 90
        2
 70
     0
 43
0.0
 10
1161.1888
 20
413.2475
 10
1081.2348
 20
413.2475
  0
LWPOLYLINE
  5
8F
330
1F
100
AcDbEntity
  8
Layer 1
 62
     7
370
     9
100
AcDbPolyline
 90
        5
 70
     1
 43
0.0
 10
1173.644
 20
301.0568
 10
1181.7381
 20
301.0568
 10
1181.7381
 20
-424.0428
 10
1173.644
 20
-424.0428
 10
1173.644
 20
301.0568
  0
LWPOLYLINE
  5
90
330
1F
100
AcDbEntity
  8
Layer 1
 62
     7
100
AcDbPolyline
 90
      136
 70
     1
 43
0.0
 10
901.8173
 20
416.4189
 10
903.3306
 20
423.0193
 10
911.4239
 20
423.0193
 10
911.4239
 20
425.5581
 10
901.5875
 20
425.5581
 10
899.0217
 20
414.496
 10
901.5215
 20
413.263
 10
901.8843
 20
413.535
 10
902.2651
 20
413.7708
 10
902.6638
 20
413.9704
 10
903.0804
 20
414.1338
 10
903.515
 20
414.2609
 10
903.9675
 20
414.3518
 10
904.438
 20
414.4063
 10
904.9264
 20
414.4245
 10
905.418
 20
414.3978
 10
905.8931
 20
414.3179
 10
906.3517
 20
414.1847
 10
906.7938
 20
413.9982
 10
907.2194
 20
413.7585
 10
907.6286
 20
413.4655
 10
908.0212
 20
413.1193
 10
908.3973
 20
412.7199
 10
908.7519
 20
412.2739
 10
909.0592
 20
411.8116
 10
909.3193
 20
411.333
 10
909.5321
 20
410.8381
 10
909.6977
 20
410.3266
 10
909.816
 20
409.7988
 10
909.8869
 20
409.2544
 10
909.9106
 20
408.6934
 10
909.8864
 20
408.1135
 10
909.8139
 20
407.5568
 10
909.6931
 20
407.0233
 10
909.5239
 20
406.513
 10
909.3064
 20
406.026
 10
909.0407
 20
405.5623
 10
908.7266
 20
405.1218
 10
908.3643
 20
404.7046
 10
908.1799
 20
404.5189
 10
907.989
 20
404.3429
 10
907.7914
 20
404.1766
 10
907.5872
 20
404.0199
 10
907.3763
 20
403.8728
 10
907.1587
 20
403.7355
 10
906.9345
 20
403.6077
 10
906.7036
 20
403.4897
 10
906.4623
 20
403.3835
 10
906.2077
 20
403.2915
 10
905.9397
 20
403.2136
 10
905.6585
 20
403.1498
 10
905.364
 20
403.1002
 10
905.0562
 20
403.0647
 10
904.7351
 20
403.0434
 10
904.4007
 20
403.0363
 10
904.0595
 20
403.0522
 10
903.7188
 20
403.0997
 10
903.3786
 20
403.179
 10
903.0391
 20
403.29
 10
902.7
 20
403.4327
 10
902.3616
 20
403.6071
 10
902.0237
 20
403.8133
 10
901.6864
 20
404.0511
 10
901.3614
 20
404.3148
 10
901.0612
 20
404.5978
 10
900.7856
 20
404.9
 10
900.5348
 20
405.2214
 10
900.3087
 20
405.562
 10
900.1072
 20
405.9218
 10
899.9304
 20
406.3008
 10
899.7783
 20
406.699
 10
897.5414
 20
405.9012
 10
897.761
 20
405.3042
 10
898.0171
 20
404.7373
 10
898.3098
 20
404.2003
 10
898.639
 20
403.6934
 10
899.0047
 20
403.2165
 10
899.4068
 20
402.7696
 10
899.8455
 20
402.3526
 10
900.3205
 20
401.9657
 10
900.826
 20
401.6132
 10
901.3427
 20
401.3076
 10
901.8707
 20
401.049
 10
902.4099
 20
400.8374
 10
902.9605
 20
400.6728
 10
903.5223
 20
400.5552
 10
904.0955
 20
400.4846
 10
904.68
 20
400.4611
 10
905.4586
 20
400.4999
 10
906.2076
 20
400.6164
 10
906.9267
 20
400.8105
 10
907.6161
 20
401.0822
 10
908.2757
 20
401.4315
 10
908.9055
 20
401.8585
 10
909.5054
 20
402.3631
 10
910.0755
 20
402.9454
 10
910.5921
 20
403.5775
 10
911.0397
 20
404.2407
 10
911.4185
 20
404.9351
 10
911.7285
 20
405.6607
 10
911.9696
 20
406.4175
 10
912.1417
 20
407.2055
 10
912.2451
 20
408.0248
 10
912.2795
 20
408.8753
 10
912.2456
 20
409.7209
 10
912.1438
 20
410.5309
 10
911.9742
 20
411.3052
 10
911.7367
 20
412.0439
 10
911.4314
 20
412.7469
 10
911.0583
 20
413.4142
 10
910.6173
 20
414.0457
 10
910.1085
 20
414.6415
 10
909.8481
 20
414.9064
 10
909.5775
 20
415.1571
 10
909.2967
 20
415.3937
 10
909.0057
 20
415.6162
 10
908.7045
 20
415.8245
 10
908.3931
 20
416.0186
 10
908.0714
 20
416.1986
 10
907.7396
 20
416.3644
 10
907.4008
 20
416.5131
 10
907.059
 20
416.642
 10
906.7143
 20
416.751
 10
906.3667
 20
416.8401
 10
906.0163
 20
416.9094
 10
905.6631
 20
416.9589
 10
905.3071
 20
416.9886
 10
904.9484
 20
416.9985
 10
904.583
 20
416.9895
 10
904.2103
 20
416.9623
 10
903.8302
 20
416.9171
 10
903.4427
 20
416.8538
 10
903.0476
 20
416.7723
 10
902.6451
 20
416.6726
 10
902.235
 20
416.5549
 10
901.8173
 20
416.4189
  0
LWPOLYLINE
  5
91
330
1F
100
AcDbEntity
  8
Layer 1
 62
     7
100
AcDbPolyline
 90
        4
 70
     1
 43
0.0
 10
927.1485
 20
422.8011
 10
927.1485
 20
408.5491
 10
918.5955
 20
408.5491
 10
927.1485
 20
422.8011
  0
LWPOLYLINE
  5
92
330
1F
100
AcDbEntity
  8
Layer 1
 62
     7
100
AcDbPolyline
 90
       11
 70
     1
 43
0.0
 10
929.5504
 20
405.9376
 10
932.379
 20
405.9376
 10
932.379
 20
408.5491
 10
929.5504
 20
408.5491
 10
929.5174
 20
425.5581
 10
926.2939
 20
425.5581
 10
914.5164
 20
405.9376
 10
927.1485
 20
405.9376
 10
927.1485
 20
400.8964
 10
929.5504
 20
400.8964
 10
929.5504
 20
405.9376
  0
LWPOLYLINE
  5
93
330
1F
100
AcDbEntity
  8
Layer 1
 62
     7
100
AcDbPolyline
 90
      129
 70
     1
 43
0.0
 10
944.9296
 20
422.6932
 10
945.3094
 20
422.4085
 10
945.6635
 20
422.0853
 10
945.992
 20
421.7237
 10
946.2947
 20
421.3236
 10
946.5718
 20
420.8851
 10
946.8233
 20
420.408
 10
947.049
 20
419.8925
 10
947.2491
 20
419.3384
 10
947.4726
 20
418.6029
 10
947.6662
 20
417.8567
 10
947.8301
 20
417.0998
 10
947.9642
 20
416.3323
 10
948.0685
 20
415.554
 10
948.143
 20
414.7651
 10
948.1877
 20
413.9654
 10
948.2026
 20
413.1551
 10
948.2011
 20
412.9603
 10
948.1964
 20
412.7571
 10
948.1887
 20
412.5453
 10
948.178
 20
412.3251
 10
948.1642
 20
412.0963
 10
948.1474
 20
411.8592
 10
948.1275
 20
411.6136
 10
948.1047
 20
411.3595
 10
947.9903
 20
410.3844
 10
947.8411
 20
409.4632
 10
947.6571
 20
408.5958
 10
947.4381
 20
407.7823
 10
947.1842
 20
407.0227
 10
946.8955
 20
406.317
 10
946.5717
 20
405.6651
 10
946.2131
 20
405.0671
 10
945.8855
 20
404.6166
 10
945.5405
 20
404.2262
 10
945.1779
 20
403.8959
 10
944.7979
 20
403.6257
 10
944.4005
 20
403.4155
 10
943.9857
 20
403.2655
 10
943.5535
 20
403.1754
 10
943.104
 20
403.1454
 10
942.6018
 20
403.1751
 10
942.1239
 20
403.2643
 10
941.6702
 20
403.413
 10
941.2407
 20
403.6211
 10
940.8355
 20
403.8888
 10
940.4544
 20
404.216
 10
940.0977
 20
404.6027
 10
939.7651
 20
405.0489
 10
939.6242
 20
405.2655
 10
939.4894
 20
405.4888
 10
939.3608
 20
405.7188
 10
939.2383
 20
405.9556
 10
939.122
 20
406.1992
 10
939.0119
 20
406.4495
 10
938.9081
 20
406.7067
 10
938.8105
 20
406.9706
 10
938.7188
 20
407.2392
 10
938.6328
 20
407.5094
 10
938.5523
 20
407.7812
 10
938.4775
 20
408.0547
 10
938.4084
 20
408.3298
 10
938.345
 20
408.6065
 10
938.2873
 20
408.885
 10
938.2353
 20
409.1651
 10
938.1876
 20
409.445
 10
938.1435
 20
409.7227
 10
938.103
 20
409.9981
 10
938.0662
 20
410.2714
 10
938.0329
 20
410.5424
 10
938.0033
 20
410.811
 10
937.9773
 20
411.0773
 10
937.9549
 20
411.3413
 10
937.9356
 20
411.6092
 10
937.919
 20
411.8873
 10
937.905
 20
412.1754
 10
937.8936
 20
412.4736
 10
937.8848
 20
412.7817
 10
937.8785
 20
413.0997
 10
937.8747
 20
413.4275
 10
937.8735
 20
413.765
 10
937.8791
 20
414.1175
 10
937.896
 20
414.4905
 10
937.9242
 20
414.884
 10
937.9637
 20
415.2981
 10
938.0145
 20
415.7328
 10
938.0767
 20
416.1884
 10
938.1503
 20
416.6648
 10
938.2353
 20
417.1621
 10
938.287
 20
417.4383
 10
938.3439
 20
417.7139
 10
938.4061
 20
417.9889
 10
938.4734
 20
418.2635
 10
938.5459
 20
418.5375
 10
938.6235
 20
418.811
 10
938.7062
 20
419.084
 10
938.794
 20
419.3566
 10
938.8877
 20
419.6251
 10
938.9882
 20
419.8867
 10
939.0954
 20
420.1416
 10
939.2094
 20
420.3897
 10
939.3301
 20
420.6311
 10
939.4575
 20
420.8657
 10
939.5915
 20
421.0935
 10
939.7321
 20
421.3147
 10
939.8796
 20
421.5271
 10
940.0342
 20
421.7286
 10
940.196
 20
421.9194
 10
940.365
 20
422.0994
 10
940.5412
 20
422.2686
 10
940.7247
 20
422.427
 10
940.9154
 20
422.5746
 10
941.1134
 20
422.7114
 10
941.3197
 20
422.8346
 10
941.5351
 20
422.9412
 10
941.7598
 20
423.0315
 10
941.9937
 20
423.1053
 10
942.2367
 20
423.1626
 10
942.4891
 20
423.2036
 10
942.7507
 20
423.2281
 10
943.0215
 20
423.2363
 10
943.2924
 20
423.2278
 10
943.554
 20
423.2024
 10
943.8063
 20
423.16
 10
944.0494
 20
423.1007
 10
944.2832
 20
423.0243
 10
944.5079
 20
422.931
 10
944.7233
 20
422.8206
 10
944.9296
 20
422.6932
  0
LWPOLYLINE
  5
94
330
1F
100
AcDbEntity
  8
Layer 1
 62
     7
100
AcDbPolyline
 90
       65
 70
     1
 43
0.0
 10
943.137
 20
400.5702
 10
944.0974
 20
400.6373
 10
944.9966
 20
400.8387
 10
945.8347
 20
401.1743
 10
946.6115
 20
401.6443
 10
947.3272
 20
402.2485
 10
947.9818
 20
402.987
 10
948.5753
 20
403.8598
 10
949.1077
 20
404.867
 10
949.4816
 20
405.7461
 10
949.8057
 20
406.6738
 10
950.08
 20
407.6503
 10
950.3044
 20
408.6754
 10
950.479
 20
409.7492
 10
950.6037
 20
410.8717
 10
950.6786
 20
412.043
 10
950.7035
 20
413.263
 10
950.6786
 20
414.4831
 10
950.6037
 20
415.6545
 10
950.479
 20
416.7772
 10
950.3044
 20
417.8511
 10
950.08
 20
418.8763
 10
949.8057
 20
419.8527
 10
949.4816
 20
420.7803
 10
949.1077
 20
421.659
 10
948.5753
 20
422.6662
 10
947.9818
 20
423.5392
 10
947.3272
 20
424.2779
 10
946.6115
 20
424.8823
 10
945.8347
 20
425.3525
 10
944.9966
 20
425.6883
 10
944.0974
 20
425.8898
 10
943.137
 20
425.957
 10
942.1765
 20
425.8898
 10
941.2772
 20
425.6883
 10
940.439
 20
425.3525
 10
939.662
 20
424.8823
 10
938.946
 20
424.2779
 10
938.2913
 20
423.5392
 10
937.6977
 20
422.6662
 10
937.1652
 20
421.659
 10
936.7913
 20
420.7803
 10
936.4674
 20
419.8527
 10
936.1933
 20
418.8763
 10
935.969
 20
417.8511
 10
935.7947
 20
416.7772
 10
935.6701
 20
415.6545
 10
935.5954
 20
414.4831
 10
935.5705
 20
413.263
 10
935.5954
 20
412.043
 10
935.6701
 20
410.8717
 10
935.7947
 20
409.7492
 10
935.969
 20
408.6754
 10
936.1933
 20
407.6503
 10
936.4674
 20
406.6738
 10
936.7913
 20
405.7461
 10
937.1652
 20
404.867
 10
937.6977
 20
403.8598
 10
938.2913
 20
402.987
 10
938.946
 20
402.2485
 10
939.662
 20
401.6443
 10
940.439
 20
401.1743
 10
941.2772
 20
400.8387
 10
942.1765
 20
400.6373
 10
943.137
 20
400.5702
  0
LWPOLYLINE
  5
95
330
1F
100
AcDbEntity
  8
Layer 1
 62
     7
100
AcDbPolyline
 90
       13
 70
     1
 43
0.0
 10
963.3355
 20
400.8964
 10
966.2631
 20
400.8964
 10
961.1975
 20
408.8753
 10
966.2631
 20
416.8542
 10
963.3355
 20
416.8542
 10
959.7172
 20
410.7242
 10
956.0979
 20
416.8542
 10
953.1703
 20
416.8542
 10
958.2358
 20
408.9117
 10
953.1703
 20
400.8964
 10
956.0979
 20
400.8964
 10
959.7172
 20
407.0979
 10
963.3355
 20
400.8964
  0
LWPOLYLINE
  5
96
330
1F
100
AcDbEntity
  8
Layer 1
 62
     7
100
AcDbPolyline
 90
        4
 70
     1
 43
0.0
 10
980.2116
 20
422.8011
 10
980.2116
 20
408.5491
 10
971.6586
 20
408.5491
 10
980.2116
 20
422.8011
  0
LWPOLYLINE
  5
97
330
1F
100
AcDbEntity
  8
Layer 1
 62
     7
100
AcDbPolyline
 90
       11
 70
     1
 43
0.0
 10
982.6135
 20
405.9376
 10
985.4421
 20
405.9376
 10
985.4421
 20
408.5491
 10
982.6135
 20
408.5491
 10
982.5805
 20
425.5581
 10
979.357
 20
425.5581
 10
967.5795
 20
405.9376
 10
980.2116
 20
405.9376
 10
980.2116
 20
400.8964
 10
982.6135
 20
400.8964
 10
982.6135
 20
405.9376
  0
LWPOLYLINE
  5
98
330
1F
100
AcDbEntity
  8
Layer 1
 62
     7
100
AcDbPolyline
 90
       73
 70
     1
 43
0.0
 10
995.46
 20
414.3518
 10
995.9847
 20
414.3251
 10
996.49
 20
414.2452
 10
996.9757
 20
414.112
 10
997.4419
 20
413.9255
 10
997.8886
 20
413.6857
 10
998.3157
 20
413.3927
 10
998.7232
 20
413.0465
 10
999.1112
 20
412.6471
 10
999.4619
 20
412.2154
 10
999.7659
 20
411.7633
 10
1000.0232
 20
411.2907
 10
1000.2337
 20
410.7976
 10
1000.3974
 20
410.2841
 10
1000.5144
 20
409.7501
 10
1000.5846
 20
409.1956
 10
1000.608
 20
408.6207
 10
1000.5843
 20
408.0593
 10
1000.5134
 20
407.517
 10
1000.3951
 20
406.9941
 10
1000.2295
 20
406.4903
 10
1000.0167
 20
406.0059
 10
999.7566
 20
405.5407
 10
999.4493
 20
405.0948
 10
999.0947
 20
404.6682
 10
998.7139
 20
404.2858
 10
998.3115
 20
403.9544
 10
997.8875
 20
403.674
 10
997.4419
 20
403.4444
 10
996.9747
 20
403.2659
 10
996.4859
 20
403.1384
 10
995.9755
 20
403.0618
 10
995.4435
 20
403.0363
 10
994.9215
 20
403.0627
 10
994.4171
 20
403.1418
 10
993.9303
 20
403.2736
 10
993.461
 20
403.4581
 10
993.0091
 20
403.6953
 10
992.5747
 20
403.9851
 10
992.1577
 20
404.3277
 10
991.7581
 20
404.7228
 10
991.3958
 20
405.1502
 10
991.0817
 20
405.5986
 10
990.816
 20
406.0681
 10
990.5985
 20
406.5585
 10
990.4293
 20
407.0699
 10
990.3085
 20
407.6023
 10
990.236
 20
408.1556
 10
990.2118
 20
408.7298
 10
990.236
 20
409.3012
 10
990.3085
 20
409.8505
 10
990.4293
 20
410.3778
 10
990.5985
 20
410.8831
 10
990.816
 20
411.3662
 10
991.0817
 20
411.8274
 10
991.3958
 20
412.2665
 10
991.7581
 20
412.6835
 10
991.9428
 20
412.8692
 10
992.1346
 20
413.0452
 10
992.3337
 20
413.2115
 10
992.5399
 20
413.3682
 10
992.7533
 20
413.5152
 10
992.9739
 20
413.6526
 10
993.2016
 20
413.7803
 10
993.4364
 20
413.8983
 10
993.6766
 20
414.0045
 10
993.9204
 20
414.0965
 10
994.1678
 20
414.1745
 10
994.4189
 20
414.2383
 10
994.6736
 20
414.2879
 10
994.9321
 20
414.3234
 10
995.1942
 20
414.3447
 10
995.46
 20
414.3518
  0
LWPOLYLINE
  5
99
330
1F
100
AcDbEntity
  8
Layer 1
 62
     7
100
AcDbPolyline
 90
       69
 70
     1
 43
0.0
 10
1002.9439
 20
408.8025
 10
1002.9079
 20
409.6757
 10
1002.8
 20
410.5093
 10
1002.6201
 20
411.3032
 10
1002.3682
 20
412.0576
 10
1002.0443
 20
412.7722
 10
1001.6485
 20
413.4472
 10
1001.1808
 20
414.0824
 10
1000.641
 20
414.6779
 10
1000.0892
 20
415.1799
 10
999.4989
 20
415.62
 10
998.8699
 20
415.9982
 10
998.2023
 20
416.3147
 10
997.4961
 20
416.5693
 10
996.7514
 20
416.762
 10
995.9682
 20
416.893
 10
995.1465
 20
416.9621
 10
994.4888
 20
416.4917
 10
1001.3317
 20
425.5581
 10
998.3051
 20
425.5581
 10
989.5542
 20
413.9165
 10
989.161
 20
413.3493
 10
988.8203
 20
412.7589
 10
988.532
 20
412.1454
 10
988.2962
 20
411.5086
 10
988.1128
 20
410.8487
 10
987.9818
 20
410.1656
 10
987.9032
 20
409.4593
 10
987.877
 20
408.7298
 10
987.9114
 20
407.8893
 10
988.0147
 20
407.081
 10
988.1869
 20
406.305
 10
988.428
 20
405.5611
 10
988.7379
 20
404.8496
 10
989.1167
 20
404.1704
 10
989.5644
 20
403.5235
 10
990.0809
 20
402.909
 10
990.6499
 20
402.3438
 10
991.2466
 20
401.854
 10
991.8711
 20
401.4395
 10
992.5234
 20
401.1004
 10
993.2035
 20
400.8366
 10
993.9113
 20
400.6482
 10
994.647
 20
400.5352
 10
995.4105
 20
400.4975
 10
996.1844
 20
400.5349
 10
996.9276
 20
400.6471
 10
997.6399
 20
400.8341
 10
998.3214
 20
401.0958
 10
998.9722
 20
401.4324
 10
999.5922
 20
401.8437
 10
1000.1815
 20
402.3299
 10
1000.74
 20
402.8908
 10
1000.9882
 20
403.1775
 10
1001.2229
 20
403.4755
 10
1001.4443
 20
403.7849
 10
1001.6524
 20
404.1057
 10
1001.847
 20
404.4378
 10
1002.0284
 20
404.7813
 10
1002.1964
 20
405.1361
 10
1002.3511
 20
405.5023
 10
1002.49
 20
405.8793
 10
1002.6103
 20
406.2664
 10
1002.7122
 20
406.6637
 10
1002.7956
 20
407.0711
 10
1002.8605
 20
407.4886
 10
1002.9068
 20
407.9164
 10
1002.9346
 20
408.3543
 10
1002.9439
 20
408.8025
  0
LWPOLYLINE
  5
9A
330
1F
100
AcDbEntity
  8
Layer 1
 62
     7
100
AcDbPolyline
 90
      129
 70
     1
 43
0.0
 10
1014.8358
 20
422.6932
 10
1015.2156
 20
422.4085
 10
1015.5697
 20
422.0853
 10
1015.8981
 20
421.7237
 10
1016.2009
 20
421.3236
 10
1016.478
 20
420.8851
 10
1016.7294
 20
420.408
 10
1016.9551
 20
419.8925
 10
1017.1552
 20
419.3384
 10
1017.3787
 20
418.6029
 10
1017.5724
 20
417.8567
 10
1017.7363
 20
417.0998
 10
1017.8703
 20
416.3323
 10
1017.9746
 20
415.554
 10
1018.0491
 20
414.7651
 10
1018.0938
 20
413.9654
 10
1018.1087
 20
413.1551
 10
1018.1072
 20
412.9603
 10
1018.1025
 20
412.7571
 10
1018.0948
 20
412.5453
 10
1018.0841
 20
412.3251
 10
1018.0703
 20
412.0963
 10
1018.0535
 20
411.8592
 10
1018.0337
 20
411.6136
 10
1018.0109
 20
411.3595
 10
1017.8965
 20
410.3844
 10
1017.7473
 20
409.4632
 10
1017.5632
 20
408.5958
 10
1017.3442
 20
407.7823
 10
1017.0904
 20
407.0227
 10
1016.8016
 20
406.317
 10
1016.4779
 20
405.6651
 10
1016.1192
 20
405.0671
 10
1015.7917
 20
404.6166
 10
1015.4466
 20
404.2262
 10
1015.0841
 20
403.8959
 10
1014.7041
 20
403.6257
 10
1014.3067
 20
403.4155
 10
1013.8919
 20
403.2655
 10
1013.4597
 20
403.1754
 10
1013.0102
 20
403.1454
 10
1012.508
 20
403.1751
 10
1012.0301
 20
403.2643
 10
1011.5764
 20
403.413
 10
1011.1469
 20
403.6211
 10
1010.7417
 20
403.8888
 10
1010.3606
 20
404.216
 10
1010.0039
 20
404.6027
 10
1009.6713
 20
405.0489
 10
1009.5304
 20
405.2655
 10
1009.3956
 20
405.4888
 10
1009.2669
 20
405.7188
 10
1009.1445
 20
405.9556
 10
1009.0282
 20
406.1992
 10
1008.9181
 20
406.4495
 10
1008.8143
 20
406.7067
 10
1008.7167
 20
406.9706
 10
1008.625
 20
407.2392
 10
1008.5389
 20
407.5094
 10
1008.4585
 20
407.7812
 10
1008.3837
 20
408.0547
 10
1008.3146
 20
408.3298
 10
1008.2511
 20
408.6065
 10
1008.1934
 20
408.885
 10
1008.1415
 20
409.1651
 10
1008.0938
 20
409.445
 10
1008.0497
 20
409.7227
 10
1008.0092
 20
409.9981
 10
1007.9724
 20
410.2714
 10
1007.9391
 20
410.5424
 10
1007.9095
 20
410.811
 10
1007.8834
 20
411.0773
 10
1007.861
 20
411.3413
 10
1007.8417
 20
411.6092
 10
1007.8251
 20
411.8873
 10
1007.8111
 20
412.1754
 10
1007.7997
 20
412.4736
 10
1007.7909
 20
412.7817
 10
1007.7846
 20
413.0997
 10
1007.7808
 20
413.4275
 10
1007.7796
 20
413.765
 10
1007.7852
 20
414.1175
 10
1007.8021
 20
414.4905
 10
1007.8303
 20
414.884
 10
1007.8698
 20
415.2981
 10
1007.9206
 20
415.7328
 10
1007.9829
 20
416.1884
 10
1008.0565
 20
416.6648
 10
1008.1415
 20
417.1621
 10
1008.1932
 20
417.4383
 10
1008.2501
 20
417.7139
 10
1008.3122
 20
417.9889
 10
1008.3796
 20
418.2635
 10
1008.452
 20
418.5375
 10
1008.5297
 20
418.811
 10
1008.6124
 20
419.084
 10
1008.7002
 20
419.3566
 10
1008.7939
 20
419.6251
 10
1008.8944
 20
419.8867
 10
1009.0016
 20
420.1416
 10
1009.1156
 20
420.3897
 10
1009.2363
 20
420.6311
 10
1009.3636
 20
420.8657
 10
1009.4976
 20
421.0935
 10
1009.6383
 20
421.3147
 10
1009.7858
 20
421.5271
 10
1009.9404
 20
421.7286
 10
1010.1022
 20
421.9194
 10
1010.2712
 20
422.0994
 10
1010.4474
 20
422.2686
 10
1010.6309
 20
422.427
 10
1010.8216
 20
422.5746
 10
1011.0196
 20
422.7114
 10
1011.2259
 20
422.8346
 10
1011.4413
 20
422.9412
 10
1011.666
 20
423.0315
 10
1011.8998
 20
423.1053
 10
1012.1429
 20
423.1626
 10
1012.3952
 20
423.2036
 10
1012.6568
 20
423.2281
 10
1012.9277
 20
423.2363
 10
1013.1985
 20
423.2278
 10
1013.4601
 20
423.2024
 10
1013.7125
 20
423.16
 10
1013.9556
 20
423.1007
 10
1014.1894
 20
423.0243
 10
1014.4141
 20
422.931
 10
1014.6295
 20
422.8206
 10
1014.8358
 20
422.6932
  0
LWPOLYLINE
  5
9B
330
1F
100
AcDbEntity
  8
Layer 1
 62
     7
100
AcDbPolyline
 90
       65
 70
     1
 43
0.0
 10
1013.0432
 20
400.5702
 10
1014.0036
 20
400.6373
 10
1014.9028
 20
400.8387
 10
1015.7408
 20
401.1743
 10
1016.5176
 20
401.6443
 10
1017.2333
 20
402.2485
 10
1017.8879
 20
402.987
 10
1018.4814
 20
403.8598
 10
1019.0139
 20
404.867
 10
1019.3878
 20
405.7461
 10
1019.7119
 20
406.6738
 10
1019.9861
 20
407.6503
 10
1020.2105
 20
408.6754
 10
1020.3851
 20
409.7492
 10
1020.5098
 20
410.8717
 10
1020.5847
 20
412.043
 10
1020.6096
 20
413.263
 10
1020.5847
 20
414.4831
 10
1020.5098
 20
415.6545
 10
1020.3851
 20
416.7772
 10
1020.2105
 20
417.8511
 10
1019.9861
 20
418.8763
 10
1019.7119
 20
419.8527
 10
1019.3878
 20
420.7803
 10
1019.0139
 20
421.659
 10
1018.4814
 20
422.6662
 10
1017.8879
 20
423.5392
 10
1017.2333
 20
424.2779
 10
1016.5176
 20
424.8823
 10
1015.7408
 20
425.3525
 10
1014.9028
 20
425.6883
 10
1014.0036
 20
425.8898
 10
1013.0432
 20
425.957
 10
1012.0827
 20
425.8898
 10
1011.1834
 20
425.6883
 10
1010.3452
 20
425.3525
 10
1009.5682
 20
424.8823
 10
1008.8522
 20
424.2779
 10
1008.1975
 20
423.5392
 10
1007.6039
 20
422.6662
 10
1007.0714
 20
421.659
 10
1006.6975
 20
420.7803
 10
1006.3736
 20
419.8527
 10
1006.0995
 20
418.8763
 10
1005.8752
 20
417.8511
 10
1005.7009
 20
416.7772
 10
1005.5763
 20
415.6545
 10
1005.5016
 20
414.4831
 10
1005.4767
 20
413.263
 10
1005.5016
 20
412.043
 10
1005.5763
 20
410.8717
 10
1005.7009
 20
409.7492
 10
1005.8752
 20
408.6754
 10
1006.0995
 20
407.6503
 10
1006.3736
 20
406.6738
 10
1006.6975
 20
405.7461
 10
1007.0714
 20
404.867
 10
1007.6039
 20
403.8598
 10
1008.1975
 20
402.987
 10
1008.8522
 20
402.2485
 10
1009.5682
 20
401.6443
 10
1010.3452
 20
401.1743
 10
1011.1834
 20
400.8387
 10
1012.0827
 20
400.6373
 10
1013.0432
 20
400.5702
  0
LWPOLYLINE
  5
9C
330
1F
100
AcDbEntity
  8
Layer 1
 62
     7
100
AcDbPolyline
 90
      165
 70
     1
 43
0.0
 10
1043.0781
 20
400.9691
 10
1045.381
 20
400.9691
 10
1045.381
 20
410.9425
 10
1045.3622
 20
411.6048
 10
1045.3059
 20
412.2358
 10
1045.2121
 20
412.8356
 10
1045.0808
 20
413.4042
 10
1044.9119
 20
413.9415
 10
1044.7055
 20
414.4477
 10
1044.4615
 20
414.9227
 10
1044.18
 20
415.3666
 10
1044.0229
 20
415.579
 10
1043.8561
 20
415.7805
 10
1043.6794
 20
415.9713
 10
1043.4931
 20
416.1513
 10
1043.2969
 20
416.3205
 10
1043.0911
 20
416.4789
 10
1042.8755
 20
416.6265
 10
1042.6502
 20
416.7633
 10
1042.4108
 20
416.8865
 10
1042.1529
 20
416.9933
 10
1041.8763
 20
417.0837
 10
1041.5813
 20
417.1577
 10
1041.2676
 20
417.2153
 10
1040.9354
 20
417.2565
 10
1040.5846
 20
417.2812
 10
1040.2153
 20
417.2894
 10
1039.843
 20
417.2752
 10
1039.4826
 20
417.2326
 10
1039.134
 20
417.1617
 10
1038.7973
 20
417.0624
 10
1038.4723
 20
416.9348
 10
1038.1592
 20
416.779
 10
1037.8578
 20
416.5949
 10
1037.5682
 20
416.3826
 10
1037.3166
 20
416.1706
 10
1037.0763
 20
415.9429
 10
1036.8475
 20
415.6996
 10
1036.6301
 20
415.441
 10
1036.4239
 20
415.1671
 10
1036.2291
 20
414.878
 10
1036.0456
 20
414.5738
 10
1035.8734
 20
414.2548
 10
1035.7396
 20
414.5492
 10
1035.5937
 20
414.8334
 10
1035.4356
 20
415.1063
 10
1035.2652
 20
415.3666
 10
1035.1081
 20
415.579
 10
1034.9413
 20
415.7805
 10
1034.7647
 20
415.9713
 10
1034.5783
 20
416.1513
 10
1034.3822
 20
416.3205
 10
1034.1763
 20
416.4789
 10
1033.9608
 20
416.6265
 10
1033.7355
 20
416.7633
 10
1033.4957
 20
416.8865
 10
1033.2375
 20
416.9933
 10
1032.9608
 20
417.0837
 10
1032.6657
 20
417.1577
 10
1032.3521
 20
417.2153
 10
1032.0201
 20
417.2565
 10
1031.6696
 20
417.2812
 10
1031.3006
 20
417.2894
 10
1030.9283
 20
417.2752
 10
1030.5677
 20
417.2326
 10
1030.219
 20
417.1617
 10
1029.882
 20
417.0624
 10
1029.5568
 20
416.9348
 10
1029.2435
 20
416.779
 10
1028.942
 20
416.5949
 10
1028.6523
 20
416.3826
 10
1028.4128
 20
416.1808
 10
1028.1836
 20
415.9653
 10
1027.9646
 20
415.7362
 10
1027.7558
 20
415.4932
 10
1027.5573
 20
415.2365
 10
1027.3691
 20
414.9657
 10
1027.1911
 20
414.681
 10
1027.0235
 20
414.3821
 10
1027.0235
 20
416.9269
 10
1024.7206
 20
416.9269
 10
1024.7206
 20
400.9691
 10
1027.0235
 20
400.9691
 10
1027.0235
 20
409.1347
 10
1027.0771
 20
409.6105
 10
1027.147
 20
410.0678
 10
1027.2334
 20
410.5067
 10
1027.3363
 20
410.9273
 10
1027.4555
 20
411.3297
 10
1027.5912
 20
411.714
 10
1027.7434
 20
412.0804
 10
1027.9121
 20
412.4289
 10
1028.0494
 20
412.6773
 10
1028.1979
 20
412.9143
 10
1028.3578
 20
413.1398
 10
1028.529
 20
413.354
 10
1028.7115
 20
413.5567
 10
1028.9052
 20
413.7482
 10
1029.1102
 20
413.9283
 10
1029.3265
 20
414.0972
 10
1029.5508
 20
414.2502
 10
1029.7791
 20
414.3829
 10
1030.0115
 20
414.4952
 10
1030.2479
 20
414.5871
 10
1030.4884
 20
414.6586
 10
1030.7331
 20
414.7097
 10
1030.9818
 20
414.7404
 10
1031.2346
 20
414.7506
 10
1031.4813
 20
414.7452
 10
1031.7115
 20
414.729
 10
1031.9253
 20
414.7021
 10
1032.1228
 20
414.6644
 10
1032.3037
 20
414.616
 10
1032.4683
 20
414.5568
 10
1032.6163
 20
414.4869
 10
1032.7479
 20
414.4063
 10
1033.0796
 20
414.1358
 10
1033.3671
 20
413.8189
 10
1033.6104
 20
413.4556
 10
1033.8095
 20
413.0458
 10
1033.9643
 20
412.5897
 10
1034.0748
 20
412.0871
 10
1034.1412
 20
411.538
 10
1034.1633
 20
410.9425
 10
1034.1633
 20
400.9691
 10
1036.4651
 20
400.9691
 10
1036.4651
 20
410.9425
 10
1036.4486
 20
411.5523
 10
1036.5342
 20
411.7841
 10
1036.6258
 20
412.007
 10
1036.7234
 20
412.2217
 10
1036.8269
 20
412.4289
 10
1036.9645
 20
412.6773
 10
1037.1132
 20
412.9143
 10
1037.2732
 20
413.1398
 10
1037.4443
 20
413.354
 10
1037.6268
 20
413.5567
 10
1037.8206
 20
413.7482
 10
1038.0257
 20
413.9283
 10
1038.2423
 20
414.0972
 10
1038.4663
 20
414.2502
 10
1038.6943
 20
414.3829
 10
1038.9266
 20
414.4952
 10
1039.163
 20
414.5871
 10
1039.4036
 20
414.6586
 10
1039.6483
 20
414.7097
 10
1039.8973
 20
414.7404
 10
1040.1505
 20
414.7506
 10
1040.3972
 20
414.7452
 10
1040.6274
 20
414.729
 10
1040.8412
 20
414.7021
 10
1041.0387
 20
414.6644
 10
1041.2196
 20
414.616
 10
1041.3841
 20
414.5568
 10
1041.5322
 20
414.4869
 10
1041.6637
 20
414.4063
 10
1041.9951
 20
414.1358
 10
1042.2824
 20
413.8189
 10
1042.5255
 20
413.4556
 10
1042.7244
 20
413.0458
 10
1042.8791
 20
412.5897
 10
1042.9897
 20
412.0871
 10
1043.056
 20
411.538
 10
1043.0781
 20
410.9425
 10
1043.0781
 20
400.9691
  0
LWPOLYLINE
  5
9D
330
1F
100
AcDbEntity
  8
Layer 1
 62
     7
100
AcDbPolyline
 90
      165
 70
     1
 43
0.0
 10
1068.1794
 20
400.9691
 10
1070.4823
 20
400.9691
 10
1070.4823
 20
410.9425
 10
1070.4635
 20
411.6048
 10
1070.4072
 20
412.2358
 10
1070.3134
 20
412.8356
 10
1070.1821
 20
413.4042
 10
1070.0132
 20
413.9415
 10
1069.8068
 20
414.4477
 10
1069.5628
 20
414.9227
 10
1069.2813
 20
415.3666
 10
1069.1242
 20
415.579
 10
1068.9574
 20
415.7805
 10
1068.7807
 20
415.9713
 10
1068.5944
 20
416.1513
 10
1068.3982
 20
416.3205
 10
1068.1924
 20
416.4789
 10
1067.9768
 20
416.6265
 10
1067.7515
 20
416.7633
 10
1067.5121
 20
416.8865
 10
1067.2542
 20
416.9933
 10
1066.9776
 20
417.0837
 10
1066.6826
 20
417.1577
 10
1066.3689
 20
417.2153
 10
1066.0367
 20
417.2565
 10
1065.6859
 20
417.2812
 10
1065.3166
 20
417.2894
 10
1064.9443
 20
417.2752
 10
1064.5839
 20
417.2326
 10
1064.2353
 20
417.1617
 10
1063.8986
 20
417.0624
 10
1063.5736
 20
416.9348
 10
1063.2605
 20
416.779
 10
1062.9591
 20
416.5949
 10
1062.6695
 20
416.3826
 10
1062.4179
 20
416.1706
 10
1062.1776
 20
415.9429
 10
1061.9488
 20
415.6996
 10
1061.7314
 20
415.441
 10
1061.5252
 20
415.1671
 10
1061.3304
 20
414.878
 10
1061.1469
 20
414.5738
 10
1060.9747
 20
414.2548
 10
1060.8409
 20
414.5492
 10
1060.695
 20
414.8334
 10
1060.5369
 20
415.1063
 10
1060.3665
 20
415.3666
 10
1060.2094
 20
415.579
 10
1060.0426
 20
415.7805
 10
1059.866
 20
415.9713
 10
1059.6796
 20
416.1513
 10
1059.4835
 20
416.3205
 10
1059.2776
 20
416.4789
 10
1059.0621
 20
416.6265
 10
1058.8368
 20
416.7633
 10
1058.597
 20
416.8865
 10
1058.3388
 20
416.9933
 10
1058.0621
 20
417.0837
 10
1057.7669
 20
417.1577
 10
1057.4533
 20
417.2153
 10
1057.1213
 20
417.2565
 10
1056.7708
 20
417.2812
 10
1056.4018
 20
417.2894
 10
1056.0295
 20
417.2752
 10
1055.669
 20
417.2326
 10
1055.3202
 20
417.1617
 10
1054.9833
 20
417.0624
 10
1054.6581
 20
416.9348
 10
1054.3448
 20
416.779
 10
1054.0433
 20
416.5949
 10
1053.7536
 20
416.3826
 10
1053.5141
 20
416.1808
 10
1053.2849
 20
415.9653
 10
1053.0659
 20
415.7362
 10
1052.8571
 20
415.4932
 10
1052.6586
 20
415.2365
 10
1052.4704
 20
414.9657
 10
1052.2924
 20
414.681
 10
1052.1248
 20
414.3821
 10
1052.1248
 20
416.9269
 10
1049.8219
 20
416.9269
 10
1049.8219
 20
400.9691
 10
1052.1248
 20
400.9691
 10
1052.1248
 20
409.1347
 10
1052.1784
 20
409.6105
 10
1052.2483
 20
410.0678
 10
1052.3347
 20
410.5067
 10
1052.4376
 20
410.9273
 10
1052.5568
 20
411.3297
 10
1052.6925
 20
411.714
 10
1052.8447
 20
412.0804
 10
1053.0134
 20
412.4289
 10
1053.1507
 20
412.6773
 10
1053.2992
 20
412.9143
 10
1053.4591
 20
413.1398
 10
1053.6303
 20
413.354
 10
1053.8127
 20
413.5567
 10
1054.0065
 20
413.7482
 10
1054.2115
 20
413.9283
 10
1054.4277
 20
414.0972
 10
1054.652
 20
414.2502
 10
1054.8804
 20
414.3829
 10
1055.1128
 20
414.4952
 10
1055.3492
 20
414.5871
 10
1055.5897
 20
414.6586
 10
1055.8344
 20
414.7097
 10
1056.0831
 20
414.7404
 10
1056.3359
 20
414.7506
 10
1056.5826
 20
414.7452
 10
1056.8128
 20
414.729
 10
1057.0266
 20
414.7021
 10
1057.2241
 20
414.6644
 10
1057.405
 20
414.616
 10
1057.5696
 20
414.5568
 10
1057.7176
 20
414.4869
 10
1057.8492
 20
414.4063
 10
1058.1809
 20
414.1358
 10
1058.4684
 20
413.8189
 10
1058.7117
 20
413.4556
 10
1058.9108
 20
413.0458
 10
1059.0656
 20
412.5897
 10
1059.1761
 20
412.0871
 10
1059.2425
 20
411.538
 10
1059.2646
 20
410.9425
 10
1059.2646
 20
400.9691
 10
1061.5664
 20
400.9691
 10
1061.5664
 20
410.9425
 10
1061.5499
 20
411.5523
 10
1061.6355
 20
411.7841
 10
1061.7271
 20
412.007
 10
1061.8247
 20
412.2217
 10
1061.9282
 20
412.4289
 10
1062.0658
 20
412.6773
 10
1062.2145
 20
412.9143
 10
1062.3745
 20
413.1398
 10
1062.5456
 20
413.354
 10
1062.7281
 20
413.5567
 10
1062.9219
 20
413.7482
 10
1063.127
 20
413.9283
 10
1063.3436
 20
414.0972
 10
1063.5676
 20
414.2502
 10
1063.7956
 20
414.3829
 10
1064.0279
 20
414.4952
 10
1064.2643
 20
414.5871
 10
1064.5048
 20
414.6586
 10
1064.7496
 20
414.7097
 10
1064.9985
 20
414.7404
 10
1065.2517
 20
414.7506
 10
1065.4984
 20
414.7452
 10
1065.7287
 20
414.729
 10
1065.9425
 20
414.7021
 10
1066.1399
 20
414.6644
 10
1066.3209
 20
414.616
 10
1066.4854
 20
414.5568
 10
1066.6335
 20
414.4869
 10
1066.765
 20
414.4063
 10
1067.0964
 20
414.1358
 10
1067.3836
 20
413.8189
 10
1067.6267
 20
413.4556
 10
1067.8256
 20
413.0458
 10
1067.9804
 20
412.5897
 10
1068.0909
 20
412.0871
 10
1068.1573
 20
411.538
 10
1068.1794
 20
410.9425
 10
1068.1794
 20
400.9691
  0
ENDSEC
  0
SECTION
  2
OBJECTS
  0
DICTIONARY
  5
C
330
0
100
AcDbDictionary
281
     1
  3
ACAD_DETAILVIEWSTYLE
350
A5
  3
ACAD_GROUP
350
D
  3
ACAD_LAYOUT
350
1A
  3
ACAD_MATERIAL
350
43
  3
ACAD_MLEADERSTYLE
350
5B
  3
ACAD_MLINESTYLE
350
17
  3
ACAD_PLOTSETTINGS
350
19
  3
ACAD_PLOTSTYLENAME
350
E
  3
ACAD_SCALELIST
350
47
  3
ACAD_SECTIONVIEWSTYLE
350
A6
  3
ACAD_TABLESTYLE
350
59
  3
ACAD_VISUALSTYLE
350
2A
  3
ACDB_RECOMPOSE_DATA
350
A2
  3
AcDbVariableDictionary
350
9E
  0
SUN
  5
5D
330
29
100
AcDbSun
 90
        1
290
     0
 63
     7
421
 16777215
 40
1.0
291
     1
 91
  2455826
 92
 54000000
292
     0
 70
     2
 71
   256
280
     1
  0
DICTIONARY
  5
A5
102
{ACAD_REACTORS
330
C
102
}
330
C
100
AcDbDictionary
281
     1
  0
DICTIONARY
  5
D
102
{ACAD_REACTORS
330
C
102
}
330
C
100
AcDbDictionary
281
     1
  0
DICTIONARY
  5
1A
102
{ACAD_REACTORS
330
C
102
}
330
C
100
AcDbDictionary
281
     1
  3
Layout1
350
1E
  3
Layout2
350
26
  3
Model
350
22
  0
DICTIONARY
  5
43
102
{ACAD_REACTORS
330
C
102
}
330
C
100
AcDbDictionary
281
     1
  3
ByBlock
350
45
  3
ByLayer
350
44
  3
Global
350
46
  0
DICTIONARY
  5
5B
102
{ACAD_REACTORS
330
C
102
}
330
C
100
AcDbDictionary
281
     1
  3
Standard
350
5C
  0
DICTIONARY
  5
17
102
{ACAD_REACTORS
330
C
102
}
330
C
100
AcDbDictionary
281
     1
  3
Standard
350
18
  0
DICTIONARY
  5
19
102
{ACAD_REACTORS
330
C
102
}
330
C
100
AcDbDictionary
281
     1
  0
ACDBDICTIONARYWDFLT
  5
E
102
{ACAD_REACTORS
330
C
102
}
330
C
100
AcDbDictionary
281
     1
  3
Normal
350
F
100
AcDbDictionaryWithDefault
340
F
  0
DICTIONARY
  5
47
102
{ACAD_REACTORS
330
C
102
}
330
C
100
AcDbDictionary
281
     1
  3
A0
350
48
  3
A1
350
49
  3
A2
350
4A
  3
A3
350
4B
  3
A4
350
4C
  3
A5
350
4D
  3
A6
350
4E
  3
A7
350
4F
  3
A8
350
50
  3
A9
350
51
  3
B1
350
52
  3
B2
350
53
  3
B3
350
54
  3
B4
350
55
  3
B5
350
56
  3
B6
350
57
  3
B7
350
58
  0
DICTIONARY
  5
A6
102
{ACAD_REACTORS
330
C
102
}
330
C
100
AcDbDictionary
281
     1
  0
DICTIONARY
  5
59
102
{ACAD_REACTORS
330
C
102
}
330
C
100
AcDbDictionary
281
     1
  3
Standard
350
5A
  0
DICTIONARY
  5
2A
102
{ACAD_REACTORS
330
C
102
}
330
C
100
AcDbDictionary
281
     1
  3
2dWireframe
350
2F
  3
Basic
350
32
  3
Brighten
350
36
  3
ColorChange
350
3A
  3
Conceptual
350
34
  3
Dim
350
35
  3
EdgeColorOff
350
3D
  3
Facepattern
350
39
  3
Flat
350
2B
  3
FlatWithEdges
350
2C
  3
Gouraud
350
2D
  3
GouraudWithEdges
350
2E
  3
Hidden
350
31
  3
JitterOff
350
3B
  3
Linepattern
350
38
  3
OverhangOff
350
3C
  3
Realistic
350
33
  3
Shaded
350
42
  3
Shaded with edges
350
41
  3
Shades of Gray
350
3E
  3
Sketchy
350
3F
  3
Thicken
350
37
  3
Wireframe
350
30
  3
X-Ray
350
40
  0
XRECORD
  5
A2
102
{ACAD_REACTORS
330
C
102
}
330
C
100
AcDbXrecord
280
     1
 90
        1
330
5A
  0
DICTIONARY
  5
9E
102
{ACAD_REACTORS
330
C
102
}
330
C
100
AcDbDictionary
281
     1
  3
CANNOSCALE
350
9F
  3
CMLEADERSTYLE
350
A4
  3
CTABLESTYLE
350
A3
  0
LAYOUT
  5
1E
102
{ACAD_REACTORS
330
1A
102
}
330
1A
100
AcDbPlotSettings
  1

  2
none_device
  4

  6

 40
0.0
 41
0.0
 42
0.0
 43
0.0
 44
0.0
 45
0.0
 46
0.0
 47
0.0
 48
0.0
 49
0.0
140
0.0
141
0.0
142
1.0
143
1.0
 70
   688
 72
     0
 73
     0
 74
     5
  7

 75
    16
 76
     0
 77
     2
 78
   300
147
1.0
148
0.0
149
0.0
100
AcDbLayout
  1
Layout1
 70
     1
 71
     1
 10
0.0
 20
0.0
 11
12.0
 21
9.0
 12
0.0
 22
0.0
 32
0.0
 14
1.000000000000000E+20
 24
1.000000000000000E+20
 34
1.000000000000000E+20
 15
-1.000000000000000E+20
 25
-1.000000000000000E+20
 35
-1.000000000000000E+20
146
0.0
 13
0.0
 23
0.0
 33
0.0
 16
1.0
 26
0.0
 36
0.0
 17
0.0
 27
1.0
 37
0.0
 76
     0
330
1B
  0
LAYOUT
  5
26
102
{ACAD_REACTORS
330
1A
102
}
330
1A
100
AcDbPlotSettings
  1

  2
none_device
  4

  6

 40
0.0
 41
0.0
 42
0.0
 43
0.0
 44
0.0
 45
0.0
 46
0.0
 47
0.0
 48
0.0
 49
0.0
140
0.0
141
0.0
142
1.0
143
1.0
 70
   688
 72
     0
 73
     0
 74
     5
  7

 75
    16
 76
     0
 77
     2
 78
   300
147
1.0
148
0.0
149
0.0
100
AcDbLayout
  1
Layout2
 70
     1
 71
     2
 10
0.0
 20
0.0
 11
0.0
 21
0.0
 12
0.0
 22
0.0
 32
0.0
 14
0.0
 24
0.0
 34
0.0
 15
0.0
 25
0.0
 35
0.0
146
0.0
 13
0.0
 23
0.0
 33
0.0
 16
1.0
 26
0.0
 36
0.0
 17
0.0
 27
1.0
 37
0.0
 76
     0
330
23
  0
LAYOUT
  5
22
102
{ACAD_REACTORS
330
1A
102
}
330
1A
100
AcDbPlotSettings
  1

  2
none_device
  4
Letter_(8.50_x_11.00_Inches)
  6

 40
6.35
 41
6.35
 42
6.35000508
 43
6.35000508
 44
215.9
 45
279.4
 46
0.0
 47
0.0
 48
0.0
 49
0.0
140
0.0
141
0.0
142
1.0
143
1.0
 70
  1712
 72
     0
 73
     0
 74
     0
  7

 75
     0
 76
     0
 77
     2
 78
   300
147
1.0
148
0.0
149
0.0
100
AcDbLayout
  1
Model
 70
     1
 71
     0
 10
0.0
 20
0.0
 11
12.0
 21
9.0
 12
0.0
 22
0.0
 32
0.0
 14
725.0296
 24
-481.7027
 34
0.0
 15
1337.0151
 25
499.6877
 35
0.0
146
0.0
 13
0.0
 23
0.0
 33
0.0
 16
1.0
 26
0.0
 36
0.0
 17
0.0
 27
1.0
 37
0.0
 76
     0
330
1F
331
29
  0
MATERIAL
  5
45
102
{ACAD_REACTORS
330
43
102
}
330
43
100
AcDbMaterial
  1
ByBlock
 72
     1
 94
      127
  0
MATERIAL
  5
44
102
{ACAD_REACTORS
330
43
102
}
330
43
100
AcDbMaterial
  1
ByLayer
 72
     1
 94
      127
  0
MATERIAL
  5
46
102
{ACAD_REACTORS
330
43
102
}
330
43
100
AcDbMaterial
  1
Global
 72
     1
 94
      127
  0
MLEADERSTYLE
  5
5C
102
{ACAD_REACTORS
330
5B
102
}
330
5B
100
AcDbMLeaderStyle
179
     2
170
     2
171
     1
172
     0
 90
        2
 40
0.0
 41
0.0
173
     1
 91
-1056964608
340
14
 92
       -2
290
     1
 42
0.09
291
     1
 43
0.36
  3
Standard
341
0
 44
0.18
300

342
11
174
     1
178
     6
175
     1
176
     0
 93
-1056964608
 45
0.18
292
     0
297
     0
 46
0.18
343
0
 94
-1056964608
 47
1.0
 49
1.0
140
1.0
293
     1
141
0.0
294
     1
177
     0
142
1.0
295
     0
296
     0
143
0.125
271
     0
272
     9
273
     9
298
     0
  0
MLINESTYLE
  5
18
102
{ACAD_REACTORS
330
17
102
}
330
17
100
AcDbMlineStyle
  2
Standard
 70
     0
  3

 62
   256
 51
90.0
 52
90.0
 71
     2
 49
0.5
 62
   256
  6
BYLAYER
 49
-0.5
 62
   256
  6
BYLAYER
  0
ACDBPLACEHOLDER
  5
F
102
{ACAD_REACTORS
330
E
102
}
330
E
  0
SCALE
  5
48
102
{ACAD_REACTORS
330
47
102
}
330
47
100
AcDbScale
 70
     0
300
1:1
140
1.0
141
1.0
290
     1
  0
SCALE
  5
49
102
{ACAD_REACTORS
330
47
102
}
330
47
100
AcDbScale
 70
     0
300
1/128" = 1'-0"
140
0.0078125
141
12.0
290
     0
  0
SCALE
  5
4A
102
{ACAD_REACTORS
330
47
102
}
330
47
100
AcDbScale
 70
     0
300
1/64" = 1'-0"
140
0.015625
141
12.0
290
     0
  0
SCALE
  5
4B
102
{ACAD_REACTORS
330
47
102
}
330
47
100
AcDbScale
 70
     0
300
1/32" = 1'-0"
140
0.03125
141
12.0
290
     0
  0
SCALE
  5
4C
102
{ACAD_REACTORS
330
47
102
}
330
47
100
AcDbScale
 70
     0
300
1/16" = 1'-0"
140
0.0625
141
12.0
290
     0
  0
SCALE
  5
4D
102
{ACAD_REACTORS
330
47
102
}
330
47
100
AcDbScale
 70
     0
300
3/32" = 1'-0"
140
0.09375
141
12.0
290
     0
  0
SCALE
  5
4E
102
{ACAD_REACTORS
330
47
102
}
330
47
100
AcDbScale
 70
     0
300
1/8" = 1'-0"
140
0.125
141
12.0
290
     0
  0
SCALE
  5
4F
102
{ACAD_REACTORS
330
47
102
}
330
47
100
AcDbScale
 70
     0
300
3/16" = 1'-0"
140
0.1875
141
12.0
290
     0
  0
SCALE
  5
50
102
{ACAD_REACTORS
330
47
102
}
330
47
100
AcDbScale
 70
     0
300
1/4" = 1'-0"
140
0.25
141
12.0
290
     0
  0
SCALE
  5
51
102
{ACAD_REACTORS
330
47
102
}
330
47
100
AcDbScale
 70
     0
300
3/8" = 1'-0"
140
0.375
141
12.0
290
     0
  0
SCALE
  5
52
102
{ACAD_REACTORS
330
47
102
}
330
47
100
AcDbScale
 70
     0
300
1/2" = 1'-0"
140
0.5
141
12.0
290
     0
  0
SCALE
  5
53
102
{ACAD_REACTORS
330
47
102
}
330
47
100
AcDbScale
 70
     0
300
3/4" = 1'-0"
140
0.75
141
12.0
290
     0
  0
SCALE
  5
54
102
{ACAD_REACTORS
330
47
102
}
330
47
100
AcDbScale
 70
     0
300
1" = 1'-0"
140
1.0
141
12.0
290
     0
  0
SCALE
  5
55
102
{ACAD_REACTORS
330
47
102
}
330
47
100
AcDbScale
 70
     0
300
1-1/2" = 1'-0"
140
1.5
141
12.0
290
     0
  0
SCALE
  5
56
102
{ACAD_REACTORS
330
47
102
}
330
47
100
AcDbScale
 70
     0
300
3" = 1'-0"
140
3.0
141
12.0
290
     0
  0
SCALE
  5
57
102
{ACAD_REACTORS
330
47
102
}
330
47
100
AcDbScale
 70
     0
300
6" = 1'-0"
140
6.0
141
12.0
290
     0
  0
SCALE
  5
58
102
{ACAD_REACTORS
330
47
102
}
330
47
100
AcDbScale
 70
     0
300
1'-0" = 1'-0"
140
12.0
141
12.0
290
     0
  0
TABLESTYLE
  5
5A
102
{ACAD_REACTORS
330
59
102
}
102
{ACAD_XDICTIONARY
360
A0
102
}
330
59
100
AcDbTableStyle
  3
Standard
 70
     0
 71
     0
 40
0.06
 41
0.06
280
     0
281
     0
  7
Standard
140
0.18
170
     2
 62
     0
 63
   257
283
     0
 90
        4
 91
        0
  1

274
    -2
284
     1
 64
     0
275
    -2
285
     1
 65
     0
276
    -2
286
     1
 66
     0
277
    -2
287
     1
 67
     0
278
    -2
288
     1
 68
     0
279
    -2
289
     1
 69
     0
  7
Standard
140
0.25
170
     5
 62
     0
 63
   257
283
     0
 90
        4
 91
        0
  1

274
    -2
284
     1
 64
     0
275
    -2
285
     1
 65
     0
276
    -2
286
     1
 66
     0
277
    -2
287
     1
 67
     0
278
    -2
288
     1
 68
     0
279
    -2
289
     1
 69
     0
  7
Standard
140
0.18
170
     5
 62
     0
 63
   257
283
     0
 90
        4
 91
        0
  1

274
    -2
284
     1
 64
     0
275
    -2
285
     1
 65
     0
276
    -2
286
     1
 66
     0
277
    -2
287
     1
 67
     0
278
    -2
288
     1
 68
     0
279
    -2
289
     1
 69
     0
  0
VISUALSTYLE
  5
2F
102
{ACAD_REACTORS
330
2A
102
}
330
2A
100
AcDbVisualStyle
  2
2dWireframe
 70
     4
177
     3
291
     0
 70
    58
 90
        0
176
     1
 90
        2
176
     1
 90
        0
176
     1
 90
        0
176
     1
 40
0.6
176
     1
 40
30.0
176
     1
 62
     7
420
 16777215
176
     1
 90
        1
176
     1
 90
        4
176
     1
 62
     7
176
     1
 62
   257
176
     1
 90
        1
176
     1
 90
        1
176
     1
 40
1.0
176
     1
 90
        0
176
     1
 62
   257
176
     1
 40
1.0
176
     1
 90
        1
176
     1
 90
        6
176
     1
 90
        2
176
     1
 62
     7
176
     1
 90
        5
176
     1
 90
        0
176
     1
 90
        0
176
     1
290
     0
176
     1
 90
        1
176
     1
 40
0.0
176
     1
 90
        0
176
     1
290
     1
176
     1
290
     1
176
     1
290
     0
176
     1
290
     0
176
     1
290
     0
176
     1
290
     0
176
     1
290
     0
176
     1
290
     0
176
     1
290
     0
176
     1
 90
       50
176
     1
 40
0.0
176
     1
 40
1.0
176
     1
 90
        0
176
     1
 62
    18
420
        0
176
     1
 90
       50
176
     1
 90
        3
176
     1
 62
     5
420
      255
176
     1
290
     0
176
     1
 90
       50
176
     1
 90
       50
176
     1
 90
       50
176
     1
290
     0
176
     1
 90
       50
176
     1
 62
   256
176
     0
 40
1.0
176
     0
 90
        2
176
     1
  1
strokes_ogs.tif
176
     1
290
     0
176
     1
 40
1.0
176
     1
 40
1.0
176
     1
  0
VISUALSTYLE
  5
32
102
{ACAD_REACTORS
330
2A
102
}
330
2A
100
AcDbVisualStyle
  2
Basic
 70
     7
177
     3
291
     1
 70
    58
 90
        1
176
     1
 90
        0
176
     1
 90
        1
176
     1
 90
        0
176
     1
 40
0.6
176
     1
 40
30.0
176
     1
 62
     7
420
 16777215
176
     1
 90
        0
176
     1
 90
        4
176
     1
 62
     7
176
     1
 62
   257
176
     1
 90
        1
176
     1
 90
        1
176
     1
 40
1.0
176
     1
 90
        8
176
     1
 62
     7
176
     1
 40
1.0
176
     1
 90
        1
176
     1
 90
        6
176
     1
 90
        2
176
     1
 62
     7
176
     1
 90
        5
176
     1
 90
        0
176
     1
 90
        0
176
     1
290
     0
176
     1
 90
        1
176
     1
 40
0.0
176
     1
 90
        0
176
     1
290
     0
176
     1
290
     1
176
     1
290
     1
176
     1
290
     0
176
     1
290
     0
176
     1
290
     0
176
     1
290
     0
176
     1
290
     0
176
     1
290
     0
176
     1
 90
       50
176
     1
 40
0.0
176
     1
 40
1.0
176
     1
 90
        0
176
     1
 62
    18
420
        0
176
     1
 90
       50
176
     1
 90
        3
176
     1
 62
     5
420
      255
176
     1
290
     0
176
     1
 90
       50
176
     1
 90
       50
176
     1
 90
       50
176
     1
290
     0
176
     1
 90
       50
176
     1
 62
   256
176
     0
 40
1.0
176
     0
 90
        2
176
     1
  1
strokes_ogs.tif
176
     1
290
     0
176
     1
 40
1.0
176
     1
 40
1.0
176
     1
  0
VISUALSTYLE
  5
36
102
{ACAD_REACTORS
330
2A
102
}
330
2A
100
AcDbVisualStyle
  2
Brighten
 70
    12
177
     3
291
     1
 70
    58
 90
        2
176
     1
 90
        2
176
     1
 90
        0
176
     1
 90
        0
176
     1
 40
0.6
176
     1
 40
30.0
176
     1
 62
     7
420
 16777215
176
     1
 90
        1
176
     1
 90
        4
176
     1
 62
     7
176
     1
 62
   257
176
     1
 90
        1
176
     1
 90
        1
176
     1
 40
1.0
176
     1
 90
        8
176
     1
 62
     7
176
     1
 40
1.0
176
     1
 90
        1
176
     1
 90
        6
176
     1
 90
        2
176
     1
 62
     7
176
     1
 90
        5
176
     1
 90
        0
176
     1
 90
        0
176
     1
290
     0
176
     1
 90
        1
176
     1
 40
50.0
176
     1
 90
        0
176
     1
290
     0
176
     1
290
     1
176
     1
290
     1
176
     1
290
     0
176
     1
290
     0
176
     1
290
     0
176
     1
290
     0
176
     1
290
     0
176
     1
290
     0
176
     1
 90
       50
176
     1
 40
0.0
176
     1
 40
1.0
176
     1
 90
        0
176
     1
 62
    18
420
        0
176
     1
 90
       50
176
     1
 90
        3
176
     1
 62
     5
420
      255
176
     1
290
     0
176
     1
 90
       50
176
     1
 90
       50
176
     1
 90
       50
176
     1
290
     0
176
     1
 90
       50
176
     1
 62
   256
176
     0
 40
1.0
176
     0
 90
        2
176
     1
  1
strokes_ogs.tif
176
     1
290
     0
176
     1
 40
1.0
176
     1
 40
1.0
176
     1
  0
VISUALSTYLE
  5
3A
102
{ACAD_REACTORS
330
2A
102
}
330
2A
100
AcDbVisualStyle
  2
ColorChange
 70
    16
177
     3
291
     1
 70
    58
 90
        2
176
     1
 90
        2
176
     1
 90
        3
176
     1
 90
        0
176
     1
 40
0.6
176
     1
 40
30.0
176
     1
 62
     8
420
  8421504
176
     1
 90
        1
176
     1
 90
        4
176
     1
 62
     7
176
     1
 62
   257
176
     1
 90
        1
176
     1
 90
        1
176
     1
 40
1.0
176
     1
 90
        8
176
     1
 62
     8
420
  8421504
176
     1
 40
1.0
176
     1
 90
        1
176
     1
 90
        6
176
     1
 90
        2
176
     1
 62
     7
176
     1
 90
        5
176
     1
 90
        0
176
     1
 90
        0
176
     1
290
     0
176
     1
 90
        1
176
     1
 40
0.0
176
     1
 90
        0
176
     1
290
     0
176
     1
290
     1
176
     1
290
     1
176
     1
290
     0
176
     1
290
     0
176
     1
290
     0
176
     1
290
     0
176
     1
290
     0
176
     1
290
     0
176
     1
 90
       50
176
     1
 40
0.0
176
     1
 40
1.0
176
     1
 90
        0
176
     1
 62
    18
420
        0
176
     1
 90
       50
176
     1
 90
        3
176
     1
 62
     5
420
      255
176
     1
290
     0
176
     1
 90
       50
176
     1
 90
       50
176
     1
 90
       50
176
     1
290
     0
176
     1
 90
       50
176
     1
 62
   256
176
     0
 40
1.0
176
     0
 90
        2
176
     1
  1
strokes_ogs.tif
176
     1
290
     0
176
     1
 40
1.0
176
     1
 40
1.0
176
     1
  0
VISUALSTYLE
  5
34
102
{ACAD_REACTORS
330
2A
102
}
330
2A
100
AcDbVisualStyle
  2
Conceptual
 70
     9
177
     3
291
     0
 70
    58
 90
        3
176
     1
 90
        2
176
     1
 90
        0
176
     1
 90
        0
176
     1
 40
0.6
176
     1
 40
30.0
176
     1
 62
     7
420
 16777215
176
     1
 90
        2
176
     1
 90
        2
176
     1
 62
     7
176
     1
 62
   257
176
     1
 90
        1
176
     1
 90
        1
176
     1
 40
179.0
176
     1
 90
        8
176
     1
 62
     7
176
     1
 40
1.0
176
     1
 90
        1
176
     1
 90
        6
176
     1
 90
        2
176
     1
 62
     7
176
     1
 90
        3
176
     1
 90
        0
176
     1
 90
        0
176
     1
290
     0
176
     1
 90
        1
176
     1
 40
0.0
176
     1
 90
        0
176
     1
290
     0
176
     1
290
     1
176
     1
290
     1
176
     1
290
     0
176
     1
290
     0
176
     1
290
     0
176
     1
290
     0
176
     1
290
     0
176
     1
290
     0
176
     1
 90
       50
176
     1
 40
0.0
176
     1
 40
1.0
176
     1
 90
        0
176
     1
 62
    18
420
        0
176
     1
 90
       50
176
     1
 90
        3
176
     1
 62
     5
420
      255
176
     1
290
     0
176
     1
 90
       50
176
     1
 90
       50
176
     1
 90
       50
176
     1
290
     0
176
     1
 90
       50
176
     1
 62
   256
176
     0
 40
1.0
176
     0
 90
        2
176
     1
  1
strokes_ogs.tif
176
     1
290
     0
176
     1
 40
1.0
176
     1
 40
1.0
176
     1
  0
VISUALSTYLE
  5
35
102
{ACAD_REACTORS
330
2A
102
}
330
2A
100
AcDbVisualStyle
  2
Dim
 70
    11
177
     3
291
     1
 70
    58
 90
        2
176
     1
 90
        2
176
     1
 90
        0
176
     1
 90
        0
176
     1
 40
0.6
176
     1
 40
30.0
176
     1
 62
     7
420
 16777215
176
     1
 90
        1
176
     1
 90
        4
176
     1
 62
     7
176
     1
 62
   257
176
     1
 90
        1
176
     1
 90
        1
176
     1
 40
1.0
176
     1
 90
        8
176
     1
 62
     7
176
     1
 40
1.0
176
     1
 90
        1
176
     1
 90
        6
176
     1
 90
        2
176
     1
 62
     7
176
     1
 90
        5
176
     1
 90
        0
176
     1
 90
        0
176
     1
290
     0
176
     1
 90
        1
176
     1
 40
-50.0
176
     1
 90
        0
176
     1
290
     0
176
     1
290
     1
176
     1
290
     1
176
     1
290
     0
176
     1
290
     0
176
     1
290
     0
176
     1
290
     0
176
     1
290
     0
176
     1
290
     0
176
     1
 90
       50
176
     1
 40
0.0
176
     1
 40
1.0
176
     1
 90
        0
176
     1
 62
    18
420
        0
176
     1
 90
       50
176
     1
 90
        3
176
     1
 62
     5
420
      255
176
     1
290
     0
176
     1
 90
       50
176
     1
 90
       50
176
     1
 90
       50
176
     1
290
     0
176
     1
 90
       50
176
     1
 62
   256
176
     0
 40
1.0
176
     0
 90
        2
176
     1
  1
strokes_ogs.tif
176
     1
290
     0
176
     1
 40
1.0
176
     1
 40
1.0
176
     1
  0
VISUALSTYLE
  5
3D
102
{ACAD_REACTORS
330
2A
102
}
330
2A
100
AcDbVisualStyle
  2
EdgeColorOff
 70
    22
177
     3
291
     1
 70
    58
 90
        2
176
     0
 90
        2
176
     0
 90
        0
176
     0
 90
        0
176
     0
 40
0.6
176
     0
 40
30.0
176
     0
 62
     7
420
 16777215
176
     0
 90
        1
176
     0
 90
        4
176
     0
 62
     7
176
     0
 62
   257
176
     0
 90
        1
176
     0
 90
        1
176
     0
 40
1.0
176
     0
 90
        8
176
     2
 62
     7
176
     0
 40
1.0
176
     0
 90
        1
176
     0
 90
        6
176
     0
 90
        2
176
     0
 62
     7
176
     0
 90
        5
176
     0
 90
        0
176
     0
 90
        0
176
     0
290
     0
176
     0
 90
        1
176
     0
 40
0.0
176
     0
 90
        0
176
     0
290
     0
176
     0
290
     1
176
     0
290
     1
176
     0
290
     0
176
     0
290
     0
176
     0
290
     0
176
     0
290
     0
176
     0
290
     0
176
     0
290
     0
176
     0
 90
       50
176
     0
 40
0.0
176
     0
 40
1.0
176
     0
 90
        0
176
     0
 62
    18
420
        0
176
     0
 90
       50
176
     0
 90
        3
176
     0
 62
     5
420
      255
176
     0
290
     0
176
     0
 90
       50
176
     0
 90
       50
176
     0
 90
       50
176
     0
290
     0
176
     0
 90
       50
176
     0
 62
   256
176
     0
 40
1.0
176
     0
 90
        2
176
     0
  1
strokes_ogs.tif
176
     0
290
     0
176
     0
 40
1.0
176
     0
 40
1.0
176
     0
  0
VISUALSTYLE
  5
39
102
{ACAD_REACTORS
330
2A
102
}
330
2A
100
AcDbVisualStyle
  2
Facepattern
 70
    15
177
     3
291
     1
 70
    58
 90
        2
176
     1
 90
        2
176
     1
 90
        0
176
     1
 90
        0
176
     1
 40
0.6
176
     1
 40
30.0
176
     1
 62
     7
420
 16777215
176
     1
 90
        1
176
     1
 90
        4
176
     1
 62
     7
176
     1
 62
   257
176
     1
 90
        1
176
     1
 90
        1
176
     1
 40
1.0
176
     1
 90
        8
176
     1
 62
     7
176
     1
 40
1.0
176
     1
 90
        1
176
     1
 90
        6
176
     1
 90
        2
176
     1
 62
     7
176
     1
 90
        5
176
     1
 90
        0
176
     1
 90
        0
176
     1
290
     0
176
     1
 90
        1
176
     1
 40
0.0
176
     1
 90
        0
176
     1
290
     0
176
     1
290
     1
176
     1
290
     1
176
     1
290
     0
176
     1
290
     0
176
     1
290
     0
176
     1
290
     0
176
     1
290
     0
176
     1
290
     0
176
     1
 90
       50
176
     1
 40
0.0
176
     1
 40
1.0
176
     1
 90
        0
176
     1
 62
    18
420
        0
176
     1
 90
       50
176
     1
 90
        3
176
     1
 62
     5
420
      255
176
     1
290
     0
176
     1
 90
       50
176
     1
 90
       50
176
     1
 90
       50
176
     1
290
     0
176
     1
 90
       50
176
     1
 62
   256
176
     0
 40
1.0
176
     0
 90
        2
176
     1
  1
strokes_ogs.tif
176
     1
290
     0
176
     1
 40
1.0
176
     1
 40
1.0
176
     1
  0
VISUALSTYLE
  5
2B
102
{ACAD_REACTORS
330
2A
102
}
330
2A
100
AcDbVisualStyle
  2
Flat
 70
     0
177
     3
291
     1
 70
    58
 90
        2
176
     1
 90
        1
176
     1
 90
        1
176
     1
 90
        2
176
     1
 40
0.6
176
     1
 40
30.0
176
     1
 62
     7
420
 16777215
176
     1
 90
        0
176
     1
 90
        0
176
     1
 62
     7
176
     1
 62
   257
176
     1
 90
        1
176
     1
 90
        1
176
     1
 40
1.0
176
     1
 90
        8
176
     1
 62
     7
176
     1
 40
1.0
176
     1
 90
        1
176
     1
 90
        6
176
     1
 90
        2
176
     1
 62
     7
176
     1
 90
        5
176
     1
 90
        0
176
     1
 90
        0
176
     1
290
     0
176
     1
 90
       13
176
     1
 40
0.0
176
     1
 90
        0
176
     1
290
     0
176
     1
290
     1
176
     1
290
     1
176
     1
290
     0
176
     1
290
     0
176
     1
290
     0
176
     1
290
     0
176
     1
290
     0
176
     1
290
     0
176
     1
 90
       50
176
     1
 40
0.0
176
     1
 40
1.0
176
     1
 90
        0
176
     1
 62
    18
420
        0
176
     1
 90
       50
176
     1
 90
        3
176
     1
 62
     5
420
      255
176
     1
290
     0
176
     1
 90
       50
176
     1
 90
       50
176
     1
 90
       50
176
     1
290
     0
176
     1
 90
       50
176
     1
 62
   256
176
     0
 40
1.0
176
     0
 90
        2
176
     1
  1
strokes_ogs.tif
176
     1
290
     0
176
     1
 40
1.0
176
     1
 40
1.0
176
     1
  0
VISUALSTYLE
  5
2C
102
{ACAD_REACTORS
330
2A
102
}
330
2A
100
AcDbVisualStyle
  2
FlatWithEdges
 70
     1
177
     3
291
     1
 70
    58
 90
        2
176
     1
 90
        1
176
     1
 90
        1
176
     1
 90
        2
176
     1
 40
0.6
176
     1
 40
30.0
176
     1
 62
     7
420
 16777215
176
     1
 90
        1
176
     1
 90
        0
176
     1
 62
     7
176
     1
 62
   257
176
     1
 90
        1
176
     1
 90
        1
176
     1
 40
1.0
176
     1
 90
        0
176
     1
 62
   257
176
     1
 40
1.0
176
     1
 90
        1
176
     1
 90
        6
176
     1
 90
        2
176
     1
 62
     7
176
     1
 90
        5
176
     1
 90
        0
176
     1
 90
        0
176
     1
290
     0
176
     1
 90
       13
176
     1
 40
0.0
176
     1
 90
        0
176
     1
290
     0
176
     1
290
     1
176
     1
290
     1
176
     1
290
     0
176
     1
290
     0
176
     1
290
     0
176
     1
290
     0
176
     1
290
     0
176
     1
290
     0
176
     1
 90
       50
176
     1
 40
0.0
176
     1
 40
1.0
176
     1
 90
        0
176
     1
 62
    18
420
        0
176
     1
 90
       50
176
     1
 90
        3
176
     1
 62
     5
420
      255
176
     1
290
     0
176
     1
 90
       50
176
     1
 90
       50
176
     1
 90
       50
176
     1
290
     0
176
     1
 90
       50
176
     1
 62
   256
176
     0
 40
1.0
176
     0
 90
        2
176
     1
  1
strokes_ogs.tif
176
     1
290
     0
176
     1
 40
1.0
176
     1
 40
1.0
176
     1
  0
VISUALSTYLE
  5
2D
102
{ACAD_REACTORS
330
2A
102
}
330
2A
100
AcDbVisualStyle
  2
Gouraud
 70
     2
177
     3
291
     1
 70
    58
 90
        2
176
     1
 90
        2
176
     1
 90
        1
176
     1
 90
        2
176
     1
 40
0.6
176
     1
 40
30.0
176
     1
 62
     7
420
 16777215
176
     1
 90
        0
176
     1
 90
        0
176
     1
 62
     7
176
     1
 62
   257
176
     1
 90
        1
176
     1
 90
        1
176
     1
 40
1.0
176
     1
 90
        0
176
     1
 62
     7
176
     1
 40
1.0
176
     1
 90
        1
176
     1
 90
        6
176
     1
 90
        2
176
     1
 62
     7
176
     1
 90
        5
176
     1
 90
        0
176
     1
 90
        0
176
     1
290
     0
176
     1
 90
       13
176
     1
 40
0.0
176
     1
 90
        0
176
     1
290
     0
176
     1
290
     1
176
     1
290
     1
176
     1
290
     0
176
     1
290
     0
176
     1
290
     0
176
     1
290
     0
176
     1
290
     0
176
     1
290
     0
176
     1
 90
       50
176
     1
 40
0.0
176
     1
 40
1.0
176
     1
 90
        0
176
     1
 62
    18
420
        0
176
     1
 90
       50
176
     1
 90
        3
176
     1
 62
     5
420
      255
176
     1
290
     0
176
     1
 90
       50
176
     1
 90
       50
176
     1
 90
       50
176
     1
290
     0
176
     1
 90
       50
176
     1
 62
   256
176
     0
 40
1.0
176
     0
 90
        2
176
     1
  1
strokes_ogs.tif
176
     1
290
     0
176
     1
 40
1.0
176
     1
 40
1.0
176
     1
  0
VISUALSTYLE
  5
2E
102
{ACAD_REACTORS
330
2A
102
}
330
2A
100
AcDbVisualStyle
  2
GouraudWithEdges
 70
     3
177
     3
291
     1
 70
    58
 90
        2
176
     1
 90
        2
176
     1
 90
        1
176
     1
 90
        2
176
     1
 40
0.6
176
     1
 40
30.0
176
     1
 62
     7
420
 16777215
176
     1
 90
        1
176
     1
 90
        0
176
     1
 62
     7
176
     1
 62
   257
176
     1
 90
        1
176
     1
 90
        1
176
     1
 40
1.0
176
     1
 90
        0
176
     1
 62
   257
176
     1
 40
1.0
176
     1
 90
        1
176
     1
 90
        6
176
     1
 90
        2
176
     1
 62
     7
176
     1
 90
        5
176
     1
 90
        0
176
     1
 90
        0
176
     1
290
     0
176
     1
 90
       13
176
     1
 40
0.0
176
     1
 90
        0
176
     1
290
     0
176
     1
290
     1
176
     1
290
     1
176
     1
290
     0
176
     1
290
     0
176
     1
290
     0
176
     1
290
     0
176
     1
290
     0
176
     1
290
     0
176
     1
 90
       50
176
     1
 40
0.0
176
     1
 40
1.0
176
     1
 90
        0
176
     1
 62
    18
420
        0
176
     1
 90
       50
176
     1
 90
        3
176
     1
 62
     5
420
      255
176
     1
290
     0
176
     1
 90
       50
176
     1
 90
       50
176
     1
 90
       50
176
     1
290
     0
176
     1
 90
       50
176
     1
 62
   256
176
     0
 40
1.0
176
     0
 90
        2
176
     1
  1
strokes_ogs.tif
176
     1
290
     0
176
     1
 40
1.0
176
     1
 40
1.0
176
     1
  0
VISUALSTYLE
  5
31
102
{ACAD_REACTORS
330
2A
102
}
330
2A
100
AcDbVisualStyle
  2
Hidden
 70
     6
177
     3
291
     0
 70
    58
 90
        1
176
     1
 90
        2
176
     1
 90
        2
176
     1
 90
        0
176
     1
 40
0.6
176
     1
 40
30.0
176
     1
 62
     7
420
 16777215
176
     1
 90
        2
176
     1
 90
        2
176
     1
 62
     7
176
     1
 62
   257
176
     1
 90
        2
176
     1
 90
        1
176
     1
 40
40.0
176
     1
 90
        0
176
     1
 62
   257
176
     1
 40
1.0
176
     1
 90
        1
176
     1
 90
        6
176
     1
 90
        2
176
     1
 62
     7
176
     1
 90
        3
176
     1
 90
        0
176
     1
 90
        0
176
     1
290
     0
176
     1
 90
        1
176
     1
 40
0.0
176
     1
 90
        0
176
     1
290
     0
176
     1
290
     1
176
     1
290
     1
176
     1
290
     0
176
     1
290
     0
176
     1
290
     0
176
     1
290
     0
176
     1
290
     0
176
     1
290
     0
176
     1
 90
       50
176
     1
 40
0.0
176
     1
 40
1.0
176
     1
 90
        0
176
     1
 62
    18
420
        0
176
     1
 90
       50
176
     1
 90
        3
176
     1
 62
     5
420
      255
176
     1
290
     0
176
     1
 90
       50
176
     1
 90
       50
176
     1
 90
       50
176
     1
290
     0
176
     1
 90
       50
176
     1
 62
   256
176
     0
 40
1.0
176
     0
 90
        2
176
     1
  1
strokes_ogs.tif
176
     1
290
     0
176
     1
 40
1.0
176
     1
 40
1.0
176
     1
  0
VISUALSTYLE
  5
3B
102
{ACAD_REACTORS
330
2A
102
}
330
2A
100
AcDbVisualStyle
  2
JitterOff
 70
    20
177
     3
291
     1
 70
    58
 90
        2
176
     0
 90
        2
176
     0
 90
        0
176
     0
 90
        0
176
     0
 40
0.6
176
     0
 40
30.0
176
     0
 62
     7
420
 16777215
176
     0
 90
        1
176
     0
 90
        4
176
     0
 62
     7
176
     0
 62
   257
176
     0
 90
        1
176
     0
 90
        1
176
     0
 40
1.0
176
     0
 90
       10
176
     2
 62
     7
176
     0
 40
1.0
176
     0
 90
        1
176
     0
 90
        6
176
     0
 90
        2
176
     0
 62
     7
176
     0
 90
        5
176
     0
 90
        0
176
     0
 90
        0
176
     0
290
     0
176
     0
 90
        1
176
     0
 40
0.0
176
     0
 90
        0
176
     0
290
     0
176
     0
290
     1
176
     0
290
     1
176
     0
290
     0
176
     0
290
     0
176
     0
290
     0
176
     0
290
     0
176
     0
290
     0
176
     0
290
     0
176
     0
 90
       50
176
     0
 40
0.0
176
     0
 40
1.0
176
     0
 90
        0
176
     0
 62
    18
420
        0
176
     0
 90
       50
176
     0
 90
        3
176
     0
 62
     5
420
      255
176
     0
290
     0
176
     0
 90
       50
176
     0
 90
       50
176
     0
 90
       50
176
     0
290
     0
176
     0
 90
       50
176
     0
 62
   256
176
     0
 40
1.0
176
     0
 90
        2
176
     0
  1
strokes_ogs.tif
176
     0
290
     0
176
     0
 40
1.0
176
     0
 40
1.0
176
     0
  0
VISUALSTYLE
  5
38
102
{ACAD_REACTORS
330
2A
102
}
330
2A
100
AcDbVisualStyle
  2
Linepattern
 70
    14
177
     3
291
     1
 70
    58
 90
        2
176
     1
 90
        2
176
     1
 90
        0
176
     1
 90
        0
176
     1
 40
0.6
176
     1
 40
30.0
176
     1
 62
     7
420
 16777215
176
     1
 90
        1
176
     1
 90
        4
176
     1
 62
     7
176
     1
 62
   257
176
     1
 90
        7
176
     1
 90
        7
176
     1
 40
1.0
176
     1
 90
        8
176
     1
 62
     7
176
     1
 40
1.0
176
     1
 90
        1
176
     1
 90
        6
176
     1
 90
        2
176
     1
 62
     7
176
     1
 90
        5
176
     1
 90
        0
176
     1
 90
        0
176
     1
290
     0
176
     1
 90
        1
176
     1
 40
0.0
176
     1
 90
        0
176
     1
290
     0
176
     1
290
     1
176
     1
290
     1
176
     1
290
     0
176
     1
290
     0
176
     1
290
     0
176
     1
290
     0
176
     1
290
     0
176
     1
290
     0
176
     1
 90
       50
176
     1
 40
0.0
176
     1
 40
1.0
176
     1
 90
        0
176
     1
 62
    18
420
        0
176
     1
 90
       50
176
     1
 90
        3
176
     1
 62
     5
420
      255
176
     1
290
     0
176
     1
 90
       50
176
     1
 90
       50
176
     1
 90
       50
176
     1
290
     0
176
     1
 90
       50
176
     1
 62
   256
176
     0
 40
1.0
176
     0
 90
        2
176
     1
  1
strokes_ogs.tif
176
     1
290
     0
176
     1
 40
1.0
176
     1
 40
1.0
176
     1
  0
VISUALSTYLE
  5
3C
102
{ACAD_REACTORS
330
2A
102
}
330
2A
100
AcDbVisualStyle
  2
OverhangOff
 70
    21
177
     3
291
     1
 70
    58
 90
        2
176
     0
 90
        2
176
     0
 90
        0
176
     0
 90
        0
176
     0
 40
0.6
176
     0
 40
30.0
176
     0
 62
     7
420
 16777215
176
     0
 90
        1
176
     0
 90
        4
176
     0
 62
     7
176
     0
 62
   257
176
     0
 90
        1
176
     0
 90
        1
176
     0
 40
1.0
176
     0
 90
        9
176
     2
 62
     7
176
     0
 40
1.0
176
     0
 90
        1
176
     0
 90
        6
176
     0
 90
        2
176
     0
 62
     7
176
     0
 90
        5
176
     0
 90
        0
176
     0
 90
        0
176
     0
290
     0
176
     0
 90
        1
176
     0
 40
0.0
176
     0
 90
        0
176
     0
290
     0
176
     0
290
     1
176
     0
290
     1
176
     0
290
     0
176
     0
290
     0
176
     0
290
     0
176
     0
290
     0
176
     0
290
     0
176
     0
290
     0
176
     0
 90
       50
176
     0
 40
0.0
176
     0
 40
1.0
176
     0
 90
        0
176
     0
 62
    18
420
        0
176
     0
 90
       50
176
     0
 90
        3
176
     0
 62
     5
420
      255
176
     0
290
     0
176
     0
 90
       50
176
     0
 90
       50
176
     0
 90
       50
176
     0
290
     0
176
     0
 90
       50
176
     0
 62
   256
176
     0
 40
1.0
176
     0
 90
        2
176
     0
  1
strokes_ogs.tif
176
     0
290
     0
176
     0
 40
1.0
176
     0
 40
1.0
176
     0
  0
VISUALSTYLE
  5
33
102
{ACAD_REACTORS
330
2A
102
}
330
2A
100
AcDbVisualStyle
  2
Realistic
 70
     8
177
     3
291
     0
 70
    58
 90
        2
176
     1
 90
        3
176
     1
 90
        0
176
     1
 90
        2
176
     1
 40
0.6
176
     1
 40
30.0
176
     1
 62
     7
420
 16777215
176
     1
 90
        0
176
     1
 90
        0
176
     1
 62
     7
176
     1
 62
   257
176
     1
 90
        1
176
     1
 90
        1
176
     1
 40
1.0
176
     1
 90
        8
176
     1
 62
   257
176
     1
 40
1.0
176
     1
 90
        1
176
     1
 90
        6
176
     1
 90
        2
176
     1
 62
     7
176
     1
 90
        3
176
     1
 90
        0
176
     1
 90
        0
176
     1
290
     0
176
     1
 90
       13
176
     1
 40
0.0
176
     1
 90
        0
176
     1
290
     0
176
     1
290
     1
176
     1
290
     1
176
     1
290
     0
176
     1
290
     0
176
     1
290
     0
176
     1
290
     0
176
     1
290
     0
176
     1
290
     0
176
     1
 90
       50
176
     1
 40
0.0
176
     1
 40
1.0
176
     1
 90
        0
176
     1
 62
    18
420
        0
176
     1
 90
       50
176
     1
 90
        3
176
     1
 62
     5
420
      255
176
     1
290
     0
176
     1
 90
       50
176
     1
 90
       50
176
     1
 90
       50
176
     1
290
     0
176
     1
 90
       50
176
     1
 62
   256
176
     0
 40
1.0
176
     0
 90
        2
176
     1
  1
strokes_ogs.tif
176
     1
290
     0
176
     1
 40
1.0
176
     1
 40
1.0
176
     1
  0
VISUALSTYLE
  5
42
102
{ACAD_REACTORS
330
2A
102
}
330
2A
100
AcDbVisualStyle
  2
Shaded
 70
    27
177
     3
291
     0
 70
    58
 90
        2
176
     1
 90
        2
176
     1
 90
        1
176
     1
 90
        2
176
     1
 40
0.6
176
     1
 40
30.0
176
     1
 62
     7
420
 16777215
176
     1
 90
        0
176
     1
 90
        4
176
     1
 62
     7
176
     1
 62
   257
176
     1
 90
        1
176
     1
 90
        1
176
     1
 40
1.0
176
     1
 90
        8
176
     1
 62
   257
176
     1
 40
1.0
176
     1
 90
        1
176
     1
 90
        6
176
     1
 90
        2
176
     1
 62
     8
420
  7895160
176
     1
 90
        3
176
     1
 90
        0
176
     1
 90
        0
176
     1
290
     0
176
     1
 90
        5
176
     1
 40
0.0
176
     1
 90
        0
176
     1
290
     0
176
     1
290
     1
176
     1
290
     1
176
     1
290
     0
176
     1
290
     0
176
     1
290
     0
176
     1
290
     0
176
     1
290
     0
176
     1
290
     0
176
     1
 90
       50
176
     1
 40
0.0
176
     1
 40
1.0
176
     1
 90
        0
176
     1
 62
    18
420
        0
176
     1
 90
       50
176
     1
 90
        3
176
     1
 62
     5
420
      255
176
     1
290
     0
176
     1
 90
       50
176
     1
 90
       50
176
     1
 90
       50
176
     1
290
     0
176
     1
 90
       50
176
     1
 62
   256
176
     0
 40
1.0
176
     0
 90
        2
176
     1
  1
strokes_ogs.tif
176
     1
290
     0
176
     1
 40
1.0
176
     1
 40
1.0
176
     1
  0
VISUALSTYLE
  5
41
102
{ACAD_REACTORS
330
2A
102
}
330
2A
100
AcDbVisualStyle
  2
Shaded with edges
 70
    26
177
     3
291
     0
 70
    58
 90
        2
176
     1
 90
        2
176
     1
 90
        1
176
     1
 90
        2
176
     1
 40
0.6
176
     1
 40
30.0
176
     1
 62
     7
420
 16777215
176
     1
 90
        1
176
     1
 90
       10
176
     1
 62
     7
176
     1
 62
   257
176
     1
 90
        2
176
     1
 90
        1
176
     1
 40
1.0
176
     1
 90
        8
176
     1
 62
   257
176
     1
 40
1.0
176
     1
 90
        1
176
     1
 90
        6
176
     1
 90
        2
176
     1
 62
     7
176
     1
 90
        3
176
     1
 90
        0
176
     1
 90
        0
176
     1
290
     0
176
     1
 90
        5
176
     1
 40
0.0
176
     1
 90
        0
176
     1
290
     0
176
     1
290
     1
176
     1
290
     1
176
     1
290
     0
176
     1
290
     0
176
     1
290
     0
176
     1
290
     0
176
     1
290
     0
176
     1
290
     0
176
     1
 90
       50
176
     1
 40
0.0
176
     1
 40
1.0
176
     1
 90
        0
176
     1
 62
    18
420
        0
176
     1
 90
       50
176
     1
 90
        3
176
     1
 62
     5
420
      255
176
     1
290
     0
176
     1
 90
       50
176
     1
 90
       50
176
     1
 90
       50
176
     1
290
     0
176
     1
 90
       50
176
     1
 62
   256
176
     0
 40
1.0
176
     0
 90
        2
176
     1
  1
strokes_ogs.tif
176
     1
290
     0
176
     1
 40
1.0
176
     1
 40
1.0
176
     1
  0
VISUALSTYLE
  5
3E
102
{ACAD_REACTORS
330
2A
102
}
330
2A
100
AcDbVisualStyle
  2
Shades of Gray
 70
    23
177
     3
291
     0
 70
    58
 90
        2
176
     1
 90
        2
176
     1
 90
        3
176
     1
 90
        0
176
     1
 40
0.6
176
     1
 40
30.0
176
     1
 62
     7
420
 16777215
176
     1
 90
        2
176
     1
 90
        2
176
     1
 62
     7
176
     1
 62
     7
176
     1
 90
        1
176
     1
 90
        1
176
     1
 40
40.0
176
     1
 90
        8
176
     1
 62
     7
176
     1
 40
1.0
176
     1
 90
        1
176
     1
 90
        6
176
     1
 90
        2
176
     1
 62
     7
176
     1
 90
        3
176
     1
 90
        0
176
     1
 90
        0
176
     1
290
     0
176
     1
 90
        1
176
     1
 40
0.0
176
     1
 90
        0
176
     1
290
     0
176
     1
290
     1
176
     1
290
     1
176
     1
290
     0
176
     1
290
     0
176
     1
290
     0
176
     1
290
     0
176
     1
290
     0
176
     1
290
     0
176
     1
 90
       50
176
     1
 40
0.0
176
     1
 40
1.0
176
     1
 90
        0
176
     1
 62
    18
420
        0
176
     1
 90
       50
176
     1
 90
        3
176
     1
 62
     5
420
      255
176
     1
290
     0
176
     1
 90
       50
176
     1
 90
       50
176
     1
 90
       50
176
     1
290
     0
176
     1
 90
       50
176
     1
 62
   256
176
     0
 40
1.0
176
     0
 90
        2
176
     1
  1
strokes_ogs.tif
176
     1
290
     0
176
     1
 40
1.0
176
     1
 40
1.0
176
     1
  0
VISUALSTYLE
  5
3F
102
{ACAD_REACTORS
330
2A
102
}
330
2A
100
AcDbVisualStyle
  2
Sketchy
 70
    24
177
     3
291
     0
 70
    58
 90
        1
176
     1
 90
        2
176
     1
 90
        2
176
     1
 90
        0
176
     1
 40
0.6
176
     1
 40
30.0
176
     1
 62
     7
420
 16777215
176
     1
 90
        2
176
     1
 90
        2
176
     1
 62
     7
176
     1
 62
     7
176
     1
 90
        1
176
     1
 90
        1
176
     1
 40
40.0
176
     1
 90
       11
176
     1
 62
     7
176
     1
 40
1.0
176
     1
 90
        1
176
     1
 90
        6
176
     1
 90
        2
176
     1
 62
     7
176
     1
 90
        6
176
     1
 90
        0
176
     1
 90
        0
176
     1
290
     0
176
     1
 90
        1
176
     1
 40
0.0
176
     1
 90
        0
176
     1
290
     0
176
     1
290
     1
176
     1
290
     1
176
     1
290
     0
176
     1
290
     0
176
     1
290
     0
176
     1
290
     0
176
     1
290
     0
176
     1
290
     0
176
     1
 90
       50
176
     1
 40
0.0
176
     1
 40
1.0
176
     1
 90
        0
176
     1
 62
    18
420
        0
176
     1
 90
       50
176
     1
 90
        3
176
     1
 62
     5
420
      255
176
     1
290
     0
176
     1
 90
       50
176
     1
 90
       50
176
     1
 90
       50
176
     1
290
     0
176
     1
 90
       50
176
     1
 62
   256
176
     0
 40
1.0
176
     0
 90
        2
176
     1
  1
strokes_ogs.tif
176
     1
290
     0
176
     1
 40
1.0
176
     1
 40
1.0
176
     1
  0
VISUALSTYLE
  5
37
102
{ACAD_REACTORS
330
2A
102
}
330
2A
100
AcDbVisualStyle
  2
Thicken
 70
    13
177
     3
291
     1
 70
    58
 90
        2
176
     1
 90
        2
176
     1
 90
        0
176
     1
 90
        0
176
     1
 40
0.6
176
     1
 40
30.0
176
     1
 62
     7
420
 16777215
176
     1
 90
        1
176
     1
 90
        4
176
     1
 62
     7
176
     1
 62
   257
176
     1
 90
        1
176
     1
 90
        1
176
     1
 40
1.0
176
     1
 90
       12
176
     1
 62
     7
176
     1
 40
1.0
176
     1
 90
        1
176
     1
 90
        6
176
     1
 90
        2
176
     1
 62
     7
176
     1
 90
        5
176
     1
 90
        0
176
     1
 90
        0
176
     1
290
     0
176
     1
 90
        1
176
     1
 40
0.0
176
     1
 90
        0
176
     1
290
     0
176
     1
290
     1
176
     1
290
     1
176
     1
290
     0
176
     1
290
     0
176
     1
290
     0
176
     1
290
     0
176
     1
290
     0
176
     1
290
     0
176
     1
 90
       50
176
     1
 40
0.0
176
     1
 40
1.0
176
     1
 90
        0
176
     1
 62
    18
420
        0
176
     1
 90
       50
176
     1
 90
        3
176
     1
 62
     5
420
      255
176
     1
290
     0
176
     1
 90
       50
176
     1
 90
       50
176
     1
 90
       50
176
     1
290
     0
176
     1
 90
       50
176
     1
 62
   256
176
     0
 40
1.0
176
     0
 90
        2
176
     1
  1
strokes_ogs.tif
176
     1
290
     0
176
     1
 40
1.0
176
     1
 40
1.0
176
     1
  0
VISUALSTYLE
  5
30
102
{ACAD_REACTORS
330
2A
102
}
330
2A
100
AcDbVisualStyle
  2
Wireframe
 70
     5
177
     3
291
     0
 70
    58
 90
        0
176
     1
 90
        2
176
     1
 90
        0
176
     1
 90
        0
176
     1
 40
0.6
176
     1
 40
30.0
176
     1
 62
     7
420
 16777215
176
     1
 90
        1
176
     1
 90
        4
176
     1
 62
     7
176
     1
 62
   257
176
     1
 90
        1
176
     1
 90
        1
176
     1
 40
1.0
176
     1
 90
        0
176
     1
 62
   257
176
     1
 40
1.0
176
     1
 90
        1
176
     1
 90
        6
176
     1
 90
        2
176
     1
 62
     7
176
     1
 90
        3
176
     1
 90
        0
176
     1
 90
        0
176
     1
290
     0
176
     1
 90
        1
176
     1
 40
0.0
176
     1
 90
        0
176
     1
290
     0
176
     1
290
     1
176
     1
290
     1
176
     1
290
     0
176
     1
290
     0
176
     1
290
     0
176
     1
290
     0
176
     1
290
     0
176
     1
290
     0
176
     1
 90
       50
176
     1
 40
0.0
176
     1
 40
1.0
176
     1
 90
        0
176
     1
 62
    18
420
        0
176
     1
 90
       50
176
     1
 90
        3
176
     1
 62
     5
420
      255
176
     1
290
     0
176
     1
 90
       50
176
     1
 90
       50
176
     1
 90
       50
176
     1
290
     0
176
     1
 90
       50
176
     1
 62
   256
176
     0
 40
1.0
176
     0
 90
        2
176
     1
  1
strokes_ogs.tif
176
     1
290
     0
176
     1
 40
1.0
176
     1
 40
1.0
176
     1
  0
VISUALSTYLE
  5
40
102
{ACAD_REACTORS
330
2A
102
}
330
2A
100
AcDbVisualStyle
  2
X-Ray
 70
    25
177
     3
291
     0
 70
    58
 90
        2
176
     1
 90
        2
176
     1
 90
        1
176
     1
 90
        1
176
     1
 40
0.5
176
     1
 40
30.0
176
     1
 62
     7
420
 16777215
176
     1
 90
        1
176
     1
 90
        0
176
     1
 62
     7
176
     1
 62
   257
176
     1
 90
        1
176
     1
 90
        1
176
     1
 40
1.0
176
     1
 90
        8
176
     1
 62
     7
176
     1
 40
1.0
176
     1
 90
        1
176
     1
 90
        6
176
     1
 90
        2
176
     1
 62
     7
176
     1
 90
        3
176
     1
 90
        0
176
     1
 90
        0
176
     1
290
     0
176
     1
 90
       13
176
     1
 40
0.0
176
     1
 90
        0
176
     1
290
     0
176
     1
290
     1
176
     1
290
     1
176
     1
290
     0
176
     1
290
     0
176
     1
290
     0
176
     1
290
     0
176
     1
290
     0
176
     1
290
     0
176
     1
 90
       50
176
     1
 40
0.0
176
     1
 40
1.0
176
     1
 90
        0
176
     1
 62
    18
420
        0
176
     1
 90
       50
176
     1
 90
        3
176
     1
 62
     5
420
      255
176
     1
290
     0
176
     1
 90
       50
176
     1
 90
       50
176
     1
 90
       50
176
     1
290
     0
176
     1
 90
       50
176
     1
 62
   256
176
     0
 40
1.0
176
     0
 90
        2
176
     1
  1
strokes_ogs.tif
176
     1
290
     0
176
     1
 40
1.0
176
     1
 40
1.0
176
     1
  0
DICTIONARYVAR
  5
9F
102
{ACAD_REACTORS
330
9E
102
}
330
9E
100
DictionaryVariables
280
     0
  1
1:1
  0
DICTIONARYVAR
  5
A4
102
{ACAD_REACTORS
330
9E
102
}
330
9E
100
DictionaryVariables
280
     0
  1
Standard
  0
DICTIONARYVAR
  5
A3
102
{ACAD_REACTORS
330
9E
102
}
330
9E
100
DictionaryVariables
280
     0
  1
Standard
  0
DICTIONARY
  5
A0
330
5A
100
AcDbDictionary
280
     1
281
     1
  3
ACAD_ROUNDTRIP_2008_TABLESTYLE_CELLSTYLEMAP
360
A1
  0
CELLSTYLEMAP
  5
A1
102
{ACAD_REACTORS
330
A0
102
}
330
A0
100
AcDbCellStyleMap
 90
        3
300
CELLSTYLE
  1
TABLEFORMAT_BEGIN
 90
        5
170
     1
 91
        0
 92
    32768
 62
   257
 93
        1
300
CONTENTFORMAT
  1
CONTENTFORMAT_BEGIN
 90
        0
 91
        0
 92
        4
 93
        0
300

 40
0.0
140
1.0
 94
        5
 62
     0
340
11
144
0.25
309
CONTENTFORMAT_END
171
     1
301
MARGIN
  1
CELLMARGIN_BEGIN
 40
0.06
 40
0.06
 40
0.06
 40
0.06
 40
0.06
 40
0.06
309
CELLMARGIN_END
 94
        6
 95
        1
302
GRIDFORMAT
  1
GRIDFORMAT_BEGIN
 90
        0
 91
        1
 62
     0
 92
       -2
340
14
 93
        0
 40
0.045
309
GRIDFORMAT_END
 95
        2
302
GRIDFORMAT
  1
GRIDFORMAT_BEGIN
 90
        0
 91
        1
 62
     0
 92
       -2
340
14
 93
        0
 40
0.045
309
GRIDFORMAT_END
 95
        4
302
GRIDFORMAT
  1
GRIDFORMAT_BEGIN
 90
        0
 91
        1
 62
     0
 92
       -2
340
14
 93
        0
 40
0.045
309
GRIDFORMAT_END
 95
        8
302
GRIDFORMAT
  1
GRIDFORMAT_BEGIN
 90
        0
 91
        1
 62
     0
 92
       -2
340
14
 93
        0
 40
0.045
309
GRIDFORMAT_END
 95
       16
302
GRIDFORMAT
  1
GRIDFORMAT_BEGIN
 90
        0
 91
        1
 62
     0
 92
       -2
340
14
 93
        0
 40
0.045
309
GRIDFORMAT_END
 95
       32
302
GRIDFORMAT
  1
GRIDFORMAT_BEGIN
 90
        0
 91
        1
 62
     0
 92
       -2
340
14
 93
        0
 40
0.045
309
GRIDFORMAT_END
309
TABLEFORMAT_END
  1
CELLSTYLE_BEGIN
 90
        1
 91
        1
300
_TITLE
309
CELLSTYLE_END
300
CELLSTYLE
  1
TABLEFORMAT_BEGIN
 90
        5
170
     1
 91
        0
 92
        0
 62
   257
 93
        1
300
CONTENTFORMAT
  1
CONTENTFORMAT_BEGIN
 90
        0
 91
        0
 92
        4
 93
        0
300

 40
0.0
140
1.0
 94
        5
 62
     0
340
11
144
0.18
309
CONTENTFORMAT_END
171
     1
301
MARGIN
  1
CELLMARGIN_BEGIN
 40
0.06
 40
0.06
 40
0.06
 40
0.06
 40
0.06
 40
0.06
309
CELLMARGIN_END
 94
        6
 95
        1
302
GRIDFORMAT
  1
GRIDFORMAT_BEGIN
 90
        0
 91
        1
 62
     0
 92
       -2
340
14
 93
        0
 40
0.045
309
GRIDFORMAT_END
 95
        2
302
GRIDFORMAT
  1
GRIDFORMAT_BEGIN
 90
        0
 91
        1
 62
     0
 92
       -2
340
14
 93
        0
 40
0.045
309
GRIDFORMAT_END
 95
        4
302
GRIDFORMAT
  1
GRIDFORMAT_BEGIN
 90
        0
 91
        1
 62
     0
 92
       -2
340
14
 93
        0
 40
0.045
309
GRIDFORMAT_END
 95
        8
302
GRIDFORMAT
  1
GRIDFORMAT_BEGIN
 90
        0
 91
        1
 62
     0
 92
       -2
340
14
 93
        0
 40
0.045
309
GRIDFORMAT_END
 95
       16
302
GRIDFORMAT
  1
GRIDFORMAT_BEGIN
 90
        0
 91
        1
 62
     0
 92
       -2
340
14
 93
        0
 40
0.045
309
GRIDFORMAT_END
 95
       32
302
GRIDFORMAT
  1
GRIDFORMAT_BEGIN
 90
        0
 91
        1
 62
     0
 92
       -2
340
14
 93
        0
 40
0.045
309
GRIDFORMAT_END
309
TABLEFORMAT_END
  1
CELLSTYLE_BEGIN
 90
        2
 91
        1
300
_HEADER
309
CELLSTYLE_END
300
CELLSTYLE
  1
TABLEFORMAT_BEGIN
 90
        5
170
     1
 91
        0
 92
        0
 62
   257
 93
        1
300
CONTENTFORMAT
  1
CONTENTFORMAT_BEGIN
 90
        0
 91
        0
 92
        4
 93
        0
300

 40
0.0
140
1.0
 94
        2
 62
     0
340
11
144
0.18
309
CONTENTFORMAT_END
171
     1
301
MARGIN
  1
CELLMARGIN_BEGIN
 40
0.06
 40
0.06
 40
0.06
 40
0.06
 40
0.06
 40
0.06
309
CELLMARGIN_END
 94
        6
 95
        1
302
GRIDFORMAT
  1
GRIDFORMAT_BEGIN
 90
        0
 91
        1
 62
     0
 92
       -2
340
14
 93
        0
 40
0.045
309
GRIDFORMAT_END
 95
        2
302
GRIDFORMAT
  1
GRIDFORMAT_BEGIN
 90
        0
 91
        1
 62
     0
 92
       -2
340
14
 93
        0
 40
0.045
309
GRIDFORMAT_END
 95
        4
302
GRIDFORMAT
  1
GRIDFORMAT_BEGIN
 90
        0
 91
        1
 62
     0
 92
       -2
340
14
 93
        0
 40
0.045
309
GRIDFORMAT_END
 95
        8
302
GRIDFORMAT
  1
GRIDFORMAT_BEGIN
 90
        0
 91
        1
 62
     0
 92
       -2
340
14
 93
        0
 40
0.045
309
GRIDFORMAT_END
 95
       16
302
GRIDFORMAT
  1
GRIDFORMAT_BEGIN
 90
        0
 91
        1
 62
     0
 92
       -2
340
14
 93
        0
 40
0.045
309
GRIDFORMAT_END
 95
       32
302
GRIDFORMAT
  1
GRIDFORMAT_BEGIN
 90
        0
 91
        1
 62
     0
 92
       -2
340
14
 93
        0
 40
0.045
309
GRIDFORMAT_END
309
TABLEFORMAT_END
  1
CELLSTYLE_BEGIN
 90
        3
 91
        2
300
_DATA
309
CELLSTYLE_END
  0
ENDSEC
  0
EOF
