  0
SECTION
  2
HEADER
  9
$ACADVER
  1
AC1027
  9
$ACADMAINTVER
 70
   105
  9
$DWGCODEPAGE
  3
ANSI_1252
  9
$LASTSAVEDBY
  1
Office Desk
  9
$REQUIREDVERSIONS
160
                 0
  9
$INSBASE
 10
0.0
 20
0.0
 30
0.0
  9
$EXTMIN
 10
183.7027
 20
-473.9346
 30
0.0
  9
$EXTMAX
 10
680.9963
 20
555.7218
 30
0.0
  9
$LIMMIN
 10
0.0
 20
0.0
  9
$LIMMAX
 10
12.0
 20
9.0
  9
$ORTHOMODE
 70
     0
  9
$REGENMODE
 70
     1
  9
$FILLMODE
 70
     1
  9
$QTEXTMODE
 70
     0
  9
$MIRRTEXT
 70
     1
  9
$LTSCALE
 40
1.0
  9
$ATTMODE
 70
     1
  9
$TEXTSIZE
 40
0.2
  9
$TRACEWID
 40
0.05
  9
$TEXTSTYLE
  7
Standard
  9
$CLAYER
  8
0
  9
$CELTYPE
  6
ByLayer
  9
$CECOLOR
 62
   256
  9
$CELTSCALE
 40
1.0
  9
$DISPSILH
 70
     0
  9
$DIMSCALE
 40
1.0
  9
$DIMASZ
 40
0.18
  9
$DIMEXO
 40
0.0625
  9
$DIMDLI
 40
0.38
  9
$DIMRND
 40
0.0
  9
$DIMDLE
 40
0.0
  9
$DIMEXE
 40
0.18
  9
$DIMTP
 40
0.0
  9
$DIMTM
 40
0.0
  9
$DIMTXT
 40
0.18
  9
$DIMCEN
 40
0.09
  9
$DIMTSZ
 40
0.0
  9
$DIMTOL
 70
     0
  9
$DIMLIM
 70
     0
  9
$DIMTIH
 70
     1
  9
$DIMTOH
 70
     1
  9
$DIMSE1
 70
     0
  9
$DIMSE2
 70
     0
  9
$DIMTAD
 70
     0
  9
$DIMZIN
 70
     0
  9
$DIMBLK
  1

  9
$DIMASO
 70
     1
  9
$DIMSHO
 70
     1
  9
$DIMPOST
  1

  9
$DIMAPOST
  1

  9
$DIMALT
 70
     0
  9
$DIMALTD
 70
     2
  9
$DIMALTF
 40
25.4
  9
$DIMLFAC
 40
1.0
  9
$DIMTOFL
 70
     0
  9
$DIMTVP
 40
0.0
  9
$DIMTIX
 70
     0
  9
$DIMSOXD
 70
     0
  9
$DIMSAH
 70
     0
  9
$DIMBLK1
  1

  9
$DIMBLK2
  1

  9
$DIMSTYLE
  2
Standard
  9
$DIMCLRD
 70
     0
  9
$DIMCLRE
 70
     0
  9
$DIMCLRT
 70
     0
  9
$DIMTFAC
 40
1.0
  9
$DIMGAP
 40
0.09
  9
$DIMJUST
 70
     0
  9
$DIMSD1
 70
     0
  9
$DIMSD2
 70
     0
  9
$DIMTOLJ
 70
     1
  9
$DIMTZIN
 70
     0
  9
$DIMALTZ
 70
     0
  9
$DIMALTTZ
 70
     0
  9
$DIMUPT
 70
     0
  9
$DIMDEC
 70
     4
  9
$DIMTDEC
 70
     4
  9
$DIMALTU
 70
     2
  9
$DIMALTTD
 70
     2
  9
$DIMTXSTY
  7
Standard
  9
$DIMAUNIT
 70
     0
  9
$DIMADEC
 70
     0
  9
$DIMALTRND
 40
0.0
  9
$DIMAZIN
 70
     0
  9
$DIMDSEP
 70
    46
  9
$DIMATFIT
 70
     3
  9
$DIMFRAC
 70
     0
  9
$DIMLDRBLK
  1

  9
$DIMLUNIT
 70
     2
  9
$DIMLWD
 70
    -2
  9
$DIMLWE
 70
    -2
  9
$DIMTMOVE
 70
     0
  9
$DIMFXL
 40
1.0
  9
$DIMFXLON
 70
     0
  9
$DIMJOGANG
 40
0.7853981633974483
  9
$DIMTFILL
 70
     0
  9
$DIMTFILLCLR
 70
     0
  9
$DIMARCSYM
 70
     0
  9
$DIMLTYPE
  6

  9
$DIMLTEX1
  6

  9
$DIMLTEX2
  6

  9
$DIMTXTDIRECTION
 70
     0
  9
$LUNITS
 70
     2
  9
$LUPREC
 70
     4
  9
$SKETCHINC
 40
0.1
  9
$FILLETRAD
 40
0.0
  9
$AUNITS
 70
     0
  9
$AUPREC
 70
     0
  9
$MENU
  1
.
  9
$ELEVATION
 40
0.0
  9
$PELEVATION
 40
0.0
  9
$THICKNESS
 40
0.0
  9
$LIMCHECK
 70
     0
  9
$CHAMFERA
 40
0.0
  9
$CHAMFERB
 40
0.0
  9
$CHAMFERC
 40
0.0
  9
$CHAMFERD
 40
0.0
  9
$SKPOLY
 70
     0
  9
$TDCREATE
 40
2461006.677672963
  9
$TDUCREATE
 40
2461006.448506296
  9
$TDUPDATE
 40
2461006.677672986
  9
$TDUUPDATE
 40
2461006.44850632
  9
$TDINDWG
 40
0.0000000116
  9
$TDUSRTIMER
 40
0.0000000116
  9
$USRTIMER
 70
     1
  9
$ANGBASE
 50
0.0
  9
$ANGDIR
 70
     0
  9
$PDMODE
 70
     0
  9
$PDSIZE
 40
0.0
  9
$PLINEWID
 40
0.0
  9
$SPLFRAME
 70
     0
  9
$SPLINETYPE
 70
     6
  9
$SPLINESEGS
 70
     8
  9
$HANDSEED
  5
81
  9
$SURFTAB1
 70
     6
  9
$SURFTAB2
 70
     6
  9
$SURFTYPE
 70
     6
  9
$SURFU
 70
     6
  9
$SURFV
 70
     6
  9
$UCSBASE
  2

  9
$UCSNAME
  2

  9
$UCSORG
 10
0.0
 20
0.0
 30
0.0
  9
$UCSXDIR
 10
1.0
 20
0.0
 30
0.0
  9
$UCSYDIR
 10
0.0
 20
1.0
 30
0.0
  9
$UCSORTHOREF
  2

  9
$UCSORTHOVIEW
 70
     0
  9
$UCSORGTOP
 10
0.0
 20
0.0
 30
0.0
  9
$UCSORGBOTTOM
 10
0.0
 20
0.0
 30
0.0
  9
$UCSORGLEFT
 10
0.0
 20
0.0
 30
0.0
  9
$UCSORGRIGHT
 10
0.0
 20
0.0
 30
0.0
  9
$UCSORGFRONT
 10
0.0
 20
0.0
 30
0.0
  9
$UCSORGBACK
 10
0.0
 20
0.0
 30
0.0
  9
$PUCSBASE
  2

  9
$PUCSNAME
  2

  9
$PUCSORG
 10
0.0
 20
0.0
 30
0.0
  9
$PUCSXDIR
 10
1.0
 20
0.0
 30
0.0
  9
$PUCSYDIR
 10
0.0
 20
1.0
 30
0.0
  9
$PUCSORTHOREF
  2

  9
$PUCSORTHOVIEW
 70
     0
  9
$PUCSORGTOP
 10
0.0
 20
0.0
 30
0.0
  9
$PUCSORGBOTTOM
 10
0.0
 20
0.0
 30
0.0
  9
$PUCSORGLEFT
 10
0.0
 20
0.0
 30
0.0
  9
$PUCSORGRIGHT
 10
0.0
 20
0.0
 30
0.0
  9
$PUCSORGFRONT
 10
0.0
 20
0.0
 30
0.0
  9
$PUCSORGBACK
 10
0.0
 20
0.0
 30
0.0
  9
$USERI1
 70
     0
  9
$USERI2
 70
     0
  9
$USERI3
 70
     0
  9
$USERI4
 70
     0
  9
$USERI5
 70
     0
  9
$USERR1
 40
0.0
  9
$USERR2
 40
0.0
  9
$USERR3
 40
0.0
  9
$USERR4
 40
0.0
  9
$USERR5
 40
0.0
  9
$WORLDVIEW
 70
     1
  9
$SHADEDGE
 70
     3
  9
$SHADEDIF
 70
    70
  9
$TILEMODE
 70
     1
  9
$MAXACTVP
 70
    64
  9
$PINSBASE
 10
0.0
 20
0.0
 30
0.0
  9
$PLIMCHECK
 70
     0
  9
$PEXTMIN
 10
1.000000000000000E+20
 20
1.000000000000000E+20
 30
1.000000000000000E+20
  9
$PEXTMAX
 10
-1.000000000000000E+20
 20
-1.000000000000000E+20
 30
-1.000000000000000E+20
  9
$PLIMMIN
 10
0.0
 20
0.0
  9
$PLIMMAX
 10
12.0
 20
9.0
  9
$UNITMODE
 70
     0
  9
$VISRETAIN
 70
     1
  9
$PLINEGEN
 70
     0
  9
$PSLTSCALE
 70
     1
  9
$TREEDEPTH
 70
  3020
  9
$CMLSTYLE
  2
Standard
  9
$CMLJUST
 70
     0
  9
$CMLSCALE
 40
1.0
  9
$PROXYGRAPHICS
 70
     1
  9
$MEASUREMENT
 70
     0
  9
$CELWEIGHT
370
    -1
  9
$ENDCAPS
280
     0
  9
$JOINSTYLE
280
     0
  9
$LWDISPLAY
290
     0
  9
$INSUNITS
 70
     4
  9
$HYPERLINKBASE
  1

  9
$STYLESHEET
  1

  9
$XEDIT
290
     1
  9
$CEPSNTYPE
380
     0
  9
$PSTYLEMODE
290
     1
  9
$FINGERPRINTGUID
  2
{385f4d4c-b3da-4ffa-8f2f-c98de2329a07}
  9
$VERSIONGUID
  2
{FAEB1C32-E019-11D5-929B-00C0DF256EC4}
  9
$EXTNAMES
290
     1
  9
$PSVPSCALE
 40
0.0
  9
$OLESTARTUP
290
     0
  9
$SORTENTS
280
   127
  9
$INDEXCTL
280
     0
  9
$HIDETEXT
280
     1
  9
$XCLIPFRAME
280
     2
  9
$HALOGAP
280
     0
  9
$OBSCOLOR
 70
   257
  9
$OBSLTYPE
280
     0
  9
$INTERSECTIONDISPLAY
280
     0
  9
$INTERSECTIONCOLOR
 70
   257
  9
$DIMASSOC
280
     2
  9
$PROJECTNAME
  1

  9
$CAMERADISPLAY
290
     0
  9
$LENSLENGTH
 40
50.0
  9
$CAMERAHEIGHT
 40
0.0
  9
$STEPSPERSEC
 40
2.0
  9
$STEPSIZE
 40
6.0
  9
$3DDWFPREC
 40
2.0
  9
$PSOLWIDTH
 40
0.25
  9
$PSOLHEIGHT
 40
4.0
  9
$LOFTANG1
 40
1.570796326794897
  9
$LOFTANG2
 40
1.570796326794897
  9
$LOFTMAG1
 40
0.0
  9
$LOFTMAG2
 40
0.0
  9
$LOFTPARAM
 70
     7
  9
$LOFTNORMALS
280
     1
  9
$LATITUDE
 40
37.795
  9
$LONGITUDE
 40
-122.394
  9
$NORTHDIRECTION
 40
0.0
  9
$TIMEZONE
 70
 -8000
  9
$LIGHTGLYPHDISPLAY
280
     1
  9
$TILEMODELIGHTSYNCH
280
     1
  9
$CMATERIAL
347
44
  9
$SOLIDHIST
280
     0
  9
$SHOWHIST
280
     1
  9
$DWFFRAME
280
     2
  9
$DGNFRAME
280
     2
  9
$REALWORLDSCALE
290
     1
  9
$INTERFERECOLOR
 62
   256
  9
$CSHADOW
280
     0
  9
$SHADOWPLANELOCATION
 40
0.0
  0
ENDSEC
  0
SECTION
  2
CLASSES
  0
CLASS
  1
ACDBDICTIONARYWDFLT
  2
AcDbDictionaryWithDefault
  3
ObjectDBX Classes
 90
        0
 91
        3
280
     0
281
     0
  0
CLASS
  1
VISUALSTYLE
  2
AcDbVisualStyle
  3
ObjectDBX Classes
 90
     4095
 91
        3
280
     0
281
     0
  0
CLASS
  1
MATERIAL
  2
AcDbMaterial
  3
ObjectDBX Classes
 90
     1153
 91
        3
280
     0
281
     0
  0
CLASS
  1
SCALE
  2
AcDbScale
  3
ObjectDBX Classes
 90
     1153
 91
        3
280
     0
281
     0
  0
CLASS
  1
TABLESTYLE
  2
AcDbTableStyle
  3
ObjectDBX Classes
 90
     4095
 91
        3
280
     0
281
     0
  0
CLASS
  1
MLEADERSTYLE
  2
AcDbMLeaderStyle
  3
ACDB_MLEADERSTYLE_CLASS
 90
     4095
 91
        3
280
     0
281
     0
  0
CLASS
  1
SUN
  2
AcDbSun
  3
SCENEOE
 90
     1153
 91
        3
280
     0
281
     0
  0
CLASS
  1
DICTIONARYVAR
  2
AcDbDictionaryVar
  3
ObjectDBX Classes
 90
        0
 91
        3
280
     0
281
     0
  0
CLASS
  1
CELLSTYLEMAP
  2
AcDbCellStyleMap
  3
ObjectDBX Classes
 90
     1152
 91
        3
280
     0
281
     0
  0
ENDSEC
  0
SECTION
  2
TABLES
  0
TABLE
  2
VPORT
  5
8
330
0
100
AcDbSymbolTable
 70
     1
  0
VPORT
  5
29
330
8
100
AcDbSymbolTableRecord
100
AcDbViewportTableRecord
  2
*Active
 70
     0
 10
0.0
 20
0.0
 11
1.0
 21
1.0
 12
10.42990654205607
 22
4.5
 13
0.0
 23
0.0
 14
0.5
 24
0.5
 15
0.5
 25
0.5
 16
0.0
 26
0.0
 36
1.0
 17
0.0
 27
0.0
 37
0.0
 40
9.0
 41
1.972972972850329
 42
50.0
 43
0.0
 44
0.0
 50
0.0
 51
0.0
 71
     0
 72
   100
 73
     1
 74
     3
 75
     0
 76
     0
 77
     0
 78
     0
281
     0
 65
     1
110
0.0
120
0.0
130
0.0
111
1.0
121
0.0
131
0.0
112
0.0
122
1.0
132
0.0
 79
     0
146
0.0
348
2F
 60
     3
 61
     5
292
     1
282
     1
141
0.0
142
0.0
 63
   250
361
5D
  0
ENDTAB
  0
TABLE
  2
LTYPE
  5
5
330
0
100
AcDbSymbolTable
 70
     1
  0
LTYPE
  5
14
330
5
100
AcDbSymbolTableRecord
100
AcDbLinetypeTableRecord
  2
ByBlock
 70
     0
  3

 72
    65
 73
     0
 40
0.0
  0
LTYPE
  5
15
330
5
100
AcDbSymbolTableRecord
100
AcDbLinetypeTableRecord
  2
ByLayer
 70
     0
  3

 72
    65
 73
     0
 40
0.0
  0
LTYPE
  5
16
330
5
100
AcDbSymbolTableRecord
100
AcDbLinetypeTableRecord
  2
Continuous
 70
     0
  3
Solid line
 72
    65
 73
     0
 40
0.0
  0
ENDTAB
  0
TABLE
  2
LAYER
  5
2
330
0
100
AcDbSymbolTable
 70
     2
  0
LAYER
  5
10
330
2
100
AcDbSymbolTableRecord
100
AcDbLayerTableRecord
  2
0
 70
     0
 62
     7
  6
Continuous
370
    -3
390
F
347
46
348
0
  0
LAYER
  5
5F
330
2
100
AcDbSymbolTableRecord
100
AcDbLayerTableRecord
  2
Layer 1
 70
     0
 62
     7
  6
Continuous
370
    -3
390
F
347
46
348
0
  0
ENDTAB
  0
TABLE
  2
STYLE
  5
3
330
0
100
AcDbSymbolTable
 70
     1
  0
STYLE
  5
11
330
3
100
AcDbSymbolTableRecord
100
AcDbTextStyleTableRecord
  2
Standard
 70
     0
 40
0.0
 41
1.0
 50
0.0
 71
     0
 42
0.2
  3
txt
  4

  0
ENDTAB
  0
TABLE
  2
VIEW
  5
6
330
0
100
AcDbSymbolTable
 70
     0
  0
ENDTAB
  0
TABLE
  2
UCS
  5
7
330
0
100
AcDbSymbolTable
 70
     0
  0
ENDTAB
  0
TABLE
  2
APPID
  5
9
330
0
100
AcDbSymbolTable
 70
     2
  0
APPID
  5
12
330
9
100
AcDbSymbolTableRecord
100
AcDbRegAppTableRecord
  2
ACAD
 70
     0
  0
APPID
  5
5E
330
9
100
AcDbSymbolTableRecord
100
AcDbRegAppTableRecord
  2
ODA
 70
     0
  0
ENDTAB
  0
TABLE
  2
DIMSTYLE
  5
A
330
0
100
AcDbSymbolTable
 70
     1
100
AcDbDimStyleTable
  0
DIMSTYLE
105
27
330
A
100
AcDbSymbolTableRecord
100
AcDbDimStyleTableRecord
  2
Standard
 70
     0
178
     0
340
11
  0
ENDTAB
  0
TABLE
  2
BLOCK_RECORD
  5
1
330
0
100
AcDbSymbolTable
 70
     1
  0
BLOCK_RECORD
  5
1F
330
1
100
AcDbSymbolTableRecord
100
AcDbBlockTableRecord
  2
*Model_Space
340
22
 70
     0
280
     1
281
     0
  0
BLOCK_RECORD
  5
1B
330
1
100
AcDbSymbolTableRecord
100
AcDbBlockTableRecord
  2
*Paper_Space
340
1E
 70
     0
280
     1
281
     0
  0
BLOCK_RECORD
  5
23
330
1
100
AcDbSymbolTableRecord
100
AcDbBlockTableRecord
  2
*Paper_Space0
340
26
 70
     0
280
     1
281
     0
  0
ENDTAB
  0
ENDSEC
  0
SECTION
  2
BLOCKS
  0
BLOCK
  5
20
330
1F
100
AcDbEntity
  8
0
100
AcDbBlockBegin
  2
*Model_Space
 70
     0
 10
0.0
 20
0.0
 30
0.0
  3
*Model_Space
  1

  0
ENDBLK
  5
21
330
1F
100
AcDbEntity
  8
0
100
AcDbBlockEnd
  0
BLOCK
  5
1C
330
1B
100
AcDbEntity
 67
     1
  8
0
100
AcDbBlockBegin
  2
*Paper_Space
 70
     0
 10
0.0
 20
0.0
 30
0.0
  3
*Paper_Space
  1

  0
ENDBLK
  5
1D
330
1B
100
AcDbEntity
 67
     1
  8
0
100
AcDbBlockEnd
  0
BLOCK
  5
24
330
23
100
AcDbEntity
  8
0
100
AcDbBlockBegin
  2
*Paper_Space0
 70
     0
 10
0.0
 20
0.0
 30
0.0
  3
*Paper_Space0
  1

  0
ENDBLK
  5
25
330
23
100
AcDbEntity
  8
0
100
AcDbBlockEnd
  0
ENDSEC
  0
SECTION
  2
ENTITIES
  0
LWPOLYLINE
  5
60
330
1F
100
AcDbEntity
  8
Layer 1
 62
   250
370
    18
100
AcDbPolyline
 90
        5
 70
     1
 43
0.0
 10
183.7909
 20
-473.8464
 10
680.9081
 20
-473.8464
 10
680.9081
 20
555.6336
 10
183.7909
 20
555.6336
 10
183.7909
 20
-473.8464
  0
LWPOLYLINE
  5
61
330
1F
100
AcDbEntity
  8
Layer 1
 62
     7
100
AcDbPolyline
 90
        4
 70
     1
 43
0.0
 10
357.2188
 20
460.1697
 10
357.2188
 20
445.2444
 10
349.034
 20
445.2444
 10
357.2188
 20
460.1697
  0
LWPOLYLINE
  5
62
330
1F
100
AcDbEntity
  8
Layer 1
 62
     7
100
AcDbPolyline
 90
       11
 70
     1
 43
0.0
 10
359.5165
 20
442.51
 10
362.2239
 20
442.51
 10
362.2239
 20
445.2444
 10
359.5165
 20
445.2444
 10
359.4852
 20
463.0558
 10
356.4001
 20
463.0558
 10
345.1308
 20
442.51
 10
357.2188
 20
442.51
 10
357.2188
 20
437.2314
 10
359.5165
 20
437.2314
 10
359.5165
 20
442.51
  0
LWPOLYLINE
  5
63
330
1F
100
AcDbEntity
  8
Layer 1
 62
     7
100
AcDbPolyline
 90
       87
 70
     1
 43
0.0
 10
365.6861
 20
437.2314
 10
380.764
 20
437.2314
 10
380.764
 20
439.8896
 10
371.0058
 20
439.8896
 10
378.4663
 20
448.815
 10
378.9533
 20
449.4575
 10
379.3753
 20
450.132
 10
379.7324
 20
450.8387
 10
380.0246
 20
451.5775
 10
380.2518
 20
452.3484
 10
380.4141
 20
453.1513
 10
380.5114
 20
453.9863
 10
380.5439
 20
454.8534
 10
380.5107
 20
455.7399
 10
380.4112
 20
456.5907
 10
380.2452
 20
457.4059
 10
380.0129
 20
458.1856
 10
379.7141
 20
458.9296
 10
379.349
 20
459.6381
 10
378.9174
 20
460.311
 10
378.4194
 20
460.9484
 10
377.8659
 20
461.5404
 10
377.2878
 20
462.0534
 10
376.6852
 20
462.4874
 10
376.0581
 20
462.8426
 10
375.4064
 20
463.1187
 10
374.7302
 20
463.316
 10
374.0295
 20
463.4344
 10
373.3042
 20
463.4738
 10
372.5508
 20
463.4323
 10
371.8255
 20
463.3076
 10
371.1282
 20
463.0999
 10
370.459
 20
462.8092
 10
369.8178
 20
462.4354
 10
369.2046
 20
461.9785
 10
368.6196
 20
461.4386
 10
368.0626
 20
460.8157
 10
367.5666
 20
460.1455
 10
367.1409
 20
459.4403
 10
366.7855
 20
458.7
 10
366.5005
 20
457.9246
 10
366.2858
 20
457.1143
 10
366.1415
 20
456.2689
 10
366.0675
 20
455.3885
 10
366.0638
 20
454.4731
 10
368.2991
 20
454.4731
 10
368.2802
 20
455.0668
 10
368.3146
 20
455.6468
 10
368.402
 20
456.2132
 10
368.5427
 20
456.766
 10
368.7365
 20
457.305
 10
368.9835
 20
457.8305
 10
369.2836
 20
458.3422
 10
369.6368
 20
458.8402
 10
370.0145
 20
459.2855
 10
370.4119
 20
459.6713
 10
370.829
 20
459.9978
 10
371.2658
 20
460.2648
 10
371.7223
 20
460.4725
 10
372.1984
 20
460.6208
 10
372.6943
 20
460.7097
 10
373.2098
 20
460.7394
 10
373.7155
 20
460.7127
 10
374.2021
 20
460.6326
 10
374.6695
 20
460.4991
 10
375.1178
 20
460.3121
 10
375.5469
 20
460.0718
 10
375.9569
 20
459.7781
 10
376.3478
 20
459.4309
 10
376.7196
 20
459.0304
 10
377.0626
 20
458.5878
 10
377.3598
 20
458.1237
 10
377.6114
 20
457.6384
 10
377.8172
 20
457.1316
 10
377.9772
 20
456.6035
 10
378.0915
 20
456.0541
 10
378.1601
 20
455.4833
 10
378.183
 20
454.8911
 10
378.1609
 20
454.2857
 10
378.0945
 20
453.704
 10
377.9838
 20
453.1462
 10
377.8289
 20
452.6121
 10
377.6296
 20
452.1018
 10
377.3862
 20
451.6152
 10
377.0984
 20
451.1524
 10
376.7664
 20
450.7133
 10
365.6861
 20
437.2314
  0
LWPOLYLINE
  5
64
330
1F
100
AcDbEntity
  8
Layer 1
 62
     7
100
AcDbPolyline
 90
      129
 70
     1
 43
0.0
 10
393.5918
 20
460.0558
 10
393.9554
 20
459.758
 10
394.2944
 20
459.4198
 10
394.6087
 20
459.0412
 10
394.8985
 20
458.6222
 10
395.1636
 20
458.1629
 10
395.4041
 20
457.6631
 10
395.6201
 20
457.1231
 10
395.8114
 20
456.5427
 10
396.0253
 20
455.7728
 10
396.2107
 20
454.9916
 10
396.3677
 20
454.1993
 10
396.4961
 20
453.3956
 10
396.596
 20
452.5807
 10
396.6675
 20
451.7545
 10
396.7103
 20
450.917
 10
396.7246
 20
450.0682
 10
396.7231
 20
449.8642
 10
396.7186
 20
449.6514
 10
396.7112
 20
449.4297
 10
396.7008
 20
449.199
 10
396.6875
 20
448.9595
 10
396.6712
 20
448.7112
 10
396.6521
 20
448.454
 10
396.6301
 20
448.1879
 10
396.5208
 20
447.1671
 10
396.3781
 20
446.2026
 10
396.202
 20
445.2943
 10
395.9925
 20
444.4424
 10
395.7495
 20
443.6469
 10
395.473
 20
442.9077
 10
395.163
 20
442.2249
 10
394.8195
 20
441.5986
 10
394.5063
 20
441.1271
 10
394.1763
 20
440.7184
 10
393.8296
 20
440.3725
 10
393.4661
 20
440.0895
 10
393.0859
 20
439.8694
 10
392.689
 20
439.7121
 10
392.2754
 20
439.6178
 10
391.8451
 20
439.5863
 10
391.3648
 20
439.6174
 10
390.9076
 20
439.7108
 10
390.4735
 20
439.8665
 10
390.0626
 20
440.0844
 10
389.6747
 20
440.3647
 10
389.31
 20
440.7073
 10
388.9684
 20
441.1123
 10
388.6498
 20
441.5797
 10
388.515
 20
441.8063
 10
388.3862
 20
442.0401
 10
388.2632
 20
442.281
 10
388.1462
 20
442.5291
 10
388.035
 20
442.7843
 10
387.9297
 20
443.0467
 10
387.8303
 20
443.3162
 10
387.7367
 20
443.5928
 10
387.649
 20
443.8736
 10
387.5668
 20
444.1563
 10
387.4899
 20
444.4408
 10
387.4184
 20
444.7271
 10
387.3522
 20
445.0153
 10
387.2915
 20
445.3052
 10
387.2363
 20
445.5969
 10
387.1864
 20
445.8904
 10
387.1407
 20
446.1835
 10
387.0986
 20
446.4742
 10
387.0599
 20
446.7626
 10
387.0247
 20
447.0485
 10
386.993
 20
447.3321
 10
386.9647
 20
447.6134
 10
386.94
 20
447.8923
 10
386.9187
 20
448.169
 10
386.9002
 20
448.4496
 10
386.8842
 20
448.7408
 10
386.8706
 20
449.0426
 10
386.8595
 20
449.3549
 10
386.8509
 20
449.6776
 10
386.8448
 20
450.0105
 10
386.8411
 20
450.3537
 10
386.8399
 20
450.707
 10
386.8453
 20
451.0763
 10
386.8615
 20
451.4669
 10
386.8886
 20
451.879
 10
386.9265
 20
452.3126
 10
386.9752
 20
452.7678
 10
387.0347
 20
453.2447
 10
387.1051
 20
453.7434
 10
387.1864
 20
454.264
 10
387.236
 20
454.5534
 10
387.2906
 20
454.8421
 10
387.35
 20
455.1303
 10
387.4145
 20
455.4178
 10
387.4838
 20
455.7047
 10
387.558
 20
455.991
 10
387.6371
 20
456.2766
 10
387.7211
 20
456.5615
 10
387.811
 20
456.8429
 10
387.9072
 20
457.1171
 10
388.0098
 20
457.3842
 10
388.1188
 20
457.6441
 10
388.2342
 20
457.8969
 10
388.3559
 20
458.1425
 10
388.4841
 20
458.381
 10
388.6186
 20
458.6123
 10
388.7598
 20
458.8347
 10
388.9078
 20
459.0458
 10
389.0627
 20
459.2456
 10
389.2245
 20
459.434
 10
389.3931
 20
459.6111
 10
389.5687
 20
459.7769
 10
389.7512
 20
459.9314
 10
389.9407
 20
460.0746
 10
390.1379
 20
460.2039
 10
390.3439
 20
460.3159
 10
390.5589
 20
460.4106
 10
390.7827
 20
460.488
 10
391.0154
 20
460.5482
 10
391.2569
 20
460.5912
 10
391.5072
 20
460.6169
 10
391.7663
 20
460.6255
 10
392.0256
 20
460.6166
 10
392.276
 20
460.5899
 10
392.5175
 20
460.5453
 10
392.7502
 20
460.483
 10
392.9739
 20
460.4028
 10
393.1887
 20
460.3049
 10
393.3947
 20
460.1892
 10
393.5918
 20
460.0558
  0
LWPOLYLINE
  5
65
330
1F
100
AcDbEntity
  8
Layer 1
 62
     7
100
AcDbPolyline
 90
       65
 70
     1
 43
0.0
 10
391.8763
 20
436.8896
 10
392.7954
 20
436.9599
 10
393.6559
 20
437.1708
 10
394.4579
 20
437.5224
 10
395.2014
 20
438.0146
 10
395.8863
 20
438.6474
 10
396.5127
 20
439.4208
 10
397.0807
 20
440.3348
 10
397.5901
 20
441.3895
 10
397.9477
 20
442.3099
 10
398.2578
 20
443.2814
 10
398.5201
 20
444.3039
 10
398.7349
 20
445.3774
 10
398.9019
 20
446.502
 10
399.0212
 20
447.6777
 10
399.0928
 20
448.9044
 10
399.1167
 20
450.1822
 10
399.0928
 20
451.4597
 10
399.0212
 20
452.6861
 10
398.9019
 20
453.8616
 10
398.7349
 20
454.9861
 10
398.5201
 20
456.0596
 10
398.2578
 20
457.0821
 10
397.9477
 20
458.0535
 10
397.5901
 20
458.9739
 10
397.0807
 20
460.0286
 10
396.5127
 20
460.9426
 10
395.8863
 20
461.716
 10
395.2014
 20
462.3488
 10
394.4579
 20
462.841
 10
393.6559
 20
463.1926
 10
392.7954
 20
463.4035
 10
391.8763
 20
463.4738
 10
390.9572
 20
463.4035
 10
390.0967
 20
463.1926
 10
389.2947
 20
462.841
 10
388.5513
 20
462.3488
 10
387.8665
 20
461.716
 10
387.2402
 20
460.9426
 10
386.6725
 20
460.0286
 10
386.1633
 20
458.9739
 10
385.8054
 20
458.0535
 10
385.4953
 20
457.0821
 10
385.2329
 20
456.0596
 10
385.0183
 20
454.9861
 10
384.8513
 20
453.8616
 10
384.7321
 20
452.6861
 10
384.6605
 20
451.4597
 10
384.6367
 20
450.1822
 10
384.6605
 20
448.9044
 10
384.7321
 20
447.6777
 10
384.8513
 20
446.502
 10
385.0183
 20
445.3774
 10
385.2329
 20
444.3039
 10
385.4953
 20
443.2814
 10
385.8054
 20
442.3099
 10
386.1633
 20
441.3895
 10
386.6725
 20
440.3348
 10
387.2402
 20
439.4208
 10
387.8665
 20
438.6474
 10
388.5513
 20
438.0146
 10
389.2947
 20
437.5224
 10
390.0967
 20
437.1708
 10
390.9572
 20
436.9599
 10
391.8763
 20
436.8896
  0
LWPOLYLINE
  5
66
330
1F
100
AcDbEntity
  8
Layer 1
 62
     7
100
AcDbPolyline
 90
      165
 70
     1
 43
0.0
 10
420.6163
 20
437.3077
 10
422.8196
 20
437.3077
 10
422.8196
 20
447.751
 10
422.8016
 20
448.4445
 10
422.7478
 20
449.1053
 10
422.658
 20
449.7334
 10
422.5324
 20
450.3288
 10
422.3708
 20
450.8917
 10
422.1733
 20
451.4219
 10
421.94
 20
451.9195
 10
421.6707
 20
452.3846
 10
421.5205
 20
452.6067
 10
421.3609
 20
452.8176
 10
421.192
 20
453.0172
 10
421.0137
 20
453.2056
 10
420.826
 20
453.3827
 10
420.6289
 20
453.5487
 10
420.4225
 20
453.7034
 10
420.2066
 20
453.8469
 10
419.9775
 20
453.9759
 10
419.7306
 20
454.0877
 10
419.4661
 20
454.1824
 10
419.1838
 20
454.2599
 10
418.8838
 20
454.3202
 10
418.5661
 20
454.3632
 10
418.2308
 20
454.3891
 10
417.8777
 20
454.3977
 10
417.5214
 20
454.3829
 10
417.1764
 20
454.3383
 10
416.8427
 20
454.2641
 10
416.5202
 20
454.1602
 10
416.2091
 20
454.0266
 10
415.9093
 20
453.8633
 10
415.6207
 20
453.6703
 10
415.3435
 20
453.4477
 10
415.1029
 20
453.2258
 10
414.8732
 20
452.9875
 10
414.6543
 20
452.7329
 10
414.4462
 20
452.4621
 10
414.249
 20
452.1753
 10
414.0626
 20
451.8726
 10
413.8871
 20
451.5542
 10
413.7224
 20
451.2201
 10
413.5944
 20
451.5282
 10
413.4547
 20
451.8259
 10
413.3033
 20
452.1118
 10
413.1402
 20
452.3846
 10
412.9899
 20
452.6067
 10
412.8303
 20
452.8176
 10
412.6612
 20
453.0172
 10
412.4829
 20
453.2056
 10
412.2951
 20
453.3827
 10
412.0981
 20
453.5487
 10
411.8917
 20
453.7034
 10
411.6761
 20
453.8469
 10
411.4469
 20
453.9759
 10
411.2001
 20
454.0877
 10
410.9355
 20
454.1824
 10
410.6532
 20
454.2599
 10
410.3533
 20
454.3202
 10
410.0356
 20
454.3632
 10
409.7002
 20
454.3891
 10
409.3471
 20
454.3977
 10
408.9906
 20
454.3829
 10
408.6454
 20
454.3383
 10
408.3116
 20
454.2641
 10
407.9891
 20
454.1602
 10
407.678
 20
454.0266
 10
407.3783
 20
453.8633
 10
407.0899
 20
453.6703
 10
406.8129
 20
453.4477
 10
406.5836
 20
453.2364
 10
406.3642
 20
453.0107
 10
406.1547
 20
452.7707
 10
405.955
 20
452.5163
 10
405.7652
 20
452.2474
 10
405.5851
 20
451.9639
 10
405.4149
 20
451.6658
 10
405.2544
 20
451.3529
 10
405.2544
 20
454.0173
 10
403.0511
 20
454.0173
 10
403.0511
 20
437.3077
 10
405.2544
 20
437.3077
 10
405.2544
 20
445.859
 10
405.3057
 20
446.3572
 10
405.3728
 20
446.836
 10
405.4555
 20
447.2954
 10
405.5539
 20
447.7357
 10
405.668
 20
448.157
 10
405.7977
 20
448.5595
 10
405.9432
 20
448.9432
 10
406.1043
 20
449.3084
 10
406.2357
 20
449.5682
 10
406.378
 20
449.8162
 10
406.531
 20
450.0523
 10
406.6949
 20
450.2766
 10
406.8696
 20
450.489
 10
407.0551
 20
450.6895
 10
407.2513
 20
450.8782
 10
407.4584
 20
451.0551
 10
407.6728
 20
451.2153
 10
407.8912
 20
451.3542
 10
408.1134
 20
451.4717
 10
408.3397
 20
451.5678
 10
408.5698
 20
451.6426
 10
408.8039
 20
451.696
 10
409.0419
 20
451.728
 10
409.2839
 20
451.7387
 10
409.52
 20
451.7331
 10
409.7404
 20
451.7161
 10
409.945
 20
451.688
 10
410.1339
 20
451.6485
 10
410.307
 20
451.5978
 10
410.4643
 20
451.5358
 10
410.6059
 20
451.4625
 10
410.7317
 20
451.378
 10
411.0491
 20
451.0949
 10
411.3241
 20
450.7632
 10
411.5568
 20
450.3828
 10
411.7473
 20
449.9537
 10
411.8954
 20
449.476
 10
412.0012
 20
448.9496
 10
412.0646
 20
448.3746
 10
412.0858
 20
447.751
 10
412.0858
 20
437.3077
 10
414.2891
 20
437.3077
 10
414.2891
 20
447.751
 10
414.2734
 20
448.3906
 10
414.355
 20
448.6328
 10
414.4425
 20
448.866
 10
414.536
 20
449.0909
 10
414.6356
 20
449.3084
 10
414.7668
 20
449.5682
 10
414.9088
 20
449.8162
 10
415.0617
 20
450.0523
 10
415.2255
 20
450.2766
 10
415.4001
 20
450.489
 10
415.5856
 20
450.6895
 10
415.7818
 20
450.8782
 10
415.9889
 20
451.0551
 10
416.2033
 20
451.2153
 10
416.4217
 20
451.3542
 10
416.644
 20
451.4717
 10
416.8702
 20
451.5678
 10
417.1003
 20
451.6426
 10
417.3344
 20
451.696
 10
417.5725
 20
451.728
 10
417.8145
 20
451.7387
 10
418.0506
 20
451.7331
 10
418.2709
 20
451.7161
 10
418.4755
 20
451.688
 10
418.6644
 20
451.6485
 10
418.8375
 20
451.5978
 10
418.9948
 20
451.5358
 10
419.1364
 20
451.4625
 10
419.2622
 20
451.378
 10
419.5796
 20
451.0949
 10
419.8546
 20
450.7632
 10
420.0874
 20
450.3828
 10
420.2778
 20
449.9537
 10
420.4259
 20
449.476
 10
420.5317
 20
448.9496
 10
420.5951
 20
448.3746
 10
420.6163
 20
447.751
 10
420.6163
 20
437.3077
  0
LWPOLYLINE
  5
67
330
1F
100
AcDbEntity
  8
Layer 1
 62
     7
100
AcDbPolyline
 90
      165
 70
     1
 43
0.0
 10
444.6345
 20
437.3077
 10
446.8378
 20
437.3077
 10
446.8378
 20
447.751
 10
446.8198
 20
448.4445
 10
446.766
 20
449.1053
 10
446.6762
 20
449.7334
 10
446.5506
 20
450.3288
 10
446.389
 20
450.8917
 10
446.1915
 20
451.4219
 10
445.9582
 20
451.9195
 10
445.6889
 20
452.3846
 10
445.5387
 20
452.6067
 10
445.3791
 20
452.8176
 10
445.2102
 20
453.0172
 10
445.0319
 20
453.2056
 10
444.8442
 20
453.3827
 10
444.6471
 20
453.5487
 10
444.4407
 20
453.7034
 10
444.2248
 20
453.8469
 10
443.9956
 20
453.9759
 10
443.7488
 20
454.0877
 10
443.4842
 20
454.1824
 10
443.2019
 20
454.2599
 10
442.902
 20
454.3202
 10
442.5843
 20
454.3632
 10
442.2489
 20
454.3891
 10
441.8958
 20
454.3977
 10
441.5395
 20
454.3829
 10
441.1945
 20
454.3383
 10
440.8608
 20
454.2641
 10
440.5384
 20
454.1602
 10
440.2273
 20
454.0266
 10
439.9274
 20
453.8633
 10
439.6389
 20
453.6703
 10
439.3617
 20
453.4477
 10
439.1211
 20
453.2258
 10
438.8914
 20
452.9875
 10
438.6725
 20
452.7329
 10
438.4644
 20
452.4621
 10
438.2672
 20
452.1753
 10
438.0808
 20
451.8726
 10
437.9053
 20
451.5542
 10
437.7406
 20
451.2201
 10
437.6126
 20
451.5282
 10
437.4729
 20
451.8259
 10
437.3215
 20
452.1118
 10
437.1584
 20
452.3846
 10
437.0081
 20
452.6067
 10
436.8485
 20
452.8176
 10
436.6794
 20
453.0172
 10
436.501
 20
453.2056
 10
436.3133
 20
453.3827
 10
436.1162
 20
453.5487
 10
435.9099
 20
453.7034
 10
435.6942
 20
453.8469
 10
435.4651
 20
453.9759
 10
435.2182
 20
454.0877
 10
434.9537
 20
454.1824
 10
434.6714
 20
454.2599
 10
434.3715
 20
454.3202
 10
434.0538
 20
454.3632
 10
433.7184
 20
454.3891
 10
433.3653
 20
454.3977
 10
433.0088
 20
454.3829
 10
432.6636
 20
454.3383
 10
432.3298
 20
454.2641
 10
432.0073
 20
454.1602
 10
431.6962
 20
454.0266
 10
431.3965
 20
453.8633
 10
431.1081
 20
453.6703
 10
430.8311
 20
453.4477
 10
430.6018
 20
453.2364
 10
430.3824
 20
453.0107
 10
430.1729
 20
452.7707
 10
429.9732
 20
452.5163
 10
429.7833
 20
452.2474
 10
429.6033
 20
451.9639
 10
429.433
 20
451.6658
 10
429.2725
 20
451.3529
 10
429.2725
 20
454.0173
 10
427.0693
 20
454.0173
 10
427.0693
 20
437.3077
 10
429.2725
 20
437.3077
 10
429.2725
 20
445.859
 10
429.3238
 20
446.3572
 10
429.3909
 20
446.836
 10
429.4736
 20
447.2954
 10
429.572
 20
447.7357
 10
429.6861
 20
448.157
 10
429.8159
 20
448.5595
 10
429.9613
 20
448.9432
 10
430.1225
 20
449.3084
 10
430.2539
 20
449.5682
 10
430.3962
 20
449.8162
 10
430.5492
 20
450.0523
 10
430.7131
 20
450.2766
 10
430.8877
 20
450.489
 10
431.0732
 20
450.6895
 10
431.2695
 20
450.8782
 10
431.4766
 20
451.0551
 10
431.691
 20
451.2153
 10
431.9094
 20
451.3542
 10
432.1316
 20
451.4717
 10
432.3578
 20
451.5678
 10
432.5879
 20
451.6426
 10
432.822
 20
451.696
 10
433.0601
 20
451.728
 10
433.3021
 20
451.7387
 10
433.5382
 20
451.7331
 10
433.7586
 20
451.7161
 10
433.9632
 20
451.688
 10
434.152
 20
451.6485
 10
434.3251
 20
451.5978
 10
434.4825
 20
451.5358
 10
434.6241
 20
451.4625
 10
434.7499
 20
451.378
 10
435.0673
 20
451.0949
 10
435.3423
 20
450.7632
 10
435.575
 20
450.3828
 10
435.7655
 20
449.9537
 10
435.9136
 20
449.476
 10
436.0194
 20
448.9496
 10
436.0828
 20
448.3746
 10
436.104
 20
447.751
 10
436.104
 20
437.3077
 10
438.3072
 20
437.3077
 10
438.3072
 20
447.751
 10
438.2916
 20
448.3906
 10
438.3732
 20
448.6328
 10
438.4607
 20
448.866
 10
438.5542
 20
449.0909
 10
438.6538
 20
449.3084
 10
438.785
 20
449.5682
 10
438.927
 20
449.8162
 10
439.0799
 20
450.0523
 10
439.2437
 20
450.2766
 10
439.4183
 20
450.489
 10
439.6038
 20
450.6895
 10
439.8
 20
450.8782
 10
440.0071
 20
451.0551
 10
440.2215
 20
451.2153
 10
440.4399
 20
451.3542
 10
440.6621
 20
451.4717
 10
440.8884
 20
451.5678
 10
441.1185
 20
451.6426
 10
441.3526
 20
451.696
 10
441.5906
 20
451.728
 10
441.8326
 20
451.7387
 10
442.0687
 20
451.7331
 10
442.2891
 20
451.7161
 10
442.4937
 20
451.688
 10
442.6826
 20
451.6485
 10
442.8557
 20
451.5978
 10
443.013
 20
451.5358
 10
443.1546
 20
451.4625
 10
443.2804
 20
451.378
 10
443.5978
 20
451.0949
 10
443.8728
 20
450.7632
 10
444.1055
 20
450.3828
 10
444.296
 20
449.9537
 10
444.4441
 20
449.476
 10
444.5499
 20
448.9496
 10
444.6133
 20
448.3746
 10
444.6345
 20
447.751
 10
444.6345
 20
437.3077
  0
LWPOLYLINE
  5
68
330
1F
100
AcDbEntity
  8
Layer 1
 62
     7
370
    18
100
AcDbPolyline
 90
       53
 70
     1
 43
0.0
 10
231.1583
 20
395.093
 10
231.3025
 20
395.093
 10
231.2423
 20
395.1766
 10
231.197
 20
395.2605
 10
231.1683
 20
395.3444
 10
231.1583
 20
395.4285
 10
234.1136
 20
396.9926
 10
242.5896
 20
398.4495
 10
256.0012
 20
399.7678
 10
273.7637
 20
400.9164
 10
295.2919
 20
401.8641
 10
320.0011
 20
402.5796
 10
347.3061
 20
403.0318
 10
376.6222
 20
403.1895
 10
405.1921
 20
403.0398
 10
431.869
 20
402.6101
 10
456.1128
 20
401.9291
 10
477.3838
 20
401.0257
 10
495.142
 20
399.9286
 10
508.8477
 20
398.6668
 10
517.9609
 20
397.269
 10
521.9418
 20
395.7641
 10
522.0868
 20
395.7641
 10
522.0868
 20
391.9998
 10
522.0868
 20
391.9423
 10
522.0868
 20
-333.2219
 10
521.4793
 20
-333.2219
 10
516.5272
 20
-341.5246
 10
506.8719
 20
-349.3444
 10
492.9998
 20
-356.5197
 10
475.3978
 20
-362.8888
 10
454.5522
 20
-368.2899
 10
430.9498
 20
-372.5614
 10
405.0771
 20
-375.5414
 10
377.4208
 20
-377.0684
 10
348.087
 20
-376.4644
 10
320.7209
 20
-373.4485
 10
295.9182
 20
-368.592
 10
274.2741
 20
-362.4659
 10
256.384
 20
-355.6414
 10
242.8435
 20
-348.6895
 10
234.2478
 20
-342.1814
 10
231.1925
 20
-336.6883
 10
229.9984
 20
-249.3091
 10
229.4348
 20
-159.6664
 10
229.3563
 20
-68.3634
 10
229.6177
 20
23.9967
 10
230.0739
 20
116.8105
 10
230.5795
 20
209.4749
 10
230.9894
 20
301.3866
 10
231.1583
 20
391.9423
 10
231.1583
 20
391.9998
 10
231.1583
 20
395.093
  0
LWPOLYLINE
  5
69
330
1F
100
AcDbEntity
  8
Layer 1
 62
     7
370
    18
100
AcDbPolyline
 90
        9
 70
     0
 43
0.0
 10
231.1583
 20
395.093
 10
237.9346
 20
394.4011
 10
256.9875
 20
392.7267
 10
286.4033
 20
390.6719
 10
324.2681
 20
388.8388
 10
368.6682
 20
387.8294
 10
417.6897
 20
388.2458
 10
469.4188
 20
390.69
 10
521.9418
 20
395.7641
  0
LWPOLYLINE
  5
6A
330
1F
100
AcDbEntity
  8
Layer 1
 62
     7
100
AcDbPolyline
 90
       65
 70
     1
 43
0.0
 10
557.1957
 20
56.4877
 10
557.6774
 20
56.4626
 10
558.1402
 20
56.3873
 10
558.5842
 20
56.2618
 10
559.0095
 20
56.0861
 10
559.4159
 20
55.8603
 10
559.8036
 20
55.5843
 10
560.1725
 20
55.2581
 10
560.5226
 20
54.8818
 10
560.8383
 20
54.4739
 10
561.1119
 20
54.0426
 10
561.3434
 20
53.5881
 10
561.5327
 20
53.1103
 10
561.68
 20
52.6093
 10
561.7851
 20
52.085
 10
561.8482
 20
51.5375
 10
561.8692
 20
50.9668
 10
561.8484
 20
50.401
 10
561.7861
 20
49.8543
 10
561.6822
 20
49.3265
 10
561.5367
 20
48.8178
 10
561.3497
 20
48.328
 10
561.121
 20
47.8573
 10
560.8508
 20
47.4056
 10
560.5389
 20
46.9729
 10
560.1973
 20
46.5781
 10
559.834
 20
46.2359
 10
559.4488
 20
45.9465
 10
559.0419
 20
45.7098
 10
558.6131
 20
45.5256
 10
558.1625
 20
45.3942
 10
557.69
 20
45.3153
 10
557.1957
 20
45.289
 10
556.7016
 20
45.3153
 10
556.2293
 20
45.3942
 10
555.7787
 20
45.5256
 10
555.3499
 20
45.7098
 10
554.943
 20
45.9465
 10
554.5579
 20
46.2359
 10
554.1947
 20
46.5781
 10
553.8533
 20
46.9729
 10
553.5414
 20
47.4056
 10
553.271
 20
47.8573
 10
553.0422
 20
48.328
 10
552.8551
 20
48.8178
 10
552.7094
 20
49.3265
 10
552.6054
 20
49.8543
 10
552.543
 20
50.401
 10
552.5222
 20
50.9668
 10
552.5433
 20
51.5375
 10
552.6064
 20
52.085
 10
552.7116
 20
52.6093
 10
552.859
 20
53.1103
 10
553.0483
 20
53.5881
 10
553.2798
 20
54.0426
 10
553.5533
 20
54.4739
 10
553.8689
 20
54.8818
 10
554.219
 20
55.2581
 10
554.588
 20
55.5843
 10
554.9757
 20
55.8603
 10
555.3823
 20
56.0861
 10
555.8075
 20
56.2618
 10
556.2516
 20
56.3873
 10
556.7143
 20
56.4626
 10
557.1957
 20
56.4877
  0
LWPOLYLINE
  5
6B
330
1F
100
AcDbEntity
  8
Layer 1
 62
     7
100
AcDbPolyline
 90
       65
 70
     1
 43
0.0
 10
557.1957
 20
67.2943
 10
557.584
 20
67.2747
 10
557.9576
 20
67.2161
 10
558.3164
 20
67.1183
 10
558.6604
 20
66.9813
 10
558.9898
 20
66.8052
 10
559.3045
 20
66.59
 10
559.6045
 20
66.3355
 10
559.8898
 20
66.0419
 10
560.156
 20
65.7118
 10
560.3867
 20
65.3627
 10
560.582
 20
64.9946
 10
560.7418
 20
64.6076
 10
560.8661
 20
64.2015
 10
560.9549
 20
63.7765
 10
561.0082
 20
63.3326
 10
561.026
 20
62.8697
 10
561.0082
 20
62.4172
 10
560.9549
 20
61.9792
 10
560.8661
 20
61.5559
 10
560.7418
 20
61.1473
 10
560.582
 20
60.7532
 10
560.3867
 20
60.3739
 10
560.156
 20
60.0091
 10
559.8898
 20
59.659
 10
559.6064
 20
59.347
 10
559.3077
 20
59.0766
 10
558.9938
 20
58.8478
 10
558.6646
 20
58.6606
 10
558.3202
 20
58.5149
 10
557.9606
 20
58.4109
 10
557.5858
 20
58.3484
 10
557.1957
 20
58.3276
 10
556.8057
 20
58.3484
 10
556.431
 20
58.4109
 10
556.0714
 20
58.5149
 10
555.7271
 20
58.6606
 10
555.398
 20
58.8478
 10
555.0841
 20
59.0766
 10
554.7853
 20
59.347
 10
554.5017
 20
59.659
 10
554.2356
 20
60.0091
 10
554.0049
 20
60.3739
 10
553.8098
 20
60.7532
 10
553.6501
 20
61.1473
 10
553.5259
 20
61.5559
 10
553.4372
 20
61.9792
 10
553.3839
 20
62.4172
 10
553.3662
 20
62.8697
 10
553.3839
 20
63.3326
 10
553.4372
 20
63.7765
 10
553.5259
 20
64.2015
 10
553.6501
 20
64.6076
 10
553.8098
 20
64.9946
 10
554.0049
 20
65.3627
 10
554.2356
 20
65.7118
 10
554.5017
 20
66.0419
 10
554.787
 20
66.3355
 10
555.0871
 20
66.59
 10
555.4018
 20
66.8052
 10
555.7313
 20
66.9813
 10
556.0754
 20
67.1183
 10
556.4342
 20
67.2161
 10
556.8076
 20
67.2747
 10
557.1957
 20
67.2943
  0
LWPOLYLINE
  5
6C
330
1F
100
AcDbEntity
  8
Layer 1
 62
     7
100
AcDbPolyline
 90
      121
 70
     1
 43
0.0
 10
557.1957
 20
42.5483
 10
557.9395
 20
42.5822
 10
558.6533
 20
42.6841
 10
559.3371
 20
42.8538
 10
559.9911
 20
43.0914
 10
560.6151
 20
43.3969
 10
561.2092
 20
43.7704
 10
561.7735
 20
44.2118
 10
562.3079
 20
44.7211
 10
562.5487
 20
44.9872
 10
562.7763
 20
45.2668
 10
562.9907
 20
45.5598
 10
563.192
 20
45.8663
 10
563.3801
 20
46.1862
 10
563.5551
 20
46.5196
 10
563.717
 20
46.8664
 10
563.8658
 20
47.2267
 10
563.9988
 20
47.6008
 10
564.1141
 20
47.9882
 10
564.2116
 20
48.3891
 10
564.2914
 20
48.8033
 10
564.3534
 20
49.231
 10
564.3977
 20
49.672
 10
564.4242
 20
50.1265
 10
564.4331
 20
50.5945
 10
564.4181
 20
51.0686
 10
564.3733
 20
51.5415
 10
564.2985
 20
52.0132
 10
564.1939
 20
52.4837
 10
564.0593
 20
52.953
 10
563.8948
 20
53.421
 10
563.7004
 20
53.8878
 10
563.4761
 20
54.3534
 10
563.2237
 20
54.8076
 10
562.9455
 20
55.2405
 10
562.6414
 20
55.652
 10
562.3116
 20
56.0421
 10
561.9559
 20
56.4108
 10
561.5744
 20
56.7581
 10
561.167
 20
57.084
 10
560.7338
 20
57.3884
 10
561.3499
 20
58.0511
 10
561.8839
 20
58.728
 10
562.3357
 20
59.4189
 10
562.7053
 20
60.124
 10
562.9928
 20
60.8431
 10
563.1981
 20
61.5764
 10
563.3213
 20
62.3236
 10
563.3624
 20
63.085
 10
563.3343
 20
63.8363
 10
563.2499
 20
64.5525
 10
563.1092
 20
65.2339
 10
562.9122
 20
65.8803
 10
562.659
 20
66.4918
 10
562.3494
 20
67.0684
 10
561.9836
 20
67.6101
 10
561.5614
 20
68.117
 10
561.115
 20
68.5576
 10
560.6402
 20
68.9394
 10
560.1371
 20
69.2624
 10
559.6055
 20
69.5267
 10
559.0456
 20
69.7322
 10
558.4574
 20
69.879
 10
557.8407
 20
69.967
 10
557.1957
 20
69.9964
 10
556.5507
 20
69.967
 10
555.9341
 20
69.879
 10
555.3458
 20
69.7322
 10
554.786
 20
69.5267
 10
554.2546
 20
69.2624
 10
553.7515
 20
68.9394
 10
553.2769
 20
68.5576
 10
552.8308
 20
68.117
 10
552.4086
 20
67.6104
 10
552.0427
 20
67.0695
 10
551.733
 20
66.4944
 10
551.4796
 20
65.8851
 10
551.2825
 20
65.2414
 10
551.1417
 20
64.5635
 10
551.0573
 20
63.8513
 10
551.0291
 20
63.1048
 10
551.0702
 20
62.3387
 10
551.1935
 20
61.5874
 10
551.3989
 20
60.8507
 10
551.6865
 20
60.1288
 10
552.0563
 20
59.4216
 10
552.5082
 20
58.7292
 10
553.0422
 20
58.0514
 10
553.6584
 20
57.3884
 10
553.2249
 20
57.084
 10
552.8174
 20
56.7581
 10
552.4357
 20
56.4108
 10
552.08
 20
56.0421
 10
551.7501
 20
55.652
 10
551.446
 20
55.2405
 10
551.1677
 20
54.8076
 10
550.9153
 20
54.3534
 10
550.691
 20
53.8869
 10
550.4966
 20
53.4174
 10
550.3321
 20
52.9447
 10
550.1976
 20
52.469
 10
550.0929
 20
51.9903
 10
550.0181
 20
51.5086
 10
549.9733
 20
51.0239
 10
549.9583
 20
50.5362
 10
549.9915
 20
49.6615
 10
550.0912
 20
48.829
 10
550.2572
 20
48.0388
 10
550.4898
 20
47.2909
 10
550.7887
 20
46.5852
 10
551.1541
 20
45.9216
 10
551.5859
 20
45.3003
 10
552.0842
 20
44.7211
 10
552.6184
 20
44.2118
 10
553.1825
 20
43.7704
 10
553.7765
 20
43.3969
 10
554.4004
 20
43.0914
 10
555.0543
 20
42.8538
 10
555.7382
 20
42.6841
 10
556.4519
 20
42.5822
 10
557.1957
 20
42.5483
  0
LWPOLYLINE
  5
6D
330
1F
100
AcDbEntity
  8
Layer 1
 62
     7
100
AcDbPolyline
 90
      136
 70
     1
 43
0.0
 10
571.5412
 20
59.6984
 10
573.0343
 20
66.8251
 10
581.0183
 20
66.8251
 10
581.0183
 20
69.5658
 10
571.3136
 20
69.5658
 10
568.7824
 20
57.6234
 10
571.249
 20
56.2921
 10
571.6067
 20
56.5857
 10
571.9822
 20
56.8401
 10
572.3755
 20
57.0554
 10
572.7865
 20
57.2315
 10
573.2152
 20
57.3685
 10
573.6617
 20
57.4663
 10
574.1259
 20
57.5249
 10
574.6078
 20
57.5445
 10
575.0927
 20
57.5158
 10
575.5613
 20
57.4296
 10
576.0137
 20
57.2859
 10
576.4499
 20
57.0847
 10
576.8698
 20
56.826
 10
577.2734
 20
56.5097
 10
577.6608
 20
56.1359
 10
578.032
 20
55.7045
 10
578.382
 20
55.2233
 10
578.6854
 20
54.7243
 10
578.942
 20
54.2076
 10
579.152
 20
53.6732
 10
579.3153
 20
53.121
 10
579.4319
 20
52.5511
 10
579.5019
 20
51.9634
 10
579.5252
 20
51.358
 10
579.5014
 20
50.7317
 10
579.4298
 20
50.1305
 10
579.3107
 20
49.5545
 10
579.1438
 20
49.0036
 10
578.9294
 20
48.4778
 10
578.6672
 20
47.9771
 10
578.3575
 20
47.5014
 10
578.0001
 20
47.0509
 10
577.8181
 20
46.8505
 10
577.6296
 20
46.6605
 10
577.4345
 20
46.4809
 10
577.2329
 20
46.3117
 10
577.0247
 20
46.1529
 10
576.8099
 20
46.0046
 10
576.5885
 20
45.8667
 10
576.3604
 20
45.7393
 10
576.1227
 20
45.6245
 10
575.8717
 20
45.525
 10
575.6076
 20
45.4408
 10
575.3303
 20
45.372
 10
575.0397
 20
45.3184
 10
574.736
 20
45.2801
 10
574.419
 20
45.2572
 10
574.0888
 20
45.2495
 10
573.7524
 20
45.2667
 10
573.4165
 20
45.3181
 10
573.081
 20
45.4038
 10
572.746
 20
45.5238
 10
572.4115
 20
45.678
 10
572.0775
 20
45.8664
 10
571.744
 20
46.089
 10
571.4111
 20
46.3458
 10
571.0906
 20
46.6304
 10
570.7944
 20
46.9357
 10
570.5226
 20
47.2619
 10
570.2751
 20
47.6088
 10
570.052
 20
47.9766
 10
569.8533
 20
48.3652
 10
569.679
 20
48.7746
 10
569.529
 20
49.2049
 10
567.322
 20
48.3428
 10
567.5388
 20
47.6983
 10
567.7916
 20
47.0862
 10
568.0804
 20
46.5066
 10
568.4052
 20
45.9595
 10
568.7659
 20
45.4447
 10
569.1627
 20
44.9624
 10
569.5956
 20
44.5125
 10
570.0644
 20
44.0949
 10
570.563
 20
43.7139
 10
571.0726
 20
43.3837
 10
571.5934
 20
43.1043
 10
572.1253
 20
42.8757
 10
572.6683
 20
42.6979
 10
573.2226
 20
42.5709
 10
573.788
 20
42.4947
 10
574.3646
 20
42.4693
 10
575.1329
 20
42.5112
 10
575.8718
 20
42.637
 10
576.5812
 20
42.8466
 10
577.2613
 20
43.14
 10
577.9119
 20
43.5173
 10
578.5331
 20
43.9783
 10
579.1249
 20
44.5231
 10
579.6873
 20
45.1517
 10
580.1971
 20
45.8343
 10
580.6389
 20
46.5504
 10
581.0127
 20
47.3001
 10
581.3186
 20
48.0835
 10
581.5564
 20
48.9005
 10
581.7264
 20
49.7511
 10
581.8283
 20
50.6354
 10
581.8623
 20
51.5535
 10
581.8288
 20
52.4668
 10
581.7283
 20
53.3414
 10
581.5609
 20
54.1775
 10
581.3265
 20
54.975
 10
581.0252
 20
55.734
 10
580.657
 20
56.4544
 10
580.222
 20
57.1362
 10
579.72
 20
57.7795
 10
579.4634
 20
58.0655
 10
579.1966
 20
58.3363
 10
578.9197
 20
58.5917
 10
578.6326
 20
58.8318
 10
578.3354
 20
59.0566
 10
578.028
 20
59.2661
 10
577.7105
 20
59.4603
 10
577.3829
 20
59.6392
 10
577.0487
 20
59.8
 10
576.7116
 20
59.9393
 10
576.3716
 20
60.0572
 10
576.0288
 20
60.1535
 10
575.6832
 20
60.2284
 10
575.3348
 20
60.2819
 10
574.9838
 20
60.3139
 10
574.6301
 20
60.3246
 10
574.2693
 20
60.3148
 10
573.9015
 20
60.2854
 10
573.5265
 20
60.2365
 10
573.1442
 20
60.168
 10
572.7546
 20
60.0799
 10
572.3576
 20
59.9723
 10
571.9532
 20
59.8451
 10
571.5412
 20
59.6984
  0
LWPOLYLINE
  5
6E
330
1F
100
AcDbEntity
  8
Layer 1
 62
     7
100
AcDbPolyline
 90
      129
 70
     1
 43
0.0
 10
594.4388
 20
66.4726
 10
594.8134
 20
66.1655
 10
595.1628
 20
65.8167
 10
595.4868
 20
65.4263
 10
595.7855
 20
64.9943
 10
596.0588
 20
64.5207
 10
596.3068
 20
64.0054
 10
596.5295
 20
63.4485
 10
596.7268
 20
62.85
 10
596.9474
 20
62.0563
 10
597.1387
 20
61.251
 10
597.3005
 20
60.4341
 10
597.4329
 20
59.6055
 10
597.5358
 20
58.7653
 10
597.6094
 20
57.9134
 10
597.6535
 20
57.0498
 10
597.6682
 20
56.1746
 10
597.6667
 20
55.9644
 10
597.6621
 20
55.745
 10
597.6544
 20
55.5164
 10
597.6438
 20
55.2786
 10
597.6301
 20
55.0316
 10
597.6133
 20
54.7755
 10
597.5936
 20
54.5102
 10
597.5708
 20
54.2359
 10
597.4582
 20
53.1834
 10
597.3111
 20
52.189
 10
597.1295
 20
51.2526
 10
596.9134
 20
50.3744
 10
596.6628
 20
49.5542
 10
596.3778
 20
48.7921
 10
596.0583
 20
48.088
 10
595.7044
 20
47.442
 10
595.3815
 20
46.9557
 10
595.0413
 20
46.5342
 10
594.6838
 20
46.1776
 10
594.3091
 20
45.8858
 10
593.9171
 20
45.6588
 10
593.5079
 20
45.4967
 10
593.0815
 20
45.3994
 10
592.6378
 20
45.367
 10
592.1425
 20
45.3991
 10
591.671
 20
45.4955
 10
591.2234
 20
45.6562
 10
590.7996
 20
45.8811
 10
590.3997
 20
46.1702
 10
590.0236
 20
46.5236
 10
589.6713
 20
46.9413
 10
589.3429
 20
47.4232
 10
589.204
 20
47.6567
 10
589.0712
 20
47.8975
 10
588.9444
 20
48.1458
 10
588.8238
 20
48.4015
 10
588.7092
 20
48.6646
 10
588.6008
 20
48.935
 10
588.4984
 20
49.2129
 10
588.4022
 20
49.4982
 10
588.3116
 20
49.7878
 10
588.2265
 20
50.0792
 10
588.1471
 20
50.3726
 10
588.0733
 20
50.6677
 10
588.005
 20
50.9648
 10
587.9424
 20
51.2638
 10
587.8854
 20
51.5647
 10
587.8341
 20
51.8675
 10
587.7871
 20
52.1697
 10
587.7437
 20
52.4694
 10
587.704
 20
52.7666
 10
587.6677
 20
53.0614
 10
587.6351
 20
53.3537
 10
587.606
 20
53.6436
 10
587.5804
 20
53.9311
 10
587.5583
 20
54.2162
 10
587.5392
 20
54.5056
 10
587.5227
 20
54.806
 10
587.5088
 20
55.1172
 10
587.4974
 20
55.4391
 10
587.4885
 20
55.7718
 10
587.4822
 20
56.115
 10
587.4785
 20
56.4688
 10
587.4772
 20
56.833
 10
587.4828
 20
57.2137
 10
587.4995
 20
57.6165
 10
587.5274
 20
58.0414
 10
587.5664
 20
58.4886
 10
587.6166
 20
58.9581
 10
587.678
 20
59.45
 10
587.7505
 20
59.9644
 10
587.8341
 20
60.5014
 10
587.8852
 20
60.7995
 10
587.9414
 20
61.097
 10
588.0028
 20
61.3939
 10
588.0693
 20
61.6903
 10
588.1408
 20
61.986
 10
588.2175
 20
62.2812
 10
588.2992
 20
62.5757
 10
588.3859
 20
62.8697
 10
588.4784
 20
63.1597
 10
588.5775
 20
63.4425
 10
588.6831
 20
63.7178
 10
588.7954
 20
63.9859
 10
588.9143
 20
64.2465
 10
589.0398
 20
64.4998
 10
589.172
 20
64.7457
 10
589.3109
 20
64.9842
 10
589.4564
 20
65.2135
 10
589.609
 20
65.4312
 10
589.7687
 20
65.6371
 10
589.9355
 20
65.8314
 10
590.1094
 20
66.0141
 10
590.2905
 20
66.1851
 10
590.4786
 20
66.3445
 10
590.6739
 20
66.4923
 10
590.8773
 20
66.6254
 10
591.0898
 20
66.7408
 10
591.3114
 20
66.8384
 10
591.5422
 20
66.9182
 10
591.782
 20
66.9803
 10
592.0309
 20
67.0247
 10
592.2889
 20
67.0513
 10
592.556
 20
67.0602
 10
592.8233
 20
67.051
 10
593.0815
 20
67.0234
 10
593.3305
 20
66.9774
 10
593.5705
 20
66.9131
 10
593.8012
 20
66.8304
 10
594.0229
 20
66.7294
 10
594.2354
 20
66.6101
 10
594.4388
 20
66.4726
  0
LWPOLYLINE
  5
6F
330
1F
100
AcDbEntity
  8
Layer 1
 62
     7
100
AcDbPolyline
 90
       65
 70
     1
 43
0.0
 10
592.6697
 20
42.5869
 10
593.6172
 20
42.6594
 10
594.5044
 20
42.8769
 10
595.3313
 20
43.2394
 10
596.0978
 20
43.7469
 10
596.804
 20
44.3993
 10
597.4499
 20
45.1968
 10
598.0354
 20
46.1392
 10
598.5605
 20
47.2267
 10
598.9294
 20
48.1758
 10
599.2491
 20
49.1774
 10
599.5197
 20
50.2317
 10
599.7411
 20
51.3385
 10
599.9133
 20
52.498
 10
600.0363
 20
53.7101
 10
600.1101
 20
54.9748
 10
600.1347
 20
56.2921
 10
600.1101
 20
57.6091
 10
600.0363
 20
58.8736
 10
599.9133
 20
60.0855
 10
599.7411
 20
61.2449
 10
599.5197
 20
62.3516
 10
599.2491
 20
63.4058
 10
598.9294
 20
64.4075
 10
598.5605
 20
65.3565
 10
598.0354
 20
66.444
 10
597.4499
 20
67.3865
 10
596.804
 20
68.184
 10
596.0978
 20
68.8364
 10
595.3313
 20
69.3439
 10
594.5044
 20
69.7064
 10
593.6172
 20
69.9239
 10
592.6697
 20
69.9964
 10
591.7222
 20
69.9239
 10
590.8351
 20
69.7064
 10
590.0082
 20
69.3439
 10
589.2417
 20
68.8364
 10
588.5355
 20
68.184
 10
587.8896
 20
67.3865
 10
587.3041
 20
66.444
 10
586.779
 20
65.3565
 10
586.4101
 20
64.4075
 10
586.0904
 20
63.4058
 10
585.8198
 20
62.3516
 10
585.5985
 20
61.2449
 10
585.4262
 20
60.0855
 10
585.3032
 20
58.8736
 10
585.2294
 20
57.6091
 10
585.2048
 20
56.2921
 10
585.2294
 20
54.9748
 10
585.3032
 20
53.7101
 10
585.4262
 20
52.498
 10
585.5985
 20
51.3385
 10
585.8198
 20
50.2317
 10
586.0904
 20
49.1774
 10
586.4101
 20
48.1758
 10
586.779
 20
47.2267
 10
587.3041
 20
46.1392
 10
587.8896
 20
45.1968
 10
588.5355
 20
44.3993
 10
589.2417
 20
43.7469
 10
590.0082
 20
43.2394
 10
590.8351
 20
42.8769
 10
591.7222
 20
42.6594
 10
592.6697
 20
42.5869
  0
LWPOLYLINE
  5
70
330
1F
100
AcDbEntity
  8
Layer 1
 62
     7
100
AcDbPolyline
 90
      165
 70
     1
 43
0.0
 10
622.3021
 20
43.0175
 10
624.5738
 20
43.0175
 10
624.5738
 20
53.7855
 10
624.5553
 20
54.5004
 10
624.4998
 20
55.1817
 10
624.4072
 20
55.8293
 10
624.2776
 20
56.4433
 10
624.1111
 20
57.0236
 10
623.9074
 20
57.5703
 10
623.6668
 20
58.0833
 10
623.3892
 20
58.5627
 10
623.2341
 20
58.792
 10
623.0695
 20
59.0097
 10
622.8952
 20
59.2156
 10
622.7114
 20
59.4099
 10
622.5179
 20
59.5926
 10
622.3149
 20
59.7636
 10
622.1021
 20
59.923
 10
621.8797
 20
60.0707
 10
621.6433
 20
60.2035
 10
621.3888
 20
60.3186
 10
621.116
 20
60.4161
 10
620.8249
 20
60.4958
 10
620.5156
 20
60.5579
 10
620.188
 20
60.6022
 10
619.8421
 20
60.6288
 10
619.4779
 20
60.6377
 10
619.1106
 20
60.6224
 10
618.755
 20
60.5766
 10
618.411
 20
60.5002
 10
618.0786
 20
60.3933
 10
617.7579
 20
60.2557
 10
617.4488
 20
60.0874
 10
617.1514
 20
59.8886
 10
616.8656
 20
59.659
 10
616.6175
 20
59.4304
 10
616.3806
 20
59.1847
 10
616.1548
 20
58.9221
 10
615.9403
 20
58.6428
 10
615.737
 20
58.347
 10
615.5448
 20
58.0349
 10
615.3638
 20
57.7066
 10
615.194
 20
57.3623
 10
615.062
 20
57.6802
 10
614.9179
 20
57.9871
 10
614.7617
 20
58.2817
 10
614.5932
 20
58.5627
 10
614.4384
 20
58.792
 10
614.2739
 20
59.0097
 10
614.0998
 20
59.2156
 10
613.9161
 20
59.4099
 10
613.7227
 20
59.5926
 10
613.5196
 20
59.7636
 10
613.3069
 20
59.923
 10
613.0845
 20
60.0707
 10
612.8481
 20
60.2035
 10
612.5934
 20
60.3186
 10
612.3205
 20
60.4161
 10
612.0294
 20
60.4958
 10
611.72
 20
60.5579
 10
611.3924
 20
60.6022
 10
611.0466
 20
60.6288
 10
610.6826
 20
60.6377
 10
610.3151
 20
60.6224
 10
609.9593
 20
60.5766
 10
609.6152
 20
60.5002
 10
609.2827
 20
60.3933
 10
608.962
 20
60.2557
 10
608.6528
 20
60.0874
 10
608.3554
 20
59.8886
 10
608.0696
 20
59.659
 10
607.8335
 20
59.4413
 10
607.6074
 20
59.2088
 10
607.3915
 20
58.9614
 10
607.1857
 20
58.699
 10
606.99
 20
58.4215
 10
606.8044
 20
58.1291
 10
606.6289
 20
57.8215
 10
606.4635
 20
57.4987
 10
606.4635
 20
60.2466
 10
604.1918
 20
60.2466
 10
604.1918
 20
43.0175
 10
606.4635
 20
43.0175
 10
606.4635
 20
51.8343
 10
606.5162
 20
52.348
 10
606.5852
 20
52.8417
 10
606.6704
 20
53.3155
 10
606.7718
 20
53.7696
 10
606.8894
 20
54.2041
 10
607.0232
 20
54.6191
 10
607.1732
 20
55.0148
 10
607.3394
 20
55.3914
 10
607.4749
 20
55.6592
 10
607.6215
 20
55.9148
 10
607.7792
 20
56.1583
 10
607.9481
 20
56.3896
 10
608.1281
 20
56.6088
 10
608.3192
 20
56.8157
 10
608.5216
 20
57.0104
 10
608.7352
 20
57.1928
 10
608.9564
 20
57.3578
 10
609.1816
 20
57.5008
 10
609.4109
 20
57.6218
 10
609.6442
 20
57.7209
 10
609.8816
 20
57.7979
 10
610.123
 20
57.853
 10
610.3684
 20
57.886
 10
610.6179
 20
57.897
 10
610.8613
 20
57.8912
 10
611.0885
 20
57.8738
 10
611.2994
 20
57.8448
 10
611.4941
 20
57.8042
 10
611.6725
 20
57.7519
 10
611.8347
 20
57.6881
 10
611.9806
 20
57.6126
 10
612.1103
 20
57.5256
 10
612.4376
 20
57.2337
 10
612.7212
 20
56.8916
 10
612.9611
 20
56.4994
 10
613.1573
 20
56.0569
 10
613.3099
 20
55.5643
 10
613.4189
 20
55.0215
 10
613.4843
 20
54.4286
 10
613.5061
 20
53.7855
 10
613.5061
 20
43.0175
 10
615.7785
 20
43.0175
 10
615.7785
 20
53.7855
 10
615.7621
 20
54.4449
 10
615.8461
 20
54.6945
 10
615.9362
 20
54.935
 10
616.0326
 20
55.167
 10
616.1354
 20
55.3914
 10
616.2707
 20
55.6592
 10
616.4172
 20
55.9148
 10
616.5748
 20
56.1583
 10
616.7437
 20
56.3896
 10
616.9237
 20
56.6088
 10
617.1148
 20
56.8157
 10
617.3171
 20
57.0104
 10
617.5304
 20
57.1928
 10
617.7516
 20
57.3578
 10
617.9769
 20
57.5008
 10
618.2061
 20
57.6218
 10
618.4395
 20
57.7209
 10
618.6768
 20
57.7979
 10
618.9183
 20
57.853
 10
619.1637
 20
57.886
 10
619.4132
 20
57.897
 10
619.6566
 20
57.8912
 10
619.8838
 20
57.8738
 10
620.0947
 20
57.8448
 10
620.2894
 20
57.8042
 10
620.4679
 20
57.7519
 10
620.6303
 20
57.6881
 10
620.7764
 20
57.6126
 10
620.9063
 20
57.5256
 10
621.2334
 20
57.2337
 10
621.5169
 20
56.8916
 10
621.7568
 20
56.4994
 10
621.9531
 20
56.0569
 10
622.1058
 20
55.5643
 10
622.2148
 20
55.0215
 10
622.2803
 20
54.4286
 10
622.3021
 20
53.7855
 10
622.3021
 20
43.0175
  0
LWPOLYLINE
  5
71
330
1F
100
AcDbEntity
  8
Layer 1
 62
     7
100
AcDbPolyline
 90
      165
 70
     1
 43
0.0
 10
647.0661
 20
43.0175
 10
649.3378
 20
43.0175
 10
649.3378
 20
53.7855
 10
649.3193
 20
54.5004
 10
649.2638
 20
55.1817
 10
649.1712
 20
55.8293
 10
649.0416
 20
56.4433
 10
648.8751
 20
57.0236
 10
648.6714
 20
57.5703
 10
648.4308
 20
58.0833
 10
648.1532
 20
58.5627
 10
647.9981
 20
58.792
 10
647.8335
 20
59.0097
 10
647.6593
 20
59.2156
 10
647.4754
 20
59.4099
 10
647.282
 20
59.5926
 10
647.0789
 20
59.7636
 10
646.8661
 20
59.923
 10
646.6437
 20
60.0707
 10
646.4073
 20
60.2035
 10
646.1528
 20
60.3186
 10
645.88
 20
60.4161
 10
645.5889
 20
60.4958
 10
645.2796
 20
60.5579
 10
644.952
 20
60.6022
 10
644.6061
 20
60.6288
 10
644.2419
 20
60.6377
 10
643.8746
 20
60.6224
 10
643.519
 20
60.5766
 10
643.175
 20
60.5002
 10
642.8426
 20
60.3933
 10
642.5219
 20
60.2557
 10
642.2128
 20
60.0874
 10
641.9154
 20
59.8886
 10
641.6296
 20
59.659
 10
641.3815
 20
59.4304
 10
641.1446
 20
59.1847
 10
640.9188
 20
58.9221
 10
640.7043
 20
58.6428
 10
640.501
 20
58.347
 10
640.3088
 20
58.0349
 10
640.1278
 20
57.7066
 10
639.958
 20
57.3623
 10
639.826
 20
57.6802
 10
639.6819
 20
57.9871
 10
639.5257
 20
58.2817
 10
639.3572
 20
58.5627
 10
639.2024
 20
58.792
 10
639.0379
 20
59.0097
 10
638.8638
 20
59.2156
 10
638.6801
 20
59.4099
 10
638.4867
 20
59.5926
 10
638.2836
 20
59.7636
 10
638.0709
 20
59.923
 10
637.8485
 20
60.0707
 10
637.6121
 20
60.2035
 10
637.3574
 20
60.3186
 10
637.0845
 20
60.4161
 10
636.7934
 20
60.4958
 10
636.484
 20
60.5579
 10
636.1564
 20
60.6022
 10
635.8106
 20
60.6288
 10
635.4466
 20
60.6377
 10
635.0791
 20
60.6224
 10
634.7233
 20
60.5766
 10
634.3792
 20
60.5002
 10
634.0467
 20
60.3933
 10
633.726
 20
60.2557
 10
633.4168
 20
60.0874
 10
633.1194
 20
59.8886
 10
632.8336
 20
59.659
 10
632.5975
 20
59.4413
 10
632.3714
 20
59.2088
 10
632.1555
 20
58.9614
 10
631.9497
 20
58.699
 10
631.754
 20
58.4215
 10
631.5684
 20
58.1291
 10
631.3929
 20
57.8215
 10
631.2275
 20
57.4987
 10
631.2275
 20
60.2466
 10
628.9558
 20
60.2466
 10
628.9558
 20
43.0175
 10
631.2275
 20
43.0175
 10
631.2275
 20
51.8343
 10
631.2802
 20
52.348
 10
631.3492
 20
52.8417
 10
631.4344
 20
53.3155
 10
631.5358
 20
53.7696
 10
631.6534
 20
54.2041
 10
631.7872
 20
54.6191
 10
631.9372
 20
55.0148
 10
632.1034
 20
55.3914
 10
632.2389
 20
55.6592
 10
632.3855
 20
55.9148
 10
632.5432
 20
56.1583
 10
632.7121
 20
56.3896
 10
632.8921
 20
56.6088
 10
633.0832
 20
56.8157
 10
633.2856
 20
57.0104
 10
633.4992
 20
57.1928
 10
633.7204
 20
57.3578
 10
633.9456
 20
57.5008
 10
634.1749
 20
57.6218
 10
634.4082
 20
57.7209
 10
634.6456
 20
57.7979
 10
634.887
 20
57.853
 10
635.1324
 20
57.886
 10
635.3819
 20
57.897
 10
635.6253
 20
57.8912
 10
635.8525
 20
57.8738
 10
636.0634
 20
57.8448
 10
636.2581
 20
57.8042
 10
636.4365
 20
57.7519
 10
636.5987
 20
57.6881
 10
636.7446
 20
57.6126
 10
636.8743
 20
57.5256
 10
637.2016
 20
57.2337
 10
637.4852
 20
56.8916
 10
637.7251
 20
56.4994
 10
637.9213
 20
56.0569
 10
638.0739
 20
55.5643
 10
638.1829
 20
55.0215
 10
638.2483
 20
54.4286
 10
638.2701
 20
53.7855
 10
638.2701
 20
43.0175
 10
640.5425
 20
43.0175
 10
640.5425
 20
53.7855
 10
640.5261
 20
54.4449
 10
640.6101
 20
54.6945
 10
640.7003
 20
54.935
 10
640.7967
 20
55.167
 10
640.8994
 20
55.3914
 10
641.0347
 20
55.6592
 10
641.1812
 20
55.9148
 10
641.3388
 20
56.1583
 10
641.5077
 20
56.3896
 10
641.6877
 20
56.6088
 10
641.8788
 20
56.8157
 10
642.0811
 20
57.0104
 10
642.2944
 20
57.1928
 10
642.5156
 20
57.3578
 10
642.7409
 20
57.5008
 10
642.9701
 20
57.6218
 10
643.2035
 20
57.7209
 10
643.4408
 20
57.7979
 10
643.6823
 20
57.853
 10
643.9277
 20
57.886
 10
644.1772
 20
57.897
 10
644.4206
 20
57.8912
 10
644.6478
 20
57.8738
 10
644.8587
 20
57.8448
 10
645.0534
 20
57.8042
 10
645.232
 20
57.7519
 10
645.3943
 20
57.6881
 10
645.5404
 20
57.6126
 10
645.6704
 20
57.5256
 10
645.9974
 20
57.2337
 10
646.2809
 20
56.8916
 10
646.5208
 20
56.4994
 10
646.7171
 20
56.0569
 10
646.8698
 20
55.5643
 10
646.9788
 20
55.0215
 10
647.0443
 20
54.4286
 10
647.0661
 20
53.7855
 10
647.0661
 20
43.0175
  0
LWPOLYLINE
  5
72
330
1F
100
AcDbEntity
  8
Layer 1
 62
     7
370
    18
100
AcDbPolyline
 90
        2
 70
     0
 43
0.0
 10
612.7253
 20
395.7585
 10
593.7896
 20
395.7585
  0
LWPOLYLINE
  5
73
330
1F
100
AcDbEntity
  8
Layer 1
 62
     7
370
    18
100
AcDbPolyline
 90
        2
 70
     0
 43
0.0
 10
603.2571
 20
395.7641
 10
603.2571
 20
88.7237
  0
LWPOLYLINE
  5
74
330
1F
100
AcDbEntity
  8
Layer 1
 62
     7
370
    18
100
AcDbPolyline
 90
        2
 70
     0
 43
0.0
 10
612.7253
 20
-354.5351
 10
593.7896
 20
-354.5351
  0
LWPOLYLINE
  5
75
330
1F
100
AcDbEntity
  8
Layer 1
 62
     7
370
    18
100
AcDbPolyline
 90
        2
 70
     0
 43
0.0
 10
603.2571
 20
-354.5436
 10
603.2571
 20
9.2635
  0
LWPOLYLINE
  5
76
330
1F
100
AcDbEntity
  8
Layer 1
 62
     7
370
    18
100
AcDbPolyline
 90
       33
 70
     1
 43
0.0
 10
301.617
 20
463.4738
 10
303.9161
 20
463.1942
 10
306.0576
 20
462.3922
 10
307.9954
 20
461.1232
 10
309.6838
 20
459.4425
 10
311.0769
 20
457.4055
 10
312.1288
 20
455.0676
 10
312.7935
 20
452.4841
 10
313.0253
 20
449.7103
 10
312.7935
 20
446.9365
 10
312.1288
 20
444.3529
 10
311.0769
 20
442.015
 10
309.6838
 20
439.978
 10
307.9954
 20
438.2973
 10
306.0576
 20
437.0283
 10
303.9161
 20
436.2263
 10
301.617
 20
435.9467
 10
299.3179
 20
436.2263
 10
297.1764
 20
437.0283
 10
295.2386
 20
438.2973
 10
293.5502
 20
439.978
 10
292.1572
 20
442.015
 10
291.1053
 20
444.3529
 10
290.4406
 20
446.9365
 10
290.2088
 20
449.7103
 10
290.4406
 20
452.4841
 10
291.1053
 20
455.0676
 10
292.1572
 20
457.4055
 10
293.5502
 20
459.4425
 10
295.2386
 20
461.1232
 10
297.1764
 20
462.3922
 10
299.3179
 20
463.1942
 10
301.617
 20
463.4738
  0
LWPOLYLINE
  5
77
330
1F
100
AcDbEntity
  8
Layer 1
 62
     7
370
    18
100
AcDbPolyline
 90
        9
 70
     0
 43
0.0
 10
307.2877
 20
472.8244
 10
303.6492
 20
457.4887
 10
300.8853
 20
445.8928
 10
298.876
 20
437.5142
 10
297.5012
 20
431.8304
 10
296.6409
 20
428.3191
 10
296.175
 20
426.4579
 10
295.9836
 20
425.7243
 10
295.9464
 20
425.5958
  0
ENDSEC
  0
SECTION
  2
OBJECTS
  0
DICTIONARY
  5
C
330
0
100
AcDbDictionary
281
     1
  3
ACAD_DETAILVIEWSTYLE
350
7F
  3
ACAD_GROUP
350
D
  3
ACAD_LAYOUT
350
1A
  3
ACAD_MATERIAL
350
43
  3
ACAD_MLEADERSTYLE
350
5B
  3
ACAD_MLINESTYLE
350
17
  3
ACAD_PLOTSETTINGS
350
19
  3
ACAD_PLOTSTYLENAME
350
E
  3
ACAD_SCALELIST
350
47
  3
ACAD_SECTIONVIEWSTYLE
350
80
  3
ACAD_TABLESTYLE
350
59
  3
ACAD_VISUALSTYLE
350
2A
  3
ACDB_RECOMPOSE_DATA
350
7C
  3
AcDbVariableDictionary
350
78
  0
SUN
  5
5D
330
29
100
AcDbSun
 90
        1
290
     0
 63
     7
421
 16777215
 40
1.0
291
     1
 91
  2455826
 92
 54000000
292
     0
 70
     2
 71
   256
280
     1
  0
DICTIONARY
  5
7F
102
{ACAD_REACTORS
330
C
102
}
330
C
100
AcDbDictionary
281
     1
  0
DICTIONARY
  5
D
102
{ACAD_REACTORS
330
C
102
}
330
C
100
AcDbDictionary
281
     1
  0
DICTIONARY
  5
1A
102
{ACAD_REACTORS
330
C
102
}
330
C
100
AcDbDictionary
281
     1
  3
Layout1
350
1E
  3
Layout2
350
26
  3
Model
350
22
  0
DICTIONARY
  5
43
102
{ACAD_REACTORS
330
C
102
}
330
C
100
AcDbDictionary
281
     1
  3
ByBlock
350
45
  3
ByLayer
350
44
  3
Global
350
46
  0
DICTIONARY
  5
5B
102
{ACAD_REACTORS
330
C
102
}
330
C
100
AcDbDictionary
281
     1
  3
Standard
350
5C
  0
DICTIONARY
  5
17
102
{ACAD_REACTORS
330
C
102
}
330
C
100
AcDbDictionary
281
     1
  3
Standard
350
18
  0
DICTIONARY
  5
19
102
{ACAD_REACTORS
330
C
102
}
330
C
100
AcDbDictionary
281
     1
  0
ACDBDICTIONARYWDFLT
  5
E
102
{ACAD_REACTORS
330
C
102
}
330
C
100
AcDbDictionary
281
     1
  3
Normal
350
F
100
AcDbDictionaryWithDefault
340
F
  0
DICTIONARY
  5
47
102
{ACAD_REACTORS
330
C
102
}
330
C
100
AcDbDictionary
281
     1
  3
A0
350
48
  3
A1
350
49
  3
A2
350
4A
  3
A3
350
4B
  3
A4
350
4C
  3
A5
350
4D
  3
A6
350
4E
  3
A7
350
4F
  3
A8
350
50
  3
A9
350
51
  3
B1
350
52
  3
B2
350
53
  3
B3
350
54
  3
B4
350
55
  3
B5
350
56
  3
B6
350
57
  3
B7
350
58
  0
DICTIONARY
  5
80
102
{ACAD_REACTORS
330
C
102
}
330
C
100
AcDbDictionary
281
     1
  0
DICTIONARY
  5
59
102
{ACAD_REACTORS
330
C
102
}
330
C
100
AcDbDictionary
281
     1
  3
Standard
350
5A
  0
DICTIONARY
  5
2A
102
{ACAD_REACTORS
330
C
102
}
330
C
100
AcDbDictionary
281
     1
  3
2dWireframe
350
2F
  3
Basic
350
32
  3
Brighten
350
36
  3
ColorChange
350
3A
  3
Conceptual
350
34
  3
Dim
350
35
  3
EdgeColorOff
350
3D
  3
Facepattern
350
39
  3
Flat
350
2B
  3
FlatWithEdges
350
2C
  3
Gouraud
350
2D
  3
GouraudWithEdges
350
2E
  3
Hidden
350
31
  3
JitterOff
350
3B
  3
Linepattern
350
38
  3
OverhangOff
350
3C
  3
Realistic
350
33
  3
Shaded
350
42
  3
Shaded with edges
350
41
  3
Shades of Gray
350
3E
  3
Sketchy
350
3F
  3
Thicken
350
37
  3
Wireframe
350
30
  3
X-Ray
350
40
  0
XRECORD
  5
7C
102
{ACAD_REACTORS
330
C
102
}
330
C
100
AcDbXrecord
280
     1
 90
        1
330
5A
  0
DICTIONARY
  5
78
102
{ACAD_REACTORS
330
C
102
}
330
C
100
AcDbDictionary
281
     1
  3
CANNOSCALE
350
79
  3
CMLEADERSTYLE
350
7E
  3
CTABLESTYLE
350
7D
  0
LAYOUT
  5
1E
102
{ACAD_REACTORS
330
1A
102
}
330
1A
100
AcDbPlotSettings
  1

  2
none_device
  4

  6

 40
0.0
 41
0.0
 42
0.0
 43
0.0
 44
0.0
 45
0.0
 46
0.0
 47
0.0
 48
0.0
 49
0.0
140
0.0
141
0.0
142
1.0
143
1.0
 70
   688
 72
     0
 73
     0
 74
     5
  7

 75
    16
 76
     0
 77
     2
 78
   300
147
1.0
148
0.0
149
0.0
100
AcDbLayout
  1
Layout1
 70
     1
 71
     1
 10
0.0
 20
0.0
 11
12.0
 21
9.0
 12
0.0
 22
0.0
 32
0.0
 14
1.000000000000000E+20
 24
1.000000000000000E+20
 34
1.000000000000000E+20
 15
-1.000000000000000E+20
 25
-1.000000000000000E+20
 35
-1.000000000000000E+20
146
0.0
 13
0.0
 23
0.0
 33
0.0
 16
1.0
 26
0.0
 36
0.0
 17
0.0
 27
1.0
 37
0.0
 76
     0
330
1B
  0
LAYOUT
  5
26
102
{ACAD_REACTORS
330
1A
102
}
330
1A
100
AcDbPlotSettings
  1

  2
none_device
  4

  6

 40
0.0
 41
0.0
 42
0.0
 43
0.0
 44
0.0
 45
0.0
 46
0.0
 47
0.0
 48
0.0
 49
0.0
140
0.0
141
0.0
142
1.0
143
1.0
 70
   688
 72
     0
 73
     0
 74
     5
  7

 75
    16
 76
     0
 77
     2
 78
   300
147
1.0
148
0.0
149
0.0
100
AcDbLayout
  1
Layout2
 70
     1
 71
     2
 10
0.0
 20
0.0
 11
0.0
 21
0.0
 12
0.0
 22
0.0
 32
0.0
 14
0.0
 24
0.0
 34
0.0
 15
0.0
 25
0.0
 35
0.0
146
0.0
 13
0.0
 23
0.0
 33
0.0
 16
1.0
 26
0.0
 36
0.0
 17
0.0
 27
1.0
 37
0.0
 76
     0
330
23
  0
LAYOUT
  5
22
102
{ACAD_REACTORS
330
1A
102
}
330
1A
100
AcDbPlotSettings
  1

  2
none_device
  4
Letter_(8.50_x_11.00_Inches)
  6

 40
6.35
 41
6.35
 42
6.35000508
 43
6.35000508
 44
215.9
 45
279.4
 46
0.0
 47
0.0
 48
0.0
 49
0.0
140
0.0
141
0.0
142
1.0
143
1.0
 70
  1712
 72
     0
 73
     0
 74
     0
  7

 75
     0
 76
     0
 77
     2
 78
   300
147
1.0
148
0.0
149
0.0
100
AcDbLayout
  1
Model
 70
     1
 71
     0
 10
0.0
 20
0.0
 11
12.0
 21
9.0
 12
0.0
 22
0.0
 32
0.0
 14
183.7027
 24
-473.9346
 34
0.0
 15
680.9963
 25
555.7218
 35
0.0
146
0.0
 13
0.0
 23
0.0
 33
0.0
 16
1.0
 26
0.0
 36
0.0
 17
0.0
 27
1.0
 37
0.0
 76
     0
330
1F
331
29
  0
MATERIAL
  5
45
102
{ACAD_REACTORS
330
43
102
}
330
43
100
AcDbMaterial
  1
ByBlock
 72
     1
 94
      127
  0
MATERIAL
  5
44
102
{ACAD_REACTORS
330
43
102
}
330
43
100
AcDbMaterial
  1
ByLayer
 72
     1
 94
      127
  0
MATERIAL
  5
46
102
{ACAD_REACTORS
330
43
102
}
330
43
100
AcDbMaterial
  1
Global
 72
     1
 94
      127
  0
MLEADERSTYLE
  5
5C
102
{ACAD_REACTORS
330
5B
102
}
330
5B
100
AcDbMLeaderStyle
179
     2
170
     2
171
     1
172
     0
 90
        2
 40
0.0
 41
0.0
173
     1
 91
-1056964608
340
14
 92
       -2
290
     1
 42
0.09
291
     1
 43
0.36
  3
Standard
341
0
 44
0.18
300

342
11
174
     1
178
     6
175
     1
176
     0
 93
-1056964608
 45
0.18
292
     0
297
     0
 46
0.18
343
0
 94
-1056964608
 47
1.0
 49
1.0
140
1.0
293
     1
141
0.0
294
     1
177
     0
142
1.0
295
     0
296
     0
143
0.125
271
     0
272
     9
273
     9
298
     0
  0
MLINESTYLE
  5
18
102
{ACAD_REACTORS
330
17
102
}
330
17
100
AcDbMlineStyle
  2
Standard
 70
     0
  3

 62
   256
 51
90.0
 52
90.0
 71
     2
 49
0.5
 62
   256
  6
BYLAYER
 49
-0.5
 62
   256
  6
BYLAYER
  0
ACDBPLACEHOLDER
  5
F
102
{ACAD_REACTORS
330
E
102
}
330
E
  0
SCALE
  5
48
102
{ACAD_REACTORS
330
47
102
}
330
47
100
AcDbScale
 70
     0
300
1:1
140
1.0
141
1.0
290
     1
  0
SCALE
  5
49
102
{ACAD_REACTORS
330
47
102
}
330
47
100
AcDbScale
 70
     0
300
1/128" = 1'-0"
140
0.0078125
141
12.0
290
     0
  0
SCALE
  5
4A
102
{ACAD_REACTORS
330
47
102
}
330
47
100
AcDbScale
 70
     0
300
1/64" = 1'-0"
140
0.015625
141
12.0
290
     0
  0
SCALE
  5
4B
102
{ACAD_REACTORS
330
47
102
}
330
47
100
AcDbScale
 70
     0
300
1/32" = 1'-0"
140
0.03125
141
12.0
290
     0
  0
SCALE
  5
4C
102
{ACAD_REACTORS
330
47
102
}
330
47
100
AcDbScale
 70
     0
300
1/16" = 1'-0"
140
0.0625
141
12.0
290
     0
  0
SCALE
  5
4D
102
{ACAD_REACTORS
330
47
102
}
330
47
100
AcDbScale
 70
     0
300
3/32" = 1'-0"
140
0.09375
141
12.0
290
     0
  0
SCALE
  5
4E
102
{ACAD_REACTORS
330
47
102
}
330
47
100
AcDbScale
 70
     0
300
1/8" = 1'-0"
140
0.125
141
12.0
290
     0
  0
SCALE
  5
4F
102
{ACAD_REACTORS
330
47
102
}
330
47
100
AcDbScale
 70
     0
300
3/16" = 1'-0"
140
0.1875
141
12.0
290
     0
  0
SCALE
  5
50
102
{ACAD_REACTORS
330
47
102
}
330
47
100
AcDbScale
 70
     0
300
1/4" = 1'-0"
140
0.25
141
12.0
290
     0
  0
SCALE
  5
51
102
{ACAD_REACTORS
330
47
102
}
330
47
100
AcDbScale
 70
     0
300
3/8" = 1'-0"
140
0.375
141
12.0
290
     0
  0
SCALE
  5
52
102
{ACAD_REACTORS
330
47
102
}
330
47
100
AcDbScale
 70
     0
300
1/2" = 1'-0"
140
0.5
141
12.0
290
     0
  0
SCALE
  5
53
102
{ACAD_REACTORS
330
47
102
}
330
47
100
AcDbScale
 70
     0
300
3/4" = 1'-0"
140
0.75
141
12.0
290
     0
  0
SCALE
  5
54
102
{ACAD_REACTORS
330
47
102
}
330
47
100
AcDbScale
 70
     0
300
1" = 1'-0"
140
1.0
141
12.0
290
     0
  0
SCALE
  5
55
102
{ACAD_REACTORS
330
47
102
}
330
47
100
AcDbScale
 70
     0
300
1-1/2" = 1'-0"
140
1.5
141
12.0
290
     0
  0
SCALE
  5
56
102
{ACAD_REACTORS
330
47
102
}
330
47
100
AcDbScale
 70
     0
300
3" = 1'-0"
140
3.0
141
12.0
290
     0
  0
SCALE
  5
57
102
{ACAD_REACTORS
330
47
102
}
330
47
100
AcDbScale
 70
     0
300
6" = 1'-0"
140
6.0
141
12.0
290
     0
  0
SCALE
  5
58
102
{ACAD_REACTORS
330
47
102
}
330
47
100
AcDbScale
 70
     0
300
1'-0" = 1'-0"
140
12.0
141
12.0
290
     0
  0
TABLESTYLE
  5
5A
102
{ACAD_REACTORS
330
59
102
}
102
{ACAD_XDICTIONARY
360
7A
102
}
330
59
100
AcDbTableStyle
  3
Standard
 70
     0
 71
     0
 40
0.06
 41
0.06
280
     0
281
     0
  7
Standard
140
0.18
170
     2
 62
     0
 63
   257
283
     0
 90
        4
 91
        0
  1

274
    -2
284
     1
 64
     0
275
    -2
285
     1
 65
     0
276
    -2
286
     1
 66
     0
277
    -2
287
     1
 67
     0
278
    -2
288
     1
 68
     0
279
    -2
289
     1
 69
     0
  7
Standard
140
0.25
170
     5
 62
     0
 63
   257
283
     0
 90
        4
 91
        0
  1

274
    -2
284
     1
 64
     0
275
    -2
285
     1
 65
     0
276
    -2
286
     1
 66
     0
277
    -2
287
     1
 67
     0
278
    -2
288
     1
 68
     0
279
    -2
289
     1
 69
     0
  7
Standard
140
0.18
170
     5
 62
     0
 63
   257
283
     0
 90
        4
 91
        0
  1

274
    -2
284
     1
 64
     0
275
    -2
285
     1
 65
     0
276
    -2
286
     1
 66
     0
277
    -2
287
     1
 67
     0
278
    -2
288
     1
 68
     0
279
    -2
289
     1
 69
     0
  0
VISUALSTYLE
  5
2F
102
{ACAD_REACTORS
330
2A
102
}
330
2A
100
AcDbVisualStyle
  2
2dWireframe
 70
     4
177
     3
291
     0
 70
    58
 90
        0
176
     1
 90
        2
176
     1
 90
        0
176
     1
 90
        0
176
     1
 40
0.6
176
     1
 40
30.0
176
     1
 62
     7
420
 16777215
176
     1
 90
        1
176
     1
 90
        4
176
     1
 62
     7
176
     1
 62
   257
176
     1
 90
        1
176
     1
 90
        1
176
     1
 40
1.0
176
     1
 90
        0
176
     1
 62
   257
176
     1
 40
1.0
176
     1
 90
        1
176
     1
 90
        6
176
     1
 90
        2
176
     1
 62
     7
176
     1
 90
        5
176
     1
 90
        0
176
     1
 90
        0
176
     1
290
     0
176
     1
 90
        1
176
     1
 40
0.0
176
     1
 90
        0
176
     1
290
     1
176
     1
290
     1
176
     1
290
     0
176
     1
290
     0
176
     1
290
     0
176
     1
290
     0
176
     1
290
     0
176
     1
290
     0
176
     1
290
     0
176
     1
 90
       50
176
     1
 40
0.0
176
     1
 40
1.0
176
     1
 90
        0
176
     1
 62
    18
420
        0
176
     1
 90
       50
176
     1
 90
        3
176
     1
 62
     5
420
      255
176
     1
290
     0
176
     1
 90
       50
176
     1
 90
       50
176
     1
 90
       50
176
     1
290
     0
176
     1
 90
       50
176
     1
 62
   256
176
     0
 40
1.0
176
     0
 90
        2
176
     1
  1
strokes_ogs.tif
176
     1
290
     0
176
     1
 40
1.0
176
     1
 40
1.0
176
     1
  0
VISUALSTYLE
  5
32
102
{ACAD_REACTORS
330
2A
102
}
330
2A
100
AcDbVisualStyle
  2
Basic
 70
     7
177
     3
291
     1
 70
    58
 90
        1
176
     1
 90
        0
176
     1
 90
        1
176
     1
 90
        0
176
     1
 40
0.6
176
     1
 40
30.0
176
     1
 62
     7
420
 16777215
176
     1
 90
        0
176
     1
 90
        4
176
     1
 62
     7
176
     1
 62
   257
176
     1
 90
        1
176
     1
 90
        1
176
     1
 40
1.0
176
     1
 90
        8
176
     1
 62
     7
176
     1
 40
1.0
176
     1
 90
        1
176
     1
 90
        6
176
     1
 90
        2
176
     1
 62
     7
176
     1
 90
        5
176
     1
 90
        0
176
     1
 90
        0
176
     1
290
     0
176
     1
 90
        1
176
     1
 40
0.0
176
     1
 90
        0
176
     1
290
     0
176
     1
290
     1
176
     1
290
     1
176
     1
290
     0
176
     1
290
     0
176
     1
290
     0
176
     1
290
     0
176
     1
290
     0
176
     1
290
     0
176
     1
 90
       50
176
     1
 40
0.0
176
     1
 40
1.0
176
     1
 90
        0
176
     1
 62
    18
420
        0
176
     1
 90
       50
176
     1
 90
        3
176
     1
 62
     5
420
      255
176
     1
290
     0
176
     1
 90
       50
176
     1
 90
       50
176
     1
 90
       50
176
     1
290
     0
176
     1
 90
       50
176
     1
 62
   256
176
     0
 40
1.0
176
     0
 90
        2
176
     1
  1
strokes_ogs.tif
176
     1
290
     0
176
     1
 40
1.0
176
     1
 40
1.0
176
     1
  0
VISUALSTYLE
  5
36
102
{ACAD_REACTORS
330
2A
102
}
330
2A
100
AcDbVisualStyle
  2
Brighten
 70
    12
177
     3
291
     1
 70
    58
 90
        2
176
     1
 90
        2
176
     1
 90
        0
176
     1
 90
        0
176
     1
 40
0.6
176
     1
 40
30.0
176
     1
 62
     7
420
 16777215
176
     1
 90
        1
176
     1
 90
        4
176
     1
 62
     7
176
     1
 62
   257
176
     1
 90
        1
176
     1
 90
        1
176
     1
 40
1.0
176
     1
 90
        8
176
     1
 62
     7
176
     1
 40
1.0
176
     1
 90
        1
176
     1
 90
        6
176
     1
 90
        2
176
     1
 62
     7
176
     1
 90
        5
176
     1
 90
        0
176
     1
 90
        0
176
     1
290
     0
176
     1
 90
        1
176
     1
 40
50.0
176
     1
 90
        0
176
     1
290
     0
176
     1
290
     1
176
     1
290
     1
176
     1
290
     0
176
     1
290
     0
176
     1
290
     0
176
     1
290
     0
176
     1
290
     0
176
     1
290
     0
176
     1
 90
       50
176
     1
 40
0.0
176
     1
 40
1.0
176
     1
 90
        0
176
     1
 62
    18
420
        0
176
     1
 90
       50
176
     1
 90
        3
176
     1
 62
     5
420
      255
176
     1
290
     0
176
     1
 90
       50
176
     1
 90
       50
176
     1
 90
       50
176
     1
290
     0
176
     1
 90
       50
176
     1
 62
   256
176
     0
 40
1.0
176
     0
 90
        2
176
     1
  1
strokes_ogs.tif
176
     1
290
     0
176
     1
 40
1.0
176
     1
 40
1.0
176
     1
  0
VISUALSTYLE
  5
3A
102
{ACAD_REACTORS
330
2A
102
}
330
2A
100
AcDbVisualStyle
  2
ColorChange
 70
    16
177
     3
291
     1
 70
    58
 90
        2
176
     1
 90
        2
176
     1
 90
        3
176
     1
 90
        0
176
     1
 40
0.6
176
     1
 40
30.0
176
     1
 62
     8
420
  8421504
176
     1
 90
        1
176
     1
 90
        4
176
     1
 62
     7
176
     1
 62
   257
176
     1
 90
        1
176
     1
 90
        1
176
     1
 40
1.0
176
     1
 90
        8
176
     1
 62
     8
420
  8421504
176
     1
 40
1.0
176
     1
 90
        1
176
     1
 90
        6
176
     1
 90
        2
176
     1
 62
     7
176
     1
 90
        5
176
     1
 90
        0
176
     1
 90
        0
176
     1
290
     0
176
     1
 90
        1
176
     1
 40
0.0
176
     1
 90
        0
176
     1
290
     0
176
     1
290
     1
176
     1
290
     1
176
     1
290
     0
176
     1
290
     0
176
     1
290
     0
176
     1
290
     0
176
     1
290
     0
176
     1
290
     0
176
     1
 90
       50
176
     1
 40
0.0
176
     1
 40
1.0
176
     1
 90
        0
176
     1
 62
    18
420
        0
176
     1
 90
       50
176
     1
 90
        3
176
     1
 62
     5
420
      255
176
     1
290
     0
176
     1
 90
       50
176
     1
 90
       50
176
     1
 90
       50
176
     1
290
     0
176
     1
 90
       50
176
     1
 62
   256
176
     0
 40
1.0
176
     0
 90
        2
176
     1
  1
strokes_ogs.tif
176
     1
290
     0
176
     1
 40
1.0
176
     1
 40
1.0
176
     1
  0
VISUALSTYLE
  5
34
102
{ACAD_REACTORS
330
2A
102
}
330
2A
100
AcDbVisualStyle
  2
Conceptual
 70
     9
177
     3
291
     0
 70
    58
 90
        3
176
     1
 90
        2
176
     1
 90
        0
176
     1
 90
        0
176
     1
 40
0.6
176
     1
 40
30.0
176
     1
 62
     7
420
 16777215
176
     1
 90
        2
176
     1
 90
        2
176
     1
 62
     7
176
     1
 62
   257
176
     1
 90
        1
176
     1
 90
        1
176
     1
 40
179.0
176
     1
 90
        8
176
     1
 62
     7
176
     1
 40
1.0
176
     1
 90
        1
176
     1
 90
        6
176
     1
 90
        2
176
     1
 62
     7
176
     1
 90
        3
176
     1
 90
        0
176
     1
 90
        0
176
     1
290
     0
176
     1
 90
        1
176
     1
 40
0.0
176
     1
 90
        0
176
     1
290
     0
176
     1
290
     1
176
     1
290
     1
176
     1
290
     0
176
     1
290
     0
176
     1
290
     0
176
     1
290
     0
176
     1
290
     0
176
     1
290
     0
176
     1
 90
       50
176
     1
 40
0.0
176
     1
 40
1.0
176
     1
 90
        0
176
     1
 62
    18
420
        0
176
     1
 90
       50
176
     1
 90
        3
176
     1
 62
     5
420
      255
176
     1
290
     0
176
     1
 90
       50
176
     1
 90
       50
176
     1
 90
       50
176
     1
290
     0
176
     1
 90
       50
176
     1
 62
   256
176
     0
 40
1.0
176
     0
 90
        2
176
     1
  1
strokes_ogs.tif
176
     1
290
     0
176
     1
 40
1.0
176
     1
 40
1.0
176
     1
  0
VISUALSTYLE
  5
35
102
{ACAD_REACTORS
330
2A
102
}
330
2A
100
AcDbVisualStyle
  2
Dim
 70
    11
177
     3
291
     1
 70
    58
 90
        2
176
     1
 90
        2
176
     1
 90
        0
176
     1
 90
        0
176
     1
 40
0.6
176
     1
 40
30.0
176
     1
 62
     7
420
 16777215
176
     1
 90
        1
176
     1
 90
        4
176
     1
 62
     7
176
     1
 62
   257
176
     1
 90
        1
176
     1
 90
        1
176
     1
 40
1.0
176
     1
 90
        8
176
     1
 62
     7
176
     1
 40
1.0
176
     1
 90
        1
176
     1
 90
        6
176
     1
 90
        2
176
     1
 62
     7
176
     1
 90
        5
176
     1
 90
        0
176
     1
 90
        0
176
     1
290
     0
176
     1
 90
        1
176
     1
 40
-50.0
176
     1
 90
        0
176
     1
290
     0
176
     1
290
     1
176
     1
290
     1
176
     1
290
     0
176
     1
290
     0
176
     1
290
     0
176
     1
290
     0
176
     1
290
     0
176
     1
290
     0
176
     1
 90
       50
176
     1
 40
0.0
176
     1
 40
1.0
176
     1
 90
        0
176
     1
 62
    18
420
        0
176
     1
 90
       50
176
     1
 90
        3
176
     1
 62
     5
420
      255
176
     1
290
     0
176
     1
 90
       50
176
     1
 90
       50
176
     1
 90
       50
176
     1
290
     0
176
     1
 90
       50
176
     1
 62
   256
176
     0
 40
1.0
176
     0
 90
        2
176
     1
  1
strokes_ogs.tif
176
     1
290
     0
176
     1
 40
1.0
176
     1
 40
1.0
176
     1
  0
VISUALSTYLE
  5
3D
102
{ACAD_REACTORS
330
2A
102
}
330
2A
100
AcDbVisualStyle
  2
EdgeColorOff
 70
    22
177
     3
291
     1
 70
    58
 90
        2
176
     0
 90
        2
176
     0
 90
        0
176
     0
 90
        0
176
     0
 40
0.6
176
     0
 40
30.0
176
     0
 62
     7
420
 16777215
176
     0
 90
        1
176
     0
 90
        4
176
     0
 62
     7
176
     0
 62
   257
176
     0
 90
        1
176
     0
 90
        1
176
     0
 40
1.0
176
     0
 90
        8
176
     2
 62
     7
176
     0
 40
1.0
176
     0
 90
        1
176
     0
 90
        6
176
     0
 90
        2
176
     0
 62
     7
176
     0
 90
        5
176
     0
 90
        0
176
     0
 90
        0
176
     0
290
     0
176
     0
 90
        1
176
     0
 40
0.0
176
     0
 90
        0
176
     0
290
     0
176
     0
290
     1
176
     0
290
     1
176
     0
290
     0
176
     0
290
     0
176
     0
290
     0
176
     0
290
     0
176
     0
290
     0
176
     0
290
     0
176
     0
 90
       50
176
     0
 40
0.0
176
     0
 40
1.0
176
     0
 90
        0
176
     0
 62
    18
420
        0
176
     0
 90
       50
176
     0
 90
        3
176
     0
 62
     5
420
      255
176
     0
290
     0
176
     0
 90
       50
176
     0
 90
       50
176
     0
 90
       50
176
     0
290
     0
176
     0
 90
       50
176
     0
 62
   256
176
     0
 40
1.0
176
     0
 90
        2
176
     0
  1
strokes_ogs.tif
176
     0
290
     0
176
     0
 40
1.0
176
     0
 40
1.0
176
     0
  0
VISUALSTYLE
  5
39
102
{ACAD_REACTORS
330
2A
102
}
330
2A
100
AcDbVisualStyle
  2
Facepattern
 70
    15
177
     3
291
     1
 70
    58
 90
        2
176
     1
 90
        2
176
     1
 90
        0
176
     1
 90
        0
176
     1
 40
0.6
176
     1
 40
30.0
176
     1
 62
     7
420
 16777215
176
     1
 90
        1
176
     1
 90
        4
176
     1
 62
     7
176
     1
 62
   257
176
     1
 90
        1
176
     1
 90
        1
176
     1
 40
1.0
176
     1
 90
        8
176
     1
 62
     7
176
     1
 40
1.0
176
     1
 90
        1
176
     1
 90
        6
176
     1
 90
        2
176
     1
 62
     7
176
     1
 90
        5
176
     1
 90
        0
176
     1
 90
        0
176
     1
290
     0
176
     1
 90
        1
176
     1
 40
0.0
176
     1
 90
        0
176
     1
290
     0
176
     1
290
     1
176
     1
290
     1
176
     1
290
     0
176
     1
290
     0
176
     1
290
     0
176
     1
290
     0
176
     1
290
     0
176
     1
290
     0
176
     1
 90
       50
176
     1
 40
0.0
176
     1
 40
1.0
176
     1
 90
        0
176
     1
 62
    18
420
        0
176
     1
 90
       50
176
     1
 90
        3
176
     1
 62
     5
420
      255
176
     1
290
     0
176
     1
 90
       50
176
     1
 90
       50
176
     1
 90
       50
176
     1
290
     0
176
     1
 90
       50
176
     1
 62
   256
176
     0
 40
1.0
176
     0
 90
        2
176
     1
  1
strokes_ogs.tif
176
     1
290
     0
176
     1
 40
1.0
176
     1
 40
1.0
176
     1
  0
VISUALSTYLE
  5
2B
102
{ACAD_REACTORS
330
2A
102
}
330
2A
100
AcDbVisualStyle
  2
Flat
 70
     0
177
     3
291
     1
 70
    58
 90
        2
176
     1
 90
        1
176
     1
 90
        1
176
     1
 90
        2
176
     1
 40
0.6
176
     1
 40
30.0
176
     1
 62
     7
420
 16777215
176
     1
 90
        0
176
     1
 90
        0
176
     1
 62
     7
176
     1
 62
   257
176
     1
 90
        1
176
     1
 90
        1
176
     1
 40
1.0
176
     1
 90
        8
176
     1
 62
     7
176
     1
 40
1.0
176
     1
 90
        1
176
     1
 90
        6
176
     1
 90
        2
176
     1
 62
     7
176
     1
 90
        5
176
     1
 90
        0
176
     1
 90
        0
176
     1
290
     0
176
     1
 90
       13
176
     1
 40
0.0
176
     1
 90
        0
176
     1
290
     0
176
     1
290
     1
176
     1
290
     1
176
     1
290
     0
176
     1
290
     0
176
     1
290
     0
176
     1
290
     0
176
     1
290
     0
176
     1
290
     0
176
     1
 90
       50
176
     1
 40
0.0
176
     1
 40
1.0
176
     1
 90
        0
176
     1
 62
    18
420
        0
176
     1
 90
       50
176
     1
 90
        3
176
     1
 62
     5
420
      255
176
     1
290
     0
176
     1
 90
       50
176
     1
 90
       50
176
     1
 90
       50
176
     1
290
     0
176
     1
 90
       50
176
     1
 62
   256
176
     0
 40
1.0
176
     0
 90
        2
176
     1
  1
strokes_ogs.tif
176
     1
290
     0
176
     1
 40
1.0
176
     1
 40
1.0
176
     1
  0
VISUALSTYLE
  5
2C
102
{ACAD_REACTORS
330
2A
102
}
330
2A
100
AcDbVisualStyle
  2
FlatWithEdges
 70
     1
177
     3
291
     1
 70
    58
 90
        2
176
     1
 90
        1
176
     1
 90
        1
176
     1
 90
        2
176
     1
 40
0.6
176
     1
 40
30.0
176
     1
 62
     7
420
 16777215
176
     1
 90
        1
176
     1
 90
        0
176
     1
 62
     7
176
     1
 62
   257
176
     1
 90
        1
176
     1
 90
        1
176
     1
 40
1.0
176
     1
 90
        0
176
     1
 62
   257
176
     1
 40
1.0
176
     1
 90
        1
176
     1
 90
        6
176
     1
 90
        2
176
     1
 62
     7
176
     1
 90
        5
176
     1
 90
        0
176
     1
 90
        0
176
     1
290
     0
176
     1
 90
       13
176
     1
 40
0.0
176
     1
 90
        0
176
     1
290
     0
176
     1
290
     1
176
     1
290
     1
176
     1
290
     0
176
     1
290
     0
176
     1
290
     0
176
     1
290
     0
176
     1
290
     0
176
     1
290
     0
176
     1
 90
       50
176
     1
 40
0.0
176
     1
 40
1.0
176
     1
 90
        0
176
     1
 62
    18
420
        0
176
     1
 90
       50
176
     1
 90
        3
176
     1
 62
     5
420
      255
176
     1
290
     0
176
     1
 90
       50
176
     1
 90
       50
176
     1
 90
       50
176
     1
290
     0
176
     1
 90
       50
176
     1
 62
   256
176
     0
 40
1.0
176
     0
 90
        2
176
     1
  1
strokes_ogs.tif
176
     1
290
     0
176
     1
 40
1.0
176
     1
 40
1.0
176
     1
  0
VISUALSTYLE
  5
2D
102
{ACAD_REACTORS
330
2A
102
}
330
2A
100
AcDbVisualStyle
  2
Gouraud
 70
     2
177
     3
291
     1
 70
    58
 90
        2
176
     1
 90
        2
176
     1
 90
        1
176
     1
 90
        2
176
     1
 40
0.6
176
     1
 40
30.0
176
     1
 62
     7
420
 16777215
176
     1
 90
        0
176
     1
 90
        0
176
     1
 62
     7
176
     1
 62
   257
176
     1
 90
        1
176
     1
 90
        1
176
     1
 40
1.0
176
     1
 90
        0
176
     1
 62
     7
176
     1
 40
1.0
176
     1
 90
        1
176
     1
 90
        6
176
     1
 90
        2
176
     1
 62
     7
176
     1
 90
        5
176
     1
 90
        0
176
     1
 90
        0
176
     1
290
     0
176
     1
 90
       13
176
     1
 40
0.0
176
     1
 90
        0
176
     1
290
     0
176
     1
290
     1
176
     1
290
     1
176
     1
290
     0
176
     1
290
     0
176
     1
290
     0
176
     1
290
     0
176
     1
290
     0
176
     1
290
     0
176
     1
 90
       50
176
     1
 40
0.0
176
     1
 40
1.0
176
     1
 90
        0
176
     1
 62
    18
420
        0
176
     1
 90
       50
176
     1
 90
        3
176
     1
 62
     5
420
      255
176
     1
290
     0
176
     1
 90
       50
176
     1
 90
       50
176
     1
 90
       50
176
     1
290
     0
176
     1
 90
       50
176
     1
 62
   256
176
     0
 40
1.0
176
     0
 90
        2
176
     1
  1
strokes_ogs.tif
176
     1
290
     0
176
     1
 40
1.0
176
     1
 40
1.0
176
     1
  0
VISUALSTYLE
  5
2E
102
{ACAD_REACTORS
330
2A
102
}
330
2A
100
AcDbVisualStyle
  2
GouraudWithEdges
 70
     3
177
     3
291
     1
 70
    58
 90
        2
176
     1
 90
        2
176
     1
 90
        1
176
     1
 90
        2
176
     1
 40
0.6
176
     1
 40
30.0
176
     1
 62
     7
420
 16777215
176
     1
 90
        1
176
     1
 90
        0
176
     1
 62
     7
176
     1
 62
   257
176
     1
 90
        1
176
     1
 90
        1
176
     1
 40
1.0
176
     1
 90
        0
176
     1
 62
   257
176
     1
 40
1.0
176
     1
 90
        1
176
     1
 90
        6
176
     1
 90
        2
176
     1
 62
     7
176
     1
 90
        5
176
     1
 90
        0
176
     1
 90
        0
176
     1
290
     0
176
     1
 90
       13
176
     1
 40
0.0
176
     1
 90
        0
176
     1
290
     0
176
     1
290
     1
176
     1
290
     1
176
     1
290
     0
176
     1
290
     0
176
     1
290
     0
176
     1
290
     0
176
     1
290
     0
176
     1
290
     0
176
     1
 90
       50
176
     1
 40
0.0
176
     1
 40
1.0
176
     1
 90
        0
176
     1
 62
    18
420
        0
176
     1
 90
       50
176
     1
 90
        3
176
     1
 62
     5
420
      255
176
     1
290
     0
176
     1
 90
       50
176
     1
 90
       50
176
     1
 90
       50
176
     1
290
     0
176
     1
 90
       50
176
     1
 62
   256
176
     0
 40
1.0
176
     0
 90
        2
176
     1
  1
strokes_ogs.tif
176
     1
290
     0
176
     1
 40
1.0
176
     1
 40
1.0
176
     1
  0
VISUALSTYLE
  5
31
102
{ACAD_REACTORS
330
2A
102
}
330
2A
100
AcDbVisualStyle
  2
Hidden
 70
     6
177
     3
291
     0
 70
    58
 90
        1
176
     1
 90
        2
176
     1
 90
        2
176
     1
 90
        0
176
     1
 40
0.6
176
     1
 40
30.0
176
     1
 62
     7
420
 16777215
176
     1
 90
        2
176
     1
 90
        2
176
     1
 62
     7
176
     1
 62
   257
176
     1
 90
        2
176
     1
 90
        1
176
     1
 40
40.0
176
     1
 90
        0
176
     1
 62
   257
176
     1
 40
1.0
176
     1
 90
        1
176
     1
 90
        6
176
     1
 90
        2
176
     1
 62
     7
176
     1
 90
        3
176
     1
 90
        0
176
     1
 90
        0
176
     1
290
     0
176
     1
 90
        1
176
     1
 40
0.0
176
     1
 90
        0
176
     1
290
     0
176
     1
290
     1
176
     1
290
     1
176
     1
290
     0
176
     1
290
     0
176
     1
290
     0
176
     1
290
     0
176
     1
290
     0
176
     1
290
     0
176
     1
 90
       50
176
     1
 40
0.0
176
     1
 40
1.0
176
     1
 90
        0
176
     1
 62
    18
420
        0
176
     1
 90
       50
176
     1
 90
        3
176
     1
 62
     5
420
      255
176
     1
290
     0
176
     1
 90
       50
176
     1
 90
       50
176
     1
 90
       50
176
     1
290
     0
176
     1
 90
       50
176
     1
 62
   256
176
     0
 40
1.0
176
     0
 90
        2
176
     1
  1
strokes_ogs.tif
176
     1
290
     0
176
     1
 40
1.0
176
     1
 40
1.0
176
     1
  0
VISUALSTYLE
  5
3B
102
{ACAD_REACTORS
330
2A
102
}
330
2A
100
AcDbVisualStyle
  2
JitterOff
 70
    20
177
     3
291
     1
 70
    58
 90
        2
176
     0
 90
        2
176
     0
 90
        0
176
     0
 90
        0
176
     0
 40
0.6
176
     0
 40
30.0
176
     0
 62
     7
420
 16777215
176
     0
 90
        1
176
     0
 90
        4
176
     0
 62
     7
176
     0
 62
   257
176
     0
 90
        1
176
     0
 90
        1
176
     0
 40
1.0
176
     0
 90
       10
176
     2
 62
     7
176
     0
 40
1.0
176
     0
 90
        1
176
     0
 90
        6
176
     0
 90
        2
176
     0
 62
     7
176
     0
 90
        5
176
     0
 90
        0
176
     0
 90
        0
176
     0
290
     0
176
     0
 90
        1
176
     0
 40
0.0
176
     0
 90
        0
176
     0
290
     0
176
     0
290
     1
176
     0
290
     1
176
     0
290
     0
176
     0
290
     0
176
     0
290
     0
176
     0
290
     0
176
     0
290
     0
176
     0
290
     0
176
     0
 90
       50
176
     0
 40
0.0
176
     0
 40
1.0
176
     0
 90
        0
176
     0
 62
    18
420
        0
176
     0
 90
       50
176
     0
 90
        3
176
     0
 62
     5
420
      255
176
     0
290
     0
176
     0
 90
       50
176
     0
 90
       50
176
     0
 90
       50
176
     0
290
     0
176
     0
 90
       50
176
     0
 62
   256
176
     0
 40
1.0
176
     0
 90
        2
176
     0
  1
strokes_ogs.tif
176
     0
290
     0
176
     0
 40
1.0
176
     0
 40
1.0
176
     0
  0
VISUALSTYLE
  5
38
102
{ACAD_REACTORS
330
2A
102
}
330
2A
100
AcDbVisualStyle
  2
Linepattern
 70
    14
177
     3
291
     1
 70
    58
 90
        2
176
     1
 90
        2
176
     1
 90
        0
176
     1
 90
        0
176
     1
 40
0.6
176
     1
 40
30.0
176
     1
 62
     7
420
 16777215
176
     1
 90
        1
176
     1
 90
        4
176
     1
 62
     7
176
     1
 62
   257
176
     1
 90
        7
176
     1
 90
        7
176
     1
 40
1.0
176
     1
 90
        8
176
     1
 62
     7
176
     1
 40
1.0
176
     1
 90
        1
176
     1
 90
        6
176
     1
 90
        2
176
     1
 62
     7
176
     1
 90
        5
176
     1
 90
        0
176
     1
 90
        0
176
     1
290
     0
176
     1
 90
        1
176
     1
 40
0.0
176
     1
 90
        0
176
     1
290
     0
176
     1
290
     1
176
     1
290
     1
176
     1
290
     0
176
     1
290
     0
176
     1
290
     0
176
     1
290
     0
176
     1
290
     0
176
     1
290
     0
176
     1
 90
       50
176
     1
 40
0.0
176
     1
 40
1.0
176
     1
 90
        0
176
     1
 62
    18
420
        0
176
     1
 90
       50
176
     1
 90
        3
176
     1
 62
     5
420
      255
176
     1
290
     0
176
     1
 90
       50
176
     1
 90
       50
176
     1
 90
       50
176
     1
290
     0
176
     1
 90
       50
176
     1
 62
   256
176
     0
 40
1.0
176
     0
 90
        2
176
     1
  1
strokes_ogs.tif
176
     1
290
     0
176
     1
 40
1.0
176
     1
 40
1.0
176
     1
  0
VISUALSTYLE
  5
3C
102
{ACAD_REACTORS
330
2A
102
}
330
2A
100
AcDbVisualStyle
  2
OverhangOff
 70
    21
177
     3
291
     1
 70
    58
 90
        2
176
     0
 90
        2
176
     0
 90
        0
176
     0
 90
        0
176
     0
 40
0.6
176
     0
 40
30.0
176
     0
 62
     7
420
 16777215
176
     0
 90
        1
176
     0
 90
        4
176
     0
 62
     7
176
     0
 62
   257
176
     0
 90
        1
176
     0
 90
        1
176
     0
 40
1.0
176
     0
 90
        9
176
     2
 62
     7
176
     0
 40
1.0
176
     0
 90
        1
176
     0
 90
        6
176
     0
 90
        2
176
     0
 62
     7
176
     0
 90
        5
176
     0
 90
        0
176
     0
 90
        0
176
     0
290
     0
176
     0
 90
        1
176
     0
 40
0.0
176
     0
 90
        0
176
     0
290
     0
176
     0
290
     1
176
     0
290
     1
176
     0
290
     0
176
     0
290
     0
176
     0
290
     0
176
     0
290
     0
176
     0
290
     0
176
     0
290
     0
176
     0
 90
       50
176
     0
 40
0.0
176
     0
 40
1.0
176
     0
 90
        0
176
     0
 62
    18
420
        0
176
     0
 90
       50
176
     0
 90
        3
176
     0
 62
     5
420
      255
176
     0
290
     0
176
     0
 90
       50
176
     0
 90
       50
176
     0
 90
       50
176
     0
290
     0
176
     0
 90
       50
176
     0
 62
   256
176
     0
 40
1.0
176
     0
 90
        2
176
     0
  1
strokes_ogs.tif
176
     0
290
     0
176
     0
 40
1.0
176
     0
 40
1.0
176
     0
  0
VISUALSTYLE
  5
33
102
{ACAD_REACTORS
330
2A
102
}
330
2A
100
AcDbVisualStyle
  2
Realistic
 70
     8
177
     3
291
     0
 70
    58
 90
        2
176
     1
 90
        3
176
     1
 90
        0
176
     1
 90
        2
176
     1
 40
0.6
176
     1
 40
30.0
176
     1
 62
     7
420
 16777215
176
     1
 90
        0
176
     1
 90
        0
176
     1
 62
     7
176
     1
 62
   257
176
     1
 90
        1
176
     1
 90
        1
176
     1
 40
1.0
176
     1
 90
        8
176
     1
 62
   257
176
     1
 40
1.0
176
     1
 90
        1
176
     1
 90
        6
176
     1
 90
        2
176
     1
 62
     7
176
     1
 90
        3
176
     1
 90
        0
176
     1
 90
        0
176
     1
290
     0
176
     1
 90
       13
176
     1
 40
0.0
176
     1
 90
        0
176
     1
290
     0
176
     1
290
     1
176
     1
290
     1
176
     1
290
     0
176
     1
290
     0
176
     1
290
     0
176
     1
290
     0
176
     1
290
     0
176
     1
290
     0
176
     1
 90
       50
176
     1
 40
0.0
176
     1
 40
1.0
176
     1
 90
        0
176
     1
 62
    18
420
        0
176
     1
 90
       50
176
     1
 90
        3
176
     1
 62
     5
420
      255
176
     1
290
     0
176
     1
 90
       50
176
     1
 90
       50
176
     1
 90
       50
176
     1
290
     0
176
     1
 90
       50
176
     1
 62
   256
176
     0
 40
1.0
176
     0
 90
        2
176
     1
  1
strokes_ogs.tif
176
     1
290
     0
176
     1
 40
1.0
176
     1
 40
1.0
176
     1
  0
VISUALSTYLE
  5
42
102
{ACAD_REACTORS
330
2A
102
}
330
2A
100
AcDbVisualStyle
  2
Shaded
 70
    27
177
     3
291
     0
 70
    58
 90
        2
176
     1
 90
        2
176
     1
 90
        1
176
     1
 90
        2
176
     1
 40
0.6
176
     1
 40
30.0
176
     1
 62
     7
420
 16777215
176
     1
 90
        0
176
     1
 90
        4
176
     1
 62
     7
176
     1
 62
   257
176
     1
 90
        1
176
     1
 90
        1
176
     1
 40
1.0
176
     1
 90
        8
176
     1
 62
   257
176
     1
 40
1.0
176
     1
 90
        1
176
     1
 90
        6
176
     1
 90
        2
176
     1
 62
     8
420
  7895160
176
     1
 90
        3
176
     1
 90
        0
176
     1
 90
        0
176
     1
290
     0
176
     1
 90
        5
176
     1
 40
0.0
176
     1
 90
        0
176
     1
290
     0
176
     1
290
     1
176
     1
290
     1
176
     1
290
     0
176
     1
290
     0
176
     1
290
     0
176
     1
290
     0
176
     1
290
     0
176
     1
290
     0
176
     1
 90
       50
176
     1
 40
0.0
176
     1
 40
1.0
176
     1
 90
        0
176
     1
 62
    18
420
        0
176
     1
 90
       50
176
     1
 90
        3
176
     1
 62
     5
420
      255
176
     1
290
     0
176
     1
 90
       50
176
     1
 90
       50
176
     1
 90
       50
176
     1
290
     0
176
     1
 90
       50
176
     1
 62
   256
176
     0
 40
1.0
176
     0
 90
        2
176
     1
  1
strokes_ogs.tif
176
     1
290
     0
176
     1
 40
1.0
176
     1
 40
1.0
176
     1
  0
VISUALSTYLE
  5
41
102
{ACAD_REACTORS
330
2A
102
}
330
2A
100
AcDbVisualStyle
  2
Shaded with edges
 70
    26
177
     3
291
     0
 70
    58
 90
        2
176
     1
 90
        2
176
     1
 90
        1
176
     1
 90
        2
176
     1
 40
0.6
176
     1
 40
30.0
176
     1
 62
     7
420
 16777215
176
     1
 90
        1
176
     1
 90
       10
176
     1
 62
     7
176
     1
 62
   257
176
     1
 90
        2
176
     1
 90
        1
176
     1
 40
1.0
176
     1
 90
        8
176
     1
 62
   257
176
     1
 40
1.0
176
     1
 90
        1
176
     1
 90
        6
176
     1
 90
        2
176
     1
 62
     7
176
     1
 90
        3
176
     1
 90
        0
176
     1
 90
        0
176
     1
290
     0
176
     1
 90
        5
176
     1
 40
0.0
176
     1
 90
        0
176
     1
290
     0
176
     1
290
     1
176
     1
290
     1
176
     1
290
     0
176
     1
290
     0
176
     1
290
     0
176
     1
290
     0
176
     1
290
     0
176
     1
290
     0
176
     1
 90
       50
176
     1
 40
0.0
176
     1
 40
1.0
176
     1
 90
        0
176
     1
 62
    18
420
        0
176
     1
 90
       50
176
     1
 90
        3
176
     1
 62
     5
420
      255
176
     1
290
     0
176
     1
 90
       50
176
     1
 90
       50
176
     1
 90
       50
176
     1
290
     0
176
     1
 90
       50
176
     1
 62
   256
176
     0
 40
1.0
176
     0
 90
        2
176
     1
  1
strokes_ogs.tif
176
     1
290
     0
176
     1
 40
1.0
176
     1
 40
1.0
176
     1
  0
VISUALSTYLE
  5
3E
102
{ACAD_REACTORS
330
2A
102
}
330
2A
100
AcDbVisualStyle
  2
Shades of Gray
 70
    23
177
     3
291
     0
 70
    58
 90
        2
176
     1
 90
        2
176
     1
 90
        3
176
     1
 90
        0
176
     1
 40
0.6
176
     1
 40
30.0
176
     1
 62
     7
420
 16777215
176
     1
 90
        2
176
     1
 90
        2
176
     1
 62
     7
176
     1
 62
     7
176
     1
 90
        1
176
     1
 90
        1
176
     1
 40
40.0
176
     1
 90
        8
176
     1
 62
     7
176
     1
 40
1.0
176
     1
 90
        1
176
     1
 90
        6
176
     1
 90
        2
176
     1
 62
     7
176
     1
 90
        3
176
     1
 90
        0
176
     1
 90
        0
176
     1
290
     0
176
     1
 90
        1
176
     1
 40
0.0
176
     1
 90
        0
176
     1
290
     0
176
     1
290
     1
176
     1
290
     1
176
     1
290
     0
176
     1
290
     0
176
     1
290
     0
176
     1
290
     0
176
     1
290
     0
176
     1
290
     0
176
     1
 90
       50
176
     1
 40
0.0
176
     1
 40
1.0
176
     1
 90
        0
176
     1
 62
    18
420
        0
176
     1
 90
       50
176
     1
 90
        3
176
     1
 62
     5
420
      255
176
     1
290
     0
176
     1
 90
       50
176
     1
 90
       50
176
     1
 90
       50
176
     1
290
     0
176
     1
 90
       50
176
     1
 62
   256
176
     0
 40
1.0
176
     0
 90
        2
176
     1
  1
strokes_ogs.tif
176
     1
290
     0
176
     1
 40
1.0
176
     1
 40
1.0
176
     1
  0
VISUALSTYLE
  5
3F
102
{ACAD_REACTORS
330
2A
102
}
330
2A
100
AcDbVisualStyle
  2
Sketchy
 70
    24
177
     3
291
     0
 70
    58
 90
        1
176
     1
 90
        2
176
     1
 90
        2
176
     1
 90
        0
176
     1
 40
0.6
176
     1
 40
30.0
176
     1
 62
     7
420
 16777215
176
     1
 90
        2
176
     1
 90
        2
176
     1
 62
     7
176
     1
 62
     7
176
     1
 90
        1
176
     1
 90
        1
176
     1
 40
40.0
176
     1
 90
       11
176
     1
 62
     7
176
     1
 40
1.0
176
     1
 90
        1
176
     1
 90
        6
176
     1
 90
        2
176
     1
 62
     7
176
     1
 90
        6
176
     1
 90
        0
176
     1
 90
        0
176
     1
290
     0
176
     1
 90
        1
176
     1
 40
0.0
176
     1
 90
        0
176
     1
290
     0
176
     1
290
     1
176
     1
290
     1
176
     1
290
     0
176
     1
290
     0
176
     1
290
     0
176
     1
290
     0
176
     1
290
     0
176
     1
290
     0
176
     1
 90
       50
176
     1
 40
0.0
176
     1
 40
1.0
176
     1
 90
        0
176
     1
 62
    18
420
        0
176
     1
 90
       50
176
     1
 90
        3
176
     1
 62
     5
420
      255
176
     1
290
     0
176
     1
 90
       50
176
     1
 90
       50
176
     1
 90
       50
176
     1
290
     0
176
     1
 90
       50
176
     1
 62
   256
176
     0
 40
1.0
176
     0
 90
        2
176
     1
  1
strokes_ogs.tif
176
     1
290
     0
176
     1
 40
1.0
176
     1
 40
1.0
176
     1
  0
VISUALSTYLE
  5
37
102
{ACAD_REACTORS
330
2A
102
}
330
2A
100
AcDbVisualStyle
  2
Thicken
 70
    13
177
     3
291
     1
 70
    58
 90
        2
176
     1
 90
        2
176
     1
 90
        0
176
     1
 90
        0
176
     1
 40
0.6
176
     1
 40
30.0
176
     1
 62
     7
420
 16777215
176
     1
 90
        1
176
     1
 90
        4
176
     1
 62
     7
176
     1
 62
   257
176
     1
 90
        1
176
     1
 90
        1
176
     1
 40
1.0
176
     1
 90
       12
176
     1
 62
     7
176
     1
 40
1.0
176
     1
 90
        1
176
     1
 90
        6
176
     1
 90
        2
176
     1
 62
     7
176
     1
 90
        5
176
     1
 90
        0
176
     1
 90
        0
176
     1
290
     0
176
     1
 90
        1
176
     1
 40
0.0
176
     1
 90
        0
176
     1
290
     0
176
     1
290
     1
176
     1
290
     1
176
     1
290
     0
176
     1
290
     0
176
     1
290
     0
176
     1
290
     0
176
     1
290
     0
176
     1
290
     0
176
     1
 90
       50
176
     1
 40
0.0
176
     1
 40
1.0
176
     1
 90
        0
176
     1
 62
    18
420
        0
176
     1
 90
       50
176
     1
 90
        3
176
     1
 62
     5
420
      255
176
     1
290
     0
176
     1
 90
       50
176
     1
 90
       50
176
     1
 90
       50
176
     1
290
     0
176
     1
 90
       50
176
     1
 62
   256
176
     0
 40
1.0
176
     0
 90
        2
176
     1
  1
strokes_ogs.tif
176
     1
290
     0
176
     1
 40
1.0
176
     1
 40
1.0
176
     1
  0
VISUALSTYLE
  5
30
102
{ACAD_REACTORS
330
2A
102
}
330
2A
100
AcDbVisualStyle
  2
Wireframe
 70
     5
177
     3
291
     0
 70
    58
 90
        0
176
     1
 90
        2
176
     1
 90
        0
176
     1
 90
        0
176
     1
 40
0.6
176
     1
 40
30.0
176
     1
 62
     7
420
 16777215
176
     1
 90
        1
176
     1
 90
        4
176
     1
 62
     7
176
     1
 62
   257
176
     1
 90
        1
176
     1
 90
        1
176
     1
 40
1.0
176
     1
 90
        0
176
     1
 62
   257
176
     1
 40
1.0
176
     1
 90
        1
176
     1
 90
        6
176
     1
 90
        2
176
     1
 62
     7
176
     1
 90
        3
176
     1
 90
        0
176
     1
 90
        0
176
     1
290
     0
176
     1
 90
        1
176
     1
 40
0.0
176
     1
 90
        0
176
     1
290
     0
176
     1
290
     1
176
     1
290
     1
176
     1
290
     0
176
     1
290
     0
176
     1
290
     0
176
     1
290
     0
176
     1
290
     0
176
     1
290
     0
176
     1
 90
       50
176
     1
 40
0.0
176
     1
 40
1.0
176
     1
 90
        0
176
     1
 62
    18
420
        0
176
     1
 90
       50
176
     1
 90
        3
176
     1
 62
     5
420
      255
176
     1
290
     0
176
     1
 90
       50
176
     1
 90
       50
176
     1
 90
       50
176
     1
290
     0
176
     1
 90
       50
176
     1
 62
   256
176
     0
 40
1.0
176
     0
 90
        2
176
     1
  1
strokes_ogs.tif
176
     1
290
     0
176
     1
 40
1.0
176
     1
 40
1.0
176
     1
  0
VISUALSTYLE
  5
40
102
{ACAD_REACTORS
330
2A
102
}
330
2A
100
AcDbVisualStyle
  2
X-Ray
 70
    25
177
     3
291
     0
 70
    58
 90
        2
176
     1
 90
        2
176
     1
 90
        1
176
     1
 90
        1
176
     1
 40
0.5
176
     1
 40
30.0
176
     1
 62
     7
420
 16777215
176
     1
 90
        1
176
     1
 90
        0
176
     1
 62
     7
176
     1
 62
   257
176
     1
 90
        1
176
     1
 90
        1
176
     1
 40
1.0
176
     1
 90
        8
176
     1
 62
     7
176
     1
 40
1.0
176
     1
 90
        1
176
     1
 90
        6
176
     1
 90
        2
176
     1
 62
     7
176
     1
 90
        3
176
     1
 90
        0
176
     1
 90
        0
176
     1
290
     0
176
     1
 90
       13
176
     1
 40
0.0
176
     1
 90
        0
176
     1
290
     0
176
     1
290
     1
176
     1
290
     1
176
     1
290
     0
176
     1
290
     0
176
     1
290
     0
176
     1
290
     0
176
     1
290
     0
176
     1
290
     0
176
     1
 90
       50
176
     1
 40
0.0
176
     1
 40
1.0
176
     1
 90
        0
176
     1
 62
    18
420
        0
176
     1
 90
       50
176
     1
 90
        3
176
     1
 62
     5
420
      255
176
     1
290
     0
176
     1
 90
       50
176
     1
 90
       50
176
     1
 90
       50
176
     1
290
     0
176
     1
 90
       50
176
     1
 62
   256
176
     0
 40
1.0
176
     0
 90
        2
176
     1
  1
strokes_ogs.tif
176
     1
290
     0
176
     1
 40
1.0
176
     1
 40
1.0
176
     1
  0
DICTIONARYVAR
  5
79
102
{ACAD_REACTORS
330
78
102
}
330
78
100
DictionaryVariables
280
     0
  1
1:1
  0
DICTIONARYVAR
  5
7E
102
{ACAD_REACTORS
330
78
102
}
330
78
100
DictionaryVariables
280
     0
  1
Standard
  0
DICTIONARYVAR
  5
7D
102
{ACAD_REACTORS
330
78
102
}
330
78
100
DictionaryVariables
280
     0
  1
Standard
  0
DICTIONARY
  5
7A
330
5A
100
AcDbDictionary
280
     1
281
     1
  3
ACAD_ROUNDTRIP_2008_TABLESTYLE_CELLSTYLEMAP
360
7B
  0
CELLSTYLEMAP
  5
7B
102
{ACAD_REACTORS
330
7A
102
}
330
7A
100
AcDbCellStyleMap
 90
        3
300
CELLSTYLE
  1
TABLEFORMAT_BEGIN
 90
        5
170
     1
 91
        0
 92
    32768
 62
   257
 93
        1
300
CONTENTFORMAT
  1
CONTENTFORMAT_BEGIN
 90
        0
 91
        0
 92
        4
 93
        0
300

 40
0.0
140
1.0
 94
        5
 62
     0
340
11
144
0.25
309
CONTENTFORMAT_END
171
     1
301
MARGIN
  1
CELLMARGIN_BEGIN
 40
0.06
 40
0.06
 40
0.06
 40
0.06
 40
0.06
 40
0.06
309
CELLMARGIN_END
 94
        6
 95
        1
302
GRIDFORMAT
  1
GRIDFORMAT_BEGIN
 90
        0
 91
        1
 62
     0
 92
       -2
340
14
 93
        0
 40
0.045
309
GRIDFORMAT_END
 95
        2
302
GRIDFORMAT
  1
GRIDFORMAT_BEGIN
 90
        0
 91
        1
 62
     0
 92
       -2
340
14
 93
        0
 40
0.045
309
GRIDFORMAT_END
 95
        4
302
GRIDFORMAT
  1
GRIDFORMAT_BEGIN
 90
        0
 91
        1
 62
     0
 92
       -2
340
14
 93
        0
 40
0.045
309
GRIDFORMAT_END
 95
        8
302
GRIDFORMAT
  1
GRIDFORMAT_BEGIN
 90
        0
 91
        1
 62
     0
 92
       -2
340
14
 93
        0
 40
0.045
309
GRIDFORMAT_END
 95
       16
302
GRIDFORMAT
  1
GRIDFORMAT_BEGIN
 90
        0
 91
        1
 62
     0
 92
       -2
340
14
 93
        0
 40
0.045
309
GRIDFORMAT_END
 95
       32
302
GRIDFORMAT
  1
GRIDFORMAT_BEGIN
 90
        0
 91
        1
 62
     0
 92
       -2
340
14
 93
        0
 40
0.045
309
GRIDFORMAT_END
309
TABLEFORMAT_END
  1
CELLSTYLE_BEGIN
 90
        1
 91
        1
300
_TITLE
309
CELLSTYLE_END
300
CELLSTYLE
  1
TABLEFORMAT_BEGIN
 90
        5
170
     1
 91
        0
 92
        0
 62
   257
 93
        1
300
CONTENTFORMAT
  1
CONTENTFORMAT_BEGIN
 90
        0
 91
        0
 92
        4
 93
        0
300

 40
0.0
140
1.0
 94
        5
 62
     0
340
11
144
0.18
309
CONTENTFORMAT_END
171
     1
301
MARGIN
  1
CELLMARGIN_BEGIN
 40
0.06
 40
0.06
 40
0.06
 40
0.06
 40
0.06
 40
0.06
309
CELLMARGIN_END
 94
        6
 95
        1
302
GRIDFORMAT
  1
GRIDFORMAT_BEGIN
 90
        0
 91
        1
 62
     0
 92
       -2
340
14
 93
        0
 40
0.045
309
GRIDFORMAT_END
 95
        2
302
GRIDFORMAT
  1
GRIDFORMAT_BEGIN
 90
        0
 91
        1
 62
     0
 92
       -2
340
14
 93
        0
 40
0.045
309
GRIDFORMAT_END
 95
        4
302
GRIDFORMAT
  1
GRIDFORMAT_BEGIN
 90
        0
 91
        1
 62
     0
 92
       -2
340
14
 93
        0
 40
0.045
309
GRIDFORMAT_END
 95
        8
302
GRIDFORMAT
  1
GRIDFORMAT_BEGIN
 90
        0
 91
        1
 62
     0
 92
       -2
340
14
 93
        0
 40
0.045
309
GRIDFORMAT_END
 95
       16
302
GRIDFORMAT
  1
GRIDFORMAT_BEGIN
 90
        0
 91
        1
 62
     0
 92
       -2
340
14
 93
        0
 40
0.045
309
GRIDFORMAT_END
 95
       32
302
GRIDFORMAT
  1
GRIDFORMAT_BEGIN
 90
        0
 91
        1
 62
     0
 92
       -2
340
14
 93
        0
 40
0.045
309
GRIDFORMAT_END
309
TABLEFORMAT_END
  1
CELLSTYLE_BEGIN
 90
        2
 91
        1
300
_HEADER
309
CELLSTYLE_END
300
CELLSTYLE
  1
TABLEFORMAT_BEGIN
 90
        5
170
     1
 91
        0
 92
        0
 62
   257
 93
        1
300
CONTENTFORMAT
  1
CONTENTFORMAT_BEGIN
 90
        0
 91
        0
 92
        4
 93
        0
300

 40
0.0
140
1.0
 94
        2
 62
     0
340
11
144
0.18
309
CONTENTFORMAT_END
171
     1
301
MARGIN
  1
CELLMARGIN_BEGIN
 40
0.06
 40
0.06
 40
0.06
 40
0.06
 40
0.06
 40
0.06
309
CELLMARGIN_END
 94
        6
 95
        1
302
GRIDFORMAT
  1
GRIDFORMAT_BEGIN
 90
        0
 91
        1
 62
     0
 92
       -2
340
14
 93
        0
 40
0.045
309
GRIDFORMAT_END
 95
        2
302
GRIDFORMAT
  1
GRIDFORMAT_BEGIN
 90
        0
 91
        1
 62
     0
 92
       -2
340
14
 93
        0
 40
0.045
309
GRIDFORMAT_END
 95
        4
302
GRIDFORMAT
  1
GRIDFORMAT_BEGIN
 90
        0
 91
        1
 62
     0
 92
       -2
340
14
 93
        0
 40
0.045
309
GRIDFORMAT_END
 95
        8
302
GRIDFORMAT
  1
GRIDFORMAT_BEGIN
 90
        0
 91
        1
 62
     0
 92
       -2
340
14
 93
        0
 40
0.045
309
GRIDFORMAT_END
 95
       16
302
GRIDFORMAT
  1
GRIDFORMAT_BEGIN
 90
        0
 91
        1
 62
     0
 92
       -2
340
14
 93
        0
 40
0.045
309
GRIDFORMAT_END
 95
       32
302
GRIDFORMAT
  1
GRIDFORMAT_BEGIN
 90
        0
 91
        1
 62
     0
 92
       -2
340
14
 93
        0
 40
0.045
309
GRIDFORMAT_END
309
TABLEFORMAT_END
  1
CELLSTYLE_BEGIN
 90
        3
 91
        2
300
_DATA
309
CELLSTYLE_END
  0
ENDSEC
  0
EOF
