  0
SECTION
  2
HEADER
  9
$ACADVER
  1
AC1027
  9
$ACADMAINTVER
 70
   105
  9
$DWGCODEPAGE
  3
ANSI_1252
  9
$LASTSAVEDBY
  1
Office Desk
  9
$REQUIREDVERSIONS
160
                 0
  9
$INSBASE
 10
0.0
 20
0.0
 30
0.0
  9
$EXTMIN
 10
412.8822
 20
-652.2979
 30
0.0
  9
$EXTMAX
 10
924.7382
 20
231.0713
 30
0.0
  9
$LIMMIN
 10
0.0
 20
0.0
  9
$LIMMAX
 10
12.0
 20
9.0
  9
$ORTHOMODE
 70
     0
  9
$REGENMODE
 70
     1
  9
$FILLMODE
 70
     1
  9
$QTEXTMODE
 70
     0
  9
$MIRRTEXT
 70
     1
  9
$LTSCALE
 40
1.0
  9
$ATTMODE
 70
     1
  9
$TEXTSIZE
 40
0.2
  9
$TRACEWID
 40
0.05
  9
$TEXTSTYLE
  7
Standard
  9
$CLAYER
  8
0
  9
$CELTYPE
  6
ByLayer
  9
$CECOLOR
 62
   256
  9
$CELTSCALE
 40
1.0
  9
$DISPSILH
 70
     0
  9
$DIMSCALE
 40
1.0
  9
$DIMASZ
 40
0.18
  9
$DIMEXO
 40
0.0625
  9
$DIMDLI
 40
0.38
  9
$DIMRND
 40
0.0
  9
$DIMDLE
 40
0.0
  9
$DIMEXE
 40
0.18
  9
$DIMTP
 40
0.0
  9
$DIMTM
 40
0.0
  9
$DIMTXT
 40
0.18
  9
$DIMCEN
 40
0.09
  9
$DIMTSZ
 40
0.0
  9
$DIMTOL
 70
     0
  9
$DIMLIM
 70
     0
  9
$DIMTIH
 70
     1
  9
$DIMTOH
 70
     1
  9
$DIMSE1
 70
     0
  9
$DIMSE2
 70
     0
  9
$DIMTAD
 70
     0
  9
$DIMZIN
 70
     0
  9
$DIMBLK
  1

  9
$DIMASO
 70
     1
  9
$DIMSHO
 70
     1
  9
$DIMPOST
  1

  9
$DIMAPOST
  1

  9
$DIMALT
 70
     0
  9
$DIMALTD
 70
     2
  9
$DIMALTF
 40
25.4
  9
$DIMLFAC
 40
1.0
  9
$DIMTOFL
 70
     0
  9
$DIMTVP
 40
0.0
  9
$DIMTIX
 70
     0
  9
$DIMSOXD
 70
     0
  9
$DIMSAH
 70
     0
  9
$DIMBLK1
  1

  9
$DIMBLK2
  1

  9
$DIMSTYLE
  2
Standard
  9
$DIMCLRD
 70
     0
  9
$DIMCLRE
 70
     0
  9
$DIMCLRT
 70
     0
  9
$DIMTFAC
 40
1.0
  9
$DIMGAP
 40
0.09
  9
$DIMJUST
 70
     0
  9
$DIMSD1
 70
     0
  9
$DIMSD2
 70
     0
  9
$DIMTOLJ
 70
     1
  9
$DIMTZIN
 70
     0
  9
$DIMALTZ
 70
     0
  9
$DIMALTTZ
 70
     0
  9
$DIMUPT
 70
     0
  9
$DIMDEC
 70
     4
  9
$DIMTDEC
 70
     4
  9
$DIMALTU
 70
     2
  9
$DIMALTTD
 70
     2
  9
$DIMTXSTY
  7
Standard
  9
$DIMAUNIT
 70
     0
  9
$DIMADEC
 70
     0
  9
$DIMALTRND
 40
0.0
  9
$DIMAZIN
 70
     0
  9
$DIMDSEP
 70
    46
  9
$DIMATFIT
 70
     3
  9
$DIMFRAC
 70
     0
  9
$DIMLDRBLK
  1

  9
$DIMLUNIT
 70
     2
  9
$DIMLWD
 70
    -2
  9
$DIMLWE
 70
    -2
  9
$DIMTMOVE
 70
     0
  9
$DIMFXL
 40
1.0
  9
$DIMFXLON
 70
     0
  9
$DIMJOGANG
 40
0.7853981633974483
  9
$DIMTFILL
 70
     0
  9
$DIMTFILLCLR
 70
     0
  9
$DIMARCSYM
 70
     0
  9
$DIMLTYPE
  6

  9
$DIMLTEX1
  6

  9
$DIMLTEX2
  6

  9
$DIMTXTDIRECTION
 70
     0
  9
$LUNITS
 70
     2
  9
$LUPREC
 70
     4
  9
$SKETCHINC
 40
0.1
  9
$FILLETRAD
 40
0.0
  9
$AUNITS
 70
     0
  9
$AUPREC
 70
     0
  9
$MENU
  1
.
  9
$ELEVATION
 40
0.0
  9
$PELEVATION
 40
0.0
  9
$THICKNESS
 40
0.0
  9
$LIMCHECK
 70
     0
  9
$CHAMFERA
 40
0.0
  9
$CHAMFERB
 40
0.0
  9
$CHAMFERC
 40
0.0
  9
$CHAMFERD
 40
0.0
  9
$SKPOLY
 70
     0
  9
$TDCREATE
 40
2461006.679783067
  9
$TDUCREATE
 40
2461006.450616401
  9
$TDUPDATE
 40
2461006.679783067
  9
$TDUUPDATE
 40
2461006.450616401
  9
$TDINDWG
 40
0.0000000116
  9
$TDUSRTIMER
 40
0.0000000116
  9
$USRTIMER
 70
     1
  9
$ANGBASE
 50
0.0
  9
$ANGDIR
 70
     0
  9
$PDMODE
 70
     0
  9
$PDSIZE
 40
0.0
  9
$PLINEWID
 40
0.0
  9
$SPLFRAME
 70
     0
  9
$SPLINETYPE
 70
     6
  9
$SPLINESEGS
 70
     8
  9
$HANDSEED
  5
81
  9
$SURFTAB1
 70
     6
  9
$SURFTAB2
 70
     6
  9
$SURFTYPE
 70
     6
  9
$SURFU
 70
     6
  9
$SURFV
 70
     6
  9
$UCSBASE
  2

  9
$UCSNAME
  2

  9
$UCSORG
 10
0.0
 20
0.0
 30
0.0
  9
$UCSXDIR
 10
1.0
 20
0.0
 30
0.0
  9
$UCSYDIR
 10
0.0
 20
1.0
 30
0.0
  9
$UCSORTHOREF
  2

  9
$UCSORTHOVIEW
 70
     0
  9
$UCSORGTOP
 10
0.0
 20
0.0
 30
0.0
  9
$UCSORGBOTTOM
 10
0.0
 20
0.0
 30
0.0
  9
$UCSORGLEFT
 10
0.0
 20
0.0
 30
0.0
  9
$UCSORGRIGHT
 10
0.0
 20
0.0
 30
0.0
  9
$UCSORGFRONT
 10
0.0
 20
0.0
 30
0.0
  9
$UCSORGBACK
 10
0.0
 20
0.0
 30
0.0
  9
$PUCSBASE
  2

  9
$PUCSNAME
  2

  9
$PUCSORG
 10
0.0
 20
0.0
 30
0.0
  9
$PUCSXDIR
 10
1.0
 20
0.0
 30
0.0
  9
$PUCSYDIR
 10
0.0
 20
1.0
 30
0.0
  9
$PUCSORTHOREF
  2

  9
$PUCSORTHOVIEW
 70
     0
  9
$PUCSORGTOP
 10
0.0
 20
0.0
 30
0.0
  9
$PUCSORGBOTTOM
 10
0.0
 20
0.0
 30
0.0
  9
$PUCSORGLEFT
 10
0.0
 20
0.0
 30
0.0
  9
$PUCSORGRIGHT
 10
0.0
 20
0.0
 30
0.0
  9
$PUCSORGFRONT
 10
0.0
 20
0.0
 30
0.0
  9
$PUCSORGBACK
 10
0.0
 20
0.0
 30
0.0
  9
$USERI1
 70
     0
  9
$USERI2
 70
     0
  9
$USERI3
 70
     0
  9
$USERI4
 70
     0
  9
$USERI5
 70
     0
  9
$USERR1
 40
0.0
  9
$USERR2
 40
0.0
  9
$USERR3
 40
0.0
  9
$USERR4
 40
0.0
  9
$USERR5
 40
0.0
  9
$WORLDVIEW
 70
     1
  9
$SHADEDGE
 70
     3
  9
$SHADEDIF
 70
    70
  9
$TILEMODE
 70
     1
  9
$MAXACTVP
 70
    64
  9
$PINSBASE
 10
0.0
 20
0.0
 30
0.0
  9
$PLIMCHECK
 70
     0
  9
$PEXTMIN
 10
1.000000000000000E+20
 20
1.000000000000000E+20
 30
1.000000000000000E+20
  9
$PEXTMAX
 10
-1.000000000000000E+20
 20
-1.000000000000000E+20
 30
-1.000000000000000E+20
  9
$PLIMMIN
 10
0.0
 20
0.0
  9
$PLIMMAX
 10
12.0
 20
9.0
  9
$UNITMODE
 70
     0
  9
$VISRETAIN
 70
     1
  9
$PLINEGEN
 70
     0
  9
$PSLTSCALE
 70
     1
  9
$TREEDEPTH
 70
  3020
  9
$CMLSTYLE
  2
Standard
  9
$CMLJUST
 70
     0
  9
$CMLSCALE
 40
1.0
  9
$PROXYGRAPHICS
 70
     1
  9
$MEASUREMENT
 70
     0
  9
$CELWEIGHT
370
    -1
  9
$ENDCAPS
280
     0
  9
$JOINSTYLE
280
     0
  9
$LWDISPLAY
290
     0
  9
$INSUNITS
 70
     4
  9
$HYPERLINKBASE
  1

  9
$STYLESHEET
  1

  9
$XEDIT
290
     1
  9
$CEPSNTYPE
380
     0
  9
$PSTYLEMODE
290
     1
  9
$FINGERPRINTGUID
  2
{836e51b7-01fc-48f9-8b05-4584cc2ce601}
  9
$VERSIONGUID
  2
{FAEB1C32-E019-11D5-929B-00C0DF256EC4}
  9
$EXTNAMES
290
     1
  9
$PSVPSCALE
 40
0.0
  9
$OLESTARTUP
290
     0
  9
$SORTENTS
280
   127
  9
$INDEXCTL
280
     0
  9
$HIDETEXT
280
     1
  9
$XCLIPFRAME
280
     2
  9
$HALOGAP
280
     0
  9
$OBSCOLOR
 70
   257
  9
$OBSLTYPE
280
     0
  9
$INTERSECTIONDISPLAY
280
     0
  9
$INTERSECTIONCOLOR
 70
   257
  9
$DIMASSOC
280
     2
  9
$PROJECTNAME
  1

  9
$CAMERADISPLAY
290
     0
  9
$LENSLENGTH
 40
50.0
  9
$CAMERAHEIGHT
 40
0.0
  9
$STEPSPERSEC
 40
2.0
  9
$STEPSIZE
 40
6.0
  9
$3DDWFPREC
 40
2.0
  9
$PSOLWIDTH
 40
0.25
  9
$PSOLHEIGHT
 40
4.0
  9
$LOFTANG1
 40
1.570796326794897
  9
$LOFTANG2
 40
1.570796326794897
  9
$LOFTMAG1
 40
0.0
  9
$LOFTMAG2
 40
0.0
  9
$LOFTPARAM
 70
     7
  9
$LOFTNORMALS
280
     1
  9
$LATITUDE
 40
37.795
  9
$LONGITUDE
 40
-122.394
  9
$NORTHDIRECTION
 40
0.0
  9
$TIMEZONE
 70
 -8000
  9
$LIGHTGLYPHDISPLAY
280
     1
  9
$TILEMODELIGHTSYNCH
280
     1
  9
$CMATERIAL
347
44
  9
$SOLIDHIST
280
     0
  9
$SHOWHIST
280
     1
  9
$DWFFRAME
280
     2
  9
$DGNFRAME
280
     2
  9
$REALWORLDSCALE
290
     1
  9
$INTERFERECOLOR
 62
   256
  9
$CSHADOW
280
     0
  9
$SHADOWPLANELOCATION
 40
0.0
  0
ENDSEC
  0
SECTION
  2
CLASSES
  0
CLASS
  1
ACDBDICTIONARYWDFLT
  2
AcDbDictionaryWithDefault
  3
ObjectDBX Classes
 90
        0
 91
        3
280
     0
281
     0
  0
CLASS
  1
VISUALSTYLE
  2
AcDbVisualStyle
  3
ObjectDBX Classes
 90
     4095
 91
        3
280
     0
281
     0
  0
CLASS
  1
MATERIAL
  2
AcDbMaterial
  3
ObjectDBX Classes
 90
     1153
 91
        3
280
     0
281
     0
  0
CLASS
  1
SCALE
  2
AcDbScale
  3
ObjectDBX Classes
 90
     1153
 91
        3
280
     0
281
     0
  0
CLASS
  1
TABLESTYLE
  2
AcDbTableStyle
  3
ObjectDBX Classes
 90
     4095
 91
        3
280
     0
281
     0
  0
CLASS
  1
MLEADERSTYLE
  2
AcDbMLeaderStyle
  3
ACDB_MLEADERSTYLE_CLASS
 90
     4095
 91
        3
280
     0
281
     0
  0
CLASS
  1
SUN
  2
AcDbSun
  3
SCENEOE
 90
     1153
 91
        3
280
     0
281
     0
  0
CLASS
  1
DICTIONARYVAR
  2
AcDbDictionaryVar
  3
ObjectDBX Classes
 90
        0
 91
        3
280
     0
281
     0
  0
CLASS
  1
CELLSTYLEMAP
  2
AcDbCellStyleMap
  3
ObjectDBX Classes
 90
     1152
 91
        3
280
     0
281
     0
  0
ENDSEC
  0
SECTION
  2
TABLES
  0
TABLE
  2
VPORT
  5
8
330
0
100
AcDbSymbolTable
 70
     1
  0
VPORT
  5
29
330
8
100
AcDbSymbolTableRecord
100
AcDbViewportTableRecord
  2
*Active
 70
     0
 10
0.0
 20
0.0
 11
1.0
 21
1.0
 12
10.42990654205607
 22
4.5
 13
0.0
 23
0.0
 14
0.5
 24
0.5
 15
0.5
 25
0.5
 16
0.0
 26
0.0
 36
1.0
 17
0.0
 27
0.0
 37
0.0
 40
9.0
 41
1.972972972850329
 42
50.0
 43
0.0
 44
0.0
 50
0.0
 51
0.0
 71
     0
 72
   100
 73
     1
 74
     3
 75
     0
 76
     0
 77
     0
 78
     0
281
     0
 65
     1
110
0.0
120
0.0
130
0.0
111
1.0
121
0.0
131
0.0
112
0.0
122
1.0
132
0.0
 79
     0
146
0.0
348
2F
 60
     3
 61
     5
292
     1
282
     1
141
0.0
142
0.0
 63
   250
361
5D
  0
ENDTAB
  0
TABLE
  2
LTYPE
  5
5
330
0
100
AcDbSymbolTable
 70
     1
  0
LTYPE
  5
14
330
5
100
AcDbSymbolTableRecord
100
AcDbLinetypeTableRecord
  2
ByBlock
 70
     0
  3

 72
    65
 73
     0
 40
0.0
  0
LTYPE
  5
15
330
5
100
AcDbSymbolTableRecord
100
AcDbLinetypeTableRecord
  2
ByLayer
 70
     0
  3

 72
    65
 73
     0
 40
0.0
  0
LTYPE
  5
16
330
5
100
AcDbSymbolTableRecord
100
AcDbLinetypeTableRecord
  2
Continuous
 70
     0
  3
Solid line
 72
    65
 73
     0
 40
0.0
  0
ENDTAB
  0
TABLE
  2
LAYER
  5
2
330
0
100
AcDbSymbolTable
 70
     2
  0
LAYER
  5
10
330
2
100
AcDbSymbolTableRecord
100
AcDbLayerTableRecord
  2
0
 70
     0
 62
     7
  6
Continuous
370
    -3
390
F
347
46
348
0
  0
LAYER
  5
5F
330
2
100
AcDbSymbolTableRecord
100
AcDbLayerTableRecord
  2
Layer 1
 70
     0
 62
     7
  6
Continuous
370
    -3
390
F
347
46
348
0
  0
ENDTAB
  0
TABLE
  2
STYLE
  5
3
330
0
100
AcDbSymbolTable
 70
     1
  0
STYLE
  5
11
330
3
100
AcDbSymbolTableRecord
100
AcDbTextStyleTableRecord
  2
Standard
 70
     0
 40
0.0
 41
1.0
 50
0.0
 71
     0
 42
0.2
  3
txt
  4

  0
ENDTAB
  0
TABLE
  2
VIEW
  5
6
330
0
100
AcDbSymbolTable
 70
     0
  0
ENDTAB
  0
TABLE
  2
UCS
  5
7
330
0
100
AcDbSymbolTable
 70
     0
  0
ENDTAB
  0
TABLE
  2
APPID
  5
9
330
0
100
AcDbSymbolTable
 70
     2
  0
APPID
  5
12
330
9
100
AcDbSymbolTableRecord
100
AcDbRegAppTableRecord
  2
ACAD
 70
     0
  0
APPID
  5
5E
330
9
100
AcDbSymbolTableRecord
100
AcDbRegAppTableRecord
  2
ODA
 70
     0
  0
ENDTAB
  0
TABLE
  2
DIMSTYLE
  5
A
330
0
100
AcDbSymbolTable
 70
     1
100
AcDbDimStyleTable
  0
DIMSTYLE
105
27
330
A
100
AcDbSymbolTableRecord
100
AcDbDimStyleTableRecord
  2
Standard
 70
     0
178
     0
340
11
  0
ENDTAB
  0
TABLE
  2
BLOCK_RECORD
  5
1
330
0
100
AcDbSymbolTable
 70
     1
  0
BLOCK_RECORD
  5
1F
330
1
100
AcDbSymbolTableRecord
100
AcDbBlockTableRecord
  2
*Model_Space
340
22
 70
     0
280
     1
281
     0
  0
BLOCK_RECORD
  5
1B
330
1
100
AcDbSymbolTableRecord
100
AcDbBlockTableRecord
  2
*Paper_Space
340
1E
 70
     0
280
     1
281
     0
  0
BLOCK_RECORD
  5
23
330
1
100
AcDbSymbolTableRecord
100
AcDbBlockTableRecord
  2
*Paper_Space0
340
26
 70
     0
280
     1
281
     0
  0
ENDTAB
  0
ENDSEC
  0
SECTION
  2
BLOCKS
  0
BLOCK
  5
20
330
1F
100
AcDbEntity
  8
0
100
AcDbBlockBegin
  2
*Model_Space
 70
     0
 10
0.0
 20
0.0
 30
0.0
  3
*Model_Space
  1

  0
ENDBLK
  5
21
330
1F
100
AcDbEntity
  8
0
100
AcDbBlockEnd
  0
BLOCK
  5
1C
330
1B
100
AcDbEntity
 67
     1
  8
0
100
AcDbBlockBegin
  2
*Paper_Space
 70
     0
 10
0.0
 20
0.0
 30
0.0
  3
*Paper_Space
  1

  0
ENDBLK
  5
1D
330
1B
100
AcDbEntity
 67
     1
  8
0
100
AcDbBlockEnd
  0
BLOCK
  5
24
330
23
100
AcDbEntity
  8
0
100
AcDbBlockBegin
  2
*Paper_Space0
 70
     0
 10
0.0
 20
0.0
 30
0.0
  3
*Paper_Space0
  1

  0
ENDBLK
  5
25
330
23
100
AcDbEntity
  8
0
100
AcDbBlockEnd
  0
ENDSEC
  0
SECTION
  2
ENTITIES
  0
LWPOLYLINE
  5
60
330
1F
100
AcDbEntity
  8
Layer 1
 62
   250
370
    18
100
AcDbPolyline
 90
        5
 70
     1
 43
0.0
 10
412.9704
 20
-652.2097
 10
924.65
 20
-652.2097
 10
924.65
 20
230.9831
 10
412.9704
 20
230.9831
 10
412.9704
 20
-652.2097
  0
LWPOLYLINE
  5
61
330
1F
100
AcDbEntity
  8
Layer 1
 62
     7
100
AcDbPolyline
 90
        4
 70
     1
 43
0.0
 10
592.6878
 20
204.7024
 10
592.6878
 20
189.7771
 10
584.5031
 20
189.7771
 10
592.6878
 20
204.7024
  0
LWPOLYLINE
  5
62
330
1F
100
AcDbEntity
  8
Layer 1
 62
     7
100
AcDbPolyline
 90
       11
 70
     1
 43
0.0
 10
594.9855
 20
187.0427
 10
597.693
 20
187.0427
 10
597.693
 20
189.7771
 10
594.9855
 20
189.7771
 10
594.9543
 20
207.5884
 10
591.8691
 20
207.5884
 10
580.5999
 20
187.0427
 10
592.6878
 20
187.0427
 10
592.6878
 20
181.764
 10
594.9855
 20
181.764
 10
594.9855
 20
187.0427
  0
LWPOLYLINE
  5
63
330
1F
100
AcDbEntity
  8
Layer 1
 62
     7
100
AcDbPolyline
 90
       87
 70
     1
 43
0.0
 10
601.1551
 20
181.764
 10
616.233
 20
181.764
 10
616.233
 20
184.4222
 10
606.4748
 20
184.4222
 10
613.9353
 20
193.3476
 10
614.4223
 20
193.9901
 10
614.8443
 20
194.6646
 10
615.2014
 20
195.3713
 10
615.4936
 20
196.1101
 10
615.7208
 20
196.881
 10
615.8831
 20
197.684
 10
615.9804
 20
198.519
 10
616.0129
 20
199.3861
 10
615.9797
 20
200.2726
 10
615.8802
 20
201.1234
 10
615.7142
 20
201.9386
 10
615.4819
 20
202.7182
 10
615.1832
 20
203.4622
 10
614.818
 20
204.1707
 10
614.3865
 20
204.8437
 10
613.8885
 20
205.4811
 10
613.335
 20
206.073
 10
612.7569
 20
206.586
 10
612.1543
 20
207.0201
 10
611.5272
 20
207.3752
 10
610.8755
 20
207.6514
 10
610.1993
 20
207.8486
 10
609.4986
 20
207.967
 10
608.7733
 20
208.0064
 10
608.0199
 20
207.9649
 10
607.2946
 20
207.8402
 10
606.5972
 20
207.6325
 10
605.928
 20
207.3418
 10
605.2868
 20
206.968
 10
604.6737
 20
206.5111
 10
604.0886
 20
205.9712
 10
603.5317
 20
205.3483
 10
603.0356
 20
204.6781
 10
602.6099
 20
203.9729
 10
602.2546
 20
203.2326
 10
601.9696
 20
202.4572
 10
601.7549
 20
201.6469
 10
601.6106
 20
200.8015
 10
601.5366
 20
199.9211
 10
601.5329
 20
199.0057
 10
603.7681
 20
199.0057
 10
603.7492
 20
199.5994
 10
603.7836
 20
200.1794
 10
603.8711
 20
200.7458
 10
604.0118
 20
201.2986
 10
604.2056
 20
201.8377
 10
604.4526
 20
202.3631
 10
604.7527
 20
202.8748
 10
605.1059
 20
203.3728
 10
605.4836
 20
203.8181
 10
605.8809
 20
204.204
 10
606.298
 20
204.5304
 10
606.7348
 20
204.7975
 10
607.1913
 20
205.0051
 10
607.6675
 20
205.1534
 10
608.1633
 20
205.2424
 10
608.6788
 20
205.272
 10
609.1845
 20
205.2453
 10
609.6711
 20
205.1652
 10
610.1385
 20
205.0317
 10
610.5868
 20
204.8448
 10
611.0159
 20
204.6045
 10
611.426
 20
204.3107
 10
611.8168
 20
203.9636
 10
612.1886
 20
203.563
 10
612.5316
 20
203.1204
 10
612.8288
 20
202.6564
 10
613.0804
 20
202.171
 10
613.2862
 20
201.6643
 10
613.4462
 20
201.1362
 10
613.5605
 20
200.5867
 10
613.6291
 20
200.0159
 10
613.652
 20
199.4237
 10
613.6299
 20
198.8183
 10
613.5635
 20
198.2366
 10
613.4528
 20
197.6788
 10
613.2979
 20
197.1447
 10
613.0986
 20
196.6344
 10
612.8552
 20
196.1478
 10
612.5674
 20
195.685
 10
612.2354
 20
195.2459
 10
601.1551
 20
181.764
  0
LWPOLYLINE
  5
64
330
1F
100
AcDbEntity
  8
Layer 1
 62
     7
100
AcDbPolyline
 90
      129
 70
     1
 43
0.0
 10
629.0608
 20
204.5884
 10
629.4244
 20
204.2906
 10
629.7633
 20
203.9524
 10
630.0777
 20
203.5738
 10
630.3674
 20
203.1548
 10
630.6326
 20
202.6955
 10
630.8731
 20
202.1957
 10
631.0891
 20
201.6557
 10
631.2804
 20
201.0753
 10
631.4943
 20
200.3054
 10
631.6797
 20
199.5242
 10
631.8366
 20
198.7319
 10
631.9651
 20
197.9283
 10
632.065
 20
197.1134
 10
632.1364
 20
196.2872
 10
632.1792
 20
195.4497
 10
632.1935
 20
194.6009
 10
632.192
 20
194.3969
 10
632.1875
 20
194.1841
 10
632.1801
 20
193.9623
 10
632.1697
 20
193.7317
 10
632.1564
 20
193.4922
 10
632.1402
 20
193.2438
 10
632.1211
 20
192.9866
 10
632.0991
 20
192.7205
 10
631.9898
 20
191.6997
 10
631.8471
 20
190.7352
 10
631.671
 20
189.8269
 10
631.4615
 20
188.9751
 10
631.2184
 20
188.1795
 10
630.9419
 20
187.4404
 10
630.6319
 20
186.7576
 10
630.2884
 20
186.1312
 10
629.9752
 20
185.6597
 10
629.6453
 20
185.251
 10
629.2986
 20
184.9051
 10
628.9351
 20
184.6222
 10
628.5549
 20
184.402
 10
628.158
 20
184.2448
 10
627.7444
 20
184.1505
 10
627.3141
 20
184.119
 10
626.8338
 20
184.1501
 10
626.3766
 20
184.2435
 10
625.9425
 20
184.3991
 10
625.5316
 20
184.6171
 10
625.1437
 20
184.8974
 10
624.779
 20
185.24
 10
624.4374
 20
185.645
 10
624.1188
 20
186.1124
 10
623.984
 20
186.339
 10
623.8552
 20
186.5727
 10
623.7322
 20
186.8137
 10
623.6152
 20
187.0617
 10
623.504
 20
187.3169
 10
623.3987
 20
187.5793
 10
623.2993
 20
187.8488
 10
623.2057
 20
188.1255
 10
623.118
 20
188.4063
 10
623.0358
 20
188.689
 10
622.9589
 20
188.9735
 10
622.8874
 20
189.2598
 10
622.8212
 20
189.5479
 10
622.7605
 20
189.8378
 10
622.7053
 20
190.1295
 10
622.6554
 20
190.423
 10
622.6097
 20
190.7162
 10
622.5676
 20
191.0069
 10
622.5289
 20
191.2952
 10
622.4937
 20
191.5812
 10
622.462
 20
191.8648
 10
622.4337
 20
192.1461
 10
622.409
 20
192.425
 10
622.3877
 20
192.7017
 10
622.3692
 20
192.9822
 10
622.3531
 20
193.2735
 10
622.3396
 20
193.5753
 10
622.3285
 20
193.8876
 10
622.3199
 20
194.2102
 10
622.3138
 20
194.5432
 10
622.3101
 20
194.8863
 10
622.3089
 20
195.2396
 10
622.3143
 20
195.6089
 10
622.3305
 20
195.9995
 10
622.3576
 20
196.4116
 10
622.3955
 20
196.8452
 10
622.4442
 20
197.3004
 10
622.5037
 20
197.7774
 10
622.5741
 20
198.2761
 10
622.6554
 20
198.7967
 10
622.705
 20
199.0861
 10
622.7596
 20
199.3748
 10
622.819
 20
199.663
 10
622.8835
 20
199.9505
 10
622.9528
 20
200.2374
 10
623.027
 20
200.5236
 10
623.1061
 20
200.8092
 10
623.1901
 20
201.0942
 10
623.28
 20
201.3756
 10
623.3762
 20
201.6498
 10
623.4788
 20
201.9168
 10
623.5878
 20
202.1768
 10
623.7032
 20
202.4295
 10
623.8249
 20
202.6752
 10
623.9531
 20
202.9137
 10
624.0876
 20
203.145
 10
624.2288
 20
203.3674
 10
624.3768
 20
203.5785
 10
624.5316
 20
203.7782
 10
624.6934
 20
203.9666
 10
624.8621
 20
204.1437
 10
625.0377
 20
204.3096
 10
625.2202
 20
204.4641
 10
625.4097
 20
204.6073
 10
625.6068
 20
204.7366
 10
625.8129
 20
204.8485
 10
626.0278
 20
204.9432
 10
626.2516
 20
205.0206
 10
626.4843
 20
205.0808
 10
626.7258
 20
205.1238
 10
626.9761
 20
205.1495
 10
627.2352
 20
205.1581
 10
627.4945
 20
205.1492
 10
627.745
 20
205.1225
 10
627.9865
 20
205.0779
 10
628.2191
 20
205.0156
 10
628.4428
 20
204.9354
 10
628.6577
 20
204.8375
 10
628.8637
 20
204.7218
 10
629.0608
 20
204.5884
  0
LWPOLYLINE
  5
65
330
1F
100
AcDbEntity
  8
Layer 1
 62
     7
100
AcDbPolyline
 90
       65
 70
     1
 43
0.0
 10
627.3453
 20
181.4222
 10
628.2644
 20
181.4925
 10
629.1249
 20
181.7035
 10
629.9269
 20
182.055
 10
630.6704
 20
182.5472
 10
631.3553
 20
183.18
 10
631.9817
 20
183.9535
 10
632.5497
 20
184.8675
 10
633.0591
 20
185.9222
 10
633.4167
 20
186.8426
 10
633.7268
 20
187.814
 10
633.9891
 20
188.8365
 10
634.2039
 20
189.9101
 10
634.3709
 20
191.0347
 10
634.4902
 20
192.2103
 10
634.5618
 20
193.437
 10
634.5857
 20
194.7148
 10
634.5618
 20
195.9923
 10
634.4902
 20
197.2187
 10
634.3709
 20
198.3942
 10
634.2039
 20
199.5187
 10
633.9891
 20
200.5922
 10
633.7268
 20
201.6147
 10
633.4167
 20
202.5861
 10
633.0591
 20
203.5065
 10
632.5497
 20
204.5612
 10
631.9817
 20
205.4752
 10
631.3553
 20
206.2487
 10
630.6704
 20
206.8815
 10
629.9269
 20
207.3736
 10
629.1249
 20
207.7252
 10
628.2644
 20
207.9361
 10
627.3453
 20
208.0064
 10
626.4262
 20
207.9361
 10
625.5657
 20
207.7252
 10
624.7637
 20
207.3736
 10
624.0203
 20
206.8815
 10
623.3355
 20
206.2487
 10
622.7092
 20
205.4752
 10
622.1415
 20
204.5612
 10
621.6323
 20
203.5065
 10
621.2744
 20
202.5861
 10
620.9643
 20
201.6147
 10
620.7019
 20
200.5922
 10
620.4872
 20
199.5187
 10
620.3202
 20
198.3942
 10
620.201
 20
197.2187
 10
620.1294
 20
195.9923
 10
620.1056
 20
194.7148
 10
620.1294
 20
193.437
 10
620.201
 20
192.2103
 10
620.3202
 20
191.0347
 10
620.4872
 20
189.9101
 10
620.7019
 20
188.8365
 10
620.9643
 20
187.814
 10
621.2744
 20
186.8426
 10
621.6323
 20
185.9222
 10
622.1415
 20
184.8675
 10
622.7092
 20
183.9535
 10
623.3355
 20
183.18
 10
624.0203
 20
182.5472
 10
624.7637
 20
182.055
 10
625.5657
 20
181.7035
 10
626.4262
 20
181.4925
 10
627.3453
 20
181.4222
  0
LWPOLYLINE
  5
66
330
1F
100
AcDbEntity
  8
Layer 1
 62
     7
100
AcDbPolyline
 90
      165
 70
     1
 43
0.0
 10
656.0852
 20
181.8403
 10
658.2885
 20
181.8403
 10
658.2885
 20
192.2836
 10
658.2706
 20
192.9771
 10
658.2167
 20
193.6379
 10
658.127
 20
194.266
 10
658.0013
 20
194.8615
 10
657.8398
 20
195.4243
 10
657.6423
 20
195.9545
 10
657.409
 20
196.4522
 10
657.1397
 20
196.9172
 10
656.9895
 20
197.1393
 10
656.8299
 20
197.3502
 10
656.6609
 20
197.5498
 10
656.4826
 20
197.7382
 10
656.2949
 20
197.9153
 10
656.0978
 20
198.0813
 10
655.8914
 20
198.236
 10
655.6755
 20
198.3795
 10
655.4464
 20
198.5085
 10
655.1995
 20
198.6203
 10
654.935
 20
198.715
 10
654.6527
 20
198.7925
 10
654.3528
 20
198.8528
 10
654.0351
 20
198.8958
 10
653.6997
 20
198.9217
 10
653.3466
 20
198.9303
 10
652.9903
 20
198.9155
 10
652.6453
 20
198.8709
 10
652.3116
 20
198.7967
 10
651.9892
 20
198.6928
 10
651.678
 20
198.5592
 10
651.3782
 20
198.3959
 10
651.0897
 20
198.2029
 10
650.8124
 20
197.9803
 10
650.5719
 20
197.7584
 10
650.3422
 20
197.5201
 10
650.1233
 20
197.2655
 10
649.9152
 20
196.9947
 10
649.718
 20
196.7079
 10
649.5316
 20
196.4052
 10
649.3561
 20
196.0868
 10
649.1914
 20
195.7527
 10
649.0634
 20
196.0608
 10
648.9237
 20
196.3585
 10
648.7722
 20
196.6444
 10
648.6091
 20
196.9172
 10
648.4589
 20
197.1393
 10
648.2992
 20
197.3502
 10
648.1302
 20
197.5498
 10
647.9518
 20
197.7382
 10
647.7641
 20
197.9153
 10
647.567
 20
198.0813
 10
647.3606
 20
198.236
 10
647.145
 20
198.3795
 10
646.9159
 20
198.5085
 10
646.669
 20
198.6203
 10
646.4045
 20
198.715
 10
646.1222
 20
198.7925
 10
645.8222
 20
198.8528
 10
645.5045
 20
198.8958
 10
645.1692
 20
198.9217
 10
644.8161
 20
198.9303
 10
644.4595
 20
198.9155
 10
644.1143
 20
198.8709
 10
643.7805
 20
198.7967
 10
643.4581
 20
198.6928
 10
643.147
 20
198.5592
 10
642.8473
 20
198.3959
 10
642.5589
 20
198.2029
 10
642.2819
 20
197.9803
 10
642.0526
 20
197.769
 10
641.8332
 20
197.5433
 10
641.6237
 20
197.3034
 10
641.424
 20
197.049
 10
641.2341
 20
196.78
 10
641.054
 20
196.4966
 10
640.8838
 20
196.1984
 10
640.7233
 20
195.8855
 10
640.7233
 20
198.55
 10
638.52
 20
198.55
 10
638.52
 20
181.8403
 10
640.7233
 20
181.8403
 10
640.7233
 20
190.3916
 10
640.7746
 20
190.8898
 10
640.8417
 20
191.3686
 10
640.9244
 20
191.828
 10
641.0228
 20
192.2684
 10
641.1369
 20
192.6897
 10
641.2666
 20
193.0921
 10
641.4121
 20
193.4758
 10
641.5732
 20
193.841
 10
641.7046
 20
194.1008
 10
641.8469
 20
194.3488
 10
641.9999
 20
194.5849
 10
642.1638
 20
194.8092
 10
642.3385
 20
195.0216
 10
642.524
 20
195.2221
 10
642.7202
 20
195.4108
 10
642.9273
 20
195.5877
 10
643.1417
 20
195.7479
 10
643.3601
 20
195.8868
 10
643.5823
 20
196.0043
 10
643.8086
 20
196.1004
 10
644.0387
 20
196.1752
 10
644.2728
 20
196.2286
 10
644.5108
 20
196.2606
 10
644.7528
 20
196.2713
 10
644.9889
 20
196.2657
 10
645.2093
 20
196.2488
 10
645.4139
 20
196.2206
 10
645.6028
 20
196.1811
 10
645.7759
 20
196.1304
 10
645.9332
 20
196.0684
 10
646.0748
 20
195.9951
 10
646.2006
 20
195.9106
 10
646.518
 20
195.6276
 10
646.793
 20
195.2959
 10
647.0258
 20
194.9155
 10
647.2162
 20
194.4864
 10
647.3643
 20
194.0087
 10
647.4701
 20
193.4823
 10
647.5335
 20
192.9073
 10
647.5547
 20
192.2836
 10
647.5547
 20
181.8403
 10
649.758
 20
181.8403
 10
649.758
 20
192.2836
 10
649.7424
 20
192.9232
 10
649.824
 20
193.1654
 10
649.9115
 20
193.3986
 10
650.0049
 20
193.6235
 10
650.1045
 20
193.841
 10
650.2357
 20
194.1008
 10
650.3778
 20
194.3488
 10
650.5307
 20
194.5849
 10
650.6945
 20
194.8092
 10
650.869
 20
195.0216
 10
651.0545
 20
195.2221
 10
651.2507
 20
195.4108
 10
651.4578
 20
195.5877
 10
651.6723
 20
195.7479
 10
651.8906
 20
195.8868
 10
652.1129
 20
196.0043
 10
652.3391
 20
196.1004
 10
652.5692
 20
196.1752
 10
652.8033
 20
196.2286
 10
653.0414
 20
196.2606
 10
653.2834
 20
196.2713
 10
653.5195
 20
196.2657
 10
653.7398
 20
196.2488
 10
653.9444
 20
196.2206
 10
654.1333
 20
196.1811
 10
654.3064
 20
196.1304
 10
654.4637
 20
196.0684
 10
654.6053
 20
195.9951
 10
654.7311
 20
195.9106
 10
655.0485
 20
195.6276
 10
655.3235
 20
195.2959
 10
655.5563
 20
194.9155
 10
655.7467
 20
194.4864
 10
655.8948
 20
194.0087
 10
656.0006
 20
193.4823
 10
656.064
 20
192.9073
 10
656.0852
 20
192.2836
 10
656.0852
 20
181.8403
  0
LWPOLYLINE
  5
67
330
1F
100
AcDbEntity
  8
Layer 1
 62
     7
100
AcDbPolyline
 90
      165
 70
     1
 43
0.0
 10
680.1034
 20
181.8403
 10
682.3066
 20
181.8403
 10
682.3066
 20
192.2836
 10
682.2887
 20
192.9771
 10
682.2348
 20
193.6379
 10
682.1451
 20
194.266
 10
682.0194
 20
194.8615
 10
681.8579
 20
195.4243
 10
681.6604
 20
195.9545
 10
681.4271
 20
196.4522
 10
681.1578
 20
196.9172
 10
681.0076
 20
197.1393
 10
680.848
 20
197.3502
 10
680.679
 20
197.5498
 10
680.5007
 20
197.7382
 10
680.313
 20
197.9153
 10
680.1159
 20
198.0813
 10
679.9095
 20
198.236
 10
679.6936
 20
198.3795
 10
679.4645
 20
198.5085
 10
679.2176
 20
198.6203
 10
678.9531
 20
198.715
 10
678.6708
 20
198.7925
 10
678.3709
 20
198.8528
 10
678.0532
 20
198.8958
 10
677.7178
 20
198.9217
 10
677.3647
 20
198.9303
 10
677.0084
 20
198.9155
 10
676.6634
 20
198.8709
 10
676.3297
 20
198.7967
 10
676.0073
 20
198.6928
 10
675.6961
 20
198.5592
 10
675.3963
 20
198.3959
 10
675.1078
 20
198.2029
 10
674.8305
 20
197.9803
 10
674.59
 20
197.7584
 10
674.3603
 20
197.5201
 10
674.1414
 20
197.2655
 10
673.9333
 20
196.9947
 10
673.7361
 20
196.7079
 10
673.5497
 20
196.4052
 10
673.3742
 20
196.0868
 10
673.2095
 20
195.7527
 10
673.0815
 20
196.0608
 10
672.9418
 20
196.3585
 10
672.7904
 20
196.6444
 10
672.6272
 20
196.9172
 10
672.477
 20
197.1393
 10
672.3173
 20
197.3502
 10
672.1483
 20
197.5498
 10
671.9699
 20
197.7382
 10
671.7822
 20
197.9153
 10
671.5851
 20
198.0813
 10
671.3788
 20
198.236
 10
671.1631
 20
198.3795
 10
670.934
 20
198.5085
 10
670.6871
 20
198.6203
 10
670.4226
 20
198.715
 10
670.1403
 20
198.7925
 10
669.8404
 20
198.8528
 10
669.5227
 20
198.8958
 10
669.1873
 20
198.9217
 10
668.8342
 20
198.9303
 10
668.4776
 20
198.9155
 10
668.1324
 20
198.8709
 10
667.7986
 20
198.7967
 10
667.4762
 20
198.6928
 10
667.1651
 20
198.5592
 10
666.8654
 20
198.3959
 10
666.577
 20
198.2029
 10
666.3
 20
197.9803
 10
666.0707
 20
197.769
 10
665.8513
 20
197.5433
 10
665.6418
 20
197.3034
 10
665.4421
 20
197.049
 10
665.2522
 20
196.78
 10
665.0722
 20
196.4966
 10
664.9019
 20
196.1984
 10
664.7414
 20
195.8855
 10
664.7414
 20
198.55
 10
662.5382
 20
198.55
 10
662.5382
 20
181.8403
 10
664.7414
 20
181.8403
 10
664.7414
 20
190.3916
 10
664.7927
 20
190.8898
 10
664.8598
 20
191.3686
 10
664.9425
 20
191.828
 10
665.0409
 20
192.2684
 10
665.155
 20
192.6897
 10
665.2848
 20
193.0921
 10
665.4302
 20
193.4758
 10
665.5914
 20
193.841
 10
665.7228
 20
194.1008
 10
665.8651
 20
194.3488
 10
666.0181
 20
194.5849
 10
666.182
 20
194.8092
 10
666.3566
 20
195.0216
 10
666.5421
 20
195.2221
 10
666.7383
 20
195.4108
 10
666.9454
 20
195.5877
 10
667.1599
 20
195.7479
 10
667.3782
 20
195.8868
 10
667.6005
 20
196.0043
 10
667.8267
 20
196.1004
 10
668.0568
 20
196.1752
 10
668.2909
 20
196.2286
 10
668.529
 20
196.2606
 10
668.771
 20
196.2713
 10
669.0071
 20
196.2657
 10
669.2274
 20
196.2488
 10
669.432
 20
196.2206
 10
669.6209
 20
196.1811
 10
669.794
 20
196.1304
 10
669.9513
 20
196.0684
 10
670.0929
 20
195.9951
 10
670.2187
 20
195.9106
 10
670.5361
 20
195.6276
 10
670.8111
 20
195.2959
 10
671.0439
 20
194.9155
 10
671.2343
 20
194.4864
 10
671.3824
 20
194.0087
 10
671.4882
 20
193.4823
 10
671.5516
 20
192.9073
 10
671.5728
 20
192.2836
 10
671.5728
 20
181.8403
 10
673.7761
 20
181.8403
 10
673.7761
 20
192.2836
 10
673.7605
 20
192.9232
 10
673.8421
 20
193.1654
 10
673.9296
 20
193.3986
 10
674.023
 20
193.6235
 10
674.1226
 20
193.841
 10
674.2538
 20
194.1008
 10
674.3959
 20
194.3488
 10
674.5488
 20
194.5849
 10
674.7126
 20
194.8092
 10
674.8872
 20
195.0216
 10
675.0726
 20
195.2221
 10
675.2689
 20
195.4108
 10
675.476
 20
195.5877
 10
675.6904
 20
195.7479
 10
675.9088
 20
195.8868
 10
676.131
 20
196.0043
 10
676.3572
 20
196.1004
 10
676.5873
 20
196.1752
 10
676.8214
 20
196.2286
 10
677.0595
 20
196.2606
 10
677.3015
 20
196.2713
 10
677.5376
 20
196.2657
 10
677.758
 20
196.2488
 10
677.9626
 20
196.2206
 10
678.1514
 20
196.1811
 10
678.3245
 20
196.1304
 10
678.4819
 20
196.0684
 10
678.6235
 20
195.9951
 10
678.7493
 20
195.9106
 10
679.0667
 20
195.6276
 10
679.3417
 20
195.2959
 10
679.5744
 20
194.9155
 10
679.7649
 20
194.4864
 10
679.913
 20
194.0087
 10
680.0188
 20
193.4823
 10
680.0822
 20
192.9073
 10
680.1034
 20
192.2836
 10
680.1034
 20
181.8403
  0
LWPOLYLINE
  5
68
330
1F
100
AcDbEntity
  8
Layer 1
 62
     7
370
    18
100
AcDbPolyline
 90
       53
 70
     1
 43
0.0
 10
466.6277
 20
139.6257
 10
466.7719
 20
139.6257
 10
466.7117
 20
139.7093
 10
466.6664
 20
139.7931
 10
466.6377
 20
139.8771
 10
466.6277
 20
139.9612
 10
469.583
 20
141.5253
 10
478.0589
 20
142.9822
 10
491.4706
 20
144.3005
 10
509.233
 20
145.4491
 10
530.7612
 20
146.3967
 10
555.4702
 20
147.1122
 10
582.7752
 20
147.5644
 10
612.0912
 20
147.7221
 10
640.6611
 20
147.5724
 10
667.3378
 20
147.1427
 10
691.5816
 20
146.4617
 10
712.8526
 20
145.5583
 10
730.6108
 20
144.4612
 10
744.3164
 20
143.1994
 10
753.4296
 20
141.8016
 10
757.4105
 20
140.2967
 10
757.5555
 20
140.2967
 10
757.5555
 20
136.5324
 10
757.5555
 20
136.475
 10
757.5555
 20
-588.6888
 10
756.9479
 20
-588.6888
 10
751.9958
 20
-596.9915
 10
742.3405
 20
-604.8113
 10
728.4685
 20
-611.9867
 10
710.8665
 20
-618.3557
 10
690.021
 20
-623.7568
 10
666.4187
 20
-628.0283
 10
640.5461
 20
-631.0083
 10
612.8898
 20
-632.5353
 10
583.556
 20
-631.9313
 10
556.1901
 20
-628.9155
 10
531.3874
 20
-624.059
 10
509.7433
 20
-617.9329
 10
491.8534
 20
-611.1084
 10
478.3128
 20
-604.1565
 10
469.7172
 20
-597.6484
 10
466.6619
 20
-592.1553
 10
465.4678
 20
-504.7761
 10
464.9042
 20
-415.1335
 10
464.8257
 20
-323.8305
 10
465.0871
 20
-231.4705
 10
465.5433
 20
-138.6566
 10
466.0489
 20
-45.9923
 10
466.4588
 20
45.9193
 10
466.6277
 20
136.475
 10
466.6277
 20
136.5324
 10
466.6277
 20
139.6257
  0
LWPOLYLINE
  5
69
330
1F
100
AcDbEntity
  8
Layer 1
 62
     7
370
    18
100
AcDbPolyline
 90
        9
 70
     0
 43
0.0
 10
466.6277
 20
139.6257
 10
473.404
 20
138.9338
 10
492.4568
 20
137.2594
 10
521.8726
 20
135.2046
 10
559.7373
 20
133.3714
 10
604.1373
 20
132.362
 10
653.1587
 20
132.7784
 10
704.8877
 20
135.2226
 10
757.4105
 20
140.2967
  0
LWPOLYLINE
  5
6A
330
1F
100
AcDbEntity
  8
Layer 1
 62
     7
100
AcDbPolyline
 90
       65
 70
     1
 43
0.0
 10
792.6643
 20
-198.9795
 10
793.146
 20
-199.0046
 10
793.6088
 20
-199.0799
 10
794.0528
 20
-199.2054
 10
794.478
 20
-199.3811
 10
794.8845
 20
-199.6069
 10
795.2721
 20
-199.8829
 10
795.641
 20
-200.209
 10
795.9911
 20
-200.5853
 10
796.3069
 20
-200.9932
 10
796.5805
 20
-201.4245
 10
796.812
 20
-201.879
 10
797.0013
 20
-202.3568
 10
797.1486
 20
-202.8578
 10
797.2537
 20
-203.3821
 10
797.3168
 20
-203.9296
 10
797.3378
 20
-204.5004
 10
797.317
 20
-205.0661
 10
797.2547
 20
-205.6129
 10
797.1508
 20
-206.1406
 10
797.0053
 20
-206.6494
 10
796.8183
 20
-207.1391
 10
796.5896
 20
-207.6098
 10
796.3194
 20
-208.0616
 10
796.0075
 20
-208.4943
 10
795.6659
 20
-208.8891
 10
795.3026
 20
-209.2313
 10
794.9174
 20
-209.5207
 10
794.5105
 20
-209.7575
 10
794.0817
 20
-209.9416
 10
793.6311
 20
-210.073
 10
793.1586
 20
-210.1519
 10
792.6643
 20
-210.1782
 10
792.1702
 20
-210.1519
 10
791.6978
 20
-210.073
 10
791.2472
 20
-209.9416
 10
790.8185
 20
-209.7575
 10
790.4115
 20
-209.5207
 10
790.0264
 20
-209.2313
 10
789.6632
 20
-208.8891
 10
789.3218
 20
-208.4943
 10
789.0099
 20
-208.0616
 10
788.7396
 20
-207.6098
 10
788.5108
 20
-207.1391
 10
788.3236
 20
-206.6494
 10
788.178
 20
-206.1406
 10
788.074
 20
-205.6129
 10
788.0116
 20
-205.0661
 10
787.9908
 20
-204.5004
 10
788.0119
 20
-203.9296
 10
788.075
 20
-203.3821
 10
788.1802
 20
-202.8578
 10
788.3276
 20
-202.3568
 10
788.5169
 20
-201.879
 10
788.7484
 20
-201.4245
 10
789.0219
 20
-200.9932
 10
789.3375
 20
-200.5853
 10
789.6876
 20
-200.209
 10
790.0566
 20
-199.8829
 10
790.4443
 20
-199.6069
 10
790.8509
 20
-199.3811
 10
791.2761
 20
-199.2054
 10
791.7202
 20
-199.0799
 10
792.1829
 20
-199.0046
 10
792.6643
 20
-198.9795
  0
LWPOLYLINE
  5
6B
330
1F
100
AcDbEntity
  8
Layer 1
 62
     7
100
AcDbPolyline
 90
       65
 70
     1
 43
0.0
 10
792.6643
 20
-188.1729
 10
793.0526
 20
-188.1925
 10
793.4262
 20
-188.2511
 10
793.7849
 20
-188.3489
 10
794.129
 20
-188.4859
 10
794.4584
 20
-188.6619
 10
794.773
 20
-188.8772
 10
795.073
 20
-189.1316
 10
795.3583
 20
-189.4252
 10
795.6245
 20
-189.7553
 10
795.8552
 20
-190.1044
 10
796.0505
 20
-190.4725
 10
796.2103
 20
-190.8596
 10
796.3347
 20
-191.2656
 10
796.4235
 20
-191.6906
 10
796.4768
 20
-192.1345
 10
796.4946
 20
-192.5974
 10
796.4768
 20
-193.05
 10
796.4235
 20
-193.4879
 10
796.3347
 20
-193.9112
 10
796.2103
 20
-194.3199
 10
796.0505
 20
-194.7139
 10
795.8552
 20
-195.0933
 10
795.6245
 20
-195.4581
 10
795.3583
 20
-195.8082
 10
795.0749
 20
-196.1202
 10
794.7762
 20
-196.3905
 10
794.4623
 20
-196.6194
 10
794.1332
 20
-196.8066
 10
793.7888
 20
-196.9522
 10
793.4292
 20
-197.0563
 10
793.0543
 20
-197.1187
 10
792.6643
 20
-197.1395
 10
792.2743
 20
-197.1187
 10
791.8995
 20
-197.0563
 10
791.54
 20
-196.9522
 10
791.1957
 20
-196.8066
 10
790.8666
 20
-196.6194
 10
790.5527
 20
-196.3905
 10
790.2539
 20
-196.1202
 10
789.9703
 20
-195.8082
 10
789.7042
 20
-195.4581
 10
789.4735
 20
-195.0933
 10
789.2784
 20
-194.7139
 10
789.1187
 20
-194.3199
 10
788.9945
 20
-193.9112
 10
788.9058
 20
-193.4879
 10
788.8525
 20
-193.05
 10
788.8348
 20
-192.5974
 10
788.8525
 20
-192.1345
 10
788.9058
 20
-191.6906
 10
788.9945
 20
-191.2656
 10
789.1187
 20
-190.8596
 10
789.2784
 20
-190.4725
 10
789.4735
 20
-190.1044
 10
789.7042
 20
-189.7553
 10
789.9703
 20
-189.4252
 10
790.2556
 20
-189.1316
 10
790.5557
 20
-188.8772
 10
790.8704
 20
-188.6619
 10
791.1999
 20
-188.4859
 10
791.544
 20
-188.3489
 10
791.9028
 20
-188.2511
 10
792.2762
 20
-188.1925
 10
792.6643
 20
-188.1729
  0
LWPOLYLINE
  5
6C
330
1F
100
AcDbEntity
  8
Layer 1
 62
     7
100
AcDbPolyline
 90
      121
 70
     1
 43
0.0
 10
792.6643
 20
-212.9189
 10
793.4081
 20
-212.885
 10
794.1219
 20
-212.7831
 10
794.8057
 20
-212.6134
 10
795.4597
 20
-212.3758
 10
796.0837
 20
-212.0703
 10
796.6778
 20
-211.6968
 10
797.2421
 20
-211.2554
 10
797.7765
 20
-210.7461
 10
798.0173
 20
-210.48
 10
798.2449
 20
-210.2004
 10
798.4593
 20
-209.9074
 10
798.6606
 20
-209.6009
 10
798.8487
 20
-209.281
 10
799.0237
 20
-208.9476
 10
799.1855
 20
-208.6007
 10
799.3343
 20
-208.2404
 10
799.4674
 20
-207.8664
 10
799.5826
 20
-207.4789
 10
799.6802
 20
-207.0781
 10
799.7599
 20
-206.6639
 10
799.822
 20
-206.2362
 10
799.8663
 20
-205.7952
 10
799.8928
 20
-205.3407
 10
799.9017
 20
-204.8727
 10
799.8867
 20
-204.3986
 10
799.8419
 20
-203.9257
 10
799.7671
 20
-203.454
 10
799.6625
 20
-202.9835
 10
799.5279
 20
-202.5142
 10
799.3634
 20
-202.0461
 10
799.169
 20
-201.5793
 10
798.9447
 20
-201.1137
 10
798.6923
 20
-200.6595
 10
798.4141
 20
-200.2266
 10
798.11
 20
-199.8151
 10
797.7802
 20
-199.425
 10
797.4245
 20
-199.0563
 10
797.0429
 20
-198.7091
 10
796.6355
 20
-198.3832
 10
796.2023
 20
-198.0788
 10
796.8185
 20
-197.4161
 10
797.3524
 20
-196.7392
 10
797.8042
 20
-196.0482
 10
798.1739
 20
-195.3431
 10
798.4613
 20
-194.624
 10
798.6667
 20
-193.8907
 10
798.7898
 20
-193.1435
 10
798.8309
 20
-192.3821
 10
798.8028
 20
-191.6309
 10
798.7184
 20
-190.9146
 10
798.5777
 20
-190.2333
 10
798.3807
 20
-189.5869
 10
798.1275
 20
-188.9754
 10
797.8179
 20
-188.3988
 10
797.4521
 20
-187.8571
 10
797.0299
 20
-187.3502
 10
796.5835
 20
-186.9096
 10
796.1088
 20
-186.5278
 10
795.6056
 20
-186.2048
 10
795.0741
 20
-185.9405
 10
794.5142
 20
-185.735
 10
793.926
 20
-185.5882
 10
793.3093
 20
-185.5002
 10
792.6643
 20
-185.4708
 10
792.0193
 20
-185.5002
 10
791.4026
 20
-185.5882
 10
790.8144
 20
-185.735
 10
790.2546
 20
-185.9405
 10
789.7231
 20
-186.2048
 10
789.2201
 20
-186.5278
 10
788.7455
 20
-186.9096
 10
788.2994
 20
-187.3502
 10
787.8772
 20
-187.8568
 10
787.5113
 20
-188.3976
 10
787.2016
 20
-188.9727
 10
786.9482
 20
-189.5821
 10
786.7511
 20
-190.2257
 10
786.6103
 20
-190.9037
 10
786.5259
 20
-191.6159
 10
786.4977
 20
-192.3624
 10
786.5388
 20
-193.1285
 10
786.6621
 20
-193.8798
 10
786.8675
 20
-194.6164
 10
787.1551
 20
-195.3384
 10
787.5249
 20
-196.0455
 10
787.9768
 20
-196.738
 10
788.5108
 20
-197.4158
 10
789.127
 20
-198.0788
 10
788.6935
 20
-198.3832
 10
788.286
 20
-198.7091
 10
787.9043
 20
-199.0563
 10
787.5485
 20
-199.425
 10
787.2186
 20
-199.8151
 10
786.9145
 20
-200.2266
 10
786.6363
 20
-200.6595
 10
786.3839
 20
-201.1137
 10
786.1596
 20
-201.5802
 10
785.9652
 20
-202.0498
 10
785.8007
 20
-202.5225
 10
785.6662
 20
-202.9982
 10
785.5615
 20
-203.4769
 10
785.4867
 20
-203.9586
 10
785.4419
 20
-204.4433
 10
785.4269
 20
-204.931
 10
785.4601
 20
-205.8057
 10
785.5598
 20
-206.6382
 10
785.7258
 20
-207.4284
 10
785.9584
 20
-208.1763
 10
786.2573
 20
-208.882
 10
786.6227
 20
-209.5456
 10
787.0545
 20
-210.1669
 10
787.5528
 20
-210.7461
 10
788.087
 20
-211.2554
 10
788.6511
 20
-211.6968
 10
789.2451
 20
-212.0703
 10
789.869
 20
-212.3758
 10
790.5229
 20
-212.6134
 10
791.2068
 20
-212.7831
 10
791.9205
 20
-212.885
 10
792.6643
 20
-212.9189
  0
LWPOLYLINE
  5
6D
330
1F
100
AcDbEntity
  8
Layer 1
 62
     7
100
AcDbPolyline
 90
      136
 70
     1
 43
0.0
 10
807.0097
 20
-195.7687
 10
808.5029
 20
-188.6421
 10
816.4868
 20
-188.6421
 10
816.4868
 20
-185.9014
 10
806.7822
 20
-185.9014
 10
804.251
 20
-197.8438
 10
806.7175
 20
-199.1751
 10
807.0752
 20
-198.8815
 10
807.4507
 20
-198.6271
 10
807.844
 20
-198.4118
 10
808.255
 20
-198.2357
 10
808.6837
 20
-198.0987
 10
809.1302
 20
-198.0009
 10
809.5944
 20
-197.9423
 10
810.0763
 20
-197.9227
 10
810.5612
 20
-197.9514
 10
811.0298
 20
-198.0376
 10
811.4822
 20
-198.1813
 10
811.9184
 20
-198.3825
 10
812.3383
 20
-198.6412
 10
812.742
 20
-198.9574
 10
813.1294
 20
-199.3313
 10
813.5006
 20
-199.7627
 10
813.8506
 20
-200.2439
 10
814.1539
 20
-200.7428
 10
814.4105
 20
-201.2595
 10
814.6205
 20
-201.794
 10
814.7838
 20
-202.3462
 10
814.9004
 20
-202.9161
 10
814.9704
 20
-203.5038
 10
814.9937
 20
-204.1092
 10
814.9699
 20
-204.7355
 10
814.8983
 20
-205.3366
 10
814.7792
 20
-205.9127
 10
814.6123
 20
-206.4636
 10
814.3979
 20
-206.9894
 10
814.1357
 20
-207.4901
 10
813.826
 20
-207.9657
 10
813.4686
 20
-208.4163
 10
813.2866
 20
-208.6167
 10
813.0981
 20
-208.8067
 10
812.9031
 20
-208.9863
 10
812.7015
 20
-209.1555
 10
812.4933
 20
-209.3143
 10
812.2785
 20
-209.4626
 10
812.0571
 20
-209.6004
 10
811.829
 20
-209.7278
 10
811.5912
 20
-209.8426
 10
811.3403
 20
-209.9421
 10
811.0761
 20
-210.0263
 10
810.7988
 20
-210.0952
 10
810.5082
 20
-210.1488
 10
810.2045
 20
-210.1871
 10
809.8875
 20
-210.21
 10
809.5573
 20
-210.2177
 10
809.2209
 20
-210.2005
 10
808.885
 20
-210.1491
 10
808.5496
 20
-210.0634
 10
808.2146
 20
-209.9434
 10
807.88
 20
-209.7892
 10
807.546
 20
-209.6008
 10
807.2125
 20
-209.3782
 10
806.8796
 20
-209.1214
 10
806.5591
 20
-208.8368
 10
806.2629
 20
-208.5315
 10
805.9911
 20
-208.2053
 10
805.7437
 20
-207.8584
 10
805.5206
 20
-207.4906
 10
805.3219
 20
-207.102
 10
805.1475
 20
-206.6926
 10
804.9976
 20
-206.2623
 10
802.7906
 20
-207.1244
 10
803.0074
 20
-207.7689
 10
803.2602
 20
-208.3809
 10
803.549
 20
-208.9605
 10
803.8737
 20
-209.5077
 10
804.2345
 20
-210.0225
 10
804.6313
 20
-210.5048
 10
805.0641
 20
-210.9547
 10
805.5329
 20
-211.3723
 10
806.0315
 20
-211.7533
 10
806.5411
 20
-212.0835
 10
807.0619
 20
-212.3629
 10
807.5938
 20
-212.5914
 10
808.1369
 20
-212.7692
 10
808.6911
 20
-212.8962
 10
809.2566
 20
-212.9724
 10
809.8332
 20
-212.9978
 10
810.6015
 20
-212.9559
 10
811.3404
 20
-212.8301
 10
812.0498
 20
-212.6205
 10
812.7299
 20
-212.3271
 10
813.3805
 20
-211.9499
 10
814.0017
 20
-211.4889
 10
814.5934
 20
-210.9441
 10
815.1558
 20
-210.3155
 10
815.6656
 20
-209.6329
 10
816.1074
 20
-208.9168
 10
816.4812
 20
-208.1671
 10
816.7871
 20
-207.3837
 10
817.0249
 20
-206.5667
 10
817.1949
 20
-205.716
 10
817.2968
 20
-204.8317
 10
817.3308
 20
-203.9136
 10
817.2973
 20
-203.0004
 10
817.1968
 20
-202.1257
 10
817.0294
 20
-201.2896
 10
816.795
 20
-200.4921
 10
816.4937
 20
-199.7332
 10
816.1255
 20
-199.0128
 10
815.6905
 20
-198.331
 10
815.1885
 20
-197.6877
 10
814.9319
 20
-197.4017
 10
814.6651
 20
-197.1309
 10
814.3882
 20
-196.8755
 10
814.1011
 20
-196.6354
 10
813.8039
 20
-196.4105
 10
813.4965
 20
-196.201
 10
813.179
 20
-196.0068
 10
812.8514
 20
-195.8279
 10
812.5172
 20
-195.6671
 10
812.1801
 20
-195.5278
 10
811.8401
 20
-195.41
 10
811.4973
 20
-195.3137
 10
811.1517
 20
-195.2388
 10
810.8033
 20
-195.1853
 10
810.4523
 20
-195.1533
 10
810.0986
 20
-195.1426
 10
809.7379
 20
-195.1524
 10
809.37
 20
-195.1818
 10
808.995
 20
-195.2307
 10
808.6127
 20
-195.2992
 10
808.2231
 20
-195.3873
 10
807.8261
 20
-195.4949
 10
807.4217
 20
-195.622
 10
807.0097
 20
-195.7687
  0
LWPOLYLINE
  5
6E
330
1F
100
AcDbEntity
  8
Layer 1
 62
     7
100
AcDbPolyline
 90
      129
 70
     1
 43
0.0
 10
829.9072
 20
-188.9946
 10
830.2819
 20
-189.3017
 10
830.6312
 20
-189.6505
 10
830.9553
 20
-190.0409
 10
831.254
 20
-190.4729
 10
831.5273
 20
-190.9465
 10
831.7753
 20
-191.4618
 10
831.998
 20
-192.0187
 10
832.1953
 20
-192.6172
 10
832.4159
 20
-193.4109
 10
832.6072
 20
-194.2162
 10
832.769
 20
-195.0331
 10
832.9014
 20
-195.8617
 10
833.0043
 20
-196.7019
 10
833.0779
 20
-197.5538
 10
833.122
 20
-198.4174
 10
833.1367
 20
-199.2926
 10
833.1352
 20
-199.5028
 10
833.1306
 20
-199.7222
 10
833.1229
 20
-199.9508
 10
833.1123
 20
-200.1886
 10
833.0986
 20
-200.4356
 10
833.0818
 20
-200.6917
 10
833.0621
 20
-200.957
 10
833.0393
 20
-201.2313
 10
832.9267
 20
-202.2838
 10
832.7796
 20
-203.2782
 10
832.598
 20
-204.2146
 10
832.3819
 20
-205.0928
 10
832.1313
 20
-205.9129
 10
831.8463
 20
-206.675
 10
831.5268
 20
-207.3791
 10
831.1728
 20
-208.0251
 10
830.8499
 20
-208.5114
 10
830.5097
 20
-208.9329
 10
830.1523
 20
-209.2896
 10
829.7776
 20
-209.5814
 10
829.3856
 20
-209.8083
 10
828.9764
 20
-209.9704
 10
828.55
 20
-210.0677
 10
828.1063
 20
-210.1001
 10
827.611
 20
-210.068
 10
827.1395
 20
-209.9716
 10
826.6919
 20
-209.811
 10
826.2681
 20
-209.5861
 10
825.8682
 20
-209.2969
 10
825.4921
 20
-208.9435
 10
825.1398
 20
-208.5259
 10
824.8114
 20
-208.044
 10
824.6725
 20
-207.8105
 10
824.5397
 20
-207.5696
 10
824.4129
 20
-207.3213
 10
824.2923
 20
-207.0657
 10
824.1777
 20
-206.8026
 10
824.0693
 20
-206.5321
 10
823.9669
 20
-206.2542
 10
823.8707
 20
-205.9689
 10
823.7801
 20
-205.6793
 10
823.695
 20
-205.3879
 10
823.6156
 20
-205.0946
 10
823.5418
 20
-204.7994
 10
823.4735
 20
-204.5023
 10
823.4109
 20
-204.2034
 10
823.3539
 20
-203.9025
 10
823.3026
 20
-203.5997
 10
823.2556
 20
-203.2975
 10
823.2122
 20
-202.9978
 10
823.1725
 20
-202.7006
 10
823.1362
 20
-202.4059
 10
823.1036
 20
-202.1135
 10
823.0745
 20
-201.8236
 10
823.0489
 20
-201.5361
 10
823.0268
 20
-201.251
 10
823.0077
 20
-200.9616
 10
822.9912
 20
-200.6612
 10
822.9773
 20
-200.35
 10
822.9659
 20
-200.028
 10
822.957
 20
-199.6954
 10
822.9507
 20
-199.3521
 10
822.947
 20
-198.9983
 10
822.9457
 20
-198.6341
 10
822.9513
 20
-198.2534
 10
822.968
 20
-197.8506
 10
822.9959
 20
-197.4257
 10
823.0349
 20
-196.9786
 10
823.0851
 20
-196.5091
 10
823.1465
 20
-196.0172
 10
823.219
 20
-195.5028
 10
823.3026
 20
-194.9658
 10
823.3537
 20
-194.6677
 10
823.4099
 20
-194.3702
 10
823.4713
 20
-194.0733
 10
823.5378
 20
-193.7769
 10
823.6093
 20
-193.4812
 10
823.686
 20
-193.186
 10
823.7677
 20
-192.8914
 10
823.8544
 20
-192.5974
 10
823.9469
 20
-192.3074
 10
824.046
 20
-192.0247
 10
824.1516
 20
-191.7493
 10
824.2639
 20
-191.4813
 10
824.3828
 20
-191.2206
 10
824.5083
 20
-190.9673
 10
824.6405
 20
-190.7214
 10
824.7794
 20
-190.4829
 10
824.9249
 20
-190.2536
 10
825.0775
 20
-190.036
 10
825.2372
 20
-189.83
 10
825.404
 20
-189.6358
 10
825.5779
 20
-189.4531
 10
825.759
 20
-189.2821
 10
825.9471
 20
-189.1227
 10
826.1424
 20
-188.9749
 10
826.3458
 20
-188.8418
 10
826.5583
 20
-188.7264
 10
826.7799
 20
-188.6288
 10
827.0107
 20
-188.549
 10
827.2505
 20
-188.4869
 10
827.4994
 20
-188.4425
 10
827.7574
 20
-188.4159
 10
828.0245
 20
-188.407
 10
828.2918
 20
-188.4162
 10
828.55
 20
-188.4438
 10
828.799
 20
-188.4898
 10
829.0389
 20
-188.5541
 10
829.2697
 20
-188.6368
 10
829.4913
 20
-188.7378
 10
829.7038
 20
-188.8571
 10
829.9072
 20
-188.9946
  0
LWPOLYLINE
  5
6F
330
1F
100
AcDbEntity
  8
Layer 1
 62
     7
100
AcDbPolyline
 90
       65
 70
     1
 43
0.0
 10
828.1382
 20
-212.8803
 10
829.0857
 20
-212.8078
 10
829.9729
 20
-212.5903
 10
830.7998
 20
-212.2278
 10
831.5663
 20
-211.7203
 10
832.2725
 20
-211.0679
 10
832.9184
 20
-210.2704
 10
833.5039
 20
-209.3279
 10
834.029
 20
-208.2404
 10
834.3979
 20
-207.2913
 10
834.7176
 20
-206.2897
 10
834.9882
 20
-205.2354
 10
835.2096
 20
-204.1286
 10
835.3818
 20
-202.9692
 10
835.5048
 20
-201.7571
 10
835.5786
 20
-200.4924
 10
835.6032
 20
-199.1751
 10
835.5786
 20
-197.8581
 10
835.5048
 20
-196.5936
 10
835.3818
 20
-195.3817
 10
835.2096
 20
-194.2223
 10
834.9882
 20
-193.1155
 10
834.7176
 20
-192.0613
 10
834.3979
 20
-191.0597
 10
834.029
 20
-190.1106
 10
833.5039
 20
-189.0231
 10
832.9184
 20
-188.0807
 10
832.2725
 20
-187.2832
 10
831.5663
 20
-186.6308
 10
830.7998
 20
-186.1233
 10
829.9729
 20
-185.7608
 10
829.0857
 20
-185.5433
 10
828.1382
 20
-185.4708
 10
827.1907
 20
-185.5433
 10
826.3036
 20
-185.7608
 10
825.4767
 20
-186.1233
 10
824.7102
 20
-186.6308
 10
824.004
 20
-187.2832
 10
823.3581
 20
-188.0807
 10
822.7726
 20
-189.0231
 10
822.2475
 20
-190.1106
 10
821.8786
 20
-191.0597
 10
821.5589
 20
-192.0613
 10
821.2883
 20
-193.1155
 10
821.067
 20
-194.2223
 10
820.8947
 20
-195.3817
 10
820.7717
 20
-196.5936
 10
820.6979
 20
-197.8581
 10
820.6733
 20
-199.1751
 10
820.6979
 20
-200.4924
 10
820.7717
 20
-201.7571
 10
820.8947
 20
-202.9692
 10
821.067
 20
-204.1286
 10
821.2883
 20
-205.2354
 10
821.5589
 20
-206.2897
 10
821.8786
 20
-207.2913
 10
822.2475
 20
-208.2404
 10
822.7726
 20
-209.3279
 10
823.3581
 20
-210.2704
 10
824.004
 20
-211.0679
 10
824.7102
 20
-211.7203
 10
825.4767
 20
-212.2278
 10
826.3036
 20
-212.5903
 10
827.1907
 20
-212.8078
 10
828.1382
 20
-212.8803
  0
LWPOLYLINE
  5
70
330
1F
100
AcDbEntity
  8
Layer 1
 62
     7
100
AcDbPolyline
 90
      165
 70
     1
 43
0.0
 10
857.7705
 20
-212.4497
 10
860.0422
 20
-212.4497
 10
860.0422
 20
-201.6816
 10
860.0237
 20
-200.9667
 10
859.9682
 20
-200.2855
 10
859.8756
 20
-199.6379
 10
859.746
 20
-199.0239
 10
859.5795
 20
-198.4436
 10
859.3758
 20
-197.8969
 10
859.1352
 20
-197.3839
 10
858.8576
 20
-196.9045
 10
858.7025
 20
-196.6752
 10
858.5379
 20
-196.4575
 10
858.3637
 20
-196.2516
 10
858.1798
 20
-196.0573
 10
857.9864
 20
-195.8746
 10
857.7833
 20
-195.7036
 10
857.5705
 20
-195.5442
 10
857.3481
 20
-195.3964
 10
857.1117
 20
-195.2636
 10
856.8572
 20
-195.1485
 10
856.5844
 20
-195.051
 10
856.2933
 20
-194.9713
 10
855.984
 20
-194.9093
 10
855.6564
 20
-194.865
 10
855.3105
 20
-194.8384
 10
854.9463
 20
-194.8295
 10
854.579
 20
-194.8448
 10
854.2234
 20
-194.8906
 10
853.8794
 20
-194.967
 10
853.5471
 20
-195.0739
 10
853.2263
 20
-195.2115
 10
852.9173
 20
-195.3798
 10
852.6199
 20
-195.5786
 10
852.3341
 20
-195.8082
 10
852.0859
 20
-196.0368
 10
851.849
 20
-196.2825
 10
851.6233
 20
-196.545
 10
851.4088
 20
-196.8243
 10
851.2054
 20
-197.1201
 10
851.0133
 20
-197.4322
 10
850.8323
 20
-197.7605
 10
850.6625
 20
-198.1048
 10
850.5304
 20
-197.7869
 10
850.3863
 20
-197.4801
 10
850.2301
 20
-197.1855
 10
850.0616
 20
-196.9045
 10
849.9068
 20
-196.6752
 10
849.7423
 20
-196.4575
 10
849.5682
 20
-196.2516
 10
849.3845
 20
-196.0573
 10
849.1911
 20
-195.8746
 10
848.988
 20
-195.7036
 10
848.7753
 20
-195.5442
 10
848.5529
 20
-195.3964
 10
848.3165
 20
-195.2636
 10
848.0619
 20
-195.1485
 10
847.789
 20
-195.051
 10
847.4978
 20
-194.9713
 10
847.1885
 20
-194.9093
 10
846.8609
 20
-194.865
 10
846.5151
 20
-194.8384
 10
846.1511
 20
-194.8295
 10
845.7836
 20
-194.8448
 10
845.4277
 20
-194.8906
 10
845.0836
 20
-194.967
 10
844.7512
 20
-195.0739
 10
844.4304
 20
-195.2115
 10
844.1213
 20
-195.3798
 10
843.8239
 20
-195.5786
 10
843.5381
 20
-195.8082
 10
843.302
 20
-196.0259
 10
843.0759
 20
-196.2584
 10
842.86
 20
-196.5058
 10
842.6542
 20
-196.7682
 10
842.4584
 20
-197.0457
 10
842.2728
 20
-197.3381
 10
842.0973
 20
-197.6457
 10
841.9319
 20
-197.9685
 10
841.9319
 20
-195.2206
 10
839.6602
 20
-195.2206
 10
839.6602
 20
-212.4497
 10
841.9319
 20
-212.4497
 10
841.9319
 20
-203.6328
 10
841.9846
 20
-203.1191
 10
842.0536
 20
-202.6254
 10
842.1388
 20
-202.1516
 10
842.2402
 20
-201.6975
 10
842.3578
 20
-201.2631
 10
842.4917
 20
-200.848
 10
842.6417
 20
-200.4523
 10
842.8079
 20
-200.0758
 10
842.9434
 20
-199.808
 10
843.09
 20
-199.5523
 10
843.2477
 20
-199.3088
 10
843.4165
 20
-199.0775
 10
843.5965
 20
-198.8584
 10
843.7877
 20
-198.6515
 10
843.99
 20
-198.4568
 10
844.2036
 20
-198.2744
 10
844.4248
 20
-198.1094
 10
844.6501
 20
-197.9664
 10
844.8793
 20
-197.8454
 10
845.1127
 20
-197.7463
 10
845.35
 20
-197.6692
 10
845.5915
 20
-197.6142
 10
845.8369
 20
-197.5811
 10
846.0864
 20
-197.5701
 10
846.3298
 20
-197.5759
 10
846.5569
 20
-197.5933
 10
846.7679
 20
-197.6223
 10
846.9625
 20
-197.663
 10
847.141
 20
-197.7152
 10
847.3032
 20
-197.779
 10
847.4491
 20
-197.8545
 10
847.5788
 20
-197.9415
 10
847.9061
 20
-198.2334
 10
848.1896
 20
-198.5755
 10
848.4295
 20
-198.9678
 10
848.6258
 20
-199.4103
 10
848.7784
 20
-199.9029
 10
848.8873
 20
-200.4457
 10
848.9527
 20
-201.0386
 10
848.9745
 20
-201.6816
 10
848.9745
 20
-212.4497
 10
851.2469
 20
-212.4497
 10
851.2469
 20
-201.6816
 10
851.2306
 20
-201.0222
 10
851.3145
 20
-200.7726
 10
851.4047
 20
-200.5322
 10
851.5011
 20
-200.3001
 10
851.6039
 20
-200.0758
 10
851.7392
 20
-199.808
 10
851.8856
 20
-199.5523
 10
852.0433
 20
-199.3088
 10
852.2121
 20
-199.0775
 10
852.3921
 20
-198.8584
 10
852.5832
 20
-198.6515
 10
852.7855
 20
-198.4568
 10
852.9988
 20
-198.2744
 10
853.22
 20
-198.1094
 10
853.4453
 20
-197.9664
 10
853.6745
 20
-197.8454
 10
853.9079
 20
-197.7463
 10
854.1452
 20
-197.6692
 10
854.3867
 20
-197.6142
 10
854.6321
 20
-197.5811
 10
854.8816
 20
-197.5701
 10
855.125
 20
-197.5759
 10
855.3522
 20
-197.5933
 10
855.5631
 20
-197.6223
 10
855.7579
 20
-197.663
 10
855.9364
 20
-197.7152
 10
856.0987
 20
-197.779
 10
856.2448
 20
-197.8545
 10
856.3748
 20
-197.9415
 10
856.7018
 20
-198.2334
 10
856.9853
 20
-198.5755
 10
857.2252
 20
-198.9678
 10
857.4215
 20
-199.4103
 10
857.5742
 20
-199.9029
 10
857.6832
 20
-200.4457
 10
857.7487
 20
-201.0386
 10
857.7705
 20
-201.6816
 10
857.7705
 20
-212.4497
  0
LWPOLYLINE
  5
71
330
1F
100
AcDbEntity
  8
Layer 1
 62
     7
100
AcDbPolyline
 90
      165
 70
     1
 43
0.0
 10
882.5344
 20
-212.4497
 10
884.8061
 20
-212.4497
 10
884.8061
 20
-201.6816
 10
884.7876
 20
-200.9667
 10
884.7321
 20
-200.2855
 10
884.6395
 20
-199.6379
 10
884.51
 20
-199.0239
 10
884.3434
 20
-198.4436
 10
884.1398
 20
-197.8969
 10
883.8992
 20
-197.3839
 10
883.6216
 20
-196.9045
 10
883.4665
 20
-196.6752
 10
883.3019
 20
-196.4575
 10
883.1276
 20
-196.2516
 10
882.9438
 20
-196.0573
 10
882.7503
 20
-195.8746
 10
882.5473
 20
-195.7036
 10
882.3345
 20
-195.5442
 10
882.1121
 20
-195.3964
 10
881.8757
 20
-195.2636
 10
881.6211
 20
-195.1485
 10
881.3483
 20
-195.051
 10
881.0573
 20
-194.9713
 10
880.748
 20
-194.9093
 10
880.4204
 20
-194.865
 10
880.0745
 20
-194.8384
 10
879.7103
 20
-194.8295
 10
879.343
 20
-194.8448
 10
878.9874
 20
-194.8906
 10
878.6434
 20
-194.967
 10
878.311
 20
-195.0739
 10
877.9903
 20
-195.2115
 10
877.6812
 20
-195.3798
 10
877.3838
 20
-195.5786
 10
877.098
 20
-195.8082
 10
876.8499
 20
-196.0368
 10
876.6129
 20
-196.2825
 10
876.3872
 20
-196.545
 10
876.1727
 20
-196.8243
 10
875.9694
 20
-197.1201
 10
875.7772
 20
-197.4322
 10
875.5962
 20
-197.7605
 10
875.4264
 20
-198.1048
 10
875.2944
 20
-197.7869
 10
875.1503
 20
-197.4801
 10
874.994
 20
-197.1855
 10
874.8256
 20
-196.9045
 10
874.6708
 20
-196.6752
 10
874.5063
 20
-196.4575
 10
874.3322
 20
-196.2516
 10
874.1485
 20
-196.0573
 10
873.9551
 20
-195.8746
 10
873.752
 20
-195.7036
 10
873.5392
 20
-195.5442
 10
873.3168
 20
-195.3964
 10
873.0804
 20
-195.2636
 10
872.8258
 20
-195.1485
 10
872.5529
 20
-195.051
 10
872.2618
 20
-194.9713
 10
871.9524
 20
-194.9093
 10
871.6248
 20
-194.865
 10
871.279
 20
-194.8384
 10
870.915
 20
-194.8295
 10
870.5475
 20
-194.8448
 10
870.1916
 20
-194.8906
 10
869.8475
 20
-194.967
 10
869.5151
 20
-195.0739
 10
869.1943
 20
-195.2115
 10
868.8852
 20
-195.3798
 10
868.5878
 20
-195.5786
 10
868.302
 20
-195.8082
 10
868.0659
 20
-196.0259
 10
867.8398
 20
-196.2584
 10
867.6239
 20
-196.5058
 10
867.4181
 20
-196.7682
 10
867.2224
 20
-197.0457
 10
867.0368
 20
-197.3381
 10
866.8613
 20
-197.6457
 10
866.6959
 20
-197.9685
 10
866.6959
 20
-195.2206
 10
864.4242
 20
-195.2206
 10
864.4242
 20
-212.4497
 10
866.6959
 20
-212.4497
 10
866.6959
 20
-203.6328
 10
866.7486
 20
-203.1191
 10
866.8176
 20
-202.6254
 10
866.9028
 20
-202.1516
 10
867.0042
 20
-201.6975
 10
867.1218
 20
-201.2631
 10
867.2556
 20
-200.848
 10
867.4056
 20
-200.4523
 10
867.5718
 20
-200.0758
 10
867.7073
 20
-199.808
 10
867.8539
 20
-199.5523
 10
868.0116
 20
-199.3088
 10
868.1804
 20
-199.0775
 10
868.3604
 20
-198.8584
 10
868.5516
 20
-198.6515
 10
868.754
 20
-198.4568
 10
868.9675
 20
-198.2744
 10
869.1887
 20
-198.1094
 10
869.414
 20
-197.9664
 10
869.6432
 20
-197.8454
 10
869.8766
 20
-197.7463
 10
870.1139
 20
-197.6692
 10
870.3554
 20
-197.6142
 10
870.6008
 20
-197.5811
 10
870.8503
 20
-197.5701
 10
871.0937
 20
-197.5759
 10
871.3209
 20
-197.5933
 10
871.5318
 20
-197.6223
 10
871.7265
 20
-197.663
 10
871.9049
 20
-197.7152
 10
872.0671
 20
-197.779
 10
872.213
 20
-197.8545
 10
872.3427
 20
-197.9415
 10
872.67
 20
-198.2334
 10
872.9536
 20
-198.5755
 10
873.1935
 20
-198.9678
 10
873.3897
 20
-199.4103
 10
873.5423
 20
-199.9029
 10
873.6513
 20
-200.4457
 10
873.7167
 20
-201.0386
 10
873.7385
 20
-201.6816
 10
873.7385
 20
-212.4497
 10
876.0109
 20
-212.4497
 10
876.0109
 20
-201.6816
 10
875.9945
 20
-201.0222
 10
876.0784
 20
-200.7726
 10
876.1686
 20
-200.5322
 10
876.265
 20
-200.3001
 10
876.3678
 20
-200.0758
 10
876.5031
 20
-199.808
 10
876.6496
 20
-199.5523
 10
876.8072
 20
-199.3088
 10
876.9761
 20
-199.0775
 10
877.1561
 20
-198.8584
 10
877.3472
 20
-198.6515
 10
877.5495
 20
-198.4568
 10
877.7628
 20
-198.2744
 10
877.984
 20
-198.1094
 10
878.2092
 20
-197.9664
 10
878.4385
 20
-197.8454
 10
878.6718
 20
-197.7463
 10
878.9092
 20
-197.6692
 10
879.1506
 20
-197.6142
 10
879.3961
 20
-197.5811
 10
879.6456
 20
-197.5701
 10
879.889
 20
-197.5759
 10
880.1162
 20
-197.5933
 10
880.3271
 20
-197.6223
 10
880.5218
 20
-197.663
 10
880.7003
 20
-197.7152
 10
880.8627
 20
-197.779
 10
881.0088
 20
-197.8545
 10
881.1387
 20
-197.9415
 10
881.4657
 20
-198.2334
 10
881.7492
 20
-198.5755
 10
881.9891
 20
-198.9678
 10
882.1854
 20
-199.4103
 10
882.3381
 20
-199.9029
 10
882.4471
 20
-200.4457
 10
882.5126
 20
-201.0386
 10
882.5344
 20
-201.6816
 10
882.5344
 20
-212.4497
  0
LWPOLYLINE
  5
72
330
1F
100
AcDbEntity
  8
Layer 1
 62
     7
370
    18
100
AcDbPolyline
 90
        2
 70
     0
 43
0.0
 10
848.1937
 20
140.2912
 10
829.2581
 20
140.2912
  0
LWPOLYLINE
  5
73
330
1F
100
AcDbEntity
  8
Layer 1
 62
     7
370
    18
100
AcDbPolyline
 90
        2
 70
     0
 43
0.0
 10
838.7255
 20
140.2967
 10
838.7255
 20
-166.7435
  0
LWPOLYLINE
  5
74
330
1F
100
AcDbEntity
  8
Layer 1
 62
     7
370
    18
100
AcDbPolyline
 90
        2
 70
     0
 43
0.0
 10
848.1937
 20
-610.0021
 10
829.2581
 20
-610.0021
  0
LWPOLYLINE
  5
75
330
1F
100
AcDbEntity
  8
Layer 1
 62
     7
370
    18
100
AcDbPolyline
 90
        2
 70
     0
 43
0.0
 10
838.7255
 20
-610.0106
 10
838.7255
 20
-246.2036
  0
LWPOLYLINE
  5
76
330
1F
100
AcDbEntity
  8
Layer 1
 62
     7
370
    18
100
AcDbPolyline
 90
       33
 70
     1
 43
0.0
 10
537.0862
 20
208.0064
 10
539.3853
 20
207.7268
 10
541.5268
 20
206.9248
 10
543.4646
 20
205.6558
 10
545.153
 20
203.9751
 10
546.5461
 20
201.9382
 10
547.598
 20
199.6002
 10
548.2627
 20
197.0167
 10
548.4945
 20
194.2429
 10
548.2627
 20
191.4691
 10
547.598
 20
188.8856
 10
546.5461
 20
186.5477
 10
545.153
 20
184.5107
 10
543.4646
 20
182.83
 10
541.5268
 20
181.561
 10
539.3853
 20
180.759
 10
537.0862
 20
180.4794
 10
534.7871
 20
180.759
 10
532.6457
 20
181.561
 10
530.7078
 20
182.83
 10
529.0195
 20
184.5107
 10
527.6264
 20
186.5477
 10
526.5745
 20
188.8856
 10
525.9098
 20
191.4691
 10
525.678
 20
194.2429
 10
525.9098
 20
197.0167
 10
526.5745
 20
199.6002
 10
527.6264
 20
201.9382
 10
529.0195
 20
203.9751
 10
530.7078
 20
205.6558
 10
532.6457
 20
206.9248
 10
534.7871
 20
207.7268
 10
537.0862
 20
208.0064
  0
LWPOLYLINE
  5
77
330
1F
100
AcDbEntity
  8
Layer 1
 62
     7
370
    18
100
AcDbPolyline
 90
        9
 70
     0
 43
0.0
 10
542.7569
 20
217.3571
 10
539.1184
 20
202.0214
 10
536.3545
 20
190.4255
 10
534.3452
 20
182.0468
 10
532.9704
 20
176.3631
 10
532.1101
 20
172.8518
 10
531.6442
 20
170.9906
 10
531.4528
 20
170.2569
 10
531.4156
 20
170.1285
  0
ENDSEC
  0
SECTION
  2
OBJECTS
  0
DICTIONARY
  5
C
330
0
100
AcDbDictionary
281
     1
  3
ACAD_DETAILVIEWSTYLE
350
7F
  3
ACAD_GROUP
350
D
  3
ACAD_LAYOUT
350
1A
  3
ACAD_MATERIAL
350
43
  3
ACAD_MLEADERSTYLE
350
5B
  3
ACAD_MLINESTYLE
350
17
  3
ACAD_PLOTSETTINGS
350
19
  3
ACAD_PLOTSTYLENAME
350
E
  3
ACAD_SCALELIST
350
47
  3
ACAD_SECTIONVIEWSTYLE
350
80
  3
ACAD_TABLESTYLE
350
59
  3
ACAD_VISUALSTYLE
350
2A
  3
ACDB_RECOMPOSE_DATA
350
7C
  3
AcDbVariableDictionary
350
78
  0
SUN
  5
5D
330
29
100
AcDbSun
 90
        1
290
     0
 63
     7
421
 16777215
 40
1.0
291
     1
 91
  2455826
 92
 54000000
292
     0
 70
     2
 71
   256
280
     1
  0
DICTIONARY
  5
7F
102
{ACAD_REACTORS
330
C
102
}
330
C
100
AcDbDictionary
281
     1
  0
DICTIONARY
  5
D
102
{ACAD_REACTORS
330
C
102
}
330
C
100
AcDbDictionary
281
     1
  0
DICTIONARY
  5
1A
102
{ACAD_REACTORS
330
C
102
}
330
C
100
AcDbDictionary
281
     1
  3
Layout1
350
1E
  3
Layout2
350
26
  3
Model
350
22
  0
DICTIONARY
  5
43
102
{ACAD_REACTORS
330
C
102
}
330
C
100
AcDbDictionary
281
     1
  3
ByBlock
350
45
  3
ByLayer
350
44
  3
Global
350
46
  0
DICTIONARY
  5
5B
102
{ACAD_REACTORS
330
C
102
}
330
C
100
AcDbDictionary
281
     1
  3
Standard
350
5C
  0
DICTIONARY
  5
17
102
{ACAD_REACTORS
330
C
102
}
330
C
100
AcDbDictionary
281
     1
  3
Standard
350
18
  0
DICTIONARY
  5
19
102
{ACAD_REACTORS
330
C
102
}
330
C
100
AcDbDictionary
281
     1
  0
ACDBDICTIONARYWDFLT
  5
E
102
{ACAD_REACTORS
330
C
102
}
330
C
100
AcDbDictionary
281
     1
  3
Normal
350
F
100
AcDbDictionaryWithDefault
340
F
  0
DICTIONARY
  5
47
102
{ACAD_REACTORS
330
C
102
}
330
C
100
AcDbDictionary
281
     1
  3
A0
350
48
  3
A1
350
49
  3
A2
350
4A
  3
A3
350
4B
  3
A4
350
4C
  3
A5
350
4D
  3
A6
350
4E
  3
A7
350
4F
  3
A8
350
50
  3
A9
350
51
  3
B1
350
52
  3
B2
350
53
  3
B3
350
54
  3
B4
350
55
  3
B5
350
56
  3
B6
350
57
  3
B7
350
58
  0
DICTIONARY
  5
80
102
{ACAD_REACTORS
330
C
102
}
330
C
100
AcDbDictionary
281
     1
  0
DICTIONARY
  5
59
102
{ACAD_REACTORS
330
C
102
}
330
C
100
AcDbDictionary
281
     1
  3
Standard
350
5A
  0
DICTIONARY
  5
2A
102
{ACAD_REACTORS
330
C
102
}
330
C
100
AcDbDictionary
281
     1
  3
2dWireframe
350
2F
  3
Basic
350
32
  3
Brighten
350
36
  3
ColorChange
350
3A
  3
Conceptual
350
34
  3
Dim
350
35
  3
EdgeColorOff
350
3D
  3
Facepattern
350
39
  3
Flat
350
2B
  3
FlatWithEdges
350
2C
  3
Gouraud
350
2D
  3
GouraudWithEdges
350
2E
  3
Hidden
350
31
  3
JitterOff
350
3B
  3
Linepattern
350
38
  3
OverhangOff
350
3C
  3
Realistic
350
33
  3
Shaded
350
42
  3
Shaded with edges
350
41
  3
Shades of Gray
350
3E
  3
Sketchy
350
3F
  3
Thicken
350
37
  3
Wireframe
350
30
  3
X-Ray
350
40
  0
XRECORD
  5
7C
102
{ACAD_REACTORS
330
C
102
}
330
C
100
AcDbXrecord
280
     1
 90
        1
330
5A
  0
DICTIONARY
  5
78
102
{ACAD_REACTORS
330
C
102
}
330
C
100
AcDbDictionary
281
     1
  3
CANNOSCALE
350
79
  3
CMLEADERSTYLE
350
7E
  3
CTABLESTYLE
350
7D
  0
LAYOUT
  5
1E
102
{ACAD_REACTORS
330
1A
102
}
330
1A
100
AcDbPlotSettings
  1

  2
none_device
  4

  6

 40
0.0
 41
0.0
 42
0.0
 43
0.0
 44
0.0
 45
0.0
 46
0.0
 47
0.0
 48
0.0
 49
0.0
140
0.0
141
0.0
142
1.0
143
1.0
 70
   688
 72
     0
 73
     0
 74
     5
  7

 75
    16
 76
     0
 77
     2
 78
   300
147
1.0
148
0.0
149
0.0
100
AcDbLayout
  1
Layout1
 70
     1
 71
     1
 10
0.0
 20
0.0
 11
12.0
 21
9.0
 12
0.0
 22
0.0
 32
0.0
 14
1.000000000000000E+20
 24
1.000000000000000E+20
 34
1.000000000000000E+20
 15
-1.000000000000000E+20
 25
-1.000000000000000E+20
 35
-1.000000000000000E+20
146
0.0
 13
0.0
 23
0.0
 33
0.0
 16
1.0
 26
0.0
 36
0.0
 17
0.0
 27
1.0
 37
0.0
 76
     0
330
1B
  0
LAYOUT
  5
26
102
{ACAD_REACTORS
330
1A
102
}
330
1A
100
AcDbPlotSettings
  1

  2
none_device
  4

  6

 40
0.0
 41
0.0
 42
0.0
 43
0.0
 44
0.0
 45
0.0
 46
0.0
 47
0.0
 48
0.0
 49
0.0
140
0.0
141
0.0
142
1.0
143
1.0
 70
   688
 72
     0
 73
     0
 74
     5
  7

 75
    16
 76
     0
 77
     2
 78
   300
147
1.0
148
0.0
149
0.0
100
AcDbLayout
  1
Layout2
 70
     1
 71
     2
 10
0.0
 20
0.0
 11
0.0
 21
0.0
 12
0.0
 22
0.0
 32
0.0
 14
0.0
 24
0.0
 34
0.0
 15
0.0
 25
0.0
 35
0.0
146
0.0
 13
0.0
 23
0.0
 33
0.0
 16
1.0
 26
0.0
 36
0.0
 17
0.0
 27
1.0
 37
0.0
 76
     0
330
23
  0
LAYOUT
  5
22
102
{ACAD_REACTORS
330
1A
102
}
330
1A
100
AcDbPlotSettings
  1

  2
none_device
  4
Letter_(8.50_x_11.00_Inches)
  6

 40
6.35
 41
6.35
 42
6.35000508
 43
6.35000508
 44
215.9
 45
279.4
 46
0.0
 47
0.0
 48
0.0
 49
0.0
140
0.0
141
0.0
142
1.0
143
1.0
 70
  1712
 72
     0
 73
     0
 74
     0
  7

 75
     0
 76
     0
 77
     2
 78
   300
147
1.0
148
0.0
149
0.0
100
AcDbLayout
  1
Model
 70
     1
 71
     0
 10
0.0
 20
0.0
 11
12.0
 21
9.0
 12
0.0
 22
0.0
 32
0.0
 14
412.8822
 24
-652.2979
 34
0.0
 15
924.7382
 25
231.0713
 35
0.0
146
0.0
 13
0.0
 23
0.0
 33
0.0
 16
1.0
 26
0.0
 36
0.0
 17
0.0
 27
1.0
 37
0.0
 76
     0
330
1F
331
29
  0
MATERIAL
  5
45
102
{ACAD_REACTORS
330
43
102
}
330
43
100
AcDbMaterial
  1
ByBlock
 72
     1
 94
      127
  0
MATERIAL
  5
44
102
{ACAD_REACTORS
330
43
102
}
330
43
100
AcDbMaterial
  1
ByLayer
 72
     1
 94
      127
  0
MATERIAL
  5
46
102
{ACAD_REACTORS
330
43
102
}
330
43
100
AcDbMaterial
  1
Global
 72
     1
 94
      127
  0
MLEADERSTYLE
  5
5C
102
{ACAD_REACTORS
330
5B
102
}
330
5B
100
AcDbMLeaderStyle
179
     2
170
     2
171
     1
172
     0
 90
        2
 40
0.0
 41
0.0
173
     1
 91
-1056964608
340
14
 92
       -2
290
     1
 42
0.09
291
     1
 43
0.36
  3
Standard
341
0
 44
0.18
300

342
11
174
     1
178
     6
175
     1
176
     0
 93
-1056964608
 45
0.18
292
     0
297
     0
 46
0.18
343
0
 94
-1056964608
 47
1.0
 49
1.0
140
1.0
293
     1
141
0.0
294
     1
177
     0
142
1.0
295
     0
296
     0
143
0.125
271
     0
272
     9
273
     9
298
     0
  0
MLINESTYLE
  5
18
102
{ACAD_REACTORS
330
17
102
}
330
17
100
AcDbMlineStyle
  2
Standard
 70
     0
  3

 62
   256
 51
90.0
 52
90.0
 71
     2
 49
0.5
 62
   256
  6
BYLAYER
 49
-0.5
 62
   256
  6
BYLAYER
  0
ACDBPLACEHOLDER
  5
F
102
{ACAD_REACTORS
330
E
102
}
330
E
  0
SCALE
  5
48
102
{ACAD_REACTORS
330
47
102
}
330
47
100
AcDbScale
 70
     0
300
1:1
140
1.0
141
1.0
290
     1
  0
SCALE
  5
49
102
{ACAD_REACTORS
330
47
102
}
330
47
100
AcDbScale
 70
     0
300
1/128" = 1'-0"
140
0.0078125
141
12.0
290
     0
  0
SCALE
  5
4A
102
{ACAD_REACTORS
330
47
102
}
330
47
100
AcDbScale
 70
     0
300
1/64" = 1'-0"
140
0.015625
141
12.0
290
     0
  0
SCALE
  5
4B
102
{ACAD_REACTORS
330
47
102
}
330
47
100
AcDbScale
 70
     0
300
1/32" = 1'-0"
140
0.03125
141
12.0
290
     0
  0
SCALE
  5
4C
102
{ACAD_REACTORS
330
47
102
}
330
47
100
AcDbScale
 70
     0
300
1/16" = 1'-0"
140
0.0625
141
12.0
290
     0
  0
SCALE
  5
4D
102
{ACAD_REACTORS
330
47
102
}
330
47
100
AcDbScale
 70
     0
300
3/32" = 1'-0"
140
0.09375
141
12.0
290
     0
  0
SCALE
  5
4E
102
{ACAD_REACTORS
330
47
102
}
330
47
100
AcDbScale
 70
     0
300
1/8" = 1'-0"
140
0.125
141
12.0
290
     0
  0
SCALE
  5
4F
102
{ACAD_REACTORS
330
47
102
}
330
47
100
AcDbScale
 70
     0
300
3/16" = 1'-0"
140
0.1875
141
12.0
290
     0
  0
SCALE
  5
50
102
{ACAD_REACTORS
330
47
102
}
330
47
100
AcDbScale
 70
     0
300
1/4" = 1'-0"
140
0.25
141
12.0
290
     0
  0
SCALE
  5
51
102
{ACAD_REACTORS
330
47
102
}
330
47
100
AcDbScale
 70
     0
300
3/8" = 1'-0"
140
0.375
141
12.0
290
     0
  0
SCALE
  5
52
102
{ACAD_REACTORS
330
47
102
}
330
47
100
AcDbScale
 70
     0
300
1/2" = 1'-0"
140
0.5
141
12.0
290
     0
  0
SCALE
  5
53
102
{ACAD_REACTORS
330
47
102
}
330
47
100
AcDbScale
 70
     0
300
3/4" = 1'-0"
140
0.75
141
12.0
290
     0
  0
SCALE
  5
54
102
{ACAD_REACTORS
330
47
102
}
330
47
100
AcDbScale
 70
     0
300
1" = 1'-0"
140
1.0
141
12.0
290
     0
  0
SCALE
  5
55
102
{ACAD_REACTORS
330
47
102
}
330
47
100
AcDbScale
 70
     0
300
1-1/2" = 1'-0"
140
1.5
141
12.0
290
     0
  0
SCALE
  5
56
102
{ACAD_REACTORS
330
47
102
}
330
47
100
AcDbScale
 70
     0
300
3" = 1'-0"
140
3.0
141
12.0
290
     0
  0
SCALE
  5
57
102
{ACAD_REACTORS
330
47
102
}
330
47
100
AcDbScale
 70
     0
300
6" = 1'-0"
140
6.0
141
12.0
290
     0
  0
SCALE
  5
58
102
{ACAD_REACTORS
330
47
102
}
330
47
100
AcDbScale
 70
     0
300
1'-0" = 1'-0"
140
12.0
141
12.0
290
     0
  0
TABLESTYLE
  5
5A
102
{ACAD_REACTORS
330
59
102
}
102
{ACAD_XDICTIONARY
360
7A
102
}
330
59
100
AcDbTableStyle
  3
Standard
 70
     0
 71
     0
 40
0.06
 41
0.06
280
     0
281
     0
  7
Standard
140
0.18
170
     2
 62
     0
 63
   257
283
     0
 90
        4
 91
        0
  1

274
    -2
284
     1
 64
     0
275
    -2
285
     1
 65
     0
276
    -2
286
     1
 66
     0
277
    -2
287
     1
 67
     0
278
    -2
288
     1
 68
     0
279
    -2
289
     1
 69
     0
  7
Standard
140
0.25
170
     5
 62
     0
 63
   257
283
     0
 90
        4
 91
        0
  1

274
    -2
284
     1
 64
     0
275
    -2
285
     1
 65
     0
276
    -2
286
     1
 66
     0
277
    -2
287
     1
 67
     0
278
    -2
288
     1
 68
     0
279
    -2
289
     1
 69
     0
  7
Standard
140
0.18
170
     5
 62
     0
 63
   257
283
     0
 90
        4
 91
        0
  1

274
    -2
284
     1
 64
     0
275
    -2
285
     1
 65
     0
276
    -2
286
     1
 66
     0
277
    -2
287
     1
 67
     0
278
    -2
288
     1
 68
     0
279
    -2
289
     1
 69
     0
  0
VISUALSTYLE
  5
2F
102
{ACAD_REACTORS
330
2A
102
}
330
2A
100
AcDbVisualStyle
  2
2dWireframe
 70
     4
177
     3
291
     0
 70
    58
 90
        0
176
     1
 90
        2
176
     1
 90
        0
176
     1
 90
        0
176
     1
 40
0.6
176
     1
 40
30.0
176
     1
 62
     7
420
 16777215
176
     1
 90
        1
176
     1
 90
        4
176
     1
 62
     7
176
     1
 62
   257
176
     1
 90
        1
176
     1
 90
        1
176
     1
 40
1.0
176
     1
 90
        0
176
     1
 62
   257
176
     1
 40
1.0
176
     1
 90
        1
176
     1
 90
        6
176
     1
 90
        2
176
     1
 62
     7
176
     1
 90
        5
176
     1
 90
        0
176
     1
 90
        0
176
     1
290
     0
176
     1
 90
        1
176
     1
 40
0.0
176
     1
 90
        0
176
     1
290
     1
176
     1
290
     1
176
     1
290
     0
176
     1
290
     0
176
     1
290
     0
176
     1
290
     0
176
     1
290
     0
176
     1
290
     0
176
     1
290
     0
176
     1
 90
       50
176
     1
 40
0.0
176
     1
 40
1.0
176
     1
 90
        0
176
     1
 62
    18
420
        0
176
     1
 90
       50
176
     1
 90
        3
176
     1
 62
     5
420
      255
176
     1
290
     0
176
     1
 90
       50
176
     1
 90
       50
176
     1
 90
       50
176
     1
290
     0
176
     1
 90
       50
176
     1
 62
   256
176
     0
 40
1.0
176
     0
 90
        2
176
     1
  1
strokes_ogs.tif
176
     1
290
     0
176
     1
 40
1.0
176
     1
 40
1.0
176
     1
  0
VISUALSTYLE
  5
32
102
{ACAD_REACTORS
330
2A
102
}
330
2A
100
AcDbVisualStyle
  2
Basic
 70
     7
177
     3
291
     1
 70
    58
 90
        1
176
     1
 90
        0
176
     1
 90
        1
176
     1
 90
        0
176
     1
 40
0.6
176
     1
 40
30.0
176
     1
 62
     7
420
 16777215
176
     1
 90
        0
176
     1
 90
        4
176
     1
 62
     7
176
     1
 62
   257
176
     1
 90
        1
176
     1
 90
        1
176
     1
 40
1.0
176
     1
 90
        8
176
     1
 62
     7
176
     1
 40
1.0
176
     1
 90
        1
176
     1
 90
        6
176
     1
 90
        2
176
     1
 62
     7
176
     1
 90
        5
176
     1
 90
        0
176
     1
 90
        0
176
     1
290
     0
176
     1
 90
        1
176
     1
 40
0.0
176
     1
 90
        0
176
     1
290
     0
176
     1
290
     1
176
     1
290
     1
176
     1
290
     0
176
     1
290
     0
176
     1
290
     0
176
     1
290
     0
176
     1
290
     0
176
     1
290
     0
176
     1
 90
       50
176
     1
 40
0.0
176
     1
 40
1.0
176
     1
 90
        0
176
     1
 62
    18
420
        0
176
     1
 90
       50
176
     1
 90
        3
176
     1
 62
     5
420
      255
176
     1
290
     0
176
     1
 90
       50
176
     1
 90
       50
176
     1
 90
       50
176
     1
290
     0
176
     1
 90
       50
176
     1
 62
   256
176
     0
 40
1.0
176
     0
 90
        2
176
     1
  1
strokes_ogs.tif
176
     1
290
     0
176
     1
 40
1.0
176
     1
 40
1.0
176
     1
  0
VISUALSTYLE
  5
36
102
{ACAD_REACTORS
330
2A
102
}
330
2A
100
AcDbVisualStyle
  2
Brighten
 70
    12
177
     3
291
     1
 70
    58
 90
        2
176
     1
 90
        2
176
     1
 90
        0
176
     1
 90
        0
176
     1
 40
0.6
176
     1
 40
30.0
176
     1
 62
     7
420
 16777215
176
     1
 90
        1
176
     1
 90
        4
176
     1
 62
     7
176
     1
 62
   257
176
     1
 90
        1
176
     1
 90
        1
176
     1
 40
1.0
176
     1
 90
        8
176
     1
 62
     7
176
     1
 40
1.0
176
     1
 90
        1
176
     1
 90
        6
176
     1
 90
        2
176
     1
 62
     7
176
     1
 90
        5
176
     1
 90
        0
176
     1
 90
        0
176
     1
290
     0
176
     1
 90
        1
176
     1
 40
50.0
176
     1
 90
        0
176
     1
290
     0
176
     1
290
     1
176
     1
290
     1
176
     1
290
     0
176
     1
290
     0
176
     1
290
     0
176
     1
290
     0
176
     1
290
     0
176
     1
290
     0
176
     1
 90
       50
176
     1
 40
0.0
176
     1
 40
1.0
176
     1
 90
        0
176
     1
 62
    18
420
        0
176
     1
 90
       50
176
     1
 90
        3
176
     1
 62
     5
420
      255
176
     1
290
     0
176
     1
 90
       50
176
     1
 90
       50
176
     1
 90
       50
176
     1
290
     0
176
     1
 90
       50
176
     1
 62
   256
176
     0
 40
1.0
176
     0
 90
        2
176
     1
  1
strokes_ogs.tif
176
     1
290
     0
176
     1
 40
1.0
176
     1
 40
1.0
176
     1
  0
VISUALSTYLE
  5
3A
102
{ACAD_REACTORS
330
2A
102
}
330
2A
100
AcDbVisualStyle
  2
ColorChange
 70
    16
177
     3
291
     1
 70
    58
 90
        2
176
     1
 90
        2
176
     1
 90
        3
176
     1
 90
        0
176
     1
 40
0.6
176
     1
 40
30.0
176
     1
 62
     8
420
  8421504
176
     1
 90
        1
176
     1
 90
        4
176
     1
 62
     7
176
     1
 62
   257
176
     1
 90
        1
176
     1
 90
        1
176
     1
 40
1.0
176
     1
 90
        8
176
     1
 62
     8
420
  8421504
176
     1
 40
1.0
176
     1
 90
        1
176
     1
 90
        6
176
     1
 90
        2
176
     1
 62
     7
176
     1
 90
        5
176
     1
 90
        0
176
     1
 90
        0
176
     1
290
     0
176
     1
 90
        1
176
     1
 40
0.0
176
     1
 90
        0
176
     1
290
     0
176
     1
290
     1
176
     1
290
     1
176
     1
290
     0
176
     1
290
     0
176
     1
290
     0
176
     1
290
     0
176
     1
290
     0
176
     1
290
     0
176
     1
 90
       50
176
     1
 40
0.0
176
     1
 40
1.0
176
     1
 90
        0
176
     1
 62
    18
420
        0
176
     1
 90
       50
176
     1
 90
        3
176
     1
 62
     5
420
      255
176
     1
290
     0
176
     1
 90
       50
176
     1
 90
       50
176
     1
 90
       50
176
     1
290
     0
176
     1
 90
       50
176
     1
 62
   256
176
     0
 40
1.0
176
     0
 90
        2
176
     1
  1
strokes_ogs.tif
176
     1
290
     0
176
     1
 40
1.0
176
     1
 40
1.0
176
     1
  0
VISUALSTYLE
  5
34
102
{ACAD_REACTORS
330
2A
102
}
330
2A
100
AcDbVisualStyle
  2
Conceptual
 70
     9
177
     3
291
     0
 70
    58
 90
        3
176
     1
 90
        2
176
     1
 90
        0
176
     1
 90
        0
176
     1
 40
0.6
176
     1
 40
30.0
176
     1
 62
     7
420
 16777215
176
     1
 90
        2
176
     1
 90
        2
176
     1
 62
     7
176
     1
 62
   257
176
     1
 90
        1
176
     1
 90
        1
176
     1
 40
179.0
176
     1
 90
        8
176
     1
 62
     7
176
     1
 40
1.0
176
     1
 90
        1
176
     1
 90
        6
176
     1
 90
        2
176
     1
 62
     7
176
     1
 90
        3
176
     1
 90
        0
176
     1
 90
        0
176
     1
290
     0
176
     1
 90
        1
176
     1
 40
0.0
176
     1
 90
        0
176
     1
290
     0
176
     1
290
     1
176
     1
290
     1
176
     1
290
     0
176
     1
290
     0
176
     1
290
     0
176
     1
290
     0
176
     1
290
     0
176
     1
290
     0
176
     1
 90
       50
176
     1
 40
0.0
176
     1
 40
1.0
176
     1
 90
        0
176
     1
 62
    18
420
        0
176
     1
 90
       50
176
     1
 90
        3
176
     1
 62
     5
420
      255
176
     1
290
     0
176
     1
 90
       50
176
     1
 90
       50
176
     1
 90
       50
176
     1
290
     0
176
     1
 90
       50
176
     1
 62
   256
176
     0
 40
1.0
176
     0
 90
        2
176
     1
  1
strokes_ogs.tif
176
     1
290
     0
176
     1
 40
1.0
176
     1
 40
1.0
176
     1
  0
VISUALSTYLE
  5
35
102
{ACAD_REACTORS
330
2A
102
}
330
2A
100
AcDbVisualStyle
  2
Dim
 70
    11
177
     3
291
     1
 70
    58
 90
        2
176
     1
 90
        2
176
     1
 90
        0
176
     1
 90
        0
176
     1
 40
0.6
176
     1
 40
30.0
176
     1
 62
     7
420
 16777215
176
     1
 90
        1
176
     1
 90
        4
176
     1
 62
     7
176
     1
 62
   257
176
     1
 90
        1
176
     1
 90
        1
176
     1
 40
1.0
176
     1
 90
        8
176
     1
 62
     7
176
     1
 40
1.0
176
     1
 90
        1
176
     1
 90
        6
176
     1
 90
        2
176
     1
 62
     7
176
     1
 90
        5
176
     1
 90
        0
176
     1
 90
        0
176
     1
290
     0
176
     1
 90
        1
176
     1
 40
-50.0
176
     1
 90
        0
176
     1
290
     0
176
     1
290
     1
176
     1
290
     1
176
     1
290
     0
176
     1
290
     0
176
     1
290
     0
176
     1
290
     0
176
     1
290
     0
176
     1
290
     0
176
     1
 90
       50
176
     1
 40
0.0
176
     1
 40
1.0
176
     1
 90
        0
176
     1
 62
    18
420
        0
176
     1
 90
       50
176
     1
 90
        3
176
     1
 62
     5
420
      255
176
     1
290
     0
176
     1
 90
       50
176
     1
 90
       50
176
     1
 90
       50
176
     1
290
     0
176
     1
 90
       50
176
     1
 62
   256
176
     0
 40
1.0
176
     0
 90
        2
176
     1
  1
strokes_ogs.tif
176
     1
290
     0
176
     1
 40
1.0
176
     1
 40
1.0
176
     1
  0
VISUALSTYLE
  5
3D
102
{ACAD_REACTORS
330
2A
102
}
330
2A
100
AcDbVisualStyle
  2
EdgeColorOff
 70
    22
177
     3
291
     1
 70
    58
 90
        2
176
     0
 90
        2
176
     0
 90
        0
176
     0
 90
        0
176
     0
 40
0.6
176
     0
 40
30.0
176
     0
 62
     7
420
 16777215
176
     0
 90
        1
176
     0
 90
        4
176
     0
 62
     7
176
     0
 62
   257
176
     0
 90
        1
176
     0
 90
        1
176
     0
 40
1.0
176
     0
 90
        8
176
     2
 62
     7
176
     0
 40
1.0
176
     0
 90
        1
176
     0
 90
        6
176
     0
 90
        2
176
     0
 62
     7
176
     0
 90
        5
176
     0
 90
        0
176
     0
 90
        0
176
     0
290
     0
176
     0
 90
        1
176
     0
 40
0.0
176
     0
 90
        0
176
     0
290
     0
176
     0
290
     1
176
     0
290
     1
176
     0
290
     0
176
     0
290
     0
176
     0
290
     0
176
     0
290
     0
176
     0
290
     0
176
     0
290
     0
176
     0
 90
       50
176
     0
 40
0.0
176
     0
 40
1.0
176
     0
 90
        0
176
     0
 62
    18
420
        0
176
     0
 90
       50
176
     0
 90
        3
176
     0
 62
     5
420
      255
176
     0
290
     0
176
     0
 90
       50
176
     0
 90
       50
176
     0
 90
       50
176
     0
290
     0
176
     0
 90
       50
176
     0
 62
   256
176
     0
 40
1.0
176
     0
 90
        2
176
     0
  1
strokes_ogs.tif
176
     0
290
     0
176
     0
 40
1.0
176
     0
 40
1.0
176
     0
  0
VISUALSTYLE
  5
39
102
{ACAD_REACTORS
330
2A
102
}
330
2A
100
AcDbVisualStyle
  2
Facepattern
 70
    15
177
     3
291
     1
 70
    58
 90
        2
176
     1
 90
        2
176
     1
 90
        0
176
     1
 90
        0
176
     1
 40
0.6
176
     1
 40
30.0
176
     1
 62
     7
420
 16777215
176
     1
 90
        1
176
     1
 90
        4
176
     1
 62
     7
176
     1
 62
   257
176
     1
 90
        1
176
     1
 90
        1
176
     1
 40
1.0
176
     1
 90
        8
176
     1
 62
     7
176
     1
 40
1.0
176
     1
 90
        1
176
     1
 90
        6
176
     1
 90
        2
176
     1
 62
     7
176
     1
 90
        5
176
     1
 90
        0
176
     1
 90
        0
176
     1
290
     0
176
     1
 90
        1
176
     1
 40
0.0
176
     1
 90
        0
176
     1
290
     0
176
     1
290
     1
176
     1
290
     1
176
     1
290
     0
176
     1
290
     0
176
     1
290
     0
176
     1
290
     0
176
     1
290
     0
176
     1
290
     0
176
     1
 90
       50
176
     1
 40
0.0
176
     1
 40
1.0
176
     1
 90
        0
176
     1
 62
    18
420
        0
176
     1
 90
       50
176
     1
 90
        3
176
     1
 62
     5
420
      255
176
     1
290
     0
176
     1
 90
       50
176
     1
 90
       50
176
     1
 90
       50
176
     1
290
     0
176
     1
 90
       50
176
     1
 62
   256
176
     0
 40
1.0
176
     0
 90
        2
176
     1
  1
strokes_ogs.tif
176
     1
290
     0
176
     1
 40
1.0
176
     1
 40
1.0
176
     1
  0
VISUALSTYLE
  5
2B
102
{ACAD_REACTORS
330
2A
102
}
330
2A
100
AcDbVisualStyle
  2
Flat
 70
     0
177
     3
291
     1
 70
    58
 90
        2
176
     1
 90
        1
176
     1
 90
        1
176
     1
 90
        2
176
     1
 40
0.6
176
     1
 40
30.0
176
     1
 62
     7
420
 16777215
176
     1
 90
        0
176
     1
 90
        0
176
     1
 62
     7
176
     1
 62
   257
176
     1
 90
        1
176
     1
 90
        1
176
     1
 40
1.0
176
     1
 90
        8
176
     1
 62
     7
176
     1
 40
1.0
176
     1
 90
        1
176
     1
 90
        6
176
     1
 90
        2
176
     1
 62
     7
176
     1
 90
        5
176
     1
 90
        0
176
     1
 90
        0
176
     1
290
     0
176
     1
 90
       13
176
     1
 40
0.0
176
     1
 90
        0
176
     1
290
     0
176
     1
290
     1
176
     1
290
     1
176
     1
290
     0
176
     1
290
     0
176
     1
290
     0
176
     1
290
     0
176
     1
290
     0
176
     1
290
     0
176
     1
 90
       50
176
     1
 40
0.0
176
     1
 40
1.0
176
     1
 90
        0
176
     1
 62
    18
420
        0
176
     1
 90
       50
176
     1
 90
        3
176
     1
 62
     5
420
      255
176
     1
290
     0
176
     1
 90
       50
176
     1
 90
       50
176
     1
 90
       50
176
     1
290
     0
176
     1
 90
       50
176
     1
 62
   256
176
     0
 40
1.0
176
     0
 90
        2
176
     1
  1
strokes_ogs.tif
176
     1
290
     0
176
     1
 40
1.0
176
     1
 40
1.0
176
     1
  0
VISUALSTYLE
  5
2C
102
{ACAD_REACTORS
330
2A
102
}
330
2A
100
AcDbVisualStyle
  2
FlatWithEdges
 70
     1
177
     3
291
     1
 70
    58
 90
        2
176
     1
 90
        1
176
     1
 90
        1
176
     1
 90
        2
176
     1
 40
0.6
176
     1
 40
30.0
176
     1
 62
     7
420
 16777215
176
     1
 90
        1
176
     1
 90
        0
176
     1
 62
     7
176
     1
 62
   257
176
     1
 90
        1
176
     1
 90
        1
176
     1
 40
1.0
176
     1
 90
        0
176
     1
 62
   257
176
     1
 40
1.0
176
     1
 90
        1
176
     1
 90
        6
176
     1
 90
        2
176
     1
 62
     7
176
     1
 90
        5
176
     1
 90
        0
176
     1
 90
        0
176
     1
290
     0
176
     1
 90
       13
176
     1
 40
0.0
176
     1
 90
        0
176
     1
290
     0
176
     1
290
     1
176
     1
290
     1
176
     1
290
     0
176
     1
290
     0
176
     1
290
     0
176
     1
290
     0
176
     1
290
     0
176
     1
290
     0
176
     1
 90
       50
176
     1
 40
0.0
176
     1
 40
1.0
176
     1
 90
        0
176
     1
 62
    18
420
        0
176
     1
 90
       50
176
     1
 90
        3
176
     1
 62
     5
420
      255
176
     1
290
     0
176
     1
 90
       50
176
     1
 90
       50
176
     1
 90
       50
176
     1
290
     0
176
     1
 90
       50
176
     1
 62
   256
176
     0
 40
1.0
176
     0
 90
        2
176
     1
  1
strokes_ogs.tif
176
     1
290
     0
176
     1
 40
1.0
176
     1
 40
1.0
176
     1
  0
VISUALSTYLE
  5
2D
102
{ACAD_REACTORS
330
2A
102
}
330
2A
100
AcDbVisualStyle
  2
Gouraud
 70
     2
177
     3
291
     1
 70
    58
 90
        2
176
     1
 90
        2
176
     1
 90
        1
176
     1
 90
        2
176
     1
 40
0.6
176
     1
 40
30.0
176
     1
 62
     7
420
 16777215
176
     1
 90
        0
176
     1
 90
        0
176
     1
 62
     7
176
     1
 62
   257
176
     1
 90
        1
176
     1
 90
        1
176
     1
 40
1.0
176
     1
 90
        0
176
     1
 62
     7
176
     1
 40
1.0
176
     1
 90
        1
176
     1
 90
        6
176
     1
 90
        2
176
     1
 62
     7
176
     1
 90
        5
176
     1
 90
        0
176
     1
 90
        0
176
     1
290
     0
176
     1
 90
       13
176
     1
 40
0.0
176
     1
 90
        0
176
     1
290
     0
176
     1
290
     1
176
     1
290
     1
176
     1
290
     0
176
     1
290
     0
176
     1
290
     0
176
     1
290
     0
176
     1
290
     0
176
     1
290
     0
176
     1
 90
       50
176
     1
 40
0.0
176
     1
 40
1.0
176
     1
 90
        0
176
     1
 62
    18
420
        0
176
     1
 90
       50
176
     1
 90
        3
176
     1
 62
     5
420
      255
176
     1
290
     0
176
     1
 90
       50
176
     1
 90
       50
176
     1
 90
       50
176
     1
290
     0
176
     1
 90
       50
176
     1
 62
   256
176
     0
 40
1.0
176
     0
 90
        2
176
     1
  1
strokes_ogs.tif
176
     1
290
     0
176
     1
 40
1.0
176
     1
 40
1.0
176
     1
  0
VISUALSTYLE
  5
2E
102
{ACAD_REACTORS
330
2A
102
}
330
2A
100
AcDbVisualStyle
  2
GouraudWithEdges
 70
     3
177
     3
291
     1
 70
    58
 90
        2
176
     1
 90
        2
176
     1
 90
        1
176
     1
 90
        2
176
     1
 40
0.6
176
     1
 40
30.0
176
     1
 62
     7
420
 16777215
176
     1
 90
        1
176
     1
 90
        0
176
     1
 62
     7
176
     1
 62
   257
176
     1
 90
        1
176
     1
 90
        1
176
     1
 40
1.0
176
     1
 90
        0
176
     1
 62
   257
176
     1
 40
1.0
176
     1
 90
        1
176
     1
 90
        6
176
     1
 90
        2
176
     1
 62
     7
176
     1
 90
        5
176
     1
 90
        0
176
     1
 90
        0
176
     1
290
     0
176
     1
 90
       13
176
     1
 40
0.0
176
     1
 90
        0
176
     1
290
     0
176
     1
290
     1
176
     1
290
     1
176
     1
290
     0
176
     1
290
     0
176
     1
290
     0
176
     1
290
     0
176
     1
290
     0
176
     1
290
     0
176
     1
 90
       50
176
     1
 40
0.0
176
     1
 40
1.0
176
     1
 90
        0
176
     1
 62
    18
420
        0
176
     1
 90
       50
176
     1
 90
        3
176
     1
 62
     5
420
      255
176
     1
290
     0
176
     1
 90
       50
176
     1
 90
       50
176
     1
 90
       50
176
     1
290
     0
176
     1
 90
       50
176
     1
 62
   256
176
     0
 40
1.0
176
     0
 90
        2
176
     1
  1
strokes_ogs.tif
176
     1
290
     0
176
     1
 40
1.0
176
     1
 40
1.0
176
     1
  0
VISUALSTYLE
  5
31
102
{ACAD_REACTORS
330
2A
102
}
330
2A
100
AcDbVisualStyle
  2
Hidden
 70
     6
177
     3
291
     0
 70
    58
 90
        1
176
     1
 90
        2
176
     1
 90
        2
176
     1
 90
        0
176
     1
 40
0.6
176
     1
 40
30.0
176
     1
 62
     7
420
 16777215
176
     1
 90
        2
176
     1
 90
        2
176
     1
 62
     7
176
     1
 62
   257
176
     1
 90
        2
176
     1
 90
        1
176
     1
 40
40.0
176
     1
 90
        0
176
     1
 62
   257
176
     1
 40
1.0
176
     1
 90
        1
176
     1
 90
        6
176
     1
 90
        2
176
     1
 62
     7
176
     1
 90
        3
176
     1
 90
        0
176
     1
 90
        0
176
     1
290
     0
176
     1
 90
        1
176
     1
 40
0.0
176
     1
 90
        0
176
     1
290
     0
176
     1
290
     1
176
     1
290
     1
176
     1
290
     0
176
     1
290
     0
176
     1
290
     0
176
     1
290
     0
176
     1
290
     0
176
     1
290
     0
176
     1
 90
       50
176
     1
 40
0.0
176
     1
 40
1.0
176
     1
 90
        0
176
     1
 62
    18
420
        0
176
     1
 90
       50
176
     1
 90
        3
176
     1
 62
     5
420
      255
176
     1
290
     0
176
     1
 90
       50
176
     1
 90
       50
176
     1
 90
       50
176
     1
290
     0
176
     1
 90
       50
176
     1
 62
   256
176
     0
 40
1.0
176
     0
 90
        2
176
     1
  1
strokes_ogs.tif
176
     1
290
     0
176
     1
 40
1.0
176
     1
 40
1.0
176
     1
  0
VISUALSTYLE
  5
3B
102
{ACAD_REACTORS
330
2A
102
}
330
2A
100
AcDbVisualStyle
  2
JitterOff
 70
    20
177
     3
291
     1
 70
    58
 90
        2
176
     0
 90
        2
176
     0
 90
        0
176
     0
 90
        0
176
     0
 40
0.6
176
     0
 40
30.0
176
     0
 62
     7
420
 16777215
176
     0
 90
        1
176
     0
 90
        4
176
     0
 62
     7
176
     0
 62
   257
176
     0
 90
        1
176
     0
 90
        1
176
     0
 40
1.0
176
     0
 90
       10
176
     2
 62
     7
176
     0
 40
1.0
176
     0
 90
        1
176
     0
 90
        6
176
     0
 90
        2
176
     0
 62
     7
176
     0
 90
        5
176
     0
 90
        0
176
     0
 90
        0
176
     0
290
     0
176
     0
 90
        1
176
     0
 40
0.0
176
     0
 90
        0
176
     0
290
     0
176
     0
290
     1
176
     0
290
     1
176
     0
290
     0
176
     0
290
     0
176
     0
290
     0
176
     0
290
     0
176
     0
290
     0
176
     0
290
     0
176
     0
 90
       50
176
     0
 40
0.0
176
     0
 40
1.0
176
     0
 90
        0
176
     0
 62
    18
420
        0
176
     0
 90
       50
176
     0
 90
        3
176
     0
 62
     5
420
      255
176
     0
290
     0
176
     0
 90
       50
176
     0
 90
       50
176
     0
 90
       50
176
     0
290
     0
176
     0
 90
       50
176
     0
 62
   256
176
     0
 40
1.0
176
     0
 90
        2
176
     0
  1
strokes_ogs.tif
176
     0
290
     0
176
     0
 40
1.0
176
     0
 40
1.0
176
     0
  0
VISUALSTYLE
  5
38
102
{ACAD_REACTORS
330
2A
102
}
330
2A
100
AcDbVisualStyle
  2
Linepattern
 70
    14
177
     3
291
     1
 70
    58
 90
        2
176
     1
 90
        2
176
     1
 90
        0
176
     1
 90
        0
176
     1
 40
0.6
176
     1
 40
30.0
176
     1
 62
     7
420
 16777215
176
     1
 90
        1
176
     1
 90
        4
176
     1
 62
     7
176
     1
 62
   257
176
     1
 90
        7
176
     1
 90
        7
176
     1
 40
1.0
176
     1
 90
        8
176
     1
 62
     7
176
     1
 40
1.0
176
     1
 90
        1
176
     1
 90
        6
176
     1
 90
        2
176
     1
 62
     7
176
     1
 90
        5
176
     1
 90
        0
176
     1
 90
        0
176
     1
290
     0
176
     1
 90
        1
176
     1
 40
0.0
176
     1
 90
        0
176
     1
290
     0
176
     1
290
     1
176
     1
290
     1
176
     1
290
     0
176
     1
290
     0
176
     1
290
     0
176
     1
290
     0
176
     1
290
     0
176
     1
290
     0
176
     1
 90
       50
176
     1
 40
0.0
176
     1
 40
1.0
176
     1
 90
        0
176
     1
 62
    18
420
        0
176
     1
 90
       50
176
     1
 90
        3
176
     1
 62
     5
420
      255
176
     1
290
     0
176
     1
 90
       50
176
     1
 90
       50
176
     1
 90
       50
176
     1
290
     0
176
     1
 90
       50
176
     1
 62
   256
176
     0
 40
1.0
176
     0
 90
        2
176
     1
  1
strokes_ogs.tif
176
     1
290
     0
176
     1
 40
1.0
176
     1
 40
1.0
176
     1
  0
VISUALSTYLE
  5
3C
102
{ACAD_REACTORS
330
2A
102
}
330
2A
100
AcDbVisualStyle
  2
OverhangOff
 70
    21
177
     3
291
     1
 70
    58
 90
        2
176
     0
 90
        2
176
     0
 90
        0
176
     0
 90
        0
176
     0
 40
0.6
176
     0
 40
30.0
176
     0
 62
     7
420
 16777215
176
     0
 90
        1
176
     0
 90
        4
176
     0
 62
     7
176
     0
 62
   257
176
     0
 90
        1
176
     0
 90
        1
176
     0
 40
1.0
176
     0
 90
        9
176
     2
 62
     7
176
     0
 40
1.0
176
     0
 90
        1
176
     0
 90
        6
176
     0
 90
        2
176
     0
 62
     7
176
     0
 90
        5
176
     0
 90
        0
176
     0
 90
        0
176
     0
290
     0
176
     0
 90
        1
176
     0
 40
0.0
176
     0
 90
        0
176
     0
290
     0
176
     0
290
     1
176
     0
290
     1
176
     0
290
     0
176
     0
290
     0
176
     0
290
     0
176
     0
290
     0
176
     0
290
     0
176
     0
290
     0
176
     0
 90
       50
176
     0
 40
0.0
176
     0
 40
1.0
176
     0
 90
        0
176
     0
 62
    18
420
        0
176
     0
 90
       50
176
     0
 90
        3
176
     0
 62
     5
420
      255
176
     0
290
     0
176
     0
 90
       50
176
     0
 90
       50
176
     0
 90
       50
176
     0
290
     0
176
     0
 90
       50
176
     0
 62
   256
176
     0
 40
1.0
176
     0
 90
        2
176
     0
  1
strokes_ogs.tif
176
     0
290
     0
176
     0
 40
1.0
176
     0
 40
1.0
176
     0
  0
VISUALSTYLE
  5
33
102
{ACAD_REACTORS
330
2A
102
}
330
2A
100
AcDbVisualStyle
  2
Realistic
 70
     8
177
     3
291
     0
 70
    58
 90
        2
176
     1
 90
        3
176
     1
 90
        0
176
     1
 90
        2
176
     1
 40
0.6
176
     1
 40
30.0
176
     1
 62
     7
420
 16777215
176
     1
 90
        0
176
     1
 90
        0
176
     1
 62
     7
176
     1
 62
   257
176
     1
 90
        1
176
     1
 90
        1
176
     1
 40
1.0
176
     1
 90
        8
176
     1
 62
   257
176
     1
 40
1.0
176
     1
 90
        1
176
     1
 90
        6
176
     1
 90
        2
176
     1
 62
     7
176
     1
 90
        3
176
     1
 90
        0
176
     1
 90
        0
176
     1
290
     0
176
     1
 90
       13
176
     1
 40
0.0
176
     1
 90
        0
176
     1
290
     0
176
     1
290
     1
176
     1
290
     1
176
     1
290
     0
176
     1
290
     0
176
     1
290
     0
176
     1
290
     0
176
     1
290
     0
176
     1
290
     0
176
     1
 90
       50
176
     1
 40
0.0
176
     1
 40
1.0
176
     1
 90
        0
176
     1
 62
    18
420
        0
176
     1
 90
       50
176
     1
 90
        3
176
     1
 62
     5
420
      255
176
     1
290
     0
176
     1
 90
       50
176
     1
 90
       50
176
     1
 90
       50
176
     1
290
     0
176
     1
 90
       50
176
     1
 62
   256
176
     0
 40
1.0
176
     0
 90
        2
176
     1
  1
strokes_ogs.tif
176
     1
290
     0
176
     1
 40
1.0
176
     1
 40
1.0
176
     1
  0
VISUALSTYLE
  5
42
102
{ACAD_REACTORS
330
2A
102
}
330
2A
100
AcDbVisualStyle
  2
Shaded
 70
    27
177
     3
291
     0
 70
    58
 90
        2
176
     1
 90
        2
176
     1
 90
        1
176
     1
 90
        2
176
     1
 40
0.6
176
     1
 40
30.0
176
     1
 62
     7
420
 16777215
176
     1
 90
        0
176
     1
 90
        4
176
     1
 62
     7
176
     1
 62
   257
176
     1
 90
        1
176
     1
 90
        1
176
     1
 40
1.0
176
     1
 90
        8
176
     1
 62
   257
176
     1
 40
1.0
176
     1
 90
        1
176
     1
 90
        6
176
     1
 90
        2
176
     1
 62
     8
420
  7895160
176
     1
 90
        3
176
     1
 90
        0
176
     1
 90
        0
176
     1
290
     0
176
     1
 90
        5
176
     1
 40
0.0
176
     1
 90
        0
176
     1
290
     0
176
     1
290
     1
176
     1
290
     1
176
     1
290
     0
176
     1
290
     0
176
     1
290
     0
176
     1
290
     0
176
     1
290
     0
176
     1
290
     0
176
     1
 90
       50
176
     1
 40
0.0
176
     1
 40
1.0
176
     1
 90
        0
176
     1
 62
    18
420
        0
176
     1
 90
       50
176
     1
 90
        3
176
     1
 62
     5
420
      255
176
     1
290
     0
176
     1
 90
       50
176
     1
 90
       50
176
     1
 90
       50
176
     1
290
     0
176
     1
 90
       50
176
     1
 62
   256
176
     0
 40
1.0
176
     0
 90
        2
176
     1
  1
strokes_ogs.tif
176
     1
290
     0
176
     1
 40
1.0
176
     1
 40
1.0
176
     1
  0
VISUALSTYLE
  5
41
102
{ACAD_REACTORS
330
2A
102
}
330
2A
100
AcDbVisualStyle
  2
Shaded with edges
 70
    26
177
     3
291
     0
 70
    58
 90
        2
176
     1
 90
        2
176
     1
 90
        1
176
     1
 90
        2
176
     1
 40
0.6
176
     1
 40
30.0
176
     1
 62
     7
420
 16777215
176
     1
 90
        1
176
     1
 90
       10
176
     1
 62
     7
176
     1
 62
   257
176
     1
 90
        2
176
     1
 90
        1
176
     1
 40
1.0
176
     1
 90
        8
176
     1
 62
   257
176
     1
 40
1.0
176
     1
 90
        1
176
     1
 90
        6
176
     1
 90
        2
176
     1
 62
     7
176
     1
 90
        3
176
     1
 90
        0
176
     1
 90
        0
176
     1
290
     0
176
     1
 90
        5
176
     1
 40
0.0
176
     1
 90
        0
176
     1
290
     0
176
     1
290
     1
176
     1
290
     1
176
     1
290
     0
176
     1
290
     0
176
     1
290
     0
176
     1
290
     0
176
     1
290
     0
176
     1
290
     0
176
     1
 90
       50
176
     1
 40
0.0
176
     1
 40
1.0
176
     1
 90
        0
176
     1
 62
    18
420
        0
176
     1
 90
       50
176
     1
 90
        3
176
     1
 62
     5
420
      255
176
     1
290
     0
176
     1
 90
       50
176
     1
 90
       50
176
     1
 90
       50
176
     1
290
     0
176
     1
 90
       50
176
     1
 62
   256
176
     0
 40
1.0
176
     0
 90
        2
176
     1
  1
strokes_ogs.tif
176
     1
290
     0
176
     1
 40
1.0
176
     1
 40
1.0
176
     1
  0
VISUALSTYLE
  5
3E
102
{ACAD_REACTORS
330
2A
102
}
330
2A
100
AcDbVisualStyle
  2
Shades of Gray
 70
    23
177
     3
291
     0
 70
    58
 90
        2
176
     1
 90
        2
176
     1
 90
        3
176
     1
 90
        0
176
     1
 40
0.6
176
     1
 40
30.0
176
     1
 62
     7
420
 16777215
176
     1
 90
        2
176
     1
 90
        2
176
     1
 62
     7
176
     1
 62
     7
176
     1
 90
        1
176
     1
 90
        1
176
     1
 40
40.0
176
     1
 90
        8
176
     1
 62
     7
176
     1
 40
1.0
176
     1
 90
        1
176
     1
 90
        6
176
     1
 90
        2
176
     1
 62
     7
176
     1
 90
        3
176
     1
 90
        0
176
     1
 90
        0
176
     1
290
     0
176
     1
 90
        1
176
     1
 40
0.0
176
     1
 90
        0
176
     1
290
     0
176
     1
290
     1
176
     1
290
     1
176
     1
290
     0
176
     1
290
     0
176
     1
290
     0
176
     1
290
     0
176
     1
290
     0
176
     1
290
     0
176
     1
 90
       50
176
     1
 40
0.0
176
     1
 40
1.0
176
     1
 90
        0
176
     1
 62
    18
420
        0
176
     1
 90
       50
176
     1
 90
        3
176
     1
 62
     5
420
      255
176
     1
290
     0
176
     1
 90
       50
176
     1
 90
       50
176
     1
 90
       50
176
     1
290
     0
176
     1
 90
       50
176
     1
 62
   256
176
     0
 40
1.0
176
     0
 90
        2
176
     1
  1
strokes_ogs.tif
176
     1
290
     0
176
     1
 40
1.0
176
     1
 40
1.0
176
     1
  0
VISUALSTYLE
  5
3F
102
{ACAD_REACTORS
330
2A
102
}
330
2A
100
AcDbVisualStyle
  2
Sketchy
 70
    24
177
     3
291
     0
 70
    58
 90
        1
176
     1
 90
        2
176
     1
 90
        2
176
     1
 90
        0
176
     1
 40
0.6
176
     1
 40
30.0
176
     1
 62
     7
420
 16777215
176
     1
 90
        2
176
     1
 90
        2
176
     1
 62
     7
176
     1
 62
     7
176
     1
 90
        1
176
     1
 90
        1
176
     1
 40
40.0
176
     1
 90
       11
176
     1
 62
     7
176
     1
 40
1.0
176
     1
 90
        1
176
     1
 90
        6
176
     1
 90
        2
176
     1
 62
     7
176
     1
 90
        6
176
     1
 90
        0
176
     1
 90
        0
176
     1
290
     0
176
     1
 90
        1
176
     1
 40
0.0
176
     1
 90
        0
176
     1
290
     0
176
     1
290
     1
176
     1
290
     1
176
     1
290
     0
176
     1
290
     0
176
     1
290
     0
176
     1
290
     0
176
     1
290
     0
176
     1
290
     0
176
     1
 90
       50
176
     1
 40
0.0
176
     1
 40
1.0
176
     1
 90
        0
176
     1
 62
    18
420
        0
176
     1
 90
       50
176
     1
 90
        3
176
     1
 62
     5
420
      255
176
     1
290
     0
176
     1
 90
       50
176
     1
 90
       50
176
     1
 90
       50
176
     1
290
     0
176
     1
 90
       50
176
     1
 62
   256
176
     0
 40
1.0
176
     0
 90
        2
176
     1
  1
strokes_ogs.tif
176
     1
290
     0
176
     1
 40
1.0
176
     1
 40
1.0
176
     1
  0
VISUALSTYLE
  5
37
102
{ACAD_REACTORS
330
2A
102
}
330
2A
100
AcDbVisualStyle
  2
Thicken
 70
    13
177
     3
291
     1
 70
    58
 90
        2
176
     1
 90
        2
176
     1
 90
        0
176
     1
 90
        0
176
     1
 40
0.6
176
     1
 40
30.0
176
     1
 62
     7
420
 16777215
176
     1
 90
        1
176
     1
 90
        4
176
     1
 62
     7
176
     1
 62
   257
176
     1
 90
        1
176
     1
 90
        1
176
     1
 40
1.0
176
     1
 90
       12
176
     1
 62
     7
176
     1
 40
1.0
176
     1
 90
        1
176
     1
 90
        6
176
     1
 90
        2
176
     1
 62
     7
176
     1
 90
        5
176
     1
 90
        0
176
     1
 90
        0
176
     1
290
     0
176
     1
 90
        1
176
     1
 40
0.0
176
     1
 90
        0
176
     1
290
     0
176
     1
290
     1
176
     1
290
     1
176
     1
290
     0
176
     1
290
     0
176
     1
290
     0
176
     1
290
     0
176
     1
290
     0
176
     1
290
     0
176
     1
 90
       50
176
     1
 40
0.0
176
     1
 40
1.0
176
     1
 90
        0
176
     1
 62
    18
420
        0
176
     1
 90
       50
176
     1
 90
        3
176
     1
 62
     5
420
      255
176
     1
290
     0
176
     1
 90
       50
176
     1
 90
       50
176
     1
 90
       50
176
     1
290
     0
176
     1
 90
       50
176
     1
 62
   256
176
     0
 40
1.0
176
     0
 90
        2
176
     1
  1
strokes_ogs.tif
176
     1
290
     0
176
     1
 40
1.0
176
     1
 40
1.0
176
     1
  0
VISUALSTYLE
  5
30
102
{ACAD_REACTORS
330
2A
102
}
330
2A
100
AcDbVisualStyle
  2
Wireframe
 70
     5
177
     3
291
     0
 70
    58
 90
        0
176
     1
 90
        2
176
     1
 90
        0
176
     1
 90
        0
176
     1
 40
0.6
176
     1
 40
30.0
176
     1
 62
     7
420
 16777215
176
     1
 90
        1
176
     1
 90
        4
176
     1
 62
     7
176
     1
 62
   257
176
     1
 90
        1
176
     1
 90
        1
176
     1
 40
1.0
176
     1
 90
        0
176
     1
 62
   257
176
     1
 40
1.0
176
     1
 90
        1
176
     1
 90
        6
176
     1
 90
        2
176
     1
 62
     7
176
     1
 90
        3
176
     1
 90
        0
176
     1
 90
        0
176
     1
290
     0
176
     1
 90
        1
176
     1
 40
0.0
176
     1
 90
        0
176
     1
290
     0
176
     1
290
     1
176
     1
290
     1
176
     1
290
     0
176
     1
290
     0
176
     1
290
     0
176
     1
290
     0
176
     1
290
     0
176
     1
290
     0
176
     1
 90
       50
176
     1
 40
0.0
176
     1
 40
1.0
176
     1
 90
        0
176
     1
 62
    18
420
        0
176
     1
 90
       50
176
     1
 90
        3
176
     1
 62
     5
420
      255
176
     1
290
     0
176
     1
 90
       50
176
     1
 90
       50
176
     1
 90
       50
176
     1
290
     0
176
     1
 90
       50
176
     1
 62
   256
176
     0
 40
1.0
176
     0
 90
        2
176
     1
  1
strokes_ogs.tif
176
     1
290
     0
176
     1
 40
1.0
176
     1
 40
1.0
176
     1
  0
VISUALSTYLE
  5
40
102
{ACAD_REACTORS
330
2A
102
}
330
2A
100
AcDbVisualStyle
  2
X-Ray
 70
    25
177
     3
291
     0
 70
    58
 90
        2
176
     1
 90
        2
176
     1
 90
        1
176
     1
 90
        1
176
     1
 40
0.5
176
     1
 40
30.0
176
     1
 62
     7
420
 16777215
176
     1
 90
        1
176
     1
 90
        0
176
     1
 62
     7
176
     1
 62
   257
176
     1
 90
        1
176
     1
 90
        1
176
     1
 40
1.0
176
     1
 90
        8
176
     1
 62
     7
176
     1
 40
1.0
176
     1
 90
        1
176
     1
 90
        6
176
     1
 90
        2
176
     1
 62
     7
176
     1
 90
        3
176
     1
 90
        0
176
     1
 90
        0
176
     1
290
     0
176
     1
 90
       13
176
     1
 40
0.0
176
     1
 90
        0
176
     1
290
     0
176
     1
290
     1
176
     1
290
     1
176
     1
290
     0
176
     1
290
     0
176
     1
290
     0
176
     1
290
     0
176
     1
290
     0
176
     1
290
     0
176
     1
 90
       50
176
     1
 40
0.0
176
     1
 40
1.0
176
     1
 90
        0
176
     1
 62
    18
420
        0
176
     1
 90
       50
176
     1
 90
        3
176
     1
 62
     5
420
      255
176
     1
290
     0
176
     1
 90
       50
176
     1
 90
       50
176
     1
 90
       50
176
     1
290
     0
176
     1
 90
       50
176
     1
 62
   256
176
     0
 40
1.0
176
     0
 90
        2
176
     1
  1
strokes_ogs.tif
176
     1
290
     0
176
     1
 40
1.0
176
     1
 40
1.0
176
     1
  0
DICTIONARYVAR
  5
79
102
{ACAD_REACTORS
330
78
102
}
330
78
100
DictionaryVariables
280
     0
  1
1:1
  0
DICTIONARYVAR
  5
7E
102
{ACAD_REACTORS
330
78
102
}
330
78
100
DictionaryVariables
280
     0
  1
Standard
  0
DICTIONARYVAR
  5
7D
102
{ACAD_REACTORS
330
78
102
}
330
78
100
DictionaryVariables
280
     0
  1
Standard
  0
DICTIONARY
  5
7A
330
5A
100
AcDbDictionary
280
     1
281
     1
  3
ACAD_ROUNDTRIP_2008_TABLESTYLE_CELLSTYLEMAP
360
7B
  0
CELLSTYLEMAP
  5
7B
102
{ACAD_REACTORS
330
7A
102
}
330
7A
100
AcDbCellStyleMap
 90
        3
300
CELLSTYLE
  1
TABLEFORMAT_BEGIN
 90
        5
170
     1
 91
        0
 92
    32768
 62
   257
 93
        1
300
CONTENTFORMAT
  1
CONTENTFORMAT_BEGIN
 90
        0
 91
        0
 92
        4
 93
        0
300

 40
0.0
140
1.0
 94
        5
 62
     0
340
11
144
0.25
309
CONTENTFORMAT_END
171
     1
301
MARGIN
  1
CELLMARGIN_BEGIN
 40
0.06
 40
0.06
 40
0.06
 40
0.06
 40
0.06
 40
0.06
309
CELLMARGIN_END
 94
        6
 95
        1
302
GRIDFORMAT
  1
GRIDFORMAT_BEGIN
 90
        0
 91
        1
 62
     0
 92
       -2
340
14
 93
        0
 40
0.045
309
GRIDFORMAT_END
 95
        2
302
GRIDFORMAT
  1
GRIDFORMAT_BEGIN
 90
        0
 91
        1
 62
     0
 92
       -2
340
14
 93
        0
 40
0.045
309
GRIDFORMAT_END
 95
        4
302
GRIDFORMAT
  1
GRIDFORMAT_BEGIN
 90
        0
 91
        1
 62
     0
 92
       -2
340
14
 93
        0
 40
0.045
309
GRIDFORMAT_END
 95
        8
302
GRIDFORMAT
  1
GRIDFORMAT_BEGIN
 90
        0
 91
        1
 62
     0
 92
       -2
340
14
 93
        0
 40
0.045
309
GRIDFORMAT_END
 95
       16
302
GRIDFORMAT
  1
GRIDFORMAT_BEGIN
 90
        0
 91
        1
 62
     0
 92
       -2
340
14
 93
        0
 40
0.045
309
GRIDFORMAT_END
 95
       32
302
GRIDFORMAT
  1
GRIDFORMAT_BEGIN
 90
        0
 91
        1
 62
     0
 92
       -2
340
14
 93
        0
 40
0.045
309
GRIDFORMAT_END
309
TABLEFORMAT_END
  1
CELLSTYLE_BEGIN
 90
        1
 91
        1
300
_TITLE
309
CELLSTYLE_END
300
CELLSTYLE
  1
TABLEFORMAT_BEGIN
 90
        5
170
     1
 91
        0
 92
        0
 62
   257
 93
        1
300
CONTENTFORMAT
  1
CONTENTFORMAT_BEGIN
 90
        0
 91
        0
 92
        4
 93
        0
300

 40
0.0
140
1.0
 94
        5
 62
     0
340
11
144
0.18
309
CONTENTFORMAT_END
171
     1
301
MARGIN
  1
CELLMARGIN_BEGIN
 40
0.06
 40
0.06
 40
0.06
 40
0.06
 40
0.06
 40
0.06
309
CELLMARGIN_END
 94
        6
 95
        1
302
GRIDFORMAT
  1
GRIDFORMAT_BEGIN
 90
        0
 91
        1
 62
     0
 92
       -2
340
14
 93
        0
 40
0.045
309
GRIDFORMAT_END
 95
        2
302
GRIDFORMAT
  1
GRIDFORMAT_BEGIN
 90
        0
 91
        1
 62
     0
 92
       -2
340
14
 93
        0
 40
0.045
309
GRIDFORMAT_END
 95
        4
302
GRIDFORMAT
  1
GRIDFORMAT_BEGIN
 90
        0
 91
        1
 62
     0
 92
       -2
340
14
 93
        0
 40
0.045
309
GRIDFORMAT_END
 95
        8
302
GRIDFORMAT
  1
GRIDFORMAT_BEGIN
 90
        0
 91
        1
 62
     0
 92
       -2
340
14
 93
        0
 40
0.045
309
GRIDFORMAT_END
 95
       16
302
GRIDFORMAT
  1
GRIDFORMAT_BEGIN
 90
        0
 91
        1
 62
     0
 92
       -2
340
14
 93
        0
 40
0.045
309
GRIDFORMAT_END
 95
       32
302
GRIDFORMAT
  1
GRIDFORMAT_BEGIN
 90
        0
 91
        1
 62
     0
 92
       -2
340
14
 93
        0
 40
0.045
309
GRIDFORMAT_END
309
TABLEFORMAT_END
  1
CELLSTYLE_BEGIN
 90
        2
 91
        1
300
_HEADER
309
CELLSTYLE_END
300
CELLSTYLE
  1
TABLEFORMAT_BEGIN
 90
        5
170
     1
 91
        0
 92
        0
 62
   257
 93
        1
300
CONTENTFORMAT
  1
CONTENTFORMAT_BEGIN
 90
        0
 91
        0
 92
        4
 93
        0
300

 40
0.0
140
1.0
 94
        2
 62
     0
340
11
144
0.18
309
CONTENTFORMAT_END
171
     1
301
MARGIN
  1
CELLMARGIN_BEGIN
 40
0.06
 40
0.06
 40
0.06
 40
0.06
 40
0.06
 40
0.06
309
CELLMARGIN_END
 94
        6
 95
        1
302
GRIDFORMAT
  1
GRIDFORMAT_BEGIN
 90
        0
 91
        1
 62
     0
 92
       -2
340
14
 93
        0
 40
0.045
309
GRIDFORMAT_END
 95
        2
302
GRIDFORMAT
  1
GRIDFORMAT_BEGIN
 90
        0
 91
        1
 62
     0
 92
       -2
340
14
 93
        0
 40
0.045
309
GRIDFORMAT_END
 95
        4
302
GRIDFORMAT
  1
GRIDFORMAT_BEGIN
 90
        0
 91
        1
 62
     0
 92
       -2
340
14
 93
        0
 40
0.045
309
GRIDFORMAT_END
 95
        8
302
GRIDFORMAT
  1
GRIDFORMAT_BEGIN
 90
        0
 91
        1
 62
     0
 92
       -2
340
14
 93
        0
 40
0.045
309
GRIDFORMAT_END
 95
       16
302
GRIDFORMAT
  1
GRIDFORMAT_BEGIN
 90
        0
 91
        1
 62
     0
 92
       -2
340
14
 93
        0
 40
0.045
309
GRIDFORMAT_END
 95
       32
302
GRIDFORMAT
  1
GRIDFORMAT_BEGIN
 90
        0
 91
        1
 62
     0
 92
       -2
340
14
 93
        0
 40
0.045
309
GRIDFORMAT_END
309
TABLEFORMAT_END
  1
CELLSTYLE_BEGIN
 90
        3
 91
        2
300
_DATA
309
CELLSTYLE_END
  0
ENDSEC
  0
EOF
