  0
SECTION
  2
HEADER
  9
$ACADVER
  1
AC1027
  9
$ACADMAINTVER
 70
   105
  9
$DWGCODEPAGE
  3
ANSI_1252
  9
$LASTSAVEDBY
  1
Office Desk
  9
$REQUIREDVERSIONS
160
                 0
  9
$INSBASE
 10
0.0
 20
0.0
 30
0.0
  9
$EXTMIN
 10
168.6582
 20
-656.6984
 30
0.0
  9
$EXTMAX
 10
894.9426
 20
226.6708
 30
0.0
  9
$LIMMIN
 10
0.0
 20
0.0
  9
$LIMMAX
 10
12.0
 20
9.0
  9
$ORTHOMODE
 70
     0
  9
$REGENMODE
 70
     1
  9
$FILLMODE
 70
     1
  9
$QTEXTMODE
 70
     0
  9
$MIRRTEXT
 70
     1
  9
$LTSCALE
 40
1.0
  9
$ATTMODE
 70
     1
  9
$TEXTSIZE
 40
0.2
  9
$TRACEWID
 40
0.05
  9
$TEXTSTYLE
  7
Standard
  9
$CLAYER
  8
0
  9
$CELTYPE
  6
ByLayer
  9
$CECOLOR
 62
   256
  9
$CELTSCALE
 40
1.0
  9
$DISPSILH
 70
     0
  9
$DIMSCALE
 40
1.0
  9
$DIMASZ
 40
0.18
  9
$DIMEXO
 40
0.0625
  9
$DIMDLI
 40
0.38
  9
$DIMRND
 40
0.0
  9
$DIMDLE
 40
0.0
  9
$DIMEXE
 40
0.18
  9
$DIMTP
 40
0.0
  9
$DIMTM
 40
0.0
  9
$DIMTXT
 40
0.18
  9
$DIMCEN
 40
0.09
  9
$DIMTSZ
 40
0.0
  9
$DIMTOL
 70
     0
  9
$DIMLIM
 70
     0
  9
$DIMTIH
 70
     1
  9
$DIMTOH
 70
     1
  9
$DIMSE1
 70
     0
  9
$DIMSE2
 70
     0
  9
$DIMTAD
 70
     0
  9
$DIMZIN
 70
     0
  9
$DIMBLK
  1

  9
$DIMASO
 70
     1
  9
$DIMSHO
 70
     1
  9
$DIMPOST
  1

  9
$DIMAPOST
  1

  9
$DIMALT
 70
     0
  9
$DIMALTD
 70
     2
  9
$DIMALTF
 40
25.4
  9
$DIMLFAC
 40
1.0
  9
$DIMTOFL
 70
     0
  9
$DIMTVP
 40
0.0
  9
$DIMTIX
 70
     0
  9
$DIMSOXD
 70
     0
  9
$DIMSAH
 70
     0
  9
$DIMBLK1
  1

  9
$DIMBLK2
  1

  9
$DIMSTYLE
  2
Standard
  9
$DIMCLRD
 70
     0
  9
$DIMCLRE
 70
     0
  9
$DIMCLRT
 70
     0
  9
$DIMTFAC
 40
1.0
  9
$DIMGAP
 40
0.09
  9
$DIMJUST
 70
     0
  9
$DIMSD1
 70
     0
  9
$DIMSD2
 70
     0
  9
$DIMTOLJ
 70
     1
  9
$DIMTZIN
 70
     0
  9
$DIMALTZ
 70
     0
  9
$DIMALTTZ
 70
     0
  9
$DIMUPT
 70
     0
  9
$DIMDEC
 70
     4
  9
$DIMTDEC
 70
     4
  9
$DIMALTU
 70
     2
  9
$DIMALTTD
 70
     2
  9
$DIMTXSTY
  7
Standard
  9
$DIMAUNIT
 70
     0
  9
$DIMADEC
 70
     0
  9
$DIMALTRND
 40
0.0
  9
$DIMAZIN
 70
     0
  9
$DIMDSEP
 70
    46
  9
$DIMATFIT
 70
     3
  9
$DIMFRAC
 70
     0
  9
$DIMLDRBLK
  1

  9
$DIMLUNIT
 70
     2
  9
$DIMLWD
 70
    -2
  9
$DIMLWE
 70
    -2
  9
$DIMTMOVE
 70
     0
  9
$DIMFXL
 40
1.0
  9
$DIMFXLON
 70
     0
  9
$DIMJOGANG
 40
0.7853981633974483
  9
$DIMTFILL
 70
     0
  9
$DIMTFILLCLR
 70
     0
  9
$DIMARCSYM
 70
     0
  9
$DIMLTYPE
  6

  9
$DIMLTEX1
  6

  9
$DIMLTEX2
  6

  9
$DIMTXTDIRECTION
 70
     0
  9
$LUNITS
 70
     2
  9
$LUPREC
 70
     4
  9
$SKETCHINC
 40
0.1
  9
$FILLETRAD
 40
0.0
  9
$AUNITS
 70
     0
  9
$AUPREC
 70
     0
  9
$MENU
  1
.
  9
$ELEVATION
 40
0.0
  9
$PELEVATION
 40
0.0
  9
$THICKNESS
 40
0.0
  9
$LIMCHECK
 70
     0
  9
$CHAMFERA
 40
0.0
  9
$CHAMFERB
 40
0.0
  9
$CHAMFERC
 40
0.0
  9
$CHAMFERD
 40
0.0
  9
$SKPOLY
 70
     0
  9
$TDCREATE
 40
2461006.687491933
  9
$TDUCREATE
 40
2461006.458325267
  9
$TDUPDATE
 40
2461006.687491933
  9
$TDUUPDATE
 40
2461006.458325267
  9
$TDINDWG
 40
0.0000000116
  9
$TDUSRTIMER
 40
0.0000000116
  9
$USRTIMER
 70
     1
  9
$ANGBASE
 50
0.0
  9
$ANGDIR
 70
     0
  9
$PDMODE
 70
     0
  9
$PDSIZE
 40
0.0
  9
$PLINEWID
 40
0.0
  9
$SPLFRAME
 70
     0
  9
$SPLINETYPE
 70
     6
  9
$SPLINESEGS
 70
     8
  9
$HANDSEED
  5
90
  9
$SURFTAB1
 70
     6
  9
$SURFTAB2
 70
     6
  9
$SURFTYPE
 70
     6
  9
$SURFU
 70
     6
  9
$SURFV
 70
     6
  9
$UCSBASE
  2

  9
$UCSNAME
  2

  9
$UCSORG
 10
0.0
 20
0.0
 30
0.0
  9
$UCSXDIR
 10
1.0
 20
0.0
 30
0.0
  9
$UCSYDIR
 10
0.0
 20
1.0
 30
0.0
  9
$UCSORTHOREF
  2

  9
$UCSORTHOVIEW
 70
     0
  9
$UCSORGTOP
 10
0.0
 20
0.0
 30
0.0
  9
$UCSORGBOTTOM
 10
0.0
 20
0.0
 30
0.0
  9
$UCSORGLEFT
 10
0.0
 20
0.0
 30
0.0
  9
$UCSORGRIGHT
 10
0.0
 20
0.0
 30
0.0
  9
$UCSORGFRONT
 10
0.0
 20
0.0
 30
0.0
  9
$UCSORGBACK
 10
0.0
 20
0.0
 30
0.0
  9
$PUCSBASE
  2

  9
$PUCSNAME
  2

  9
$PUCSORG
 10
0.0
 20
0.0
 30
0.0
  9
$PUCSXDIR
 10
1.0
 20
0.0
 30
0.0
  9
$PUCSYDIR
 10
0.0
 20
1.0
 30
0.0
  9
$PUCSORTHOREF
  2

  9
$PUCSORTHOVIEW
 70
     0
  9
$PUCSORGTOP
 10
0.0
 20
0.0
 30
0.0
  9
$PUCSORGBOTTOM
 10
0.0
 20
0.0
 30
0.0
  9
$PUCSORGLEFT
 10
0.0
 20
0.0
 30
0.0
  9
$PUCSORGRIGHT
 10
0.0
 20
0.0
 30
0.0
  9
$PUCSORGFRONT
 10
0.0
 20
0.0
 30
0.0
  9
$PUCSORGBACK
 10
0.0
 20
0.0
 30
0.0
  9
$USERI1
 70
     0
  9
$USERI2
 70
     0
  9
$USERI3
 70
     0
  9
$USERI4
 70
     0
  9
$USERI5
 70
     0
  9
$USERR1
 40
0.0
  9
$USERR2
 40
0.0
  9
$USERR3
 40
0.0
  9
$USERR4
 40
0.0
  9
$USERR5
 40
0.0
  9
$WORLDVIEW
 70
     1
  9
$SHADEDGE
 70
     3
  9
$SHADEDIF
 70
    70
  9
$TILEMODE
 70
     1
  9
$MAXACTVP
 70
    64
  9
$PINSBASE
 10
0.0
 20
0.0
 30
0.0
  9
$PLIMCHECK
 70
     0
  9
$PEXTMIN
 10
1.000000000000000E+20
 20
1.000000000000000E+20
 30
1.000000000000000E+20
  9
$PEXTMAX
 10
-1.000000000000000E+20
 20
-1.000000000000000E+20
 30
-1.000000000000000E+20
  9
$PLIMMIN
 10
0.0
 20
0.0
  9
$PLIMMAX
 10
12.0
 20
9.0
  9
$UNITMODE
 70
     0
  9
$VISRETAIN
 70
     1
  9
$PLINEGEN
 70
     0
  9
$PSLTSCALE
 70
     1
  9
$TREEDEPTH
 70
  3020
  9
$CMLSTYLE
  2
Standard
  9
$CMLJUST
 70
     0
  9
$CMLSCALE
 40
1.0
  9
$PROXYGRAPHICS
 70
     1
  9
$MEASUREMENT
 70
     0
  9
$CELWEIGHT
370
    -1
  9
$ENDCAPS
280
     0
  9
$JOINSTYLE
280
     0
  9
$LWDISPLAY
290
     0
  9
$INSUNITS
 70
     4
  9
$HYPERLINKBASE
  1

  9
$STYLESHEET
  1

  9
$XEDIT
290
     1
  9
$CEPSNTYPE
380
     0
  9
$PSTYLEMODE
290
     1
  9
$FINGERPRINTGUID
  2
{a56f74c7-7460-42a6-a8c1-abc960e46c86}
  9
$VERSIONGUID
  2
{FAEB1C32-E019-11D5-929B-00C0DF256EC4}
  9
$EXTNAMES
290
     1
  9
$PSVPSCALE
 40
0.0
  9
$OLESTARTUP
290
     0
  9
$SORTENTS
280
   127
  9
$INDEXCTL
280
     0
  9
$HIDETEXT
280
     1
  9
$XCLIPFRAME
280
     2
  9
$HALOGAP
280
     0
  9
$OBSCOLOR
 70
   257
  9
$OBSLTYPE
280
     0
  9
$INTERSECTIONDISPLAY
280
     0
  9
$INTERSECTIONCOLOR
 70
   257
  9
$DIMASSOC
280
     2
  9
$PROJECTNAME
  1

  9
$CAMERADISPLAY
290
     0
  9
$LENSLENGTH
 40
50.0
  9
$CAMERAHEIGHT
 40
0.0
  9
$STEPSPERSEC
 40
2.0
  9
$STEPSIZE
 40
6.0
  9
$3DDWFPREC
 40
2.0
  9
$PSOLWIDTH
 40
0.25
  9
$PSOLHEIGHT
 40
4.0
  9
$LOFTANG1
 40
1.570796326794897
  9
$LOFTANG2
 40
1.570796326794897
  9
$LOFTMAG1
 40
0.0
  9
$LOFTMAG2
 40
0.0
  9
$LOFTPARAM
 70
     7
  9
$LOFTNORMALS
280
     1
  9
$LATITUDE
 40
37.795
  9
$LONGITUDE
 40
-122.394
  9
$NORTHDIRECTION
 40
0.0
  9
$TIMEZONE
 70
 -8000
  9
$LIGHTGLYPHDISPLAY
280
     1
  9
$TILEMODELIGHTSYNCH
280
     1
  9
$CMATERIAL
347
44
  9
$SOLIDHIST
280
     0
  9
$SHOWHIST
280
     1
  9
$DWFFRAME
280
     2
  9
$DGNFRAME
280
     2
  9
$REALWORLDSCALE
290
     1
  9
$INTERFERECOLOR
 62
   256
  9
$CSHADOW
280
     0
  9
$SHADOWPLANELOCATION
 40
0.0
  0
ENDSEC
  0
SECTION
  2
CLASSES
  0
CLASS
  1
ACDBDICTIONARYWDFLT
  2
AcDbDictionaryWithDefault
  3
ObjectDBX Classes
 90
        0
 91
        3
280
     0
281
     0
  0
CLASS
  1
VISUALSTYLE
  2
AcDbVisualStyle
  3
ObjectDBX Classes
 90
     4095
 91
        3
280
     0
281
     0
  0
CLASS
  1
MATERIAL
  2
AcDbMaterial
  3
ObjectDBX Classes
 90
     1153
 91
        3
280
     0
281
     0
  0
CLASS
  1
SCALE
  2
AcDbScale
  3
ObjectDBX Classes
 90
     1153
 91
        3
280
     0
281
     0
  0
CLASS
  1
TABLESTYLE
  2
AcDbTableStyle
  3
ObjectDBX Classes
 90
     4095
 91
        3
280
     0
281
     0
  0
CLASS
  1
MLEADERSTYLE
  2
AcDbMLeaderStyle
  3
ACDB_MLEADERSTYLE_CLASS
 90
     4095
 91
        3
280
     0
281
     0
  0
CLASS
  1
SUN
  2
AcDbSun
  3
SCENEOE
 90
     1153
 91
        3
280
     0
281
     0
  0
CLASS
  1
DICTIONARYVAR
  2
AcDbDictionaryVar
  3
ObjectDBX Classes
 90
        0
 91
        3
280
     0
281
     0
  0
CLASS
  1
CELLSTYLEMAP
  2
AcDbCellStyleMap
  3
ObjectDBX Classes
 90
     1152
 91
        3
280
     0
281
     0
  0
ENDSEC
  0
SECTION
  2
TABLES
  0
TABLE
  2
VPORT
  5
8
330
0
100
AcDbSymbolTable
 70
     1
  0
VPORT
  5
29
330
8
100
AcDbSymbolTableRecord
100
AcDbViewportTableRecord
  2
*Active
 70
     0
 10
0.0
 20
0.0
 11
1.0
 21
1.0
 12
10.42990654205607
 22
4.5
 13
0.0
 23
0.0
 14
0.5
 24
0.5
 15
0.5
 25
0.5
 16
0.0
 26
0.0
 36
1.0
 17
0.0
 27
0.0
 37
0.0
 40
9.0
 41
1.972972972850329
 42
50.0
 43
0.0
 44
0.0
 50
0.0
 51
0.0
 71
     0
 72
   100
 73
     1
 74
     3
 75
     0
 76
     0
 77
     0
 78
     0
281
     0
 65
     1
110
0.0
120
0.0
130
0.0
111
1.0
121
0.0
131
0.0
112
0.0
122
1.0
132
0.0
 79
     0
146
0.0
348
2F
 60
     3
 61
     5
292
     1
282
     1
141
0.0
142
0.0
 63
   250
361
5D
  0
ENDTAB
  0
TABLE
  2
LTYPE
  5
5
330
0
100
AcDbSymbolTable
 70
     1
  0
LTYPE
  5
14
330
5
100
AcDbSymbolTableRecord
100
AcDbLinetypeTableRecord
  2
ByBlock
 70
     0
  3

 72
    65
 73
     0
 40
0.0
  0
LTYPE
  5
15
330
5
100
AcDbSymbolTableRecord
100
AcDbLinetypeTableRecord
  2
ByLayer
 70
     0
  3

 72
    65
 73
     0
 40
0.0
  0
LTYPE
  5
16
330
5
100
AcDbSymbolTableRecord
100
AcDbLinetypeTableRecord
  2
Continuous
 70
     0
  3
Solid line
 72
    65
 73
     0
 40
0.0
  0
ENDTAB
  0
TABLE
  2
LAYER
  5
2
330
0
100
AcDbSymbolTable
 70
     2
  0
LAYER
  5
10
330
2
100
AcDbSymbolTableRecord
100
AcDbLayerTableRecord
  2
0
 70
     0
 62
     7
  6
Continuous
370
    -3
390
F
347
46
348
0
  0
LAYER
  5
5F
330
2
100
AcDbSymbolTableRecord
100
AcDbLayerTableRecord
  2
Layer 1
 70
     0
 62
     7
  6
Continuous
370
    -3
390
F
347
46
348
0
  0
ENDTAB
  0
TABLE
  2
STYLE
  5
3
330
0
100
AcDbSymbolTable
 70
     1
  0
STYLE
  5
11
330
3
100
AcDbSymbolTableRecord
100
AcDbTextStyleTableRecord
  2
Standard
 70
     0
 40
0.0
 41
1.0
 50
0.0
 71
     0
 42
0.2
  3
txt
  4

  0
ENDTAB
  0
TABLE
  2
VIEW
  5
6
330
0
100
AcDbSymbolTable
 70
     0
  0
ENDTAB
  0
TABLE
  2
UCS
  5
7
330
0
100
AcDbSymbolTable
 70
     0
  0
ENDTAB
  0
TABLE
  2
APPID
  5
9
330
0
100
AcDbSymbolTable
 70
     2
  0
APPID
  5
12
330
9
100
AcDbSymbolTableRecord
100
AcDbRegAppTableRecord
  2
ACAD
 70
     0
  0
APPID
  5
5E
330
9
100
AcDbSymbolTableRecord
100
AcDbRegAppTableRecord
  2
ODA
 70
     0
  0
ENDTAB
  0
TABLE
  2
DIMSTYLE
  5
A
330
0
100
AcDbSymbolTable
 70
     1
100
AcDbDimStyleTable
  0
DIMSTYLE
105
27
330
A
100
AcDbSymbolTableRecord
100
AcDbDimStyleTableRecord
  2
Standard
 70
     0
178
     0
340
11
  0
ENDTAB
  0
TABLE
  2
BLOCK_RECORD
  5
1
330
0
100
AcDbSymbolTable
 70
     1
  0
BLOCK_RECORD
  5
1F
330
1
100
AcDbSymbolTableRecord
100
AcDbBlockTableRecord
  2
*Model_Space
340
22
 70
     0
280
     1
281
     0
  0
BLOCK_RECORD
  5
1B
330
1
100
AcDbSymbolTableRecord
100
AcDbBlockTableRecord
  2
*Paper_Space
340
1E
 70
     0
280
     1
281
     0
  0
BLOCK_RECORD
  5
23
330
1
100
AcDbSymbolTableRecord
100
AcDbBlockTableRecord
  2
*Paper_Space0
340
26
 70
     0
280
     1
281
     0
  0
ENDTAB
  0
ENDSEC
  0
SECTION
  2
BLOCKS
  0
BLOCK
  5
20
330
1F
100
AcDbEntity
  8
0
100
AcDbBlockBegin
  2
*Model_Space
 70
     0
 10
0.0
 20
0.0
 30
0.0
  3
*Model_Space
  1

  0
ENDBLK
  5
21
330
1F
100
AcDbEntity
  8
0
100
AcDbBlockEnd
  0
BLOCK
  5
1C
330
1B
100
AcDbEntity
 67
     1
  8
0
100
AcDbBlockBegin
  2
*Paper_Space
 70
     0
 10
0.0
 20
0.0
 30
0.0
  3
*Paper_Space
  1

  0
ENDBLK
  5
1D
330
1B
100
AcDbEntity
 67
     1
  8
0
100
AcDbBlockEnd
  0
BLOCK
  5
24
330
23
100
AcDbEntity
  8
0
100
AcDbBlockBegin
  2
*Paper_Space0
 70
     0
 10
0.0
 20
0.0
 30
0.0
  3
*Paper_Space0
  1

  0
ENDBLK
  5
25
330
23
100
AcDbEntity
  8
0
100
AcDbBlockEnd
  0
ENDSEC
  0
SECTION
  2
ENTITIES
  0
LWPOLYLINE
  5
60
330
1F
100
AcDbEntity
  8
Layer 1
 62
   250
370
    18
100
AcDbPolyline
 90
        5
 70
     1
 43
0.0
 10
168.7464
 20
-656.6102
 10
894.8544
 20
-656.6102
 10
894.8544
 20
226.5826
 10
168.7464
 20
226.5826
 10
168.7464
 20
-656.6102
  0
LWPOLYLINE
  5
61
330
1F
100
AcDbEntity
  8
Layer 1
 62
     7
370
     9
100
AcDbPolyline
 90
      122
 70
     1
 43
0.0
 10
277.734
 20
151.394
 10
229.4892
 20
124.0774
 10
229.3772
 20
123.7974
 10
229.1051
 20
123.0262
 10
228.769
 20
121.8673
 10
228.4649
 20
120.4241
 10
228.2889
 20
118.8
 10
228.3369
 20
117.0984
 10
228.705
 20
115.4227
 10
229.4892
 20
113.8764
 10
230.9154
 20
112.672
 10
230.7961
 20
112.1958
 10
230.5308
 20
110.9059
 10
230.2581
 20
109.0103
 10
230.1167
 20
106.7172
 10
230.2452
 20
104.2347
 10
230.7823
 20
101.7708
 10
231.8667
 20
99.5336
 10
233.6371
 20
97.7312
 10
257.4033
 20
-647.1113
 10
257.4196
 20
-647.2181
 10
257.4911
 20
-647.4889
 10
257.6521
 20
-647.8491
 10
257.9367
 20
-648.2243
 10
258.379
 20
-648.5397
 10
259.0131
 20
-648.7211
 10
259.8733
 20
-648.6938
 10
260.9937
 20
-648.3832
 10
262.7567
 20
-647.5838
 10
265.3112
 20
-646.2676
 10
268.3407
 20
-644.6267
 10
271.5289
 20
-642.8532
 10
274.5593
 20
-641.1394
 10
277.1157
 20
-639.6774
 10
278.8815
 20
-638.6593
 10
279.5404
 20
-638.2772
 10
281.5873
 20
-535.665
 10
281.5839
 20
-535.5851
 10
281.5912
 20
-535.3727
 10
281.6351
 20
-535.0681
 10
281.7418
 20
-534.7121
 10
281.9372
 20
-534.3452
 10
282.2474
 20
-534.008
 10
282.6984
 20
-533.7411
 10
283.3164
 20
-533.5851
 10
287.8011
 20
-531.5627
 10
298.4462
 20
-526.3751
 10
313.1687
 20
-519.0812
 10
329.8855
 20
-510.7394
 10
346.5135
 20
-502.4085
 10
360.9698
 20
-495.1472
 10
371.1711
 20
-490.014
 10
375.0344
 20
-488.0677
 10
559.0911
 20
-489.0739
 10
626.09
 20
-527.335
 10
627.245
 20
-629.712
 10
647.9003
 20
-640.6861
 10
648.0254
 20
-640.7077
 10
648.3543
 20
-640.7306
 10
648.818
 20
-640.6923
 10
649.3472
 20
-640.5301
 10
649.8725
 20
-640.1816
 10
650.3248
 20
-639.584
 10
650.6348
 20
-638.6747
 10
650.7332
 20
-637.3912
 10
651.4862
 20
-604.8689
 10
653.522
 20
-521.6026
 10
656.4141
 20
-404.5691
 10
659.7364
 20
-270.7454
 10
663.0625
 20
-137.108
 10
665.9661
 20
-20.6339
 10
668.0208
 20
61.7003
 10
668.8005
 20
92.9176
 10
668.822
 20
93.0224
 10
668.9146
 20
93.321
 10
669.1206
 20
93.7901
 10
669.4824
 20
94.4062
 10
670.0422
 20
95.1458
 10
670.8424
 20
95.9855
 10
671.9253
 20
96.9018
 10
673.3332
 20
97.8714
 10
673.3983
 20
97.9252
 10
673.5706
 20
98.0843
 10
673.8161
 20
98.3456
 10
674.1005
 20
98.7056
 10
674.3895
 20
99.161
 10
674.6491
 20
99.7087
 10
674.8449
 20
100.3452
 10
674.9427
 20
101.0672
 10
674.9714
 20
101.9236
 10
674.9849
 20
102.9142
 10
674.9866
 20
103.9624
 10
674.9802
 20
104.9918
 10
674.9691
 20
105.9257
 10
674.9568
 20
106.6876
 10
674.9468
 20
107.2009
 10
674.9427
 20
107.389
 10
675.0004
 20
107.3346
 10
675.1539
 20
107.2235
 10
675.3736
 20
107.1336
 10
675.6298
 20
107.1429
 10
675.8931
 20
107.3294
 10
676.1337
 20
107.7712
 10
676.3223
 20
108.5462
 10
676.4291
 20
109.7325
 10
676.5016
 20
111.1257
 10
676.5766
 20
112.4589
 10
676.6088
 20
113.7161
 10
676.5527
 20
114.8811
 10
676.3629
 20
115.938
 10
675.994
 20
116.8708
 10
675.4005
 20
117.6634
 10
674.537
 20
118.2998
 10
670.9488
 20
119.9502
 10
663.1707
 20
123.384
 10
652.6415
 20
127.9837
 10
640.8001
 20
133.1317
 10
629.0854
 20
138.2106
 10
618.9363
 20
142.6029
 10
611.7917
 20
145.6911
 10
609.0904
 20
146.8577
 10
277.734
 20
151.394
  0
LWPOLYLINE
  5
62
330
1F
100
AcDbEntity
  8
Layer 1
 62
     7
370
     9
100
AcDbPolyline
 90
        5
 70
     1
 43
0.0
 10
289.2031
 20
-60.3948
 10
284.8959
 20
-461.9303
 10
305.1356
 20
-382.0025
 10
290.2761
 20
-58.8887
 10
289.2031
 20
-60.3948
  0
LWPOLYLINE
  5
63
330
1F
100
AcDbEntity
  8
Layer 1
 62
     7
370
     9
100
AcDbPolyline
 90
        5
 70
     1
 43
0.0
 10
606.4266
 20
-3.377
 10
615.4393
 20
-3.377
 10
624.0574
 20
-461.2353
 10
612.514
 20
-417.4908
 10
606.4266
 20
-3.377
  0
LWPOLYLINE
  5
64
330
1F
100
AcDbEntity
  8
Layer 1
 62
     7
370
     9
100
AcDbPolyline
 90
       39
 70
     1
 43
0.0
 10
441.0309
 20
-3.377
 10
442.633
 20
-141.2813
 10
443.2863
 20
-141.6765
 10
445.114
 20
-142.6362
 10
447.9177
 20
-143.8217
 10
451.499
 20
-144.8943
 10
455.6595
 20
-145.5153
 10
460.2007
 20
-145.3459
 10
464.9243
 20
-144.0475
 10
469.6319
 20
-141.2813
 10
469.6319
 20
-3.377
 10
576.9293
 20
-3.377
 10
593.3645
 20
-336.3965
 10
593.228
 20
-335.8605
 10
592.7776
 20
-334.4486
 10
591.9518
 20
-332.455
 10
590.6894
 20
-330.1738
 10
588.9289
 20
-327.8991
 10
586.609
 20
-325.9251
 10
583.6683
 20
-324.5458
 10
580.0454
 20
-324.0555
 10
566.3726
 20
-324.0339
 10
536.9368
 20
-323.8903
 10
497.1583
 20
-323.6632
 10
452.4576
 20
-323.3911
 10
408.2548
 20
-323.1124
 10
369.9705
 20
-322.8657
 10
343.025
 20
-322.6895
 10
332.8386
 20
-322.6222
 10
332.3876
 20
-322.6659
 10
331.1803
 20
-322.8054
 10
329.4357
 20
-323.0531
 10
327.3724
 20
-323.4215
 10
325.2093
 20
-323.9232
 10
323.165
 20
-324.5706
 10
321.4585
 20
-325.3762
 10
320.3085
 20
-326.3526
 10
317.16
 20
-4.8061
 10
441.0309
 20
-3.377
  0
LWPOLYLINE
  5
65
330
1F
100
AcDbEntity
  8
Layer 1
 62
     7
370
     9
100
AcDbPolyline
 90
       58
 70
     1
 43
0.0
 10
295.0161
 20
138.8927
 10
278.1608
 20
126.4832
 10
277.7675
 20
126.2795
 10
276.8439
 20
125.7325
 10
275.7748
 20
124.9384
 10
274.9448
 20
123.9932
 10
274.7385
 20
122.9931
 10
275.5407
 20
122.0341
 10
277.736
 20
121.2126
 10
281.7091
 20
120.6244
 10
299.8612
 20
120.0478
 10
339.4376
 20
119.2566
 10
393.0889
 20
118.3408
 10
453.4659
 20
117.39
 10
513.2191
 20
116.4942
 10
564.9991
 20
115.7431
 10
601.4567
 20
115.2266
 10
615.2424
 20
115.0345
 10
616.0788
 20
115.1754
 10
618.1989
 20
115.5767
 10
621.0192
 20
116.2065
 10
623.9563
 20
117.033
 10
626.4265
 20
118.0241
 10
627.8464
 20
119.148
 10
627.6324
 20
120.3728
 10
625.2011
 20
121.6664
 10
621.2339
 20
123.1431
 10
616.9707
 20
124.8505
 10
612.6658
 20
126.6569
 10
608.5735
 20
128.4303
 10
604.9481
 20
130.0391
 10
602.0436
 20
131.3513
 10
600.1145
 20
132.2353
 10
599.415
 20
132.5593
 10
599.0106
 20
132.8314
 10
597.8229
 20
133.5489
 10
595.89
 20
134.5632
 10
593.2501
 20
135.726
 10
589.9413
 20
136.8888
 10
586.0017
 20
137.9031
 10
581.4696
 20
138.6206
 10
576.383
 20
138.8927
 10
561.418
 20
139.0361
 10
530.8427
 20
139.4141
 10
490.0836
 20
139.9485
 10
444.567
 20
140.5612
 10
399.7193
 20
141.1739
 10
360.9668
 20
141.7083
 10
333.736
 20
142.0863
 10
323.4532
 20
142.2297
 10
322.6595
 20
142.2232
 10
320.478
 20
142.1776
 10
317.2082
 20
142.0537
 10
313.1495
 20
141.8126
 10
308.6015
 20
141.415
 10
303.8636
 20
140.8219
 10
299.2353
 20
139.9942
 10
295.0161
 20
138.8927
  0
LWPOLYLINE
  5
66
330
1F
100
AcDbEntity
  8
Layer 1
 62
     7
370
    18
100
AcDbPolyline
 90
        2
 70
     0
 43
0.0
 10
243.3313
 20
98.0444
 10
654.954
 20
98.0444
  0
LWPOLYLINE
  5
67
330
1F
100
AcDbEntity
  8
Layer 1
 62
     7
370
    18
100
AcDbPolyline
 90
        5
 70
     0
 43
0.0
 10
273.2735
 20
98.0444
 10
277.9602
 20
-3.377
 10
317.1713
 20
-5.9431
 10
290.0815
 20
-4.1701
 10
290.2761
 20
-57.6505
  0
LWPOLYLINE
  5
68
330
1F
100
AcDbEntity
  8
Layer 1
 62
     7
370
    18
100
AcDbPolyline
 90
        3
 70
     0
 43
0.0
 10
630.7797
 20
98.0444
 10
627.9896
 20
-3.377
 10
576.9293
 20
-3.377
  0
LWPOLYLINE
  5
69
330
1F
100
AcDbEntity
  8
Layer 1
 62
     7
100
AcDbPolyline
 90
       65
 70
     1
 43
0.0
 10
747.7152
 20
-223.4669
 10
748.1363
 20
-223.4924
 10
748.541
 20
-223.569
 10
748.9292
 20
-223.6967
 10
749.3009
 20
-223.8753
 10
749.6563
 20
-224.105
 10
749.9952
 20
-224.3857
 10
750.3177
 20
-224.7175
 10
750.6238
 20
-225.1002
 10
750.8999
 20
-225.5152
 10
751.1391
 20
-225.9538
 10
751.3415
 20
-226.4161
 10
751.507
 20
-226.9021
 10
751.6358
 20
-227.4117
 10
751.7277
 20
-227.945
 10
751.7828
 20
-228.5019
 10
751.8012
 20
-229.0824
 10
751.783
 20
-229.6579
 10
751.7285
 20
-230.214
 10
751.6377
 20
-230.7508
 10
751.5105
 20
-231.2683
 10
751.347
 20
-231.7664
 10
751.147
 20
-232.2452
 10
750.9108
 20
-232.7047
 10
750.6381
 20
-233.1448
 10
750.3395
 20
-233.5464
 10
750.0218
 20
-233.8944
 10
749.6851
 20
-234.1888
 10
749.3293
 20
-234.4296
 10
748.9544
 20
-234.6169
 10
748.5605
 20
-234.7506
 10
748.1474
 20
-234.8309
 10
747.7152
 20
-234.8576
 10
747.2832
 20
-234.8309
 10
746.8702
 20
-234.7506
 10
746.4763
 20
-234.6169
 10
746.1014
 20
-234.4296
 10
745.7456
 20
-234.1888
 10
745.409
 20
-233.8944
 10
745.0914
 20
-233.5464
 10
744.7929
 20
-233.1448
 10
744.5202
 20
-232.7047
 10
744.2839
 20
-232.2452
 10
744.0839
 20
-231.7664
 10
743.9202
 20
-231.2683
 10
743.7929
 20
-230.7508
 10
743.702
 20
-230.214
 10
743.6474
 20
-229.6579
 10
743.6292
 20
-229.0824
 10
743.6476
 20
-228.5019
 10
743.7028
 20
-227.945
 10
743.7948
 20
-227.4117
 10
743.9236
 20
-226.9021
 10
744.0892
 20
-226.4161
 10
744.2915
 20
-225.9538
 10
744.5306
 20
-225.5152
 10
744.8065
 20
-225.1002
 10
745.1127
 20
-224.7175
 10
745.4353
 20
-224.3857
 10
745.7743
 20
-224.105
 10
746.1297
 20
-223.8753
 10
746.5015
 20
-223.6967
 10
746.8897
 20
-223.569
 10
747.2943
 20
-223.4924
 10
747.7152
 20
-223.4669
  0
LWPOLYLINE
  5
6A
330
1F
100
AcDbEntity
  8
Layer 1
 62
     7
100
AcDbPolyline
 90
       65
 70
     1
 43
0.0
 10
747.7152
 20
-212.4749
 10
748.0547
 20
-212.4948
 10
748.3813
 20
-212.5545
 10
748.6949
 20
-212.6539
 10
748.9958
 20
-212.7932
 10
749.2837
 20
-212.9723
 10
749.5588
 20
-213.1913
 10
749.8211
 20
-213.4501
 10
750.0706
 20
-213.7487
 10
750.3033
 20
-214.0845
 10
750.505
 20
-214.4396
 10
750.6757
 20
-214.814
 10
750.8155
 20
-215.2077
 10
750.9242
 20
-215.6207
 10
751.0018
 20
-216.053
 10
751.0485
 20
-216.5045
 10
751.064
 20
-216.9753
 10
751.0485
 20
-217.4356
 10
751.0018
 20
-217.8811
 10
750.9242
 20
-218.3116
 10
750.8155
 20
-218.7273
 10
750.6757
 20
-219.1281
 10
750.505
 20
-219.514
 10
750.3033
 20
-219.885
 10
750.0706
 20
-220.2412
 10
749.8228
 20
-220.5585
 10
749.5617
 20
-220.8335
 10
749.2872
 20
-221.0662
 10
748.9994
 20
-221.2567
 10
748.6983
 20
-221.4048
 10
748.3839
 20
-221.5106
 10
748.0562
 20
-221.5741
 10
747.7152
 20
-221.5953
 10
747.3742
 20
-221.5741
 10
747.0466
 20
-221.5106
 10
746.7322
 20
-221.4048
 10
746.4312
 20
-221.2567
 10
746.1434
 20
-221.0662
 10
745.869
 20
-220.8335
 10
745.6078
 20
-220.5585
 10
745.3598
 20
-220.2412
 10
745.1271
 20
-219.885
 10
744.9255
 20
-219.514
 10
744.7549
 20
-219.1281
 10
744.6153
 20
-218.7273
 10
744.5067
 20
-218.3116
 10
744.4291
 20
-217.8811
 10
744.3826
 20
-217.4356
 10
744.3671
 20
-216.9753
 10
744.3826
 20
-216.5045
 10
744.4291
 20
-216.053
 10
744.5067
 20
-215.6207
 10
744.6153
 20
-215.2077
 10
744.7549
 20
-214.814
 10
744.9255
 20
-214.4396
 10
745.1271
 20
-214.0845
 10
745.3598
 20
-213.7487
 10
745.6093
 20
-213.4501
 10
745.8716
 20
-213.1913
 10
746.1468
 20
-212.9723
 10
746.4349
 20
-212.7932
 10
746.7357
 20
-212.6539
 10
747.0494
 20
-212.5545
 10
747.3759
 20
-212.4948
 10
747.7152
 20
-212.4749
  0
LWPOLYLINE
  5
6B
330
1F
100
AcDbEntity
  8
Layer 1
 62
     7
100
AcDbPolyline
 90
      121
 70
     1
 43
0.0
 10
747.7152
 20
-237.6453
 10
748.3655
 20
-237.6108
 10
748.9895
 20
-237.5072
 10
749.5874
 20
-237.3346
 10
750.1592
 20
-237.0929
 10
750.7048
 20
-236.7821
 10
751.2242
 20
-236.4022
 10
751.7176
 20
-235.9533
 10
752.1848
 20
-235.4352
 10
752.3953
 20
-235.1645
 10
752.5942
 20
-234.8802
 10
752.7817
 20
-234.5821
 10
752.9577
 20
-234.2704
 10
753.1222
 20
-233.945
 10
753.2752
 20
-233.6059
 10
753.4167
 20
-233.2531
 10
753.5468
 20
-232.8866
 10
753.6631
 20
-232.5061
 10
753.7639
 20
-232.1121
 10
753.8492
 20
-231.7044
 10
753.9189
 20
-231.283
 10
753.9731
 20
-230.848
 10
754.0118
 20
-230.3994
 10
754.0351
 20
-229.9371
 10
754.0428
 20
-229.4611
 10
754.0297
 20
-228.9789
 10
753.9905
 20
-228.4978
 10
753.9251
 20
-228.018
 10
753.8336
 20
-227.5395
 10
753.716
 20
-227.0621
 10
753.5722
 20
-226.5861
 10
753.4022
 20
-226.1112
 10
753.2061
 20
-225.6377
 10
752.9854
 20
-225.1757
 10
752.7422
 20
-224.7354
 10
752.4764
 20
-224.3168
 10
752.188
 20
-223.92
 10
751.877
 20
-223.545
 10
751.5434
 20
-223.1918
 10
751.1873
 20
-222.8603
 10
750.8085
 20
-222.5507
 10
751.3472
 20
-221.8766
 10
751.814
 20
-221.1881
 10
752.209
 20
-220.4853
 10
752.5322
 20
-219.7681
 10
752.7836
 20
-219.0367
 10
752.9631
 20
-218.2908
 10
753.0708
 20
-217.5307
 10
753.1067
 20
-216.7563
 10
753.0821
 20
-215.9922
 10
753.0083
 20
-215.2637
 10
752.8853
 20
-214.5707
 10
752.7131
 20
-213.9132
 10
752.4917
 20
-213.2912
 10
752.2211
 20
-212.7047
 10
751.9012
 20
-212.1537
 10
751.5321
 20
-211.6381
 10
751.1418
 20
-211.1899
 10
750.7267
 20
-210.8016
 10
750.2868
 20
-210.473
 10
749.8221
 20
-210.2042
 10
749.3326
 20
-209.9951
 10
748.8183
 20
-209.8458
 10
748.2791
 20
-209.7563
 10
747.7152
 20
-209.7264
 10
747.1513
 20
-209.7563
 10
746.6121
 20
-209.8458
 10
746.0979
 20
-209.9951
 10
745.6084
 20
-210.2042
 10
745.1438
 20
-210.473
 10
744.704
 20
-210.8016
 10
744.2891
 20
-211.1899
 10
743.899
 20
-211.6381
 10
743.5298
 20
-212.1534
 10
743.2099
 20
-212.7035
 10
742.9391
 20
-213.2885
 10
742.7176
 20
-213.9083
 10
742.5453
 20
-214.563
 10
742.4222
 20
-215.2525
 10
742.3483
 20
-215.977
 10
742.3237
 20
-216.7363
 10
742.3596
 20
-217.5155
 10
742.4674
 20
-218.2797
 10
742.647
 20
-219.029
 10
742.8985
 20
-219.7632
 10
743.2218
 20
-220.4826
 10
743.6169
 20
-221.1869
 10
744.0839
 20
-221.8763
 10
744.6226
 20
-222.5507
 10
744.2436
 20
-222.8603
 10
743.8873
 20
-223.1918
 10
743.5536
 20
-223.545
 10
743.2425
 20
-223.92
 10
742.9541
 20
-224.3168
 10
742.6882
 20
-224.7354
 10
742.445
 20
-225.1757
 10
742.2243
 20
-225.6377
 10
742.0282
 20
-226.1122
 10
741.8582
 20
-226.5898
 10
741.7144
 20
-227.0706
 10
741.5967
 20
-227.5544
 10
741.5052
 20
-228.0413
 10
741.4398
 20
-228.5313
 10
741.4006
 20
-229.0244
 10
741.3875
 20
-229.5204
 10
741.4165
 20
-230.4101
 10
741.5037
 20
-231.2569
 10
741.6489
 20
-232.0606
 10
741.8522
 20
-232.8214
 10
742.1136
 20
-233.5392
 10
742.4331
 20
-234.2141
 10
742.8106
 20
-234.8461
 10
743.2463
 20
-235.4352
 10
743.7133
 20
-235.9533
 10
744.2065
 20
-236.4022
 10
744.7258
 20
-236.7821
 10
745.2713
 20
-237.0929
 10
745.843
 20
-237.3346
 10
746.4409
 20
-237.5072
 10
747.0649
 20
-237.6108
 10
747.7152
 20
-237.6453
  0
LWPOLYLINE
  5
6C
330
1F
100
AcDbEntity
  8
Layer 1
 62
     7
100
AcDbPolyline
 90
      136
 70
     1
 43
0.0
 10
760.2574
 20
-220.201
 10
761.5628
 20
-212.9521
 10
768.5432
 20
-212.9521
 10
768.5432
 20
-210.1644
 10
760.0584
 20
-210.1644
 10
757.8454
 20
-222.3116
 10
760.0019
 20
-223.6658
 10
760.3147
 20
-223.3671
 10
760.643
 20
-223.1083
 10
760.9868
 20
-222.8894
 10
761.3461
 20
-222.7103
 10
761.721
 20
-222.571
 10
762.1113
 20
-222.4715
 10
762.5172
 20
-222.4118
 10
762.9385
 20
-222.3919
 10
763.3624
 20
-222.4211
 10
763.7721
 20
-222.5088
 10
764.1677
 20
-222.6549
 10
764.549
 20
-222.8596
 10
764.9161
 20
-223.1227
 10
765.269
 20
-223.4444
 10
765.6078
 20
-223.8247
 10
765.9323
 20
-224.2635
 10
766.2383
 20
-224.7529
 10
766.5035
 20
-225.2604
 10
766.7279
 20
-225.786
 10
766.9114
 20
-226.3296
 10
767.0542
 20
-226.8912
 10
767.1561
 20
-227.4709
 10
767.2173
 20
-228.0687
 10
767.2377
 20
-228.6845
 10
767.2169
 20
-229.3215
 10
767.1543
 20
-229.933
 10
767.0501
 20
-230.5189
 10
766.9043
 20
-231.0793
 10
766.7167
 20
-231.6141
 10
766.4876
 20
-232.1234
 10
766.2167
 20
-232.6072
 10
765.9043
 20
-233.0655
 10
765.7452
 20
-233.2693
 10
765.5804
 20
-233.4626
 10
765.4099
 20
-233.6453
 10
765.2336
 20
-233.8174
 10
765.0516
 20
-233.9789
 10
764.8638
 20
-234.1297
 10
764.6702
 20
-234.27
 10
764.4708
 20
-234.3995
 10
764.2629
 20
-234.5163
 10
764.0436
 20
-234.6175
 10
763.8126
 20
-234.7032
 10
763.5702
 20
-234.7732
 10
763.3161
 20
-234.8277
 10
763.0505
 20
-234.8667
 10
762.7734
 20
-234.89
 10
762.4847
 20
-234.8978
 10
762.1906
 20
-234.8804
 10
761.8969
 20
-234.828
 10
761.6036
 20
-234.7408
 10
761.3107
 20
-234.6188
 10
761.0183
 20
-234.462
 10
760.7263
 20
-234.2703
 10
760.4347
 20
-234.0439
 10
760.1436
 20
-233.7827
 10
759.8634
 20
-233.4932
 10
759.6045
 20
-233.1826
 10
759.3668
 20
-232.8509
 10
759.1505
 20
-232.498
 10
758.9554
 20
-232.1239
 10
758.7816
 20
-231.7286
 10
758.6292
 20
-231.3122
 10
758.4981
 20
-230.8745
 10
756.5686
 20
-231.7515
 10
756.7581
 20
-232.407
 10
756.9791
 20
-233.0296
 10
757.2316
 20
-233.6191
 10
757.5156
 20
-234.1756
 10
757.831
 20
-234.6992
 10
758.1779
 20
-235.1898
 10
758.5563
 20
-235.6474
 10
758.9662
 20
-236.0721
 10
759.4021
 20
-236.4596
 10
759.8477
 20
-236.7955
 10
760.303
 20
-237.0797
 10
760.768
 20
-237.3122
 10
761.2428
 20
-237.4931
 10
761.7274
 20
-237.6223
 10
762.2217
 20
-237.6998
 10
762.7259
 20
-237.7256
 10
763.3976
 20
-237.683
 10
764.0436
 20
-237.555
 10
764.6639
 20
-237.3418
 10
765.2584
 20
-237.0434
 10
765.8273
 20
-236.6597
 10
766.3704
 20
-236.1907
 10
766.8878
 20
-235.6366
 10
767.3795
 20
-234.9972
 10
767.8252
 20
-234.303
 10
768.2114
 20
-233.5746
 10
768.5383
 20
-232.812
 10
768.8057
 20
-232.0152
 10
769.0137
 20
-231.1842
 10
769.1622
 20
-230.3189
 10
769.2514
 20
-229.4194
 10
769.2811
 20
-228.4856
 10
769.2518
 20
-227.5567
 10
769.164
 20
-226.667
 10
769.0176
 20
-225.8166
 10
768.8127
 20
-225.0055
 10
768.5493
 20
-224.2335
 10
768.2273
 20
-223.5008
 10
767.847
 20
-222.8072
 10
767.4081
 20
-222.1529
 10
767.1837
 20
-221.8619
 10
766.9505
 20
-221.5865
 10
766.7084
 20
-221.3267
 10
766.4574
 20
-221.0825
 10
766.1975
 20
-220.8538
 10
765.9287
 20
-220.6407
 10
765.6511
 20
-220.4432
 10
765.3647
 20
-220.2612
 10
765.0725
 20
-220.0977
 10
764.7778
 20
-219.956
 10
764.4806
 20
-219.8362
 10
764.1809
 20
-219.7382
 10
763.8787
 20
-219.662
 10
763.5741
 20
-219.6076
 10
763.2672
 20
-219.575
 10
762.958
 20
-219.5641
 10
762.6426
 20
-219.5741
 10
762.321
 20
-219.6039
 10
761.9931
 20
-219.6537
 10
761.6589
 20
-219.7234
 10
761.3183
 20
-219.813
 10
760.9712
 20
-219.9225
 10
760.6176
 20
-220.0518
 10
760.2574
 20
-220.201
  0
LWPOLYLINE
  5
6D
330
1F
100
AcDbEntity
  8
Layer 1
 62
     7
100
AcDbPolyline
 90
      129
 70
     1
 43
0.0
 10
780.2766
 20
-213.3107
 10
780.6042
 20
-213.6231
 10
780.9096
 20
-213.9778
 10
781.1929
 20
-214.3749
 10
781.454
 20
-214.8143
 10
781.693
 20
-215.2961
 10
781.9098
 20
-215.8202
 10
782.1045
 20
-216.3866
 10
782.277
 20
-216.9954
 10
782.4699
 20
-217.8027
 10
782.6371
 20
-218.6218
 10
782.7786
 20
-219.4528
 10
782.8943
 20
-220.2956
 10
782.9843
 20
-221.1502
 10
783.0487
 20
-222.0167
 10
783.0872
 20
-222.8951
 10
783.1001
 20
-223.7853
 10
783.0988
 20
-223.9991
 10
783.0947
 20
-224.2223
 10
783.0881
 20
-224.4548
 10
783.0787
 20
-224.6967
 10
783.0667
 20
-224.9479
 10
783.0521
 20
-225.2084
 10
783.0348
 20
-225.4782
 10
783.0149
 20
-225.7572
 10
782.9165
 20
-226.8278
 10
782.7878
 20
-227.8393
 10
782.6291
 20
-228.7917
 10
782.4401
 20
-229.685
 10
782.2211
 20
-230.5192
 10
781.9719
 20
-231.2944
 10
781.6925
 20
-232.0105
 10
781.3831
 20
-232.6676
 10
781.1008
 20
-233.1623
 10
780.8034
 20
-233.591
 10
780.4908
 20
-233.9538
 10
780.1632
 20
-234.2506
 10
779.8205
 20
-234.4814
 10
779.4628
 20
-234.6463
 10
779.0899
 20
-234.7452
 10
778.702
 20
-234.7782
 10
778.2689
 20
-234.7455
 10
777.8567
 20
-234.6475
 10
777.4654
 20
-234.4841
 10
777.0949
 20
-234.2554
 10
776.7452
 20
-233.9613
 10
776.4164
 20
-233.6018
 10
776.1084
 20
-233.177
 10
775.8213
 20
-232.6868
 10
775.6999
 20
-232.4493
 10
775.5837
 20
-232.2043
 10
775.4729
 20
-231.9517
 10
775.3674
 20
-231.6917
 10
775.2673
 20
-231.4241
 10
775.1725
 20
-231.149
 10
775.083
 20
-230.8664
 10
774.9989
 20
-230.5762
 10
774.9197
 20
-230.2816
 10
774.8453
 20
-229.9852
 10
774.7758
 20
-229.6868
 10
774.7113
 20
-229.3866
 10
774.6516
 20
-229.0844
 10
774.5969
 20
-228.7803
 10
774.5471
 20
-228.4742
 10
774.5022
 20
-228.1662
 10
774.4611
 20
-227.8589
 10
774.4232
 20
-227.554
 10
774.3884
 20
-227.2517
 10
774.3567
 20
-226.952
 10
774.3282
 20
-226.6546
 10
774.3027
 20
-226.3598
 10
774.2803
 20
-226.0673
 10
774.261
 20
-225.7773
 10
774.2443
 20
-225.4829
 10
774.2299
 20
-225.1774
 10
774.2177
 20
-224.8609
 10
774.2077
 20
-224.5334
 10
774.2
 20
-224.195
 10
774.1945
 20
-223.8458
 10
774.1912
 20
-223.486
 10
774.1901
 20
-223.1155
 10
774.195
 20
-222.7283
 10
774.2096
 20
-222.3186
 10
774.234
 20
-221.8864
 10
774.2682
 20
-221.4316
 10
774.312
 20
-220.9541
 10
774.3657
 20
-220.4538
 10
774.4291
 20
-219.9305
 10
774.5022
 20
-219.3843
 10
774.5469
 20
-219.0811
 10
774.596
 20
-218.7785
 10
774.6497
 20
-218.4764
 10
774.7078
 20
-218.175
 10
774.7704
 20
-217.8742
 10
774.8374
 20
-217.574
 10
774.9088
 20
-217.2743
 10
774.9846
 20
-216.9753
 10
775.0655
 20
-216.6803
 10
775.1521
 20
-216.3928
 10
775.2445
 20
-216.1127
 10
775.3426
 20
-215.8401
 10
775.4466
 20
-215.5749
 10
775.5563
 20
-215.3173
 10
775.6719
 20
-215.0672
 10
775.7933
 20
-214.8246
 10
775.9205
 20
-214.5913
 10
776.054
 20
-214.37
 10
776.1936
 20
-214.1604
 10
776.3395
 20
-213.9628
 10
776.4915
 20
-213.777
 10
776.6498
 20
-213.603
 10
776.8143
 20
-213.4409
 10
776.985
 20
-213.2906
 10
777.1628
 20
-213.1552
 10
777.3486
 20
-213.0379
 10
777.5424
 20
-212.9387
 10
777.7442
 20
-212.8574
 10
777.9538
 20
-212.7942
 10
778.1715
 20
-212.7491
 10
778.397
 20
-212.722
 10
778.6305
 20
-212.713
 10
778.8642
 20
-212.7224
 10
779.09
 20
-212.7505
 10
779.3077
 20
-212.7972
 10
779.5175
 20
-212.8627
 10
779.7192
 20
-212.9468
 10
779.913
 20
-213.0495
 10
780.0988
 20
-213.1708
 10
780.2766
 20
-213.3107
  0
LWPOLYLINE
  5
6E
330
1F
100
AcDbEntity
  8
Layer 1
 62
     7
100
AcDbPolyline
 90
       65
 70
     1
 43
0.0
 10
778.73
 20
-237.6061
 10
779.5584
 20
-237.5324
 10
780.334
 20
-237.3111
 10
781.057
 20
-236.9424
 10
781.7271
 20
-236.4262
 10
782.3445
 20
-235.7625
 10
782.9092
 20
-234.9514
 10
783.4211
 20
-233.9927
 10
783.8802
 20
-232.8866
 10
784.2027
 20
-231.9212
 10
784.4822
 20
-230.9024
 10
784.7188
 20
-229.8301
 10
784.9123
 20
-228.7043
 10
785.0629
 20
-227.5249
 10
785.1704
 20
-226.2921
 10
785.235
 20
-225.0057
 10
785.2565
 20
-223.6658
 10
785.235
 20
-222.3262
 10
785.1704
 20
-221.04
 10
785.0629
 20
-219.8073
 10
784.9123
 20
-218.6281
 10
784.7188
 20
-217.5024
 10
784.4822
 20
-216.4301
 10
784.2027
 20
-215.4113
 10
783.8802
 20
-214.4459
 10
783.4211
 20
-213.3398
 10
782.9092
 20
-212.3811
 10
782.3445
 20
-211.57
 10
781.7271
 20
-210.9063
 10
781.057
 20
-210.3901
 10
780.334
 20
-210.0214
 10
779.5584
 20
-209.8001
 10
778.73
 20
-209.7264
 10
777.9016
 20
-209.8001
 10
777.1259
 20
-210.0214
 10
776.403
 20
-210.3901
 10
775.7328
 20
-210.9063
 10
775.1154
 20
-211.57
 10
774.5507
 20
-212.3811
 10
774.0388
 20
-213.3398
 10
773.5797
 20
-214.4459
 10
773.2572
 20
-215.4113
 10
772.9777
 20
-216.4301
 10
772.7411
 20
-217.5024
 10
772.5476
 20
-218.6281
 10
772.397
 20
-219.8073
 10
772.2895
 20
-221.04
 10
772.2249
 20
-222.3262
 10
772.2034
 20
-223.6658
 10
772.2249
 20
-225.0057
 10
772.2895
 20
-226.2921
 10
772.397
 20
-227.5249
 10
772.5476
 20
-228.7043
 10
772.7411
 20
-229.8301
 10
772.9777
 20
-230.9024
 10
773.2572
 20
-231.9212
 10
773.5797
 20
-232.8866
 10
774.0388
 20
-233.9927
 10
774.5507
 20
-234.9514
 10
775.1154
 20
-235.7625
 10
775.7328
 20
-236.4262
 10
776.403
 20
-236.9424
 10
777.1259
 20
-237.3111
 10
777.9016
 20
-237.5324
 10
778.73
 20
-237.6061
  0
LWPOLYLINE
  5
6F
330
1F
100
AcDbEntity
  8
Layer 1
 62
     7
100
AcDbPolyline
 90
      165
 70
     1
 43
0.0
 10
804.6373
 20
-237.1681
 10
806.6235
 20
-237.1681
 10
806.6235
 20
-226.2153
 10
806.6073
 20
-225.4881
 10
806.5588
 20
-224.7952
 10
806.4779
 20
-224.1365
 10
806.3646
 20
-223.512
 10
806.2189
 20
-222.9217
 10
806.0409
 20
-222.3657
 10
805.8306
 20
-221.8438
 10
805.5878
 20
-221.3562
 10
805.4522
 20
-221.123
 10
805.3083
 20
-220.9016
 10
805.1559
 20
-220.6921
 10
804.9952
 20
-220.4945
 10
804.8261
 20
-220.3087
 10
804.6485
 20
-220.1347
 10
804.4625
 20
-219.9726
 10
804.2681
 20
-219.8223
 10
804.0614
 20
-219.6872
 10
803.8389
 20
-219.5701
 10
803.6003
 20
-219.471
 10
803.3459
 20
-219.3899
 10
803.0754
 20
-219.3268
 10
802.789
 20
-219.2817
 10
802.4866
 20
-219.2546
 10
802.1682
 20
-219.2456
 10
801.8471
 20
-219.2611
 10
801.5361
 20
-219.3077
 10
801.2354
 20
-219.3855
 10
800.9448
 20
-219.4943
 10
800.6644
 20
-219.6343
 10
800.3942
 20
-219.8054
 10
800.1342
 20
-220.0077
 10
799.8843
 20
-220.2412
 10
799.6674
 20
-220.4737
 10
799.4602
 20
-220.7236
 10
799.2629
 20
-220.9906
 10
799.0753
 20
-221.2747
 10
798.8975
 20
-221.5756
 10
798.7295
 20
-221.8931
 10
798.5713
 20
-222.227
 10
798.4228
 20
-222.5772
 10
798.3074
 20
-222.2539
 10
798.1814
 20
-221.9417
 10
798.0448
 20
-221.6421
 10
797.8975
 20
-221.3562
 10
797.7622
 20
-221.123
 10
797.6184
 20
-220.9016
 10
797.4662
 20
-220.6921
 10
797.3055
 20
-220.4945
 10
797.1364
 20
-220.3087
 10
796.9589
 20
-220.1347
 10
796.7729
 20
-219.9726
 10
796.5784
 20
-219.8223
 10
796.3717
 20
-219.6872
 10
796.1491
 20
-219.5701
 10
795.9105
 20
-219.471
 10
795.656
 20
-219.3899
 10
795.3855
 20
-219.3268
 10
795.0991
 20
-219.2817
 10
794.7968
 20
-219.2546
 10
794.4785
 20
-219.2456
 10
794.1572
 20
-219.2611
 10
793.8461
 20
-219.3077
 10
793.5452
 20
-219.3855
 10
793.2546
 20
-219.4943
 10
792.9741
 20
-219.6343
 10
792.7039
 20
-219.8054
 10
792.4439
 20
-220.0077
 10
792.194
 20
-220.2412
 10
791.9875
 20
-220.4626
 10
791.7899
 20
-220.6991
 10
791.6011
 20
-220.9508
 10
791.4211
 20
-221.2177
 10
791.25
 20
-221.4998
 10
791.0877
 20
-221.7973
 10
790.9343
 20
-222.1102
 10
790.7897
 20
-222.4385
 10
790.7897
 20
-219.6435
 10
788.8036
 20
-219.6435
 10
788.8036
 20
-237.1681
 10
790.7897
 20
-237.1681
 10
790.7897
 20
-228.2
 10
790.8358
 20
-227.6774
 10
790.8961
 20
-227.1753
 10
790.9706
 20
-226.6933
 10
791.0593
 20
-226.2315
 10
791.1621
 20
-225.7896
 10
791.2791
 20
-225.3674
 10
791.4103
 20
-224.9649
 10
791.5556
 20
-224.5819
 10
791.674
 20
-224.3095
 10
791.8022
 20
-224.0495
 10
791.9401
 20
-223.8019
 10
792.0877
 20
-223.5666
 10
792.2451
 20
-223.3437
 10
792.4122
 20
-223.1332
 10
792.5892
 20
-222.9352
 10
792.7759
 20
-222.7496
 10
792.9693
 20
-222.5818
 10
793.1662
 20
-222.4364
 10
793.3666
 20
-222.3133
 10
793.5706
 20
-222.2125
 10
793.7782
 20
-222.1341
 10
793.9893
 20
-222.0781
 10
794.2039
 20
-222.0445
 10
794.422
 20
-222.0333
 10
794.6348
 20
-222.0392
 10
794.8334
 20
-222.0569
 10
795.0178
 20
-222.0864
 10
795.188
 20
-222.1277
 10
795.344
 20
-222.1809
 10
795.4858
 20
-222.2458
 10
795.6134
 20
-222.3225
 10
795.7268
 20
-222.4111
 10
796.0129
 20
-222.708
 10
796.2608
 20
-223.0559
 10
796.4705
 20
-223.4549
 10
796.6421
 20
-223.905
 10
796.7755
 20
-224.406
 10
796.8708
 20
-224.9581
 10
796.928
 20
-225.5612
 10
796.947
 20
-226.2153
 10
796.947
 20
-237.1681
 10
798.9338
 20
-237.1681
 10
798.9338
 20
-226.2153
 10
798.9195
 20
-225.5446
 10
798.9929
 20
-225.2908
 10
799.0718
 20
-225.0462
 10
799.1561
 20
-224.8101
 10
799.2459
 20
-224.5819
 10
799.3642
 20
-224.3095
 10
799.4922
 20
-224.0495
 10
799.6301
 20
-223.8019
 10
799.7777
 20
-223.5666
 10
799.9351
 20
-223.3437
 10
800.1022
 20
-223.1332
 10
800.279
 20
-222.9352
 10
800.4655
 20
-222.7496
 10
800.6589
 20
-222.5818
 10
800.8558
 20
-222.4364
 10
801.0563
 20
-222.3133
 10
801.2603
 20
-222.2125
 10
801.4678
 20
-222.1341
 10
801.6789
 20
-222.0781
 10
801.8935
 20
-222.0445
 10
802.1116
 20
-222.0333
 10
802.3244
 20
-222.0392
 10
802.523
 20
-222.0569
 10
802.7075
 20
-222.0864
 10
802.8777
 20
-222.1277
 10
803.0338
 20
-222.1809
 10
803.1757
 20
-222.2458
 10
803.3035
 20
-222.3225
 10
803.4171
 20
-222.4111
 10
803.703
 20
-222.708
 10
803.9509
 20
-223.0559
 10
804.1606
 20
-223.4549
 10
804.3322
 20
-223.905
 10
804.4657
 20
-224.406
 10
804.561
 20
-224.9581
 10
804.6182
 20
-225.5612
 10
804.6373
 20
-226.2153
 10
804.6373
 20
-237.1681
  0
LWPOLYLINE
  5
70
330
1F
100
AcDbEntity
  8
Layer 1
 62
     7
100
AcDbPolyline
 90
      165
 70
     1
 43
0.0
 10
826.2884
 20
-237.1681
 10
828.2745
 20
-237.1681
 10
828.2745
 20
-226.2153
 10
828.2583
 20
-225.4881
 10
828.2098
 20
-224.7952
 10
828.1289
 20
-224.1365
 10
828.0156
 20
-223.512
 10
827.87
 20
-222.9217
 10
827.692
 20
-222.3657
 10
827.4816
 20
-221.8438
 10
827.2389
 20
-221.3562
 10
827.1033
 20
-221.123
 10
826.9593
 20
-220.9016
 10
826.807
 20
-220.6921
 10
826.6463
 20
-220.4945
 10
826.4771
 20
-220.3087
 10
826.2996
 20
-220.1347
 10
826.1136
 20
-219.9726
 10
825.9191
 20
-219.8223
 10
825.7125
 20
-219.6872
 10
825.4899
 20
-219.5701
 10
825.2514
 20
-219.471
 10
824.9969
 20
-219.3899
 10
824.7265
 20
-219.3268
 10
824.44
 20
-219.2817
 10
824.1376
 20
-219.2546
 10
823.8192
 20
-219.2456
 10
823.4981
 20
-219.2611
 10
823.1872
 20
-219.3077
 10
822.8864
 20
-219.3855
 10
822.5959
 20
-219.4943
 10
822.3155
 20
-219.6343
 10
822.0452
 20
-219.8054
 10
821.7852
 20
-220.0077
 10
821.5353
 20
-220.2412
 10
821.3184
 20
-220.4737
 10
821.1112
 20
-220.7236
 10
820.9139
 20
-220.9906
 10
820.7263
 20
-221.2747
 10
820.5486
 20
-221.5756
 10
820.3806
 20
-221.8931
 10
820.2224
 20
-222.227
 10
820.0739
 20
-222.5772
 10
819.9584
 20
-222.2539
 10
819.8324
 20
-221.9417
 10
819.6958
 20
-221.6421
 10
819.5486
 20
-221.3562
 10
819.4132
 20
-221.123
 10
819.2694
 20
-220.9016
 10
819.1172
 20
-220.6921
 10
818.9566
 20
-220.4945
 10
818.7875
 20
-220.3087
 10
818.6099
 20
-220.1347
 10
818.4239
 20
-219.9726
 10
818.2295
 20
-219.8223
 10
818.0228
 20
-219.6872
 10
817.8002
 20
-219.5701
 10
817.5616
 20
-219.471
 10
817.307
 20
-219.3899
 10
817.0365
 20
-219.3268
 10
816.7501
 20
-219.2817
 10
816.4478
 20
-219.2546
 10
816.1296
 20
-219.2456
 10
815.8083
 20
-219.2611
 10
815.4971
 20
-219.3077
 10
815.1963
 20
-219.3855
 10
814.9056
 20
-219.4943
 10
814.6252
 20
-219.6343
 10
814.3549
 20
-219.8054
 10
814.0949
 20
-220.0077
 10
813.845
 20
-220.2412
 10
813.6386
 20
-220.4626
 10
813.4409
 20
-220.6991
 10
813.2522
 20
-220.9508
 10
813.0722
 20
-221.2177
 10
812.9011
 20
-221.4998
 10
812.7388
 20
-221.7973
 10
812.5854
 20
-222.1102
 10
812.4408
 20
-222.4385
 10
812.4408
 20
-219.6435
 10
810.4546
 20
-219.6435
 10
810.4546
 20
-237.1681
 10
812.4408
 20
-237.1681
 10
812.4408
 20
-228.2
 10
812.4869
 20
-227.6774
 10
812.5472
 20
-227.1753
 10
812.6217
 20
-226.6933
 10
812.7103
 20
-226.2315
 10
812.8132
 20
-225.7896
 10
812.9302
 20
-225.3674
 10
813.0613
 20
-224.9649
 10
813.2066
 20
-224.5819
 10
813.3251
 20
-224.3095
 10
813.4532
 20
-224.0495
 10
813.5911
 20
-223.8019
 10
813.7388
 20
-223.5666
 10
813.8961
 20
-223.3437
 10
814.0633
 20
-223.1332
 10
814.2402
 20
-222.9352
 10
814.4269
 20
-222.7496
 10
814.6203
 20
-222.5818
 10
814.8172
 20
-222.4364
 10
815.0177
 20
-222.3133
 10
815.2217
 20
-222.2125
 10
815.4292
 20
-222.1341
 10
815.6403
 20
-222.0781
 10
815.8549
 20
-222.0445
 10
816.073
 20
-222.0333
 10
816.2858
 20
-222.0392
 10
816.4844
 20
-222.0569
 10
816.6688
 20
-222.0864
 10
816.839
 20
-222.1277
 10
816.995
 20
-222.1809
 10
817.1368
 20
-222.2458
 10
817.2644
 20
-222.3225
 10
817.3778
 20
-222.4111
 10
817.6639
 20
-222.708
 10
817.9119
 20
-223.0559
 10
818.1216
 20
-223.4549
 10
818.2932
 20
-223.905
 10
818.4266
 20
-224.406
 10
818.5219
 20
-224.9581
 10
818.5791
 20
-225.5612
 10
818.5981
 20
-226.2153
 10
818.5981
 20
-237.1681
 10
820.5849
 20
-237.1681
 10
820.5849
 20
-226.2153
 10
820.5706
 20
-225.5446
 10
820.644
 20
-225.2908
 10
820.7228
 20
-225.0462
 10
820.8071
 20
-224.8101
 10
820.8969
 20
-224.5819
 10
821.0152
 20
-224.3095
 10
821.1432
 20
-224.0495
 10
821.2811
 20
-223.8019
 10
821.4287
 20
-223.5666
 10
821.5861
 20
-223.3437
 10
821.7532
 20
-223.1332
 10
821.93
 20
-222.9352
 10
822.1165
 20
-222.7496
 10
822.3099
 20
-222.5818
 10
822.5068
 20
-222.4364
 10
822.7073
 20
-222.3133
 10
822.9113
 20
-222.2125
 10
823.1188
 20
-222.1341
 10
823.3299
 20
-222.0781
 10
823.5445
 20
-222.0445
 10
823.7627
 20
-222.0333
 10
823.9755
 20
-222.0392
 10
824.1741
 20
-222.0569
 10
824.3585
 20
-222.0864
 10
824.5288
 20
-222.1277
 10
824.6848
 20
-222.1809
 10
824.8267
 20
-222.2458
 10
824.9545
 20
-222.3225
 10
825.0681
 20
-222.4111
 10
825.354
 20
-222.708
 10
825.6019
 20
-223.0559
 10
825.8116
 20
-223.4549
 10
825.9832
 20
-223.905
 10
826.1167
 20
-224.406
 10
826.2121
 20
-224.9581
 10
826.2693
 20
-225.5612
 10
826.2884
 20
-226.2153
 10
826.2884
 20
-237.1681
  0
LWPOLYLINE
  5
71
330
1F
100
AcDbEntity
  8
Layer 1
 62
     7
370
    18
100
AcDbPolyline
 90
        2
 70
     0
 43
0.0
 10
796.2644
 20
121.6226
 10
779.709
 20
121.6226
  0
LWPOLYLINE
  5
72
330
1F
100
AcDbEntity
  8
Layer 1
 62
     7
370
    18
100
AcDbPolyline
 90
        2
 70
     0
 43
0.0
 10
787.9864
 20
121.6282
 10
787.9864
 20
-190.678
  0
LWPOLYLINE
  5
73
330
1F
100
AcDbEntity
  8
Layer 1
 62
     7
370
    18
100
AcDbPolyline
 90
        2
 70
     0
 43
0.0
 10
796.2644
 20
-641.5388
 10
779.709
 20
-641.5388
  0
LWPOLYLINE
  5
74
330
1F
100
AcDbEntity
  8
Layer 1
 62
     7
370
    18
100
AcDbPolyline
 90
        2
 70
     0
 43
0.0
 10
787.9864
 20
-641.5474
 10
787.9864
 20
-271.5009
  0
LWPOLYLINE
  5
75
330
1F
100
AcDbEntity
  8
Layer 1
 62
     7
100
AcDbPolyline
 90
        4
 70
     1
 43
0.0
 10
384.7185
 20
197.8987
 10
384.7185
 20
182.7183
 10
377.5633
 20
182.7183
 10
384.7185
 20
197.8987
  0
LWPOLYLINE
  5
76
330
1F
100
AcDbEntity
  8
Layer 1
 62
     7
100
AcDbPolyline
 90
       11
 70
     1
 43
0.0
 10
386.7274
 20
179.937
 10
389.0945
 20
179.937
 10
389.0945
 20
182.7183
 10
386.7274
 20
182.7183
 10
386.7001
 20
200.8342
 10
384.0027
 20
200.8342
 10
374.1508
 20
179.937
 10
384.7185
 20
179.937
 10
384.7185
 20
174.5679
 10
386.7274
 20
174.5679
 10
386.7274
 20
179.937
  0
LWPOLYLINE
  5
77
330
1F
100
AcDbEntity
  8
Layer 1
 62
     7
100
AcDbPolyline
 90
      136
 70
     1
 43
0.0
 10
395.3136
 20
191.1005
 10
396.5793
 20
198.1304
 10
403.3497
 20
198.1304
 10
403.3497
 20
200.8342
 10
395.1211
 20
200.8342
 10
392.9744
 20
189.0529
 10
395.0659
 20
187.7398
 10
395.3694
 20
188.0295
 10
395.6878
 20
188.2805
 10
396.0213
 20
188.4928
 10
396.3699
 20
188.6666
 10
396.7334
 20
188.8016
 10
397.1121
 20
188.8981
 10
397.5059
 20
188.956
 10
397.9147
 20
188.9753
 10
398.3257
 20
188.9469
 10
398.723
 20
188.8619
 10
399.1065
 20
188.7201
 10
399.4763
 20
188.5216
 10
399.8323
 20
188.2663
 10
400.1745
 20
187.9544
 10
400.5029
 20
187.5858
 10
400.8175
 20
187.1604
 10
401.1144
 20
186.6856
 10
401.3716
 20
186.1933
 10
401.5893
 20
185.6836
 10
401.7674
 20
185.1564
 10
401.9059
 20
184.6117
 10
402.0048
 20
184.0495
 10
402.0641
 20
183.4698
 10
402.0839
 20
182.8725
 10
402.0637
 20
182.2549
 10
402.003
 20
181.662
 10
401.9019
 20
181.0939
 10
401.7603
 20
180.5504
 10
401.5784
 20
180.0317
 10
401.356
 20
179.5377
 10
401.0933
 20
179.0684
 10
400.7902
 20
178.6239
 10
400.636
 20
178.4261
 10
400.4763
 20
178.2386
 10
400.311
 20
178.0614
 10
400.1401
 20
177.8945
 10
399.9636
 20
177.7379
 10
399.7814
 20
177.5916
 10
399.5936
 20
177.4556
 10
399.4002
 20
177.33
 10
399.1986
 20
177.2168
 10
398.9858
 20
177.1187
 10
398.7617
 20
177.0357
 10
398.5265
 20
176.9679
 10
398.2801
 20
176.9151
 10
398.0226
 20
176.8774
 10
397.7538
 20
176.8548
 10
397.4739
 20
176.8473
 10
397.1886
 20
176.8642
 10
396.9038
 20
176.9149
 10
396.6194
 20
176.9993
 10
396.3354
 20
177.1176
 10
396.0518
 20
177.2697
 10
395.7687
 20
177.4555
 10
395.486
 20
177.6752
 10
395.2037
 20
177.9286
 10
394.9319
 20
178.2092
 10
394.6808
 20
178.5103
 10
394.4502
 20
178.832
 10
394.2404
 20
179.1742
 10
394.0511
 20
179.5369
 10
393.8826
 20
179.9201
 10
393.7347
 20
180.3239
 10
393.6076
 20
180.7482
 10
391.7359
 20
179.8987
 10
391.9199
 20
179.2628
 10
392.1343
 20
178.659
 10
392.3792
 20
178.0871
 10
392.6546
 20
177.5472
 10
392.9606
 20
177.0393
 10
393.297
 20
176.5634
 10
393.6639
 20
176.1195
 10
394.0614
 20
175.7076
 10
394.4842
 20
175.3319
 10
394.9164
 20
175.0063
 10
395.3581
 20
174.7307
 10
395.8091
 20
174.5052
 10
396.2696
 20
174.3298
 10
396.7396
 20
174.2045
 10
397.2191
 20
174.1294
 10
397.708
 20
174.1043
 10
398.3594
 20
174.1457
 10
398.9858
 20
174.2697
 10
399.5873
 20
174.4765
 10
400.1639
 20
174.766
 10
400.7156
 20
175.1381
 10
401.2424
 20
175.593
 10
401.7442
 20
176.1305
 10
402.2211
 20
176.7506
 10
402.6533
 20
177.4238
 10
403.0279
 20
178.1303
 10
403.3449
 20
178.8699
 10
403.6043
 20
179.6427
 10
403.8061
 20
180.4488
 10
403.9502
 20
181.288
 10
404.0367
 20
182.1604
 10
404.0655
 20
183.066
 10
404.0371
 20
183.9668
 10
403.9519
 20
184.8295
 10
403.81
 20
185.6541
 10
403.6112
 20
186.4408
 10
403.3558
 20
187.1893
 10
403.0436
 20
187.8999
 10
402.6747
 20
188.5725
 10
402.2491
 20
189.2071
 10
402.0315
 20
189.4894
 10
401.8052
 20
189.7565
 10
401.5704
 20
190.0085
 10
401.327
 20
190.2454
 10
401.075
 20
190.4672
 10
400.8145
 20
190.6739
 10
400.5453
 20
190.8656
 10
400.2675
 20
191.0421
 10
399.9841
 20
191.2006
 10
399.6982
 20
191.3379
 10
399.4098
 20
191.4542
 10
399.119
 20
191.5493
 10
398.8258
 20
191.6232
 10
398.5303
 20
191.676
 10
398.2327
 20
191.7077
 10
397.9329
 20
191.7183
 10
397.6271
 20
191.7086
 10
397.3153
 20
191.6797
 10
396.9973
 20
191.6314
 10
396.6732
 20
191.5638
 10
396.3428
 20
191.4769
 10
396.0062
 20
191.3707
 10
395.6631
 20
191.2452
 10
395.3136
 20
191.1005
  0
LWPOLYLINE
  5
78
330
1F
100
AcDbEntity
  8
Layer 1
 62
     7
100
AcDbPolyline
 90
      129
 70
     1
 43
0.0
 10
414.7295
 20
197.7828
 10
415.0472
 20
197.4797
 10
415.3434
 20
197.1355
 10
415.6181
 20
196.7504
 10
415.8714
 20
196.3243
 10
416.1031
 20
195.8571
 10
416.3134
 20
195.3489
 10
416.5022
 20
194.7997
 10
416.6694
 20
194.2094
 10
416.8564
 20
193.4265
 10
417.0185
 20
192.6321
 10
417.1557
 20
191.8262
 10
417.268
 20
191.0087
 10
417.3554
 20
190.1798
 10
417.4178
 20
189.3393
 10
417.4553
 20
188.4873
 10
417.4678
 20
187.6239
 10
417.4665
 20
187.4165
 10
417.4626
 20
187.2001
 10
417.4561
 20
186.9746
 10
417.447
 20
186.7402
 10
417.4353
 20
186.4966
 10
417.4211
 20
186.244
 10
417.4044
 20
185.9822
 10
417.3852
 20
185.7113
 10
417.2897
 20
184.673
 10
417.1649
 20
183.692
 10
417.011
 20
182.7684
 10
416.8278
 20
181.9021
 10
416.6154
 20
181.093
 10
416.3738
 20
180.3413
 10
416.1029
 20
179.647
 10
415.8028
 20
179.0099
 10
415.5288
 20
178.53
 10
415.2402
 20
178.1142
 10
414.9371
 20
177.7624
 10
414.6193
 20
177.4746
 10
414.2869
 20
177.2509
 10
413.9398
 20
177.091
 10
413.5781
 20
176.9952
 10
413.2017
 20
176.9632
 10
412.7819
 20
176.9949
 10
412.3823
 20
177.0898
 10
412.0029
 20
177.2482
 10
411.6436
 20
177.4698
 10
411.3045
 20
177.7549
 10
410.9857
 20
178.1034
 10
410.6871
 20
178.5153
 10
410.4088
 20
178.9907
 10
410.2909
 20
179.2212
 10
410.1783
 20
179.459
 10
410.0707
 20
179.704
 10
409.9684
 20
179.9563
 10
409.8712
 20
180.2158
 10
409.7791
 20
180.4825
 10
409.6922
 20
180.7564
 10
409.6104
 20
181.0375
 10
409.5338
 20
181.3234
 10
409.4618
 20
181.6112
 10
409.3946
 20
181.9007
 10
409.332
 20
182.1919
 10
409.2741
 20
182.4849
 10
409.221
 20
182.7797
 10
409.1725
 20
183.0762
 10
409.1287
 20
183.3744
 10
409.089
 20
183.6726
 10
409.0523
 20
183.9684
 10
409.0186
 20
184.2618
 10
408.9879
 20
184.5528
 10
408.9602
 20
184.8413
 10
408.9355
 20
185.1273
 10
408.9139
 20
185.411
 10
408.8953
 20
185.6921
 10
408.8791
 20
185.9778
 10
408.865
 20
186.2741
 10
408.8532
 20
186.5811
 10
408.8435
 20
186.8987
 10
408.836
 20
187.2268
 10
408.8307
 20
187.5654
 10
408.8275
 20
187.9143
 10
408.8264
 20
188.2736
 10
408.8311
 20
188.6492
 10
408.8453
 20
189.0465
 10
408.8689
 20
189.4657
 10
408.902
 20
189.9067
 10
408.9445
 20
190.3698
 10
408.9964
 20
190.8549
 10
409.0578
 20
191.3622
 10
409.1287
 20
191.8917
 10
409.1723
 20
192.186
 10
409.2201
 20
192.4797
 10
409.2722
 20
192.7728
 10
409.3286
 20
193.0653
 10
409.3892
 20
193.3571
 10
409.4541
 20
193.6482
 10
409.5233
 20
193.9388
 10
409.5968
 20
194.2286
 10
409.6752
 20
194.5148
 10
409.7592
 20
194.7937
 10
409.8489
 20
195.0654
 10
409.9442
 20
195.3298
 10
410.045
 20
195.5869
 10
410.1514
 20
195.8367
 10
410.2634
 20
196.0793
 10
410.3808
 20
196.3146
 10
410.5043
 20
196.5408
 10
410.6337
 20
196.7555
 10
410.7692
 20
196.9586
 10
410.9108
 20
197.1503
 10
411.0583
 20
197.3304
 10
411.2118
 20
197.4991
 10
411.3712
 20
197.6562
 10
411.5367
 20
197.8019
 10
411.7093
 20
197.9332
 10
411.8895
 20
198.0469
 10
412.0775
 20
198.1432
 10
412.2731
 20
198.222
 10
412.4766
 20
198.2833
 10
412.6877
 20
198.3271
 10
412.9067
 20
198.3534
 10
413.1334
 20
198.3622
 10
413.3599
 20
198.3531
 10
413.5787
 20
198.326
 10
413.7898
 20
198.2807
 10
413.9931
 20
198.2173
 10
414.1888
 20
198.1358
 10
414.3767
 20
198.0362
 10
414.5569
 20
197.9185
 10
414.7295
 20
197.7828
  0
LWPOLYLINE
  5
79
330
1F
100
AcDbEntity
  8
Layer 1
 62
     7
100
AcDbPolyline
 90
       65
 70
     1
 43
0.0
 10
413.2296
 20
174.2202
 10
414.033
 20
174.2917
 10
414.7852
 20
174.5063
 10
415.4862
 20
174.8639
 10
416.1362
 20
175.3645
 10
416.735
 20
176.0081
 10
417.2826
 20
176.7948
 10
417.7791
 20
177.7245
 10
418.2245
 20
178.7973
 10
418.5372
 20
179.7335
 10
418.8083
 20
180.7216
 10
419.0377
 20
181.7616
 10
419.2254
 20
182.8535
 10
419.3714
 20
183.9973
 10
419.4757
 20
185.1929
 10
419.5383
 20
186.4404
 10
419.5592
 20
187.7398
 10
419.5383
 20
189.0392
 10
419.4757
 20
190.2867
 10
419.3714
 20
191.4823
 10
419.2254
 20
192.626
 10
419.0377
 20
193.7178
 10
418.8083
 20
194.7577
 10
418.5372
 20
195.7455
 10
418.2245
 20
196.6814
 10
417.7791
 20
197.7545
 10
417.2826
 20
198.6844
 10
416.735
 20
199.4713
 10
416.1362
 20
200.115
 10
415.4862
 20
200.6157
 10
414.7852
 20
200.9733
 10
414.033
 20
201.1879
 10
413.2296
 20
201.2594
 10
412.4261
 20
201.1879
 10
411.6737
 20
200.9733
 10
410.9726
 20
200.6157
 10
410.3226
 20
200.115
 10
409.7238
 20
199.4713
 10
409.1763
 20
198.6844
 10
408.6799
 20
197.7545
 10
408.2347
 20
196.6814
 10
407.9218
 20
195.7455
 10
407.6507
 20
194.7577
 10
407.4213
 20
193.7178
 10
407.2336
 20
192.626
 10
407.0876
 20
191.4823
 10
406.9834
 20
190.2867
 10
406.9208
 20
189.0392
 10
406.9
 20
187.7398
 10
406.9208
 20
186.4404
 10
406.9834
 20
185.1929
 10
407.0876
 20
183.9973
 10
407.2336
 20
182.8535
 10
407.4213
 20
181.7616
 10
407.6507
 20
180.7216
 10
407.9218
 20
179.7335
 10
408.2347
 20
178.7973
 10
408.6799
 20
177.7245
 10
409.1763
 20
176.7948
 10
409.7238
 20
176.0081
 10
410.3226
 20
175.3645
 10
410.9726
 20
174.8639
 10
411.6737
 20
174.5063
 10
412.4261
 20
174.2917
 10
413.2296
 20
174.2202
  0
LWPOLYLINE
  5
7A
330
1F
100
AcDbEntity
  8
Layer 1
 62
     7
100
AcDbPolyline
 90
       13
 70
     1
 43
0.0
 10
430.127
 20
174.5679
 10
432.576
 20
174.5679
 10
428.3378
 20
183.066
 10
432.576
 20
191.5641
 10
430.127
 20
191.5641
 10
427.0994
 20
185.0361
 10
424.0724
 20
191.5641
 10
421.6227
 20
191.5641
 10
425.8609
 20
183.1043
 10
421.6227
 20
174.5679
 10
424.0724
 20
174.5679
 10
427.0994
 20
181.1734
 10
430.127
 20
174.5679
  0
LWPOLYLINE
  5
7B
330
1F
100
AcDbEntity
  8
Layer 1
 62
     7
100
AcDbPolyline
 90
       73
 70
     1
 43
0.0
 10
440.3502
 20
188.8987
 10
440.7893
 20
188.8703
 10
441.2121
 20
188.7852
 10
441.6185
 20
188.6434
 10
442.0085
 20
188.4448
 10
442.3822
 20
188.1895
 10
442.7395
 20
187.8774
 10
443.0805
 20
187.5085
 10
443.4051
 20
187.0828
 10
443.6986
 20
186.623
 10
443.9529
 20
186.1414
 10
444.1681
 20
185.6382
 10
444.3442
 20
185.1132
 10
444.4811
 20
184.5664
 10
444.5789
 20
183.998
 10
444.6376
 20
183.4078
 10
444.6572
 20
182.7959
 10
444.6374
 20
182.1977
 10
444.5781
 20
181.6201
 10
444.4792
 20
181.063
 10
444.3408
 20
180.5264
 10
444.1628
 20
180.0102
 10
443.9452
 20
179.5146
 10
443.6881
 20
179.0394
 10
443.3914
 20
178.5847
 10
443.0728
 20
178.1773
 10
442.7361
 20
177.8243
 10
442.3814
 20
177.5257
 10
442.0086
 20
177.2814
 10
441.6177
 20
177.0915
 10
441.2087
 20
176.9558
 10
440.7816
 20
176.8744
 10
440.3365
 20
176.8473
 10
439.9001
 20
176.8754
 10
439.4782
 20
176.9595
 10
439.071
 20
177.0998
 10
438.6784
 20
177.2963
 10
438.3004
 20
177.5488
 10
437.937
 20
177.8574
 10
437.5883
 20
178.2222
 10
437.2543
 20
178.6431
 10
436.9512
 20
179.0984
 10
436.6884
 20
179.5761
 10
436.4661
 20
180.076
 10
436.2841
 20
180.5983
 10
436.1426
 20
181.143
 10
436.0414
 20
181.7099
 10
435.9807
 20
182.2992
 10
435.9605
 20
182.9108
 10
435.9807
 20
183.5197
 10
436.0414
 20
184.1051
 10
436.1426
 20
184.6668
 10
436.2841
 20
185.205
 10
436.4661
 20
185.7195
 10
436.6884
 20
186.2106
 10
436.9512
 20
186.678
 10
437.2543
 20
187.122
 10
437.4087
 20
187.3195
 10
437.569
 20
187.5068
 10
437.7354
 20
187.6839
 10
437.9078
 20
187.8508
 10
438.0862
 20
188.0075
 10
438.2707
 20
188.1539
 10
438.4613
 20
188.2901
 10
438.6579
 20
188.416
 10
438.8588
 20
188.529
 10
439.0628
 20
188.6269
 10
439.2699
 20
188.7099
 10
439.4799
 20
188.7778
 10
439.693
 20
188.8307
 10
439.909
 20
188.8684
 10
440.1281
 20
188.8911
 10
440.3502
 20
188.8987
  0
LWPOLYLINE
  5
7C
330
1F
100
AcDbEntity
  8
Layer 1
 62
     7
100
AcDbPolyline
 90
       69
 70
     1
 43
0.0
 10
446.6115
 20
182.9884
 10
446.5814
 20
183.9186
 10
446.4911
 20
184.8065
 10
446.3405
 20
185.6521
 10
446.1298
 20
186.4555
 10
445.8588
 20
187.2166
 10
445.5276
 20
187.9354
 10
445.1362
 20
188.612
 10
444.6845
 20
189.2463
 10
444.223
 20
189.7808
 10
443.7292
 20
190.2495
 10
443.2032
 20
190.6524
 10
442.6449
 20
190.9895
 10
442.0543
 20
191.2608
 10
441.4314
 20
191.4663
 10
440.7763
 20
191.606
 10
440.0888
 20
191.68
 10
439.5382
 20
191.1772
 10
445.2625
 20
200.8342
 10
442.7309
 20
200.8342
 10
435.4105
 20
188.4351
 10
435.0816
 20
187.8311
 10
434.7965
 20
187.2025
 10
434.5553
 20
186.5492
 10
434.3579
 20
185.8711
 10
434.2043
 20
185.1683
 10
434.0947
 20
184.4406
 10
434.0288
 20
183.6881
 10
434.0069
 20
182.9108
 10
434.0357
 20
182.0157
 10
434.1221
 20
181.1549
 10
434.2661
 20
180.3284
 10
434.4678
 20
179.5363
 10
434.727
 20
178.7785
 10
435.044
 20
178.0551
 10
435.4185
 20
177.366
 10
435.8507
 20
176.7113
 10
436.3267
 20
176.1095
 10
436.826
 20
175.5878
 10
437.3484
 20
175.1463
 10
437.8941
 20
174.785
 10
438.4631
 20
174.504
 10
439.0552
 20
174.3032
 10
439.6706
 20
174.1828
 10
440.3092
 20
174.1426
 10
440.9568
 20
174.1825
 10
441.5785
 20
174.302
 10
442.1745
 20
174.5013
 10
442.7447
 20
174.7802
 10
443.289
 20
175.1388
 10
443.8075
 20
175.577
 10
444.3002
 20
176.0948
 10
444.7671
 20
176.6922
 10
444.9748
 20
176.9976
 10
445.1714
 20
177.3151
 10
445.3568
 20
177.6447
 10
445.531
 20
177.9863
 10
445.6941
 20
178.34
 10
445.846
 20
178.7058
 10
445.9866
 20
179.0836
 10
446.1161
 20
179.4735
 10
446.2322
 20
179.8748
 10
446.3329
 20
180.287
 10
446.418
 20
180.7101
 10
446.4877
 20
181.144
 10
446.5418
 20
181.5888
 10
446.5805
 20
182.0445
 10
446.6038
 20
182.511
 10
446.6115
 20
182.9884
  0
LWPOLYLINE
  5
7D
330
1F
100
AcDbEntity
  8
Layer 1
 62
     7
100
AcDbPolyline
 90
      129
 70
     1
 43
0.0
 10
456.5597
 20
197.7828
 10
456.8774
 20
197.4797
 10
457.1736
 20
197.1355
 10
457.4483
 20
196.7504
 10
457.7016
 20
196.3243
 10
457.9333
 20
195.8571
 10
458.1436
 20
195.3489
 10
458.3324
 20
194.7997
 10
458.4996
 20
194.2094
 10
458.6866
 20
193.4265
 10
458.8487
 20
192.6321
 10
458.9859
 20
191.8262
 10
459.0982
 20
191.0087
 10
459.1856
 20
190.1798
 10
459.248
 20
189.3393
 10
459.2855
 20
188.4873
 10
459.298
 20
187.6239
 10
459.2967
 20
187.4165
 10
459.2928
 20
187.2001
 10
459.2863
 20
186.9746
 10
459.2772
 20
186.7402
 10
459.2655
 20
186.4966
 10
459.2513
 20
186.244
 10
459.2346
 20
185.9822
 10
459.2154
 20
185.7113
 10
459.1199
 20
184.673
 10
458.9951
 20
183.692
 10
458.8412
 20
182.7684
 10
458.658
 20
181.9021
 10
458.4456
 20
181.093
 10
458.204
 20
180.3413
 10
457.9331
 20
179.647
 10
457.633
 20
179.0099
 10
457.359
 20
178.53
 10
457.0704
 20
178.1142
 10
456.7673
 20
177.7624
 10
456.4495
 20
177.4746
 10
456.1171
 20
177.2509
 10
455.77
 20
177.091
 10
455.4083
 20
176.9952
 10
455.0319
 20
176.9632
 10
454.6121
 20
176.9949
 10
454.2125
 20
177.0898
 10
453.8331
 20
177.2482
 10
453.4738
 20
177.4698
 10
453.1347
 20
177.7549
 10
452.8159
 20
178.1034
 10
452.5173
 20
178.5153
 10
452.239
 20
178.9907
 10
452.1211
 20
179.2212
 10
452.0085
 20
179.459
 10
451.9009
 20
179.704
 10
451.7986
 20
179.9563
 10
451.7014
 20
180.2158
 10
451.6093
 20
180.4825
 10
451.5224
 20
180.7564
 10
451.4406
 20
181.0375
 10
451.364
 20
181.3234
 10
451.292
 20
181.6112
 10
451.2248
 20
181.9007
 10
451.1622
 20
182.1919
 10
451.1043
 20
182.4849
 10
451.0512
 20
182.7797
 10
451.0027
 20
183.0762
 10
450.9589
 20
183.3744
 10
450.9192
 20
183.6726
 10
450.8825
 20
183.9684
 10
450.8488
 20
184.2618
 10
450.8181
 20
184.5528
 10
450.7904
 20
184.8413
 10
450.7657
 20
185.1273
 10
450.7441
 20
185.411
 10
450.7255
 20
185.6921
 10
450.7093
 20
185.9778
 10
450.6952
 20
186.2741
 10
450.6834
 20
186.5811
 10
450.6737
 20
186.8987
 10
450.6662
 20
187.2268
 10
450.6609
 20
187.5654
 10
450.6577
 20
187.9143
 10
450.6566
 20
188.2736
 10
450.6613
 20
188.6492
 10
450.6755
 20
189.0465
 10
450.6991
 20
189.4657
 10
450.7322
 20
189.9067
 10
450.7747
 20
190.3698
 10
450.8266
 20
190.8549
 10
450.888
 20
191.3622
 10
450.9589
 20
191.8917
 10
451.0025
 20
192.186
 10
451.0503
 20
192.4797
 10
451.1024
 20
192.7728
 10
451.1588
 20
193.0653
 10
451.2194
 20
193.3571
 10
451.2843
 20
193.6482
 10
451.3535
 20
193.9388
 10
451.4269
 20
194.2286
 10
451.5053
 20
194.5148
 10
451.5894
 20
194.7937
 10
451.6791
 20
195.0654
 10
451.7744
 20
195.3298
 10
451.8752
 20
195.5869
 10
451.9816
 20
195.8367
 10
452.0936
 20
196.0793
 10
452.211
 20
196.3146
 10
452.3345
 20
196.5408
 10
452.4639
 20
196.7555
 10
452.5994
 20
196.9586
 10
452.741
 20
197.1503
 10
452.8885
 20
197.3304
 10
453.042
 20
197.4991
 10
453.2014
 20
197.6562
 10
453.3669
 20
197.8019
 10
453.5395
 20
197.9332
 10
453.7197
 20
198.0469
 10
453.9077
 20
198.1432
 10
454.1033
 20
198.222
 10
454.3068
 20
198.2833
 10
454.5179
 20
198.3271
 10
454.7369
 20
198.3534
 10
454.9636
 20
198.3622
 10
455.1901
 20
198.3531
 10
455.4089
 20
198.326
 10
455.62
 20
198.2807
 10
455.8233
 20
198.2173
 10
456.019
 20
198.1358
 10
456.2069
 20
198.0362
 10
456.3871
 20
197.9185
 10
456.5597
 20
197.7828
  0
LWPOLYLINE
  5
7E
330
1F
100
AcDbEntity
  8
Layer 1
 62
     7
100
AcDbPolyline
 90
       65
 70
     1
 43
0.0
 10
455.0598
 20
174.2202
 10
455.8632
 20
174.2917
 10
456.6154
 20
174.5063
 10
457.3164
 20
174.8639
 10
457.9664
 20
175.3645
 10
458.5652
 20
176.0081
 10
459.1128
 20
176.7948
 10
459.6093
 20
177.7245
 10
460.0547
 20
178.7973
 10
460.3674
 20
179.7335
 10
460.6385
 20
180.7216
 10
460.8679
 20
181.7616
 10
461.0556
 20
182.8535
 10
461.2016
 20
183.9973
 10
461.3059
 20
185.1929
 10
461.3685
 20
186.4404
 10
461.3894
 20
187.7398
 10
461.3685
 20
189.0392
 10
461.3059
 20
190.2867
 10
461.2016
 20
191.4823
 10
461.0556
 20
192.626
 10
460.8679
 20
193.7178
 10
460.6385
 20
194.7577
 10
460.3674
 20
195.7455
 10
460.0547
 20
196.6814
 10
459.6093
 20
197.7545
 10
459.1128
 20
198.6844
 10
458.5652
 20
199.4713
 10
457.9664
 20
200.115
 10
457.3164
 20
200.6157
 10
456.6154
 20
200.9733
 10
455.8632
 20
201.1879
 10
455.0598
 20
201.2594
 10
454.2563
 20
201.1879
 10
453.5039
 20
200.9733
 10
452.8028
 20
200.6157
 10
452.1528
 20
200.115
 10
451.554
 20
199.4713
 10
451.0065
 20
198.6844
 10
450.5101
 20
197.7545
 10
450.0649
 20
196.6814
 10
449.752
 20
195.7455
 10
449.4809
 20
194.7577
 10
449.2515
 20
193.7178
 10
449.0638
 20
192.626
 10
448.9178
 20
191.4823
 10
448.8136
 20
190.2867
 10
448.751
 20
189.0392
 10
448.7302
 20
187.7398
 10
448.751
 20
186.4404
 10
448.8136
 20
185.1929
 10
448.9178
 20
183.9973
 10
449.0638
 20
182.8535
 10
449.2515
 20
181.7616
 10
449.4809
 20
180.7216
 10
449.752
 20
179.7335
 10
450.0649
 20
178.7973
 10
450.5101
 20
177.7245
 10
451.0065
 20
176.7948
 10
451.554
 20
176.0081
 10
452.1528
 20
175.3645
 10
452.8028
 20
174.8639
 10
453.5039
 20
174.5063
 10
454.2563
 20
174.2917
 10
455.0598
 20
174.2202
  0
LWPOLYLINE
  5
7F
330
1F
100
AcDbEntity
  8
Layer 1
 62
     7
100
AcDbPolyline
 90
      129
 70
     1
 43
0.0
 10
471.9708
 20
197.7828
 10
472.2885
 20
197.4797
 10
472.5847
 20
197.1355
 10
472.8594
 20
196.7504
 10
473.1127
 20
196.3243
 10
473.3444
 20
195.8571
 10
473.5547
 20
195.3489
 10
473.7435
 20
194.7997
 10
473.9108
 20
194.2094
 10
474.0978
 20
193.4265
 10
474.2599
 20
192.6321
 10
474.3971
 20
191.8262
 10
474.5094
 20
191.0087
 10
474.5967
 20
190.1798
 10
474.6592
 20
189.3393
 10
474.6966
 20
188.4873
 10
474.7091
 20
187.6239
 10
474.7078
 20
187.4165
 10
474.7039
 20
187.2001
 10
474.6974
 20
186.9746
 10
474.6883
 20
186.7402
 10
474.6767
 20
186.4966
 10
474.6625
 20
186.244
 10
474.6458
 20
185.9822
 10
474.6266
 20
185.7113
 10
474.531
 20
184.673
 10
474.4063
 20
183.692
 10
474.2523
 20
182.7684
 10
474.0692
 20
181.9021
 10
473.8568
 20
181.093
 10
473.6152
 20
180.3413
 10
473.3443
 20
179.647
 10
473.0442
 20
179.0099
 10
472.7702
 20
178.53
 10
472.4816
 20
178.1142
 10
472.1784
 20
177.7624
 10
471.8606
 20
177.4746
 10
471.5282
 20
177.2509
 10
471.1811
 20
177.091
 10
470.8194
 20
176.9952
 10
470.443
 20
176.9632
 10
470.0233
 20
176.9949
 10
469.6237
 20
177.0898
 10
469.2442
 20
177.2482
 10
468.8849
 20
177.4698
 10
468.5458
 20
177.7549
 10
468.227
 20
178.1034
 10
467.9284
 20
178.5153
 10
467.6501
 20
178.9907
 10
467.5323
 20
179.2212
 10
467.4196
 20
179.459
 10
467.3121
 20
179.704
 10
467.2098
 20
179.9563
 10
467.1126
 20
180.2158
 10
467.0205
 20
180.4825
 10
466.9336
 20
180.7564
 10
466.8518
 20
181.0375
 10
466.7751
 20
181.3234
 10
466.7032
 20
181.6112
 10
466.6359
 20
181.9007
 10
466.5733
 20
182.1919
 10
466.5154
 20
182.4849
 10
466.4623
 20
182.7797
 10
466.4138
 20
183.0762
 10
466.37
 20
183.3744
 10
466.3303
 20
183.6726
 10
466.2936
 20
183.9684
 10
466.2599
 20
184.2618
 10
466.2292
 20
184.5528
 10
466.2015
 20
184.8413
 10
466.1768
 20
185.1273
 10
466.1552
 20
185.411
 10
466.1366
 20
185.6921
 10
466.1204
 20
185.9778
 10
466.1064
 20
186.2741
 10
466.0945
 20
186.5811
 10
466.0849
 20
186.8987
 10
466.0773
 20
187.2268
 10
466.072
 20
187.5654
 10
466.0688
 20
187.9143
 10
466.0677
 20
188.2736
 10
466.0724
 20
188.6492
 10
466.0866
 20
189.0465
 10
466.1102
 20
189.4657
 10
466.1433
 20
189.9067
 10
466.1858
 20
190.3698
 10
466.2378
 20
190.8549
 10
466.2992
 20
191.3622
 10
466.37
 20
191.8917
 10
466.4136
 20
192.186
 10
466.4614
 20
192.4797
 10
466.5135
 20
192.7728
 10
466.5699
 20
193.0653
 10
466.6306
 20
193.3571
 10
466.6955
 20
193.6482
 10
466.7647
 20
193.9388
 10
466.8381
 20
194.2286
 10
466.9165
 20
194.5148
 10
467.0005
 20
194.7937
 10
467.0902
 20
195.0654
 10
467.1855
 20
195.3298
 10
467.2863
 20
195.5869
 10
467.3928
 20
195.8367
 10
467.5047
 20
196.0793
 10
467.6222
 20
196.3146
 10
467.7456
 20
196.5408
 10
467.8751
 20
196.7555
 10
468.0106
 20
196.9586
 10
468.1521
 20
197.1503
 10
468.2996
 20
197.3304
 10
468.4531
 20
197.4991
 10
468.6126
 20
197.6562
 10
468.7781
 20
197.8019
 10
468.9507
 20
197.9332
 10
469.1309
 20
198.0469
 10
469.3189
 20
198.1432
 10
469.5145
 20
198.222
 10
469.718
 20
198.2833
 10
469.9291
 20
198.3271
 10
470.1481
 20
198.3534
 10
470.3748
 20
198.3622
 10
470.6013
 20
198.3531
 10
470.8201
 20
198.326
 10
471.0311
 20
198.2807
 10
471.2345
 20
198.2173
 10
471.4301
 20
198.1358
 10
471.618
 20
198.0362
 10
471.7982
 20
197.9185
 10
471.9708
 20
197.7828
  0
LWPOLYLINE
  5
80
330
1F
100
AcDbEntity
  8
Layer 1
 62
     7
100
AcDbPolyline
 90
       65
 70
     1
 43
0.0
 10
470.471
 20
174.2202
 10
471.2743
 20
174.2917
 10
472.0265
 20
174.5063
 10
472.7276
 20
174.8639
 10
473.3775
 20
175.3645
 10
473.9763
 20
176.0081
 10
474.524
 20
176.7948
 10
475.0205
 20
177.7245
 10
475.4659
 20
178.7973
 10
475.7786
 20
179.7335
 10
476.0497
 20
180.7216
 10
476.2791
 20
181.7616
 10
476.4668
 20
182.8535
 10
476.6128
 20
183.9973
 10
476.7171
 20
185.1929
 10
476.7797
 20
186.4404
 10
476.8006
 20
187.7398
 10
476.7797
 20
189.0392
 10
476.7171
 20
190.2867
 10
476.6128
 20
191.4823
 10
476.4668
 20
192.626
 10
476.2791
 20
193.7178
 10
476.0497
 20
194.7577
 10
475.7786
 20
195.7455
 10
475.4659
 20
196.6814
 10
475.0205
 20
197.7545
 10
474.524
 20
198.6844
 10
473.9763
 20
199.4713
 10
473.3775
 20
200.115
 10
472.7276
 20
200.6157
 10
472.0265
 20
200.9733
 10
471.2743
 20
201.1879
 10
470.471
 20
201.2594
 10
469.6674
 20
201.1879
 10
468.9151
 20
200.9733
 10
468.2139
 20
200.6157
 10
467.564
 20
200.115
 10
466.9652
 20
199.4713
 10
466.4177
 20
198.6844
 10
465.9213
 20
197.7545
 10
465.4761
 20
196.6814
 10
465.1632
 20
195.7455
 10
464.8921
 20
194.7577
 10
464.6627
 20
193.7178
 10
464.475
 20
192.626
 10
464.329
 20
191.4823
 10
464.2248
 20
190.2867
 10
464.1622
 20
189.0392
 10
464.1414
 20
187.7398
 10
464.1622
 20
186.4404
 10
464.2248
 20
185.1929
 10
464.329
 20
183.9973
 10
464.475
 20
182.8535
 10
464.6627
 20
181.7616
 10
464.8921
 20
180.7216
 10
465.1632
 20
179.7335
 10
465.4761
 20
178.7973
 10
465.9213
 20
177.7245
 10
466.4177
 20
176.7948
 10
466.9652
 20
176.0081
 10
467.564
 20
175.3645
 10
468.2139
 20
174.8639
 10
468.9151
 20
174.5063
 10
469.6674
 20
174.2917
 10
470.471
 20
174.2202
  0
LWPOLYLINE
  5
81
330
1F
100
AcDbEntity
  8
Layer 1
 62
     7
100
AcDbPolyline
 90
      165
 70
     1
 43
0.0
 10
495.5969
 20
174.6454
 10
497.5233
 20
174.6454
 10
497.5233
 20
185.2678
 10
497.5076
 20
185.9729
 10
497.4605
 20
186.6449
 10
497.382
 20
187.2838
 10
497.2722
 20
187.8894
 10
497.1309
 20
188.4619
 10
496.9582
 20
189.0012
 10
496.7542
 20
189.5072
 10
496.5188
 20
189.98
 10
496.3874
 20
190.206
 10
496.2478
 20
190.4206
 10
496.1
 20
190.6237
 10
495.9441
 20
190.8154
 10
495.7799
 20
190.9957
 10
495.6077
 20
191.1644
 10
495.4272
 20
191.3217
 10
495.2387
 20
191.4674
 10
495.0384
 20
191.5986
 10
494.8225
 20
191.7124
 10
494.5912
 20
191.8087
 10
494.3445
 20
191.8875
 10
494.0822
 20
191.9488
 10
493.8045
 20
191.9926
 10
493.5112
 20
192.0188
 10
493.2025
 20
192.0276
 10
492.891
 20
192.0125
 10
492.5894
 20
191.9672
 10
492.2976
 20
191.8917
 10
492.0157
 20
191.786
 10
491.7437
 20
191.6501
 10
491.4816
 20
191.4841
 10
491.2293
 20
191.2878
 10
490.9869
 20
191.0613
 10
490.7766
 20
190.8356
 10
490.5758
 20
190.5932
 10
490.3845
 20
190.3342
 10
490.2027
 20
190.0588
 10
490.0303
 20
189.7671
 10
489.8674
 20
189.4593
 10
489.7138
 20
189.1354
 10
489.5697
 20
188.7956
 10
489.4578
 20
189.1094
 10
489.3356
 20
189.4121
 10
489.2032
 20
189.7027
 10
489.0606
 20
189.98
 10
488.9292
 20
190.206
 10
488.7897
 20
190.4206
 10
488.6421
 20
190.6237
 10
488.4862
 20
190.8154
 10
488.3222
 20
190.9957
 10
488.1501
 20
191.1644
 10
487.9697
 20
191.3217
 10
487.7812
 20
191.4674
 10
487.5806
 20
191.5986
 10
487.3646
 20
191.7124
 10
487.1332
 20
191.8087
 10
486.8864
 20
191.8875
 10
486.624
 20
191.9488
 10
486.3463
 20
191.9926
 10
486.053
 20
192.0188
 10
485.7443
 20
192.0276
 10
485.4328
 20
192.0125
 10
485.1312
 20
191.9672
 10
484.8394
 20
191.8917
 10
484.5575
 20
191.786
 10
484.2855
 20
191.6501
 10
484.0234
 20
191.4841
 10
483.7711
 20
191.2878
 10
483.5287
 20
191.0613
 10
483.3284
 20
190.8466
 10
483.1367
 20
190.6174
 10
482.9536
 20
190.3734
 10
482.779
 20
190.1147
 10
482.613
 20
189.8411
 10
482.4556
 20
189.5526
 10
482.3068
 20
189.2491
 10
482.1667
 20
188.9306
 10
482.1667
 20
191.6407
 10
480.2404
 20
191.6407
 10
480.2404
 20
174.6454
 10
482.1667
 20
174.6454
 10
482.1667
 20
183.3425
 10
482.2114
 20
183.8492
 10
482.2698
 20
184.3362
 10
482.3421
 20
184.8035
 10
482.4281
 20
185.2514
 10
482.5278
 20
185.6799
 10
482.6414
 20
186.0893
 10
482.7687
 20
186.4796
 10
482.9098
 20
186.851
 10
483.0245
 20
187.1153
 10
483.1487
 20
187.3677
 10
483.2824
 20
187.608
 10
483.4256
 20
187.8362
 10
483.5782
 20
188.0523
 10
483.7404
 20
188.2563
 10
483.912
 20
188.4481
 10
484.093
 20
188.6277
 10
484.2805
 20
188.7907
 10
484.4715
 20
188.9319
 10
484.6659
 20
189.0514
 10
484.8638
 20
189.1492
 10
485.065
 20
189.2252
 10
485.2697
 20
189.2795
 10
485.4777
 20
189.3121
 10
485.6891
 20
189.323
 10
485.8955
 20
189.3173
 10
486.0882
 20
189.3001
 10
486.2671
 20
189.2714
 10
486.4323
 20
189.2313
 10
486.5837
 20
189.1797
 10
486.7213
 20
189.1167
 10
486.8453
 20
189.0422
 10
486.9555
 20
188.9562
 10
487.2328
 20
188.6683
 10
487.4731
 20
188.331
 10
487.6764
 20
187.9442
 10
487.8428
 20
187.5079
 10
487.9723
 20
187.0222
 10
488.0647
 20
186.4869
 10
488.1202
 20
185.9021
 10
488.1387
 20
185.2678
 10
488.1387
 20
174.6454
 10
490.065
 20
174.6454
 10
490.065
 20
185.2678
 10
490.0514
 20
185.9175
 10
490.1227
 20
186.164
 10
490.1992
 20
186.4014
 10
490.281
 20
186.6302
 10
490.368
 20
186.851
 10
490.4827
 20
187.1153
 10
490.6069
 20
187.3677
 10
490.7406
 20
187.608
 10
490.8838
 20
187.8362
 10
491.0364
 20
188.0523
 10
491.1986
 20
188.2563
 10
491.3702
 20
188.4481
 10
491.5512
 20
188.6277
 10
491.7387
 20
188.7907
 10
491.9296
 20
188.9319
 10
492.1239
 20
189.0514
 10
492.3217
 20
189.1492
 10
492.5229
 20
189.2252
 10
492.7276
 20
189.2795
 10
492.9357
 20
189.3121
 10
493.1473
 20
189.323
 10
493.3537
 20
189.3173
 10
493.5464
 20
189.3001
 10
493.7253
 20
189.2714
 10
493.8904
 20
189.2313
 10
494.0417
 20
189.1797
 10
494.1793
 20
189.1167
 10
494.3031
 20
189.0422
 10
494.4131
 20
188.9562
 10
494.6906
 20
188.6683
 10
494.931
 20
188.331
 10
495.1345
 20
187.9442
 10
495.301
 20
187.5079
 10
495.4304
 20
187.0222
 10
495.5229
 20
186.4869
 10
495.5784
 20
185.9021
 10
495.5969
 20
185.2678
 10
495.5969
 20
174.6454
  0
LWPOLYLINE
  5
82
330
1F
100
AcDbEntity
  8
Layer 1
 62
     7
100
AcDbPolyline
 90
      165
 70
     1
 43
0.0
 10
516.5953
 20
174.6454
 10
518.5216
 20
174.6454
 10
518.5216
 20
185.2678
 10
518.5059
 20
185.9729
 10
518.4588
 20
186.6449
 10
518.3804
 20
187.2838
 10
518.2705
 20
187.8894
 10
518.1292
 20
188.4619
 10
517.9566
 20
189.0012
 10
517.7525
 20
189.5072
 10
517.5171
 20
189.98
 10
517.3857
 20
190.206
 10
517.2462
 20
190.4206
 10
517.0984
 20
190.6237
 10
516.9424
 20
190.8154
 10
516.7783
 20
190.9957
 10
516.606
 20
191.1644
 10
516.4255
 20
191.3217
 10
516.237
 20
191.4674
 10
516.0367
 20
191.5986
 10
515.8208
 20
191.7124
 10
515.5895
 20
191.8087
 10
515.3428
 20
191.8875
 10
515.0805
 20
191.9488
 10
514.8028
 20
191.9926
 10
514.5096
 20
192.0188
 10
514.2009
 20
192.0276
 10
513.8894
 20
192.0125
 10
513.5877
 20
191.9672
 10
513.296
 20
191.8917
 10
513.0141
 20
191.786
 10
512.7421
 20
191.6501
 10
512.4799
 20
191.4841
 10
512.2276
 20
191.2878
 10
511.9852
 20
191.0613
 10
511.7749
 20
190.8356
 10
511.5741
 20
190.5932
 10
511.3828
 20
190.3342
 10
511.201
 20
190.0588
 10
511.0286
 20
189.7671
 10
510.8657
 20
189.4593
 10
510.7121
 20
189.1354
 10
510.568
 20
188.7956
 10
510.4561
 20
189.1094
 10
510.3339
 20
189.4121
 10
510.2015
 20
189.7027
 10
510.0589
 20
189.98
 10
509.9276
 20
190.206
 10
509.7881
 20
190.4206
 10
509.6404
 20
190.6237
 10
509.4846
 20
190.8154
 10
509.3205
 20
190.9957
 10
509.1484
 20
191.1644
 10
508.968
 20
191.3217
 10
508.7795
 20
191.4674
 10
508.5789
 20
191.5986
 10
508.3629
 20
191.7124
 10
508.1315
 20
191.8087
 10
507.8847
 20
191.8875
 10
507.6223
 20
191.9488
 10
507.3446
 20
191.9926
 10
507.0513
 20
192.0188
 10
506.7426
 20
192.0276
 10
506.4311
 20
192.0125
 10
506.1295
 20
191.9672
 10
505.8377
 20
191.8917
 10
505.5558
 20
191.786
 10
505.2838
 20
191.6501
 10
505.0217
 20
191.4841
 10
504.7694
 20
191.2878
 10
504.527
 20
191.0613
 10
504.3267
 20
190.8466
 10
504.135
 20
190.6174
 10
503.9519
 20
190.3734
 10
503.7773
 20
190.1147
 10
503.6113
 20
189.8411
 10
503.4539
 20
189.5526
 10
503.3051
 20
189.2491
 10
503.165
 20
188.9306
 10
503.165
 20
191.6407
 10
501.2387
 20
191.6407
 10
501.2387
 20
174.6454
 10
503.165
 20
174.6454
 10
503.165
 20
183.3425
 10
503.2097
 20
183.8492
 10
503.2681
 20
184.3362
 10
503.3404
 20
184.8035
 10
503.4264
 20
185.2514
 10
503.5261
 20
185.6799
 10
503.6397
 20
186.0893
 10
503.767
 20
186.4796
 10
503.9081
 20
186.851
 10
504.0228
 20
187.1153
 10
504.147
 20
187.3677
 10
504.2807
 20
187.608
 10
504.4239
 20
187.8362
 10
504.5765
 20
188.0523
 10
504.7387
 20
188.2563
 10
504.9103
 20
188.4481
 10
505.0913
 20
188.6277
 10
505.2788
 20
188.7907
 10
505.4698
 20
188.9319
 10
505.6642
 20
189.0514
 10
505.8621
 20
189.1492
 10
506.0633
 20
189.2252
 10
506.268
 20
189.2795
 10
506.476
 20
189.3121
 10
506.6874
 20
189.323
 10
506.8938
 20
189.3173
 10
507.0865
 20
189.3001
 10
507.2654
 20
189.2714
 10
507.4306
 20
189.2313
 10
507.582
 20
189.1797
 10
507.7196
 20
189.1167
 10
507.8436
 20
189.0422
 10
507.9538
 20
188.9562
 10
508.2311
 20
188.6683
 10
508.4714
 20
188.331
 10
508.6747
 20
187.9442
 10
508.8411
 20
187.5079
 10
508.9706
 20
187.0222
 10
509.063
 20
186.4869
 10
509.1185
 20
185.9021
 10
509.137
 20
185.2678
 10
509.137
 20
174.6454
 10
511.0634
 20
174.6454
 10
511.0634
 20
185.2678
 10
511.0497
 20
185.9175
 10
511.121
 20
186.164
 10
511.1975
 20
186.4014
 10
511.2793
 20
186.6302
 10
511.3663
 20
186.851
 10
511.481
 20
187.1153
 10
511.6052
 20
187.3677
 10
511.7389
 20
187.608
 10
511.8821
 20
187.8362
 10
512.0347
 20
188.0523
 10
512.1969
 20
188.2563
 10
512.3685
 20
188.4481
 10
512.5495
 20
188.6277
 10
512.737
 20
188.7907
 10
512.9279
 20
188.9319
 10
513.1222
 20
189.0514
 10
513.32
 20
189.1492
 10
513.5212
 20
189.2252
 10
513.7259
 20
189.2795
 10
513.934
 20
189.3121
 10
514.1456
 20
189.323
 10
514.352
 20
189.3173
 10
514.5447
 20
189.3001
 10
514.7236
 20
189.2714
 10
514.8887
 20
189.2313
 10
515.04
 20
189.1797
 10
515.1776
 20
189.1167
 10
515.3014
 20
189.0422
 10
515.4114
 20
188.9562
 10
515.6889
 20
188.6683
 10
515.9293
 20
188.331
 10
516.1328
 20
187.9442
 10
516.2993
 20
187.5079
 10
516.4288
 20
187.0222
 10
516.5213
 20
186.4869
 10
516.5768
 20
185.9021
 10
516.5953
 20
185.2678
 10
516.5953
 20
174.6454
  0
LWPOLYLINE
  5
83
330
1F
100
AcDbEntity
  8
Layer 1
 62
     7
370
    18
100
AcDbPolyline
 90
        2
 70
     0
 43
0.0
 10
278.1524
 20
176.006
 10
278.1524
 20
199.2428
  0
LWPOLYLINE
  5
84
330
1F
100
AcDbEntity
  8
Layer 1
 62
     7
370
    18
100
AcDbPolyline
 90
        2
 70
     0
 43
0.0
 10
278.151
 20
187.6248
 10
336.3442
 20
187.6248
  0
LWPOLYLINE
  5
85
330
1F
100
AcDbEntity
  8
Layer 1
 62
     7
370
    18
100
AcDbPolyline
 90
        2
 70
     0
 43
0.0
 10
609.841
 20
176.006
 10
609.841
 20
199.2428
  0
LWPOLYLINE
  5
86
330
1F
100
AcDbEntity
  8
Layer 1
 62
     7
370
    18
100
AcDbPolyline
 90
        2
 70
     0
 43
0.0
 10
609.8424
 20
187.6248
 10
551.6492
 20
187.6248
  0
ENDSEC
  0
SECTION
  2
OBJECTS
  0
DICTIONARY
  5
C
330
0
100
AcDbDictionary
281
     1
  3
ACAD_DETAILVIEWSTYLE
350
8E
  3
ACAD_GROUP
350
D
  3
ACAD_LAYOUT
350
1A
  3
ACAD_MATERIAL
350
43
  3
ACAD_MLEADERSTYLE
350
5B
  3
ACAD_MLINESTYLE
350
17
  3
ACAD_PLOTSETTINGS
350
19
  3
ACAD_PLOTSTYLENAME
350
E
  3
ACAD_SCALELIST
350
47
  3
ACAD_SECTIONVIEWSTYLE
350
8F
  3
ACAD_TABLESTYLE
350
59
  3
ACAD_VISUALSTYLE
350
2A
  3
ACDB_RECOMPOSE_DATA
350
8B
  3
AcDbVariableDictionary
350
87
  0
SUN
  5
5D
330
29
100
AcDbSun
 90
        1
290
     0
 63
     7
421
 16777215
 40
1.0
291
     1
 91
  2455826
 92
 54000000
292
     0
 70
     2
 71
   256
280
     1
  0
DICTIONARY
  5
8E
102
{ACAD_REACTORS
330
C
102
}
330
C
100
AcDbDictionary
281
     1
  0
DICTIONARY
  5
D
102
{ACAD_REACTORS
330
C
102
}
330
C
100
AcDbDictionary
281
     1
  0
DICTIONARY
  5
1A
102
{ACAD_REACTORS
330
C
102
}
330
C
100
AcDbDictionary
281
     1
  3
Layout1
350
1E
  3
Layout2
350
26
  3
Model
350
22
  0
DICTIONARY
  5
43
102
{ACAD_REACTORS
330
C
102
}
330
C
100
AcDbDictionary
281
     1
  3
ByBlock
350
45
  3
ByLayer
350
44
  3
Global
350
46
  0
DICTIONARY
  5
5B
102
{ACAD_REACTORS
330
C
102
}
330
C
100
AcDbDictionary
281
     1
  3
Standard
350
5C
  0
DICTIONARY
  5
17
102
{ACAD_REACTORS
330
C
102
}
330
C
100
AcDbDictionary
281
     1
  3
Standard
350
18
  0
DICTIONARY
  5
19
102
{ACAD_REACTORS
330
C
102
}
330
C
100
AcDbDictionary
281
     1
  0
ACDBDICTIONARYWDFLT
  5
E
102
{ACAD_REACTORS
330
C
102
}
330
C
100
AcDbDictionary
281
     1
  3
Normal
350
F
100
AcDbDictionaryWithDefault
340
F
  0
DICTIONARY
  5
47
102
{ACAD_REACTORS
330
C
102
}
330
C
100
AcDbDictionary
281
     1
  3
A0
350
48
  3
A1
350
49
  3
A2
350
4A
  3
A3
350
4B
  3
A4
350
4C
  3
A5
350
4D
  3
A6
350
4E
  3
A7
350
4F
  3
A8
350
50
  3
A9
350
51
  3
B1
350
52
  3
B2
350
53
  3
B3
350
54
  3
B4
350
55
  3
B5
350
56
  3
B6
350
57
  3
B7
350
58
  0
DICTIONARY
  5
8F
102
{ACAD_REACTORS
330
C
102
}
330
C
100
AcDbDictionary
281
     1
  0
DICTIONARY
  5
59
102
{ACAD_REACTORS
330
C
102
}
330
C
100
AcDbDictionary
281
     1
  3
Standard
350
5A
  0
DICTIONARY
  5
2A
102
{ACAD_REACTORS
330
C
102
}
330
C
100
AcDbDictionary
281
     1
  3
2dWireframe
350
2F
  3
Basic
350
32
  3
Brighten
350
36
  3
ColorChange
350
3A
  3
Conceptual
350
34
  3
Dim
350
35
  3
EdgeColorOff
350
3D
  3
Facepattern
350
39
  3
Flat
350
2B
  3
FlatWithEdges
350
2C
  3
Gouraud
350
2D
  3
GouraudWithEdges
350
2E
  3
Hidden
350
31
  3
JitterOff
350
3B
  3
Linepattern
350
38
  3
OverhangOff
350
3C
  3
Realistic
350
33
  3
Shaded
350
42
  3
Shaded with edges
350
41
  3
Shades of Gray
350
3E
  3
Sketchy
350
3F
  3
Thicken
350
37
  3
Wireframe
350
30
  3
X-Ray
350
40
  0
XRECORD
  5
8B
102
{ACAD_REACTORS
330
C
102
}
330
C
100
AcDbXrecord
280
     1
 90
        1
330
5A
  0
DICTIONARY
  5
87
102
{ACAD_REACTORS
330
C
102
}
330
C
100
AcDbDictionary
281
     1
  3
CANNOSCALE
350
88
  3
CMLEADERSTYLE
350
8D
  3
CTABLESTYLE
350
8C
  0
LAYOUT
  5
1E
102
{ACAD_REACTORS
330
1A
102
}
330
1A
100
AcDbPlotSettings
  1

  2
none_device
  4

  6

 40
0.0
 41
0.0
 42
0.0
 43
0.0
 44
0.0
 45
0.0
 46
0.0
 47
0.0
 48
0.0
 49
0.0
140
0.0
141
0.0
142
1.0
143
1.0
 70
   688
 72
     0
 73
     0
 74
     5
  7

 75
    16
 76
     0
 77
     2
 78
   300
147
1.0
148
0.0
149
0.0
100
AcDbLayout
  1
Layout1
 70
     1
 71
     1
 10
0.0
 20
0.0
 11
12.0
 21
9.0
 12
0.0
 22
0.0
 32
0.0
 14
1.000000000000000E+20
 24
1.000000000000000E+20
 34
1.000000000000000E+20
 15
-1.000000000000000E+20
 25
-1.000000000000000E+20
 35
-1.000000000000000E+20
146
0.0
 13
0.0
 23
0.0
 33
0.0
 16
1.0
 26
0.0
 36
0.0
 17
0.0
 27
1.0
 37
0.0
 76
     0
330
1B
  0
LAYOUT
  5
26
102
{ACAD_REACTORS
330
1A
102
}
330
1A
100
AcDbPlotSettings
  1

  2
none_device
  4

  6

 40
0.0
 41
0.0
 42
0.0
 43
0.0
 44
0.0
 45
0.0
 46
0.0
 47
0.0
 48
0.0
 49
0.0
140
0.0
141
0.0
142
1.0
143
1.0
 70
   688
 72
     0
 73
     0
 74
     5
  7

 75
    16
 76
     0
 77
     2
 78
   300
147
1.0
148
0.0
149
0.0
100
AcDbLayout
  1
Layout2
 70
     1
 71
     2
 10
0.0
 20
0.0
 11
0.0
 21
0.0
 12
0.0
 22
0.0
 32
0.0
 14
0.0
 24
0.0
 34
0.0
 15
0.0
 25
0.0
 35
0.0
146
0.0
 13
0.0
 23
0.0
 33
0.0
 16
1.0
 26
0.0
 36
0.0
 17
0.0
 27
1.0
 37
0.0
 76
     0
330
23
  0
LAYOUT
  5
22
102
{ACAD_REACTORS
330
1A
102
}
330
1A
100
AcDbPlotSettings
  1

  2
none_device
  4
Letter_(8.50_x_11.00_Inches)
  6

 40
6.35
 41
6.35
 42
6.35000508
 43
6.35000508
 44
215.9
 45
279.4
 46
0.0
 47
0.0
 48
0.0
 49
0.0
140
0.0
141
0.0
142
1.0
143
1.0
 70
  1712
 72
     0
 73
     0
 74
     0
  7

 75
     0
 76
     0
 77
     2
 78
   300
147
1.0
148
0.0
149
0.0
100
AcDbLayout
  1
Model
 70
     1
 71
     0
 10
0.0
 20
0.0
 11
12.0
 21
9.0
 12
0.0
 22
0.0
 32
0.0
 14
168.6582
 24
-656.6984
 34
0.0
 15
894.9426
 25
226.6708
 35
0.0
146
0.0
 13
0.0
 23
0.0
 33
0.0
 16
1.0
 26
0.0
 36
0.0
 17
0.0
 27
1.0
 37
0.0
 76
     0
330
1F
331
29
  0
MATERIAL
  5
45
102
{ACAD_REACTORS
330
43
102
}
330
43
100
AcDbMaterial
  1
ByBlock
 72
     1
 94
      127
  0
MATERIAL
  5
44
102
{ACAD_REACTORS
330
43
102
}
330
43
100
AcDbMaterial
  1
ByLayer
 72
     1
 94
      127
  0
MATERIAL
  5
46
102
{ACAD_REACTORS
330
43
102
}
330
43
100
AcDbMaterial
  1
Global
 72
     1
 94
      127
  0
MLEADERSTYLE
  5
5C
102
{ACAD_REACTORS
330
5B
102
}
330
5B
100
AcDbMLeaderStyle
179
     2
170
     2
171
     1
172
     0
 90
        2
 40
0.0
 41
0.0
173
     1
 91
-1056964608
340
14
 92
       -2
290
     1
 42
0.09
291
     1
 43
0.36
  3
Standard
341
0
 44
0.18
300

342
11
174
     1
178
     6
175
     1
176
     0
 93
-1056964608
 45
0.18
292
     0
297
     0
 46
0.18
343
0
 94
-1056964608
 47
1.0
 49
1.0
140
1.0
293
     1
141
0.0
294
     1
177
     0
142
1.0
295
     0
296
     0
143
0.125
271
     0
272
     9
273
     9
298
     0
  0
MLINESTYLE
  5
18
102
{ACAD_REACTORS
330
17
102
}
330
17
100
AcDbMlineStyle
  2
Standard
 70
     0
  3

 62
   256
 51
90.0
 52
90.0
 71
     2
 49
0.5
 62
   256
  6
BYLAYER
 49
-0.5
 62
   256
  6
BYLAYER
  0
ACDBPLACEHOLDER
  5
F
102
{ACAD_REACTORS
330
E
102
}
330
E
  0
SCALE
  5
48
102
{ACAD_REACTORS
330
47
102
}
330
47
100
AcDbScale
 70
     0
300
1:1
140
1.0
141
1.0
290
     1
  0
SCALE
  5
49
102
{ACAD_REACTORS
330
47
102
}
330
47
100
AcDbScale
 70
     0
300
1/128" = 1'-0"
140
0.0078125
141
12.0
290
     0
  0
SCALE
  5
4A
102
{ACAD_REACTORS
330
47
102
}
330
47
100
AcDbScale
 70
     0
300
1/64" = 1'-0"
140
0.015625
141
12.0
290
     0
  0
SCALE
  5
4B
102
{ACAD_REACTORS
330
47
102
}
330
47
100
AcDbScale
 70
     0
300
1/32" = 1'-0"
140
0.03125
141
12.0
290
     0
  0
SCALE
  5
4C
102
{ACAD_REACTORS
330
47
102
}
330
47
100
AcDbScale
 70
     0
300
1/16" = 1'-0"
140
0.0625
141
12.0
290
     0
  0
SCALE
  5
4D
102
{ACAD_REACTORS
330
47
102
}
330
47
100
AcDbScale
 70
     0
300
3/32" = 1'-0"
140
0.09375
141
12.0
290
     0
  0
SCALE
  5
4E
102
{ACAD_REACTORS
330
47
102
}
330
47
100
AcDbScale
 70
     0
300
1/8" = 1'-0"
140
0.125
141
12.0
290
     0
  0
SCALE
  5
4F
102
{ACAD_REACTORS
330
47
102
}
330
47
100
AcDbScale
 70
     0
300
3/16" = 1'-0"
140
0.1875
141
12.0
290
     0
  0
SCALE
  5
50
102
{ACAD_REACTORS
330
47
102
}
330
47
100
AcDbScale
 70
     0
300
1/4" = 1'-0"
140
0.25
141
12.0
290
     0
  0
SCALE
  5
51
102
{ACAD_REACTORS
330
47
102
}
330
47
100
AcDbScale
 70
     0
300
3/8" = 1'-0"
140
0.375
141
12.0
290
     0
  0
SCALE
  5
52
102
{ACAD_REACTORS
330
47
102
}
330
47
100
AcDbScale
 70
     0
300
1/2" = 1'-0"
140
0.5
141
12.0
290
     0
  0
SCALE
  5
53
102
{ACAD_REACTORS
330
47
102
}
330
47
100
AcDbScale
 70
     0
300
3/4" = 1'-0"
140
0.75
141
12.0
290
     0
  0
SCALE
  5
54
102
{ACAD_REACTORS
330
47
102
}
330
47
100
AcDbScale
 70
     0
300
1" = 1'-0"
140
1.0
141
12.0
290
     0
  0
SCALE
  5
55
102
{ACAD_REACTORS
330
47
102
}
330
47
100
AcDbScale
 70
     0
300
1-1/2" = 1'-0"
140
1.5
141
12.0
290
     0
  0
SCALE
  5
56
102
{ACAD_REACTORS
330
47
102
}
330
47
100
AcDbScale
 70
     0
300
3" = 1'-0"
140
3.0
141
12.0
290
     0
  0
SCALE
  5
57
102
{ACAD_REACTORS
330
47
102
}
330
47
100
AcDbScale
 70
     0
300
6" = 1'-0"
140
6.0
141
12.0
290
     0
  0
SCALE
  5
58
102
{ACAD_REACTORS
330
47
102
}
330
47
100
AcDbScale
 70
     0
300
1'-0" = 1'-0"
140
12.0
141
12.0
290
     0
  0
TABLESTYLE
  5
5A
102
{ACAD_REACTORS
330
59
102
}
102
{ACAD_XDICTIONARY
360
89
102
}
330
59
100
AcDbTableStyle
  3
Standard
 70
     0
 71
     0
 40
0.06
 41
0.06
280
     0
281
     0
  7
Standard
140
0.18
170
     2
 62
     0
 63
   257
283
     0
 90
        4
 91
        0
  1

274
    -2
284
     1
 64
     0
275
    -2
285
     1
 65
     0
276
    -2
286
     1
 66
     0
277
    -2
287
     1
 67
     0
278
    -2
288
     1
 68
     0
279
    -2
289
     1
 69
     0
  7
Standard
140
0.25
170
     5
 62
     0
 63
   257
283
     0
 90
        4
 91
        0
  1

274
    -2
284
     1
 64
     0
275
    -2
285
     1
 65
     0
276
    -2
286
     1
 66
     0
277
    -2
287
     1
 67
     0
278
    -2
288
     1
 68
     0
279
    -2
289
     1
 69
     0
  7
Standard
140
0.18
170
     5
 62
     0
 63
   257
283
     0
 90
        4
 91
        0
  1

274
    -2
284
     1
 64
     0
275
    -2
285
     1
 65
     0
276
    -2
286
     1
 66
     0
277
    -2
287
     1
 67
     0
278
    -2
288
     1
 68
     0
279
    -2
289
     1
 69
     0
  0
VISUALSTYLE
  5
2F
102
{ACAD_REACTORS
330
2A
102
}
330
2A
100
AcDbVisualStyle
  2
2dWireframe
 70
     4
177
     3
291
     0
 70
    58
 90
        0
176
     1
 90
        2
176
     1
 90
        0
176
     1
 90
        0
176
     1
 40
0.6
176
     1
 40
30.0
176
     1
 62
     7
420
 16777215
176
     1
 90
        1
176
     1
 90
        4
176
     1
 62
     7
176
     1
 62
   257
176
     1
 90
        1
176
     1
 90
        1
176
     1
 40
1.0
176
     1
 90
        0
176
     1
 62
   257
176
     1
 40
1.0
176
     1
 90
        1
176
     1
 90
        6
176
     1
 90
        2
176
     1
 62
     7
176
     1
 90
        5
176
     1
 90
        0
176
     1
 90
        0
176
     1
290
     0
176
     1
 90
        1
176
     1
 40
0.0
176
     1
 90
        0
176
     1
290
     1
176
     1
290
     1
176
     1
290
     0
176
     1
290
     0
176
     1
290
     0
176
     1
290
     0
176
     1
290
     0
176
     1
290
     0
176
     1
290
     0
176
     1
 90
       50
176
     1
 40
0.0
176
     1
 40
1.0
176
     1
 90
        0
176
     1
 62
    18
420
        0
176
     1
 90
       50
176
     1
 90
        3
176
     1
 62
     5
420
      255
176
     1
290
     0
176
     1
 90
       50
176
     1
 90
       50
176
     1
 90
       50
176
     1
290
     0
176
     1
 90
       50
176
     1
 62
   256
176
     0
 40
1.0
176
     0
 90
        2
176
     1
  1
strokes_ogs.tif
176
     1
290
     0
176
     1
 40
1.0
176
     1
 40
1.0
176
     1
  0
VISUALSTYLE
  5
32
102
{ACAD_REACTORS
330
2A
102
}
330
2A
100
AcDbVisualStyle
  2
Basic
 70
     7
177
     3
291
     1
 70
    58
 90
        1
176
     1
 90
        0
176
     1
 90
        1
176
     1
 90
        0
176
     1
 40
0.6
176
     1
 40
30.0
176
     1
 62
     7
420
 16777215
176
     1
 90
        0
176
     1
 90
        4
176
     1
 62
     7
176
     1
 62
   257
176
     1
 90
        1
176
     1
 90
        1
176
     1
 40
1.0
176
     1
 90
        8
176
     1
 62
     7
176
     1
 40
1.0
176
     1
 90
        1
176
     1
 90
        6
176
     1
 90
        2
176
     1
 62
     7
176
     1
 90
        5
176
     1
 90
        0
176
     1
 90
        0
176
     1
290
     0
176
     1
 90
        1
176
     1
 40
0.0
176
     1
 90
        0
176
     1
290
     0
176
     1
290
     1
176
     1
290
     1
176
     1
290
     0
176
     1
290
     0
176
     1
290
     0
176
     1
290
     0
176
     1
290
     0
176
     1
290
     0
176
     1
 90
       50
176
     1
 40
0.0
176
     1
 40
1.0
176
     1
 90
        0
176
     1
 62
    18
420
        0
176
     1
 90
       50
176
     1
 90
        3
176
     1
 62
     5
420
      255
176
     1
290
     0
176
     1
 90
       50
176
     1
 90
       50
176
     1
 90
       50
176
     1
290
     0
176
     1
 90
       50
176
     1
 62
   256
176
     0
 40
1.0
176
     0
 90
        2
176
     1
  1
strokes_ogs.tif
176
     1
290
     0
176
     1
 40
1.0
176
     1
 40
1.0
176
     1
  0
VISUALSTYLE
  5
36
102
{ACAD_REACTORS
330
2A
102
}
330
2A
100
AcDbVisualStyle
  2
Brighten
 70
    12
177
     3
291
     1
 70
    58
 90
        2
176
     1
 90
        2
176
     1
 90
        0
176
     1
 90
        0
176
     1
 40
0.6
176
     1
 40
30.0
176
     1
 62
     7
420
 16777215
176
     1
 90
        1
176
     1
 90
        4
176
     1
 62
     7
176
     1
 62
   257
176
     1
 90
        1
176
     1
 90
        1
176
     1
 40
1.0
176
     1
 90
        8
176
     1
 62
     7
176
     1
 40
1.0
176
     1
 90
        1
176
     1
 90
        6
176
     1
 90
        2
176
     1
 62
     7
176
     1
 90
        5
176
     1
 90
        0
176
     1
 90
        0
176
     1
290
     0
176
     1
 90
        1
176
     1
 40
50.0
176
     1
 90
        0
176
     1
290
     0
176
     1
290
     1
176
     1
290
     1
176
     1
290
     0
176
     1
290
     0
176
     1
290
     0
176
     1
290
     0
176
     1
290
     0
176
     1
290
     0
176
     1
 90
       50
176
     1
 40
0.0
176
     1
 40
1.0
176
     1
 90
        0
176
     1
 62
    18
420
        0
176
     1
 90
       50
176
     1
 90
        3
176
     1
 62
     5
420
      255
176
     1
290
     0
176
     1
 90
       50
176
     1
 90
       50
176
     1
 90
       50
176
     1
290
     0
176
     1
 90
       50
176
     1
 62
   256
176
     0
 40
1.0
176
     0
 90
        2
176
     1
  1
strokes_ogs.tif
176
     1
290
     0
176
     1
 40
1.0
176
     1
 40
1.0
176
     1
  0
VISUALSTYLE
  5
3A
102
{ACAD_REACTORS
330
2A
102
}
330
2A
100
AcDbVisualStyle
  2
ColorChange
 70
    16
177
     3
291
     1
 70
    58
 90
        2
176
     1
 90
        2
176
     1
 90
        3
176
     1
 90
        0
176
     1
 40
0.6
176
     1
 40
30.0
176
     1
 62
     8
420
  8421504
176
     1
 90
        1
176
     1
 90
        4
176
     1
 62
     7
176
     1
 62
   257
176
     1
 90
        1
176
     1
 90
        1
176
     1
 40
1.0
176
     1
 90
        8
176
     1
 62
     8
420
  8421504
176
     1
 40
1.0
176
     1
 90
        1
176
     1
 90
        6
176
     1
 90
        2
176
     1
 62
     7
176
     1
 90
        5
176
     1
 90
        0
176
     1
 90
        0
176
     1
290
     0
176
     1
 90
        1
176
     1
 40
0.0
176
     1
 90
        0
176
     1
290
     0
176
     1
290
     1
176
     1
290
     1
176
     1
290
     0
176
     1
290
     0
176
     1
290
     0
176
     1
290
     0
176
     1
290
     0
176
     1
290
     0
176
     1
 90
       50
176
     1
 40
0.0
176
     1
 40
1.0
176
     1
 90
        0
176
     1
 62
    18
420
        0
176
     1
 90
       50
176
     1
 90
        3
176
     1
 62
     5
420
      255
176
     1
290
     0
176
     1
 90
       50
176
     1
 90
       50
176
     1
 90
       50
176
     1
290
     0
176
     1
 90
       50
176
     1
 62
   256
176
     0
 40
1.0
176
     0
 90
        2
176
     1
  1
strokes_ogs.tif
176
     1
290
     0
176
     1
 40
1.0
176
     1
 40
1.0
176
     1
  0
VISUALSTYLE
  5
34
102
{ACAD_REACTORS
330
2A
102
}
330
2A
100
AcDbVisualStyle
  2
Conceptual
 70
     9
177
     3
291
     0
 70
    58
 90
        3
176
     1
 90
        2
176
     1
 90
        0
176
     1
 90
        0
176
     1
 40
0.6
176
     1
 40
30.0
176
     1
 62
     7
420
 16777215
176
     1
 90
        2
176
     1
 90
        2
176
     1
 62
     7
176
     1
 62
   257
176
     1
 90
        1
176
     1
 90
        1
176
     1
 40
179.0
176
     1
 90
        8
176
     1
 62
     7
176
     1
 40
1.0
176
     1
 90
        1
176
     1
 90
        6
176
     1
 90
        2
176
     1
 62
     7
176
     1
 90
        3
176
     1
 90
        0
176
     1
 90
        0
176
     1
290
     0
176
     1
 90
        1
176
     1
 40
0.0
176
     1
 90
        0
176
     1
290
     0
176
     1
290
     1
176
     1
290
     1
176
     1
290
     0
176
     1
290
     0
176
     1
290
     0
176
     1
290
     0
176
     1
290
     0
176
     1
290
     0
176
     1
 90
       50
176
     1
 40
0.0
176
     1
 40
1.0
176
     1
 90
        0
176
     1
 62
    18
420
        0
176
     1
 90
       50
176
     1
 90
        3
176
     1
 62
     5
420
      255
176
     1
290
     0
176
     1
 90
       50
176
     1
 90
       50
176
     1
 90
       50
176
     1
290
     0
176
     1
 90
       50
176
     1
 62
   256
176
     0
 40
1.0
176
     0
 90
        2
176
     1
  1
strokes_ogs.tif
176
     1
290
     0
176
     1
 40
1.0
176
     1
 40
1.0
176
     1
  0
VISUALSTYLE
  5
35
102
{ACAD_REACTORS
330
2A
102
}
330
2A
100
AcDbVisualStyle
  2
Dim
 70
    11
177
     3
291
     1
 70
    58
 90
        2
176
     1
 90
        2
176
     1
 90
        0
176
     1
 90
        0
176
     1
 40
0.6
176
     1
 40
30.0
176
     1
 62
     7
420
 16777215
176
     1
 90
        1
176
     1
 90
        4
176
     1
 62
     7
176
     1
 62
   257
176
     1
 90
        1
176
     1
 90
        1
176
     1
 40
1.0
176
     1
 90
        8
176
     1
 62
     7
176
     1
 40
1.0
176
     1
 90
        1
176
     1
 90
        6
176
     1
 90
        2
176
     1
 62
     7
176
     1
 90
        5
176
     1
 90
        0
176
     1
 90
        0
176
     1
290
     0
176
     1
 90
        1
176
     1
 40
-50.0
176
     1
 90
        0
176
     1
290
     0
176
     1
290
     1
176
     1
290
     1
176
     1
290
     0
176
     1
290
     0
176
     1
290
     0
176
     1
290
     0
176
     1
290
     0
176
     1
290
     0
176
     1
 90
       50
176
     1
 40
0.0
176
     1
 40
1.0
176
     1
 90
        0
176
     1
 62
    18
420
        0
176
     1
 90
       50
176
     1
 90
        3
176
     1
 62
     5
420
      255
176
     1
290
     0
176
     1
 90
       50
176
     1
 90
       50
176
     1
 90
       50
176
     1
290
     0
176
     1
 90
       50
176
     1
 62
   256
176
     0
 40
1.0
176
     0
 90
        2
176
     1
  1
strokes_ogs.tif
176
     1
290
     0
176
     1
 40
1.0
176
     1
 40
1.0
176
     1
  0
VISUALSTYLE
  5
3D
102
{ACAD_REACTORS
330
2A
102
}
330
2A
100
AcDbVisualStyle
  2
EdgeColorOff
 70
    22
177
     3
291
     1
 70
    58
 90
        2
176
     0
 90
        2
176
     0
 90
        0
176
     0
 90
        0
176
     0
 40
0.6
176
     0
 40
30.0
176
     0
 62
     7
420
 16777215
176
     0
 90
        1
176
     0
 90
        4
176
     0
 62
     7
176
     0
 62
   257
176
     0
 90
        1
176
     0
 90
        1
176
     0
 40
1.0
176
     0
 90
        8
176
     2
 62
     7
176
     0
 40
1.0
176
     0
 90
        1
176
     0
 90
        6
176
     0
 90
        2
176
     0
 62
     7
176
     0
 90
        5
176
     0
 90
        0
176
     0
 90
        0
176
     0
290
     0
176
     0
 90
        1
176
     0
 40
0.0
176
     0
 90
        0
176
     0
290
     0
176
     0
290
     1
176
     0
290
     1
176
     0
290
     0
176
     0
290
     0
176
     0
290
     0
176
     0
290
     0
176
     0
290
     0
176
     0
290
     0
176
     0
 90
       50
176
     0
 40
0.0
176
     0
 40
1.0
176
     0
 90
        0
176
     0
 62
    18
420
        0
176
     0
 90
       50
176
     0
 90
        3
176
     0
 62
     5
420
      255
176
     0
290
     0
176
     0
 90
       50
176
     0
 90
       50
176
     0
 90
       50
176
     0
290
     0
176
     0
 90
       50
176
     0
 62
   256
176
     0
 40
1.0
176
     0
 90
        2
176
     0
  1
strokes_ogs.tif
176
     0
290
     0
176
     0
 40
1.0
176
     0
 40
1.0
176
     0
  0
VISUALSTYLE
  5
39
102
{ACAD_REACTORS
330
2A
102
}
330
2A
100
AcDbVisualStyle
  2
Facepattern
 70
    15
177
     3
291
     1
 70
    58
 90
        2
176
     1
 90
        2
176
     1
 90
        0
176
     1
 90
        0
176
     1
 40
0.6
176
     1
 40
30.0
176
     1
 62
     7
420
 16777215
176
     1
 90
        1
176
     1
 90
        4
176
     1
 62
     7
176
     1
 62
   257
176
     1
 90
        1
176
     1
 90
        1
176
     1
 40
1.0
176
     1
 90
        8
176
     1
 62
     7
176
     1
 40
1.0
176
     1
 90
        1
176
     1
 90
        6
176
     1
 90
        2
176
     1
 62
     7
176
     1
 90
        5
176
     1
 90
        0
176
     1
 90
        0
176
     1
290
     0
176
     1
 90
        1
176
     1
 40
0.0
176
     1
 90
        0
176
     1
290
     0
176
     1
290
     1
176
     1
290
     1
176
     1
290
     0
176
     1
290
     0
176
     1
290
     0
176
     1
290
     0
176
     1
290
     0
176
     1
290
     0
176
     1
 90
       50
176
     1
 40
0.0
176
     1
 40
1.0
176
     1
 90
        0
176
     1
 62
    18
420
        0
176
     1
 90
       50
176
     1
 90
        3
176
     1
 62
     5
420
      255
176
     1
290
     0
176
     1
 90
       50
176
     1
 90
       50
176
     1
 90
       50
176
     1
290
     0
176
     1
 90
       50
176
     1
 62
   256
176
     0
 40
1.0
176
     0
 90
        2
176
     1
  1
strokes_ogs.tif
176
     1
290
     0
176
     1
 40
1.0
176
     1
 40
1.0
176
     1
  0
VISUALSTYLE
  5
2B
102
{ACAD_REACTORS
330
2A
102
}
330
2A
100
AcDbVisualStyle
  2
Flat
 70
     0
177
     3
291
     1
 70
    58
 90
        2
176
     1
 90
        1
176
     1
 90
        1
176
     1
 90
        2
176
     1
 40
0.6
176
     1
 40
30.0
176
     1
 62
     7
420
 16777215
176
     1
 90
        0
176
     1
 90
        0
176
     1
 62
     7
176
     1
 62
   257
176
     1
 90
        1
176
     1
 90
        1
176
     1
 40
1.0
176
     1
 90
        8
176
     1
 62
     7
176
     1
 40
1.0
176
     1
 90
        1
176
     1
 90
        6
176
     1
 90
        2
176
     1
 62
     7
176
     1
 90
        5
176
     1
 90
        0
176
     1
 90
        0
176
     1
290
     0
176
     1
 90
       13
176
     1
 40
0.0
176
     1
 90
        0
176
     1
290
     0
176
     1
290
     1
176
     1
290
     1
176
     1
290
     0
176
     1
290
     0
176
     1
290
     0
176
     1
290
     0
176
     1
290
     0
176
     1
290
     0
176
     1
 90
       50
176
     1
 40
0.0
176
     1
 40
1.0
176
     1
 90
        0
176
     1
 62
    18
420
        0
176
     1
 90
       50
176
     1
 90
        3
176
     1
 62
     5
420
      255
176
     1
290
     0
176
     1
 90
       50
176
     1
 90
       50
176
     1
 90
       50
176
     1
290
     0
176
     1
 90
       50
176
     1
 62
   256
176
     0
 40
1.0
176
     0
 90
        2
176
     1
  1
strokes_ogs.tif
176
     1
290
     0
176
     1
 40
1.0
176
     1
 40
1.0
176
     1
  0
VISUALSTYLE
  5
2C
102
{ACAD_REACTORS
330
2A
102
}
330
2A
100
AcDbVisualStyle
  2
FlatWithEdges
 70
     1
177
     3
291
     1
 70
    58
 90
        2
176
     1
 90
        1
176
     1
 90
        1
176
     1
 90
        2
176
     1
 40
0.6
176
     1
 40
30.0
176
     1
 62
     7
420
 16777215
176
     1
 90
        1
176
     1
 90
        0
176
     1
 62
     7
176
     1
 62
   257
176
     1
 90
        1
176
     1
 90
        1
176
     1
 40
1.0
176
     1
 90
        0
176
     1
 62
   257
176
     1
 40
1.0
176
     1
 90
        1
176
     1
 90
        6
176
     1
 90
        2
176
     1
 62
     7
176
     1
 90
        5
176
     1
 90
        0
176
     1
 90
        0
176
     1
290
     0
176
     1
 90
       13
176
     1
 40
0.0
176
     1
 90
        0
176
     1
290
     0
176
     1
290
     1
176
     1
290
     1
176
     1
290
     0
176
     1
290
     0
176
     1
290
     0
176
     1
290
     0
176
     1
290
     0
176
     1
290
     0
176
     1
 90
       50
176
     1
 40
0.0
176
     1
 40
1.0
176
     1
 90
        0
176
     1
 62
    18
420
        0
176
     1
 90
       50
176
     1
 90
        3
176
     1
 62
     5
420
      255
176
     1
290
     0
176
     1
 90
       50
176
     1
 90
       50
176
     1
 90
       50
176
     1
290
     0
176
     1
 90
       50
176
     1
 62
   256
176
     0
 40
1.0
176
     0
 90
        2
176
     1
  1
strokes_ogs.tif
176
     1
290
     0
176
     1
 40
1.0
176
     1
 40
1.0
176
     1
  0
VISUALSTYLE
  5
2D
102
{ACAD_REACTORS
330
2A
102
}
330
2A
100
AcDbVisualStyle
  2
Gouraud
 70
     2
177
     3
291
     1
 70
    58
 90
        2
176
     1
 90
        2
176
     1
 90
        1
176
     1
 90
        2
176
     1
 40
0.6
176
     1
 40
30.0
176
     1
 62
     7
420
 16777215
176
     1
 90
        0
176
     1
 90
        0
176
     1
 62
     7
176
     1
 62
   257
176
     1
 90
        1
176
     1
 90
        1
176
     1
 40
1.0
176
     1
 90
        0
176
     1
 62
     7
176
     1
 40
1.0
176
     1
 90
        1
176
     1
 90
        6
176
     1
 90
        2
176
     1
 62
     7
176
     1
 90
        5
176
     1
 90
        0
176
     1
 90
        0
176
     1
290
     0
176
     1
 90
       13
176
     1
 40
0.0
176
     1
 90
        0
176
     1
290
     0
176
     1
290
     1
176
     1
290
     1
176
     1
290
     0
176
     1
290
     0
176
     1
290
     0
176
     1
290
     0
176
     1
290
     0
176
     1
290
     0
176
     1
 90
       50
176
     1
 40
0.0
176
     1
 40
1.0
176
     1
 90
        0
176
     1
 62
    18
420
        0
176
     1
 90
       50
176
     1
 90
        3
176
     1
 62
     5
420
      255
176
     1
290
     0
176
     1
 90
       50
176
     1
 90
       50
176
     1
 90
       50
176
     1
290
     0
176
     1
 90
       50
176
     1
 62
   256
176
     0
 40
1.0
176
     0
 90
        2
176
     1
  1
strokes_ogs.tif
176
     1
290
     0
176
     1
 40
1.0
176
     1
 40
1.0
176
     1
  0
VISUALSTYLE
  5
2E
102
{ACAD_REACTORS
330
2A
102
}
330
2A
100
AcDbVisualStyle
  2
GouraudWithEdges
 70
     3
177
     3
291
     1
 70
    58
 90
        2
176
     1
 90
        2
176
     1
 90
        1
176
     1
 90
        2
176
     1
 40
0.6
176
     1
 40
30.0
176
     1
 62
     7
420
 16777215
176
     1
 90
        1
176
     1
 90
        0
176
     1
 62
     7
176
     1
 62
   257
176
     1
 90
        1
176
     1
 90
        1
176
     1
 40
1.0
176
     1
 90
        0
176
     1
 62
   257
176
     1
 40
1.0
176
     1
 90
        1
176
     1
 90
        6
176
     1
 90
        2
176
     1
 62
     7
176
     1
 90
        5
176
     1
 90
        0
176
     1
 90
        0
176
     1
290
     0
176
     1
 90
       13
176
     1
 40
0.0
176
     1
 90
        0
176
     1
290
     0
176
     1
290
     1
176
     1
290
     1
176
     1
290
     0
176
     1
290
     0
176
     1
290
     0
176
     1
290
     0
176
     1
290
     0
176
     1
290
     0
176
     1
 90
       50
176
     1
 40
0.0
176
     1
 40
1.0
176
     1
 90
        0
176
     1
 62
    18
420
        0
176
     1
 90
       50
176
     1
 90
        3
176
     1
 62
     5
420
      255
176
     1
290
     0
176
     1
 90
       50
176
     1
 90
       50
176
     1
 90
       50
176
     1
290
     0
176
     1
 90
       50
176
     1
 62
   256
176
     0
 40
1.0
176
     0
 90
        2
176
     1
  1
strokes_ogs.tif
176
     1
290
     0
176
     1
 40
1.0
176
     1
 40
1.0
176
     1
  0
VISUALSTYLE
  5
31
102
{ACAD_REACTORS
330
2A
102
}
330
2A
100
AcDbVisualStyle
  2
Hidden
 70
     6
177
     3
291
     0
 70
    58
 90
        1
176
     1
 90
        2
176
     1
 90
        2
176
     1
 90
        0
176
     1
 40
0.6
176
     1
 40
30.0
176
     1
 62
     7
420
 16777215
176
     1
 90
        2
176
     1
 90
        2
176
     1
 62
     7
176
     1
 62
   257
176
     1
 90
        2
176
     1
 90
        1
176
     1
 40
40.0
176
     1
 90
        0
176
     1
 62
   257
176
     1
 40
1.0
176
     1
 90
        1
176
     1
 90
        6
176
     1
 90
        2
176
     1
 62
     7
176
     1
 90
        3
176
     1
 90
        0
176
     1
 90
        0
176
     1
290
     0
176
     1
 90
        1
176
     1
 40
0.0
176
     1
 90
        0
176
     1
290
     0
176
     1
290
     1
176
     1
290
     1
176
     1
290
     0
176
     1
290
     0
176
     1
290
     0
176
     1
290
     0
176
     1
290
     0
176
     1
290
     0
176
     1
 90
       50
176
     1
 40
0.0
176
     1
 40
1.0
176
     1
 90
        0
176
     1
 62
    18
420
        0
176
     1
 90
       50
176
     1
 90
        3
176
     1
 62
     5
420
      255
176
     1
290
     0
176
     1
 90
       50
176
     1
 90
       50
176
     1
 90
       50
176
     1
290
     0
176
     1
 90
       50
176
     1
 62
   256
176
     0
 40
1.0
176
     0
 90
        2
176
     1
  1
strokes_ogs.tif
176
     1
290
     0
176
     1
 40
1.0
176
     1
 40
1.0
176
     1
  0
VISUALSTYLE
  5
3B
102
{ACAD_REACTORS
330
2A
102
}
330
2A
100
AcDbVisualStyle
  2
JitterOff
 70
    20
177
     3
291
     1
 70
    58
 90
        2
176
     0
 90
        2
176
     0
 90
        0
176
     0
 90
        0
176
     0
 40
0.6
176
     0
 40
30.0
176
     0
 62
     7
420
 16777215
176
     0
 90
        1
176
     0
 90
        4
176
     0
 62
     7
176
     0
 62
   257
176
     0
 90
        1
176
     0
 90
        1
176
     0
 40
1.0
176
     0
 90
       10
176
     2
 62
     7
176
     0
 40
1.0
176
     0
 90
        1
176
     0
 90
        6
176
     0
 90
        2
176
     0
 62
     7
176
     0
 90
        5
176
     0
 90
        0
176
     0
 90
        0
176
     0
290
     0
176
     0
 90
        1
176
     0
 40
0.0
176
     0
 90
        0
176
     0
290
     0
176
     0
290
     1
176
     0
290
     1
176
     0
290
     0
176
     0
290
     0
176
     0
290
     0
176
     0
290
     0
176
     0
290
     0
176
     0
290
     0
176
     0
 90
       50
176
     0
 40
0.0
176
     0
 40
1.0
176
     0
 90
        0
176
     0
 62
    18
420
        0
176
     0
 90
       50
176
     0
 90
        3
176
     0
 62
     5
420
      255
176
     0
290
     0
176
     0
 90
       50
176
     0
 90
       50
176
     0
 90
       50
176
     0
290
     0
176
     0
 90
       50
176
     0
 62
   256
176
     0
 40
1.0
176
     0
 90
        2
176
     0
  1
strokes_ogs.tif
176
     0
290
     0
176
     0
 40
1.0
176
     0
 40
1.0
176
     0
  0
VISUALSTYLE
  5
38
102
{ACAD_REACTORS
330
2A
102
}
330
2A
100
AcDbVisualStyle
  2
Linepattern
 70
    14
177
     3
291
     1
 70
    58
 90
        2
176
     1
 90
        2
176
     1
 90
        0
176
     1
 90
        0
176
     1
 40
0.6
176
     1
 40
30.0
176
     1
 62
     7
420
 16777215
176
     1
 90
        1
176
     1
 90
        4
176
     1
 62
     7
176
     1
 62
   257
176
     1
 90
        7
176
     1
 90
        7
176
     1
 40
1.0
176
     1
 90
        8
176
     1
 62
     7
176
     1
 40
1.0
176
     1
 90
        1
176
     1
 90
        6
176
     1
 90
        2
176
     1
 62
     7
176
     1
 90
        5
176
     1
 90
        0
176
     1
 90
        0
176
     1
290
     0
176
     1
 90
        1
176
     1
 40
0.0
176
     1
 90
        0
176
     1
290
     0
176
     1
290
     1
176
     1
290
     1
176
     1
290
     0
176
     1
290
     0
176
     1
290
     0
176
     1
290
     0
176
     1
290
     0
176
     1
290
     0
176
     1
 90
       50
176
     1
 40
0.0
176
     1
 40
1.0
176
     1
 90
        0
176
     1
 62
    18
420
        0
176
     1
 90
       50
176
     1
 90
        3
176
     1
 62
     5
420
      255
176
     1
290
     0
176
     1
 90
       50
176
     1
 90
       50
176
     1
 90
       50
176
     1
290
     0
176
     1
 90
       50
176
     1
 62
   256
176
     0
 40
1.0
176
     0
 90
        2
176
     1
  1
strokes_ogs.tif
176
     1
290
     0
176
     1
 40
1.0
176
     1
 40
1.0
176
     1
  0
VISUALSTYLE
  5
3C
102
{ACAD_REACTORS
330
2A
102
}
330
2A
100
AcDbVisualStyle
  2
OverhangOff
 70
    21
177
     3
291
     1
 70
    58
 90
        2
176
     0
 90
        2
176
     0
 90
        0
176
     0
 90
        0
176
     0
 40
0.6
176
     0
 40
30.0
176
     0
 62
     7
420
 16777215
176
     0
 90
        1
176
     0
 90
        4
176
     0
 62
     7
176
     0
 62
   257
176
     0
 90
        1
176
     0
 90
        1
176
     0
 40
1.0
176
     0
 90
        9
176
     2
 62
     7
176
     0
 40
1.0
176
     0
 90
        1
176
     0
 90
        6
176
     0
 90
        2
176
     0
 62
     7
176
     0
 90
        5
176
     0
 90
        0
176
     0
 90
        0
176
     0
290
     0
176
     0
 90
        1
176
     0
 40
0.0
176
     0
 90
        0
176
     0
290
     0
176
     0
290
     1
176
     0
290
     1
176
     0
290
     0
176
     0
290
     0
176
     0
290
     0
176
     0
290
     0
176
     0
290
     0
176
     0
290
     0
176
     0
 90
       50
176
     0
 40
0.0
176
     0
 40
1.0
176
     0
 90
        0
176
     0
 62
    18
420
        0
176
     0
 90
       50
176
     0
 90
        3
176
     0
 62
     5
420
      255
176
     0
290
     0
176
     0
 90
       50
176
     0
 90
       50
176
     0
 90
       50
176
     0
290
     0
176
     0
 90
       50
176
     0
 62
   256
176
     0
 40
1.0
176
     0
 90
        2
176
     0
  1
strokes_ogs.tif
176
     0
290
     0
176
     0
 40
1.0
176
     0
 40
1.0
176
     0
  0
VISUALSTYLE
  5
33
102
{ACAD_REACTORS
330
2A
102
}
330
2A
100
AcDbVisualStyle
  2
Realistic
 70
     8
177
     3
291
     0
 70
    58
 90
        2
176
     1
 90
        3
176
     1
 90
        0
176
     1
 90
        2
176
     1
 40
0.6
176
     1
 40
30.0
176
     1
 62
     7
420
 16777215
176
     1
 90
        0
176
     1
 90
        0
176
     1
 62
     7
176
     1
 62
   257
176
     1
 90
        1
176
     1
 90
        1
176
     1
 40
1.0
176
     1
 90
        8
176
     1
 62
   257
176
     1
 40
1.0
176
     1
 90
        1
176
     1
 90
        6
176
     1
 90
        2
176
     1
 62
     7
176
     1
 90
        3
176
     1
 90
        0
176
     1
 90
        0
176
     1
290
     0
176
     1
 90
       13
176
     1
 40
0.0
176
     1
 90
        0
176
     1
290
     0
176
     1
290
     1
176
     1
290
     1
176
     1
290
     0
176
     1
290
     0
176
     1
290
     0
176
     1
290
     0
176
     1
290
     0
176
     1
290
     0
176
     1
 90
       50
176
     1
 40
0.0
176
     1
 40
1.0
176
     1
 90
        0
176
     1
 62
    18
420
        0
176
     1
 90
       50
176
     1
 90
        3
176
     1
 62
     5
420
      255
176
     1
290
     0
176
     1
 90
       50
176
     1
 90
       50
176
     1
 90
       50
176
     1
290
     0
176
     1
 90
       50
176
     1
 62
   256
176
     0
 40
1.0
176
     0
 90
        2
176
     1
  1
strokes_ogs.tif
176
     1
290
     0
176
     1
 40
1.0
176
     1
 40
1.0
176
     1
  0
VISUALSTYLE
  5
42
102
{ACAD_REACTORS
330
2A
102
}
330
2A
100
AcDbVisualStyle
  2
Shaded
 70
    27
177
     3
291
     0
 70
    58
 90
        2
176
     1
 90
        2
176
     1
 90
        1
176
     1
 90
        2
176
     1
 40
0.6
176
     1
 40
30.0
176
     1
 62
     7
420
 16777215
176
     1
 90
        0
176
     1
 90
        4
176
     1
 62
     7
176
     1
 62
   257
176
     1
 90
        1
176
     1
 90
        1
176
     1
 40
1.0
176
     1
 90
        8
176
     1
 62
   257
176
     1
 40
1.0
176
     1
 90
        1
176
     1
 90
        6
176
     1
 90
        2
176
     1
 62
     8
420
  7895160
176
     1
 90
        3
176
     1
 90
        0
176
     1
 90
        0
176
     1
290
     0
176
     1
 90
        5
176
     1
 40
0.0
176
     1
 90
        0
176
     1
290
     0
176
     1
290
     1
176
     1
290
     1
176
     1
290
     0
176
     1
290
     0
176
     1
290
     0
176
     1
290
     0
176
     1
290
     0
176
     1
290
     0
176
     1
 90
       50
176
     1
 40
0.0
176
     1
 40
1.0
176
     1
 90
        0
176
     1
 62
    18
420
        0
176
     1
 90
       50
176
     1
 90
        3
176
     1
 62
     5
420
      255
176
     1
290
     0
176
     1
 90
       50
176
     1
 90
       50
176
     1
 90
       50
176
     1
290
     0
176
     1
 90
       50
176
     1
 62
   256
176
     0
 40
1.0
176
     0
 90
        2
176
     1
  1
strokes_ogs.tif
176
     1
290
     0
176
     1
 40
1.0
176
     1
 40
1.0
176
     1
  0
VISUALSTYLE
  5
41
102
{ACAD_REACTORS
330
2A
102
}
330
2A
100
AcDbVisualStyle
  2
Shaded with edges
 70
    26
177
     3
291
     0
 70
    58
 90
        2
176
     1
 90
        2
176
     1
 90
        1
176
     1
 90
        2
176
     1
 40
0.6
176
     1
 40
30.0
176
     1
 62
     7
420
 16777215
176
     1
 90
        1
176
     1
 90
       10
176
     1
 62
     7
176
     1
 62
   257
176
     1
 90
        2
176
     1
 90
        1
176
     1
 40
1.0
176
     1
 90
        8
176
     1
 62
   257
176
     1
 40
1.0
176
     1
 90
        1
176
     1
 90
        6
176
     1
 90
        2
176
     1
 62
     7
176
     1
 90
        3
176
     1
 90
        0
176
     1
 90
        0
176
     1
290
     0
176
     1
 90
        5
176
     1
 40
0.0
176
     1
 90
        0
176
     1
290
     0
176
     1
290
     1
176
     1
290
     1
176
     1
290
     0
176
     1
290
     0
176
     1
290
     0
176
     1
290
     0
176
     1
290
     0
176
     1
290
     0
176
     1
 90
       50
176
     1
 40
0.0
176
     1
 40
1.0
176
     1
 90
        0
176
     1
 62
    18
420
        0
176
     1
 90
       50
176
     1
 90
        3
176
     1
 62
     5
420
      255
176
     1
290
     0
176
     1
 90
       50
176
     1
 90
       50
176
     1
 90
       50
176
     1
290
     0
176
     1
 90
       50
176
     1
 62
   256
176
     0
 40
1.0
176
     0
 90
        2
176
     1
  1
strokes_ogs.tif
176
     1
290
     0
176
     1
 40
1.0
176
     1
 40
1.0
176
     1
  0
VISUALSTYLE
  5
3E
102
{ACAD_REACTORS
330
2A
102
}
330
2A
100
AcDbVisualStyle
  2
Shades of Gray
 70
    23
177
     3
291
     0
 70
    58
 90
        2
176
     1
 90
        2
176
     1
 90
        3
176
     1
 90
        0
176
     1
 40
0.6
176
     1
 40
30.0
176
     1
 62
     7
420
 16777215
176
     1
 90
        2
176
     1
 90
        2
176
     1
 62
     7
176
     1
 62
     7
176
     1
 90
        1
176
     1
 90
        1
176
     1
 40
40.0
176
     1
 90
        8
176
     1
 62
     7
176
     1
 40
1.0
176
     1
 90
        1
176
     1
 90
        6
176
     1
 90
        2
176
     1
 62
     7
176
     1
 90
        3
176
     1
 90
        0
176
     1
 90
        0
176
     1
290
     0
176
     1
 90
        1
176
     1
 40
0.0
176
     1
 90
        0
176
     1
290
     0
176
     1
290
     1
176
     1
290
     1
176
     1
290
     0
176
     1
290
     0
176
     1
290
     0
176
     1
290
     0
176
     1
290
     0
176
     1
290
     0
176
     1
 90
       50
176
     1
 40
0.0
176
     1
 40
1.0
176
     1
 90
        0
176
     1
 62
    18
420
        0
176
     1
 90
       50
176
     1
 90
        3
176
     1
 62
     5
420
      255
176
     1
290
     0
176
     1
 90
       50
176
     1
 90
       50
176
     1
 90
       50
176
     1
290
     0
176
     1
 90
       50
176
     1
 62
   256
176
     0
 40
1.0
176
     0
 90
        2
176
     1
  1
strokes_ogs.tif
176
     1
290
     0
176
     1
 40
1.0
176
     1
 40
1.0
176
     1
  0
VISUALSTYLE
  5
3F
102
{ACAD_REACTORS
330
2A
102
}
330
2A
100
AcDbVisualStyle
  2
Sketchy
 70
    24
177
     3
291
     0
 70
    58
 90
        1
176
     1
 90
        2
176
     1
 90
        2
176
     1
 90
        0
176
     1
 40
0.6
176
     1
 40
30.0
176
     1
 62
     7
420
 16777215
176
     1
 90
        2
176
     1
 90
        2
176
     1
 62
     7
176
     1
 62
     7
176
     1
 90
        1
176
     1
 90
        1
176
     1
 40
40.0
176
     1
 90
       11
176
     1
 62
     7
176
     1
 40
1.0
176
     1
 90
        1
176
     1
 90
        6
176
     1
 90
        2
176
     1
 62
     7
176
     1
 90
        6
176
     1
 90
        0
176
     1
 90
        0
176
     1
290
     0
176
     1
 90
        1
176
     1
 40
0.0
176
     1
 90
        0
176
     1
290
     0
176
     1
290
     1
176
     1
290
     1
176
     1
290
     0
176
     1
290
     0
176
     1
290
     0
176
     1
290
     0
176
     1
290
     0
176
     1
290
     0
176
     1
 90
       50
176
     1
 40
0.0
176
     1
 40
1.0
176
     1
 90
        0
176
     1
 62
    18
420
        0
176
     1
 90
       50
176
     1
 90
        3
176
     1
 62
     5
420
      255
176
     1
290
     0
176
     1
 90
       50
176
     1
 90
       50
176
     1
 90
       50
176
     1
290
     0
176
     1
 90
       50
176
     1
 62
   256
176
     0
 40
1.0
176
     0
 90
        2
176
     1
  1
strokes_ogs.tif
176
     1
290
     0
176
     1
 40
1.0
176
     1
 40
1.0
176
     1
  0
VISUALSTYLE
  5
37
102
{ACAD_REACTORS
330
2A
102
}
330
2A
100
AcDbVisualStyle
  2
Thicken
 70
    13
177
     3
291
     1
 70
    58
 90
        2
176
     1
 90
        2
176
     1
 90
        0
176
     1
 90
        0
176
     1
 40
0.6
176
     1
 40
30.0
176
     1
 62
     7
420
 16777215
176
     1
 90
        1
176
     1
 90
        4
176
     1
 62
     7
176
     1
 62
   257
176
     1
 90
        1
176
     1
 90
        1
176
     1
 40
1.0
176
     1
 90
       12
176
     1
 62
     7
176
     1
 40
1.0
176
     1
 90
        1
176
     1
 90
        6
176
     1
 90
        2
176
     1
 62
     7
176
     1
 90
        5
176
     1
 90
        0
176
     1
 90
        0
176
     1
290
     0
176
     1
 90
        1
176
     1
 40
0.0
176
     1
 90
        0
176
     1
290
     0
176
     1
290
     1
176
     1
290
     1
176
     1
290
     0
176
     1
290
     0
176
     1
290
     0
176
     1
290
     0
176
     1
290
     0
176
     1
290
     0
176
     1
 90
       50
176
     1
 40
0.0
176
     1
 40
1.0
176
     1
 90
        0
176
     1
 62
    18
420
        0
176
     1
 90
       50
176
     1
 90
        3
176
     1
 62
     5
420
      255
176
     1
290
     0
176
     1
 90
       50
176
     1
 90
       50
176
     1
 90
       50
176
     1
290
     0
176
     1
 90
       50
176
     1
 62
   256
176
     0
 40
1.0
176
     0
 90
        2
176
     1
  1
strokes_ogs.tif
176
     1
290
     0
176
     1
 40
1.0
176
     1
 40
1.0
176
     1
  0
VISUALSTYLE
  5
30
102
{ACAD_REACTORS
330
2A
102
}
330
2A
100
AcDbVisualStyle
  2
Wireframe
 70
     5
177
     3
291
     0
 70
    58
 90
        0
176
     1
 90
        2
176
     1
 90
        0
176
     1
 90
        0
176
     1
 40
0.6
176
     1
 40
30.0
176
     1
 62
     7
420
 16777215
176
     1
 90
        1
176
     1
 90
        4
176
     1
 62
     7
176
     1
 62
   257
176
     1
 90
        1
176
     1
 90
        1
176
     1
 40
1.0
176
     1
 90
        0
176
     1
 62
   257
176
     1
 40
1.0
176
     1
 90
        1
176
     1
 90
        6
176
     1
 90
        2
176
     1
 62
     7
176
     1
 90
        3
176
     1
 90
        0
176
     1
 90
        0
176
     1
290
     0
176
     1
 90
        1
176
     1
 40
0.0
176
     1
 90
        0
176
     1
290
     0
176
     1
290
     1
176
     1
290
     1
176
     1
290
     0
176
     1
290
     0
176
     1
290
     0
176
     1
290
     0
176
     1
290
     0
176
     1
290
     0
176
     1
 90
       50
176
     1
 40
0.0
176
     1
 40
1.0
176
     1
 90
        0
176
     1
 62
    18
420
        0
176
     1
 90
       50
176
     1
 90
        3
176
     1
 62
     5
420
      255
176
     1
290
     0
176
     1
 90
       50
176
     1
 90
       50
176
     1
 90
       50
176
     1
290
     0
176
     1
 90
       50
176
     1
 62
   256
176
     0
 40
1.0
176
     0
 90
        2
176
     1
  1
strokes_ogs.tif
176
     1
290
     0
176
     1
 40
1.0
176
     1
 40
1.0
176
     1
  0
VISUALSTYLE
  5
40
102
{ACAD_REACTORS
330
2A
102
}
330
2A
100
AcDbVisualStyle
  2
X-Ray
 70
    25
177
     3
291
     0
 70
    58
 90
        2
176
     1
 90
        2
176
     1
 90
        1
176
     1
 90
        1
176
     1
 40
0.5
176
     1
 40
30.0
176
     1
 62
     7
420
 16777215
176
     1
 90
        1
176
     1
 90
        0
176
     1
 62
     7
176
     1
 62
   257
176
     1
 90
        1
176
     1
 90
        1
176
     1
 40
1.0
176
     1
 90
        8
176
     1
 62
     7
176
     1
 40
1.0
176
     1
 90
        1
176
     1
 90
        6
176
     1
 90
        2
176
     1
 62
     7
176
     1
 90
        3
176
     1
 90
        0
176
     1
 90
        0
176
     1
290
     0
176
     1
 90
       13
176
     1
 40
0.0
176
     1
 90
        0
176
     1
290
     0
176
     1
290
     1
176
     1
290
     1
176
     1
290
     0
176
     1
290
     0
176
     1
290
     0
176
     1
290
     0
176
     1
290
     0
176
     1
290
     0
176
     1
 90
       50
176
     1
 40
0.0
176
     1
 40
1.0
176
     1
 90
        0
176
     1
 62
    18
420
        0
176
     1
 90
       50
176
     1
 90
        3
176
     1
 62
     5
420
      255
176
     1
290
     0
176
     1
 90
       50
176
     1
 90
       50
176
     1
 90
       50
176
     1
290
     0
176
     1
 90
       50
176
     1
 62
   256
176
     0
 40
1.0
176
     0
 90
        2
176
     1
  1
strokes_ogs.tif
176
     1
290
     0
176
     1
 40
1.0
176
     1
 40
1.0
176
     1
  0
DICTIONARYVAR
  5
88
102
{ACAD_REACTORS
330
87
102
}
330
87
100
DictionaryVariables
280
     0
  1
1:1
  0
DICTIONARYVAR
  5
8D
102
{ACAD_REACTORS
330
87
102
}
330
87
100
DictionaryVariables
280
     0
  1
Standard
  0
DICTIONARYVAR
  5
8C
102
{ACAD_REACTORS
330
87
102
}
330
87
100
DictionaryVariables
280
     0
  1
Standard
  0
DICTIONARY
  5
89
330
5A
100
AcDbDictionary
280
     1
281
     1
  3
ACAD_ROUNDTRIP_2008_TABLESTYLE_CELLSTYLEMAP
360
8A
  0
CELLSTYLEMAP
  5
8A
102
{ACAD_REACTORS
330
89
102
}
330
89
100
AcDbCellStyleMap
 90
        3
300
CELLSTYLE
  1
TABLEFORMAT_BEGIN
 90
        5
170
     1
 91
        0
 92
    32768
 62
   257
 93
        1
300
CONTENTFORMAT
  1
CONTENTFORMAT_BEGIN
 90
        0
 91
        0
 92
        4
 93
        0
300

 40
0.0
140
1.0
 94
        5
 62
     0
340
11
144
0.25
309
CONTENTFORMAT_END
171
     1
301
MARGIN
  1
CELLMARGIN_BEGIN
 40
0.06
 40
0.06
 40
0.06
 40
0.06
 40
0.06
 40
0.06
309
CELLMARGIN_END
 94
        6
 95
        1
302
GRIDFORMAT
  1
GRIDFORMAT_BEGIN
 90
        0
 91
        1
 62
     0
 92
       -2
340
14
 93
        0
 40
0.045
309
GRIDFORMAT_END
 95
        2
302
GRIDFORMAT
  1
GRIDFORMAT_BEGIN
 90
        0
 91
        1
 62
     0
 92
       -2
340
14
 93
        0
 40
0.045
309
GRIDFORMAT_END
 95
        4
302
GRIDFORMAT
  1
GRIDFORMAT_BEGIN
 90
        0
 91
        1
 62
     0
 92
       -2
340
14
 93
        0
 40
0.045
309
GRIDFORMAT_END
 95
        8
302
GRIDFORMAT
  1
GRIDFORMAT_BEGIN
 90
        0
 91
        1
 62
     0
 92
       -2
340
14
 93
        0
 40
0.045
309
GRIDFORMAT_END
 95
       16
302
GRIDFORMAT
  1
GRIDFORMAT_BEGIN
 90
        0
 91
        1
 62
     0
 92
       -2
340
14
 93
        0
 40
0.045
309
GRIDFORMAT_END
 95
       32
302
GRIDFORMAT
  1
GRIDFORMAT_BEGIN
 90
        0
 91
        1
 62
     0
 92
       -2
340
14
 93
        0
 40
0.045
309
GRIDFORMAT_END
309
TABLEFORMAT_END
  1
CELLSTYLE_BEGIN
 90
        1
 91
        1
300
_TITLE
309
CELLSTYLE_END
300
CELLSTYLE
  1
TABLEFORMAT_BEGIN
 90
        5
170
     1
 91
        0
 92
        0
 62
   257
 93
        1
300
CONTENTFORMAT
  1
CONTENTFORMAT_BEGIN
 90
        0
 91
        0
 92
        4
 93
        0
300

 40
0.0
140
1.0
 94
        5
 62
     0
340
11
144
0.18
309
CONTENTFORMAT_END
171
     1
301
MARGIN
  1
CELLMARGIN_BEGIN
 40
0.06
 40
0.06
 40
0.06
 40
0.06
 40
0.06
 40
0.06
309
CELLMARGIN_END
 94
        6
 95
        1
302
GRIDFORMAT
  1
GRIDFORMAT_BEGIN
 90
        0
 91
        1
 62
     0
 92
       -2
340
14
 93
        0
 40
0.045
309
GRIDFORMAT_END
 95
        2
302
GRIDFORMAT
  1
GRIDFORMAT_BEGIN
 90
        0
 91
        1
 62
     0
 92
       -2
340
14
 93
        0
 40
0.045
309
GRIDFORMAT_END
 95
        4
302
GRIDFORMAT
  1
GRIDFORMAT_BEGIN
 90
        0
 91
        1
 62
     0
 92
       -2
340
14
 93
        0
 40
0.045
309
GRIDFORMAT_END
 95
        8
302
GRIDFORMAT
  1
GRIDFORMAT_BEGIN
 90
        0
 91
        1
 62
     0
 92
       -2
340
14
 93
        0
 40
0.045
309
GRIDFORMAT_END
 95
       16
302
GRIDFORMAT
  1
GRIDFORMAT_BEGIN
 90
        0
 91
        1
 62
     0
 92
       -2
340
14
 93
        0
 40
0.045
309
GRIDFORMAT_END
 95
       32
302
GRIDFORMAT
  1
GRIDFORMAT_BEGIN
 90
        0
 91
        1
 62
     0
 92
       -2
340
14
 93
        0
 40
0.045
309
GRIDFORMAT_END
309
TABLEFORMAT_END
  1
CELLSTYLE_BEGIN
 90
        2
 91
        1
300
_HEADER
309
CELLSTYLE_END
300
CELLSTYLE
  1
TABLEFORMAT_BEGIN
 90
        5
170
     1
 91
        0
 92
        0
 62
   257
 93
        1
300
CONTENTFORMAT
  1
CONTENTFORMAT_BEGIN
 90
        0
 91
        0
 92
        4
 93
        0
300

 40
0.0
140
1.0
 94
        2
 62
     0
340
11
144
0.18
309
CONTENTFORMAT_END
171
     1
301
MARGIN
  1
CELLMARGIN_BEGIN
 40
0.06
 40
0.06
 40
0.06
 40
0.06
 40
0.06
 40
0.06
309
CELLMARGIN_END
 94
        6
 95
        1
302
GRIDFORMAT
  1
GRIDFORMAT_BEGIN
 90
        0
 91
        1
 62
     0
 92
       -2
340
14
 93
        0
 40
0.045
309
GRIDFORMAT_END
 95
        2
302
GRIDFORMAT
  1
GRIDFORMAT_BEGIN
 90
        0
 91
        1
 62
     0
 92
       -2
340
14
 93
        0
 40
0.045
309
GRIDFORMAT_END
 95
        4
302
GRIDFORMAT
  1
GRIDFORMAT_BEGIN
 90
        0
 91
        1
 62
     0
 92
       -2
340
14
 93
        0
 40
0.045
309
GRIDFORMAT_END
 95
        8
302
GRIDFORMAT
  1
GRIDFORMAT_BEGIN
 90
        0
 91
        1
 62
     0
 92
       -2
340
14
 93
        0
 40
0.045
309
GRIDFORMAT_END
 95
       16
302
GRIDFORMAT
  1
GRIDFORMAT_BEGIN
 90
        0
 91
        1
 62
     0
 92
       -2
340
14
 93
        0
 40
0.045
309
GRIDFORMAT_END
 95
       32
302
GRIDFORMAT
  1
GRIDFORMAT_BEGIN
 90
        0
 91
        1
 62
     0
 92
       -2
340
14
 93
        0
 40
0.045
309
GRIDFORMAT_END
309
TABLEFORMAT_END
  1
CELLSTYLE_BEGIN
 90
        3
 91
        2
300
_DATA
309
CELLSTYLE_END
  0
ENDSEC
  0
EOF
