  0
SECTION
  2
HEADER
  9
$ACADVER
  1
AC1027
  9
$ACADMAINTVER
 70
   105
  9
$DWGCODEPAGE
  3
ANSI_1252
  9
$LASTSAVEDBY
  1
Office Desk
  9
$REQUIREDVERSIONS
160
                 0
  9
$INSBASE
 10
0.0
 20
0.0
 30
0.0
  9
$EXTMIN
 10
195.793
 20
-667.3587
 30
0.0
  9
$EXTMAX
 10
942.4642
 20
246.0065
 30
0.0
  9
$LIMMIN
 10
0.0
 20
0.0
  9
$LIMMAX
 10
12.0
 20
9.0
  9
$ORTHOMODE
 70
     0
  9
$REGENMODE
 70
     1
  9
$FILLMODE
 70
     1
  9
$QTEXTMODE
 70
     0
  9
$MIRRTEXT
 70
     1
  9
$LTSCALE
 40
1.0
  9
$ATTMODE
 70
     1
  9
$TEXTSIZE
 40
0.2
  9
$TRACEWID
 40
0.05
  9
$TEXTSTYLE
  7
Standard
  9
$CLAYER
  8
0
  9
$CELTYPE
  6
ByLayer
  9
$CECOLOR
 62
   256
  9
$CELTSCALE
 40
1.0
  9
$DISPSILH
 70
     0
  9
$DIMSCALE
 40
1.0
  9
$DIMASZ
 40
0.18
  9
$DIMEXO
 40
0.0625
  9
$DIMDLI
 40
0.38
  9
$DIMRND
 40
0.0
  9
$DIMDLE
 40
0.0
  9
$DIMEXE
 40
0.18
  9
$DIMTP
 40
0.0
  9
$DIMTM
 40
0.0
  9
$DIMTXT
 40
0.18
  9
$DIMCEN
 40
0.09
  9
$DIMTSZ
 40
0.0
  9
$DIMTOL
 70
     0
  9
$DIMLIM
 70
     0
  9
$DIMTIH
 70
     1
  9
$DIMTOH
 70
     1
  9
$DIMSE1
 70
     0
  9
$DIMSE2
 70
     0
  9
$DIMTAD
 70
     0
  9
$DIMZIN
 70
     0
  9
$DIMBLK
  1

  9
$DIMASO
 70
     1
  9
$DIMSHO
 70
     1
  9
$DIMPOST
  1

  9
$DIMAPOST
  1

  9
$DIMALT
 70
     0
  9
$DIMALTD
 70
     2
  9
$DIMALTF
 40
25.4
  9
$DIMLFAC
 40
1.0
  9
$DIMTOFL
 70
     0
  9
$DIMTVP
 40
0.0
  9
$DIMTIX
 70
     0
  9
$DIMSOXD
 70
     0
  9
$DIMSAH
 70
     0
  9
$DIMBLK1
  1

  9
$DIMBLK2
  1

  9
$DIMSTYLE
  2
Standard
  9
$DIMCLRD
 70
     0
  9
$DIMCLRE
 70
     0
  9
$DIMCLRT
 70
     0
  9
$DIMTFAC
 40
1.0
  9
$DIMGAP
 40
0.09
  9
$DIMJUST
 70
     0
  9
$DIMSD1
 70
     0
  9
$DIMSD2
 70
     0
  9
$DIMTOLJ
 70
     1
  9
$DIMTZIN
 70
     0
  9
$DIMALTZ
 70
     0
  9
$DIMALTTZ
 70
     0
  9
$DIMUPT
 70
     0
  9
$DIMDEC
 70
     4
  9
$DIMTDEC
 70
     4
  9
$DIMALTU
 70
     2
  9
$DIMALTTD
 70
     2
  9
$DIMTXSTY
  7
Standard
  9
$DIMAUNIT
 70
     0
  9
$DIMADEC
 70
     0
  9
$DIMALTRND
 40
0.0
  9
$DIMAZIN
 70
     0
  9
$DIMDSEP
 70
    46
  9
$DIMATFIT
 70
     3
  9
$DIMFRAC
 70
     0
  9
$DIMLDRBLK
  1

  9
$DIMLUNIT
 70
     2
  9
$DIMLWD
 70
    -2
  9
$DIMLWE
 70
    -2
  9
$DIMTMOVE
 70
     0
  9
$DIMFXL
 40
1.0
  9
$DIMFXLON
 70
     0
  9
$DIMJOGANG
 40
0.7853981633974483
  9
$DIMTFILL
 70
     0
  9
$DIMTFILLCLR
 70
     0
  9
$DIMARCSYM
 70
     0
  9
$DIMLTYPE
  6

  9
$DIMLTEX1
  6

  9
$DIMLTEX2
  6

  9
$DIMTXTDIRECTION
 70
     0
  9
$LUNITS
 70
     2
  9
$LUPREC
 70
     4
  9
$SKETCHINC
 40
0.1
  9
$FILLETRAD
 40
0.0
  9
$AUNITS
 70
     0
  9
$AUPREC
 70
     0
  9
$MENU
  1
.
  9
$ELEVATION
 40
0.0
  9
$PELEVATION
 40
0.0
  9
$THICKNESS
 40
0.0
  9
$LIMCHECK
 70
     0
  9
$CHAMFERA
 40
0.0
  9
$CHAMFERB
 40
0.0
  9
$CHAMFERC
 40
0.0
  9
$CHAMFERD
 40
0.0
  9
$SKPOLY
 70
     0
  9
$TDCREATE
 40
2461007.69725147
  9
$TDUCREATE
 40
2461007.468084804
  9
$TDUPDATE
 40
2461007.697251679
  9
$TDUUPDATE
 40
2461007.468085012
  9
$TDINDWG
 40
0.0000000116
  9
$TDUSRTIMER
 40
0.0000000116
  9
$USRTIMER
 70
     1
  9
$ANGBASE
 50
0.0
  9
$ANGDIR
 70
     0
  9
$PDMODE
 70
     0
  9
$PDSIZE
 40
0.0
  9
$PLINEWID
 40
0.0
  9
$SPLFRAME
 70
     0
  9
$SPLINETYPE
 70
     6
  9
$SPLINESEGS
 70
     8
  9
$HANDSEED
  5
8F
  9
$SURFTAB1
 70
     6
  9
$SURFTAB2
 70
     6
  9
$SURFTYPE
 70
     6
  9
$SURFU
 70
     6
  9
$SURFV
 70
     6
  9
$UCSBASE
  2

  9
$UCSNAME
  2

  9
$UCSORG
 10
0.0
 20
0.0
 30
0.0
  9
$UCSXDIR
 10
1.0
 20
0.0
 30
0.0
  9
$UCSYDIR
 10
0.0
 20
1.0
 30
0.0
  9
$UCSORTHOREF
  2

  9
$UCSORTHOVIEW
 70
     0
  9
$UCSORGTOP
 10
0.0
 20
0.0
 30
0.0
  9
$UCSORGBOTTOM
 10
0.0
 20
0.0
 30
0.0
  9
$UCSORGLEFT
 10
0.0
 20
0.0
 30
0.0
  9
$UCSORGRIGHT
 10
0.0
 20
0.0
 30
0.0
  9
$UCSORGFRONT
 10
0.0
 20
0.0
 30
0.0
  9
$UCSORGBACK
 10
0.0
 20
0.0
 30
0.0
  9
$PUCSBASE
  2

  9
$PUCSNAME
  2

  9
$PUCSORG
 10
0.0
 20
0.0
 30
0.0
  9
$PUCSXDIR
 10
1.0
 20
0.0
 30
0.0
  9
$PUCSYDIR
 10
0.0
 20
1.0
 30
0.0
  9
$PUCSORTHOREF
  2

  9
$PUCSORTHOVIEW
 70
     0
  9
$PUCSORGTOP
 10
0.0
 20
0.0
 30
0.0
  9
$PUCSORGBOTTOM
 10
0.0
 20
0.0
 30
0.0
  9
$PUCSORGLEFT
 10
0.0
 20
0.0
 30
0.0
  9
$PUCSORGRIGHT
 10
0.0
 20
0.0
 30
0.0
  9
$PUCSORGFRONT
 10
0.0
 20
0.0
 30
0.0
  9
$PUCSORGBACK
 10
0.0
 20
0.0
 30
0.0
  9
$USERI1
 70
     0
  9
$USERI2
 70
     0
  9
$USERI3
 70
     0
  9
$USERI4
 70
     0
  9
$USERI5
 70
     0
  9
$USERR1
 40
0.0
  9
$USERR2
 40
0.0
  9
$USERR3
 40
0.0
  9
$USERR4
 40
0.0
  9
$USERR5
 40
0.0
  9
$WORLDVIEW
 70
     1
  9
$SHADEDGE
 70
     3
  9
$SHADEDIF
 70
    70
  9
$TILEMODE
 70
     1
  9
$MAXACTVP
 70
    64
  9
$PINSBASE
 10
0.0
 20
0.0
 30
0.0
  9
$PLIMCHECK
 70
     0
  9
$PEXTMIN
 10
1.000000000000000E+20
 20
1.000000000000000E+20
 30
1.000000000000000E+20
  9
$PEXTMAX
 10
-1.000000000000000E+20
 20
-1.000000000000000E+20
 30
-1.000000000000000E+20
  9
$PLIMMIN
 10
0.0
 20
0.0
  9
$PLIMMAX
 10
12.0
 20
9.0
  9
$UNITMODE
 70
     0
  9
$VISRETAIN
 70
     1
  9
$PLINEGEN
 70
     0
  9
$PSLTSCALE
 70
     1
  9
$TREEDEPTH
 70
  3020
  9
$CMLSTYLE
  2
Standard
  9
$CMLJUST
 70
     0
  9
$CMLSCALE
 40
1.0
  9
$PROXYGRAPHICS
 70
     1
  9
$MEASUREMENT
 70
     0
  9
$CELWEIGHT
370
    -1
  9
$ENDCAPS
280
     0
  9
$JOINSTYLE
280
     0
  9
$LWDISPLAY
290
     0
  9
$INSUNITS
 70
     4
  9
$HYPERLINKBASE
  1

  9
$STYLESHEET
  1

  9
$XEDIT
290
     1
  9
$CEPSNTYPE
380
     0
  9
$PSTYLEMODE
290
     1
  9
$FINGERPRINTGUID
  2
{e21b50c3-bcb2-4a7c-af02-94a615509d84}
  9
$VERSIONGUID
  2
{FAEB1C32-E019-11D5-929B-00C0DF256EC4}
  9
$EXTNAMES
290
     1
  9
$PSVPSCALE
 40
0.0
  9
$OLESTARTUP
290
     0
  9
$SORTENTS
280
   127
  9
$INDEXCTL
280
     0
  9
$HIDETEXT
280
     1
  9
$XCLIPFRAME
280
     2
  9
$HALOGAP
280
     0
  9
$OBSCOLOR
 70
   257
  9
$OBSLTYPE
280
     0
  9
$INTERSECTIONDISPLAY
280
     0
  9
$INTERSECTIONCOLOR
 70
   257
  9
$DIMASSOC
280
     2
  9
$PROJECTNAME
  1

  9
$CAMERADISPLAY
290
     0
  9
$LENSLENGTH
 40
50.0
  9
$CAMERAHEIGHT
 40
0.0
  9
$STEPSPERSEC
 40
2.0
  9
$STEPSIZE
 40
6.0
  9
$3DDWFPREC
 40
2.0
  9
$PSOLWIDTH
 40
0.25
  9
$PSOLHEIGHT
 40
4.0
  9
$LOFTANG1
 40
1.570796326794897
  9
$LOFTANG2
 40
1.570796326794897
  9
$LOFTMAG1
 40
0.0
  9
$LOFTMAG2
 40
0.0
  9
$LOFTPARAM
 70
     7
  9
$LOFTNORMALS
280
     1
  9
$LATITUDE
 40
37.795
  9
$LONGITUDE
 40
-122.394
  9
$NORTHDIRECTION
 40
0.0
  9
$TIMEZONE
 70
 -8000
  9
$LIGHTGLYPHDISPLAY
280
     1
  9
$TILEMODELIGHTSYNCH
280
     1
  9
$CMATERIAL
347
44
  9
$SOLIDHIST
280
     0
  9
$SHOWHIST
280
     1
  9
$DWFFRAME
280
     2
  9
$DGNFRAME
280
     2
  9
$REALWORLDSCALE
290
     1
  9
$INTERFERECOLOR
 62
   256
  9
$CSHADOW
280
     0
  9
$SHADOWPLANELOCATION
 40
0.0
  0
ENDSEC
  0
SECTION
  2
CLASSES
  0
CLASS
  1
ACDBDICTIONARYWDFLT
  2
AcDbDictionaryWithDefault
  3
ObjectDBX Classes
 90
        0
 91
        3
280
     0
281
     0
  0
CLASS
  1
VISUALSTYLE
  2
AcDbVisualStyle
  3
ObjectDBX Classes
 90
     4095
 91
        3
280
     0
281
     0
  0
CLASS
  1
MATERIAL
  2
AcDbMaterial
  3
ObjectDBX Classes
 90
     1153
 91
        3
280
     0
281
     0
  0
CLASS
  1
SCALE
  2
AcDbScale
  3
ObjectDBX Classes
 90
     1153
 91
        3
280
     0
281
     0
  0
CLASS
  1
TABLESTYLE
  2
AcDbTableStyle
  3
ObjectDBX Classes
 90
     4095
 91
        3
280
     0
281
     0
  0
CLASS
  1
MLEADERSTYLE
  2
AcDbMLeaderStyle
  3
ACDB_MLEADERSTYLE_CLASS
 90
     4095
 91
        3
280
     0
281
     0
  0
CLASS
  1
SUN
  2
AcDbSun
  3
SCENEOE
 90
     1153
 91
        3
280
     0
281
     0
  0
CLASS
  1
DICTIONARYVAR
  2
AcDbDictionaryVar
  3
ObjectDBX Classes
 90
        0
 91
        3
280
     0
281
     0
  0
CLASS
  1
CELLSTYLEMAP
  2
AcDbCellStyleMap
  3
ObjectDBX Classes
 90
     1152
 91
        3
280
     0
281
     0
  0
ENDSEC
  0
SECTION
  2
TABLES
  0
TABLE
  2
VPORT
  5
8
330
0
100
AcDbSymbolTable
 70
     1
  0
VPORT
  5
29
330
8
100
AcDbSymbolTableRecord
100
AcDbViewportTableRecord
  2
*Active
 70
     0
 10
0.0
 20
0.0
 11
1.0
 21
1.0
 12
10.42990654205607
 22
4.5
 13
0.0
 23
0.0
 14
0.5
 24
0.5
 15
0.5
 25
0.5
 16
0.0
 26
0.0
 36
1.0
 17
0.0
 27
0.0
 37
0.0
 40
9.0
 41
1.972972972850329
 42
50.0
 43
0.0
 44
0.0
 50
0.0
 51
0.0
 71
     0
 72
   100
 73
     1
 74
     3
 75
     0
 76
     0
 77
     0
 78
     0
281
     0
 65
     1
110
0.0
120
0.0
130
0.0
111
1.0
121
0.0
131
0.0
112
0.0
122
1.0
132
0.0
 79
     0
146
0.0
348
2F
 60
     3
 61
     5
292
     1
282
     1
141
0.0
142
0.0
 63
   250
361
5D
  0
ENDTAB
  0
TABLE
  2
LTYPE
  5
5
330
0
100
AcDbSymbolTable
 70
     1
  0
LTYPE
  5
14
330
5
100
AcDbSymbolTableRecord
100
AcDbLinetypeTableRecord
  2
ByBlock
 70
     0
  3

 72
    65
 73
     0
 40
0.0
  0
LTYPE
  5
15
330
5
100
AcDbSymbolTableRecord
100
AcDbLinetypeTableRecord
  2
ByLayer
 70
     0
  3

 72
    65
 73
     0
 40
0.0
  0
LTYPE
  5
16
330
5
100
AcDbSymbolTableRecord
100
AcDbLinetypeTableRecord
  2
Continuous
 70
     0
  3
Solid line
 72
    65
 73
     0
 40
0.0
  0
ENDTAB
  0
TABLE
  2
LAYER
  5
2
330
0
100
AcDbSymbolTable
 70
     2
  0
LAYER
  5
10
330
2
100
AcDbSymbolTableRecord
100
AcDbLayerTableRecord
  2
0
 70
     0
 62
     7
  6
Continuous
370
    -3
390
F
347
46
348
0
  0
LAYER
  5
5F
330
2
100
AcDbSymbolTableRecord
100
AcDbLayerTableRecord
  2
Layer 1
 70
     0
 62
     7
  6
Continuous
370
    -3
390
F
347
46
348
0
  0
ENDTAB
  0
TABLE
  2
STYLE
  5
3
330
0
100
AcDbSymbolTable
 70
     1
  0
STYLE
  5
11
330
3
100
AcDbSymbolTableRecord
100
AcDbTextStyleTableRecord
  2
Standard
 70
     0
 40
0.0
 41
1.0
 50
0.0
 71
     0
 42
0.2
  3
txt
  4

  0
ENDTAB
  0
TABLE
  2
VIEW
  5
6
330
0
100
AcDbSymbolTable
 70
     0
  0
ENDTAB
  0
TABLE
  2
UCS
  5
7
330
0
100
AcDbSymbolTable
 70
     0
  0
ENDTAB
  0
TABLE
  2
APPID
  5
9
330
0
100
AcDbSymbolTable
 70
     2
  0
APPID
  5
12
330
9
100
AcDbSymbolTableRecord
100
AcDbRegAppTableRecord
  2
ACAD
 70
     0
  0
APPID
  5
5E
330
9
100
AcDbSymbolTableRecord
100
AcDbRegAppTableRecord
  2
ODA
 70
     0
  0
ENDTAB
  0
TABLE
  2
DIMSTYLE
  5
A
330
0
100
AcDbSymbolTable
 70
     1
100
AcDbDimStyleTable
  0
DIMSTYLE
105
27
330
A
100
AcDbSymbolTableRecord
100
AcDbDimStyleTableRecord
  2
Standard
 70
     0
178
     0
340
11
  0
ENDTAB
  0
TABLE
  2
BLOCK_RECORD
  5
1
330
0
100
AcDbSymbolTable
 70
     1
  0
BLOCK_RECORD
  5
1F
330
1
100
AcDbSymbolTableRecord
100
AcDbBlockTableRecord
  2
*Model_Space
340
22
 70
     0
280
     1
281
     0
  0
BLOCK_RECORD
  5
1B
330
1
100
AcDbSymbolTableRecord
100
AcDbBlockTableRecord
  2
*Paper_Space
340
1E
 70
     0
280
     1
281
     0
  0
BLOCK_RECORD
  5
23
330
1
100
AcDbSymbolTableRecord
100
AcDbBlockTableRecord
  2
*Paper_Space0
340
26
 70
     0
280
     1
281
     0
  0
ENDTAB
  0
ENDSEC
  0
SECTION
  2
BLOCKS
  0
BLOCK
  5
20
330
1F
100
AcDbEntity
  8
0
100
AcDbBlockBegin
  2
*Model_Space
 70
     0
 10
0.0
 20
0.0
 30
0.0
  3
*Model_Space
  1

  0
ENDBLK
  5
21
330
1F
100
AcDbEntity
  8
0
100
AcDbBlockEnd
  0
BLOCK
  5
1C
330
1B
100
AcDbEntity
 67
     1
  8
0
100
AcDbBlockBegin
  2
*Paper_Space
 70
     0
 10
0.0
 20
0.0
 30
0.0
  3
*Paper_Space
  1

  0
ENDBLK
  5
1D
330
1B
100
AcDbEntity
 67
     1
  8
0
100
AcDbBlockEnd
  0
BLOCK
  5
24
330
23
100
AcDbEntity
  8
0
100
AcDbBlockBegin
  2
*Paper_Space0
 70
     0
 10
0.0
 20
0.0
 30
0.0
  3
*Paper_Space0
  1

  0
ENDBLK
  5
25
330
23
100
AcDbEntity
  8
0
100
AcDbBlockEnd
  0
ENDSEC
  0
SECTION
  2
ENTITIES
  0
LWPOLYLINE
  5
60
330
1F
100
AcDbEntity
  8
Layer 1
 62
   250
370
    18
100
AcDbPolyline
 90
        5
 70
     1
 43
0.0
 10
195.8812
 20
-667.2705
 10
942.376
 20
-667.2705
 10
942.376
 20
245.9183
 10
195.8812
 20
245.9183
 10
195.8812
 20
-667.2705
  0
LWPOLYLINE
  5
61
330
1F
100
AcDbEntity
  8
Layer 1
 62
     7
370
    18
100
AcDbPolyline
 90
       33
 70
     1
 43
0.0
 10
519.6875
 20
133.5005
 10
569.7964
 20
132.3862
 10
616.4679
 20
129.1807
 10
658.7024
 20
124.1053
 10
695.5
 20
117.3815
 10
725.8607
 20
109.2308
 10
748.7849
 20
99.8746
 10
763.2726
 20
89.5344
 10
768.324
 20
78.4316
 10
763.2726
 20
67.3275
 10
748.7849
 20
56.9841
 10
725.8607
 20
47.6231
 10
695.5
 20
39.466
 10
658.7024
 20
32.7346
 10
616.4679
 20
27.6505
 10
569.7964
 20
24.4355
 10
519.6875
 20
23.311
 10
469.5784
 20
24.4253
 10
422.9067
 20
27.6309
 10
380.6721
 20
32.7064
 10
343.8745
 20
39.4304
 10
313.5137
 20
47.5812
 10
290.5895
 20
56.9376
 10
276.1018
 20
67.2779
 10
271.0504
 20
78.3807
 10
276.1018
 20
89.4847
 10
290.5895
 20
99.8281
 10
313.5137
 20
109.189
 10
343.8745
 20
117.3459
 10
380.6721
 20
124.0771
 10
422.9067
 20
129.1611
 10
469.5784
 20
132.3761
 10
519.6875
 20
133.5005
  0
LWPOLYLINE
  5
62
330
1F
100
AcDbEntity
  8
Layer 1
 62
     7
370
    18
100
AcDbPolyline
 90
       33
 70
     1
 43
0.0
 10
437.7546
 20
124.1296
 10
466.8879
 20
123.855
 10
494.0227
 20
121.9403
 10
518.5779
 20
118.5434
 10
539.972
 20
113.8223
 10
557.6237
 20
107.9348
 10
570.9518
 20
101.0389
 10
579.375
 20
93.2926
 10
582.3119
 20
84.8538
 10
579.375
 20
76.2974
 10
570.9518
 20
68.2143
 10
557.6237
 20
60.7856
 10
539.972
 20
54.1927
 10
518.5779
 20
48.6165
 10
494.0227
 20
44.2383
 10
466.8879
 20
41.2393
 10
437.7546
 20
39.8006
 10
408.6213
 20
40.0749
 10
381.4865
 20
41.9895
 10
356.9314
 20
45.3864
 10
335.5373
 20
50.1076
 10
317.8855
 20
55.9952
 10
304.5574
 20
62.8912
 10
296.1342
 20
70.6376
 10
293.1973
 20
79.0764
 10
296.1342
 20
87.6328
 10
304.5574
 20
95.7159
 10
317.8855
 20
103.1446
 10
335.5373
 20
109.7375
 10
356.9314
 20
115.3137
 10
381.4865
 20
119.6919
 10
408.6213
 20
122.6909
 10
437.7546
 20
124.1296
  0
LWPOLYLINE
  5
63
330
1F
100
AcDbEntity
  8
Layer 1
 62
     7
370
    18
100
AcDbPolyline
 90
       17
 70
     0
 43
0.0
 10
307.2372
 20
61.2078
 10
308.0274
 20
62.986
 10
311.1116
 20
67.7021
 10
317.5608
 20
74.4289
 10
328.4455
 20
82.2389
 10
344.8365
 20
90.2046
 10
367.8046
 20
97.3987
 10
398.4204
 20
102.8937
 10
437.7548
 20
105.7622
 10
477.2435
 20
105.1313
 10
508.266
 20
101.4005
 10
531.809
 20
95.5512
 10
548.8591
 20
88.5648
 10
560.4029
 20
81.4225
 10
567.427
 20
75.1059
 10
570.9179
 20
70.5963
 10
571.8623
 20
68.875
  0
LWPOLYLINE
  5
64
330
1F
100
AcDbEntity
  8
Layer 1
 62
     7
370
    18
100
AcDbPolyline
 90
       17
 70
     0
 43
0.0
 10
322.475
 20
54.2171
 10
323.5414
 20
55.923
 10
327.1606
 20
60.4202
 10
333.9624
 20
66.7785
 10
344.5767
 20
74.0671
 10
359.6332
 20
81.3557
 10
379.7618
 20
87.7138
 10
405.5924
 20
92.211
 10
437.7548
 20
93.9166
 10
470.2745
 20
92.5688
 10
497.047
 20
89.0159
 10
518.5072
 20
83.993
 10
535.0902
 20
78.2351
 10
547.2309
 20
72.4773
 10
555.3643
 20
67.4545
 10
559.9254
 20
63.9018
 10
561.3491
 20
62.5542
  0
LWPOLYLINE
  5
65
330
1F
100
AcDbEntity
  8
Layer 1
 62
     7
370
    18
100
AcDbPolyline
 90
       17
 70
     0
 43
0.0
 10
338.2746
 20
49.3846
 10
339.2765
 20
50.5486
 10
342.6139
 20
53.6345
 10
348.7844
 20
58.0334
 10
358.2857
 20
63.1362
 10
371.6152
 20
68.3339
 10
389.2707
 20
73.0174
 10
411.7497
 20
76.5778
 10
439.5498
 20
78.406
 10
467.5407
 20
77.9912
 10
490.5229
 20
75.6384
 10
508.8897
 20
71.9619
 10
523.0347
 20
67.5762
 10
533.3513
 20
63.0955
 10
540.2332
 20
59.1344
 10
544.0738
 20
56.3071
 10
545.2665
 20
55.2282
  0
LWPOLYLINE
  5
66
330
1F
100
AcDbEntity
  8
Layer 1
 62
     7
370
    18
100
AcDbPolyline
 90
       17
 70
     0
 43
0.0
 10
361.6969
 20
44.5818
 10
362.3635
 20
45.4427
 10
364.6776
 20
47.7173
 10
369.1103
 20
50.9436
 10
376.1331
 20
54.6598
 10
386.2172
 20
58.4037
 10
399.8338
 20
61.7134
 10
417.4542
 20
64.127
 10
439.5498
 20
65.1823
 10
461.9947
 20
64.6911
 10
480.536
 20
63.0275
 10
495.4545
 20
60.5729
 10
507.031
 20
57.709
 10
515.5462
 20
54.8173
 10
521.2809
 20
52.2793
 10
524.5158
 20
50.4768
 10
525.5317
 20
49.7911
  0
LWPOLYLINE
  5
67
330
1F
100
AcDbEntity
  8
Layer 1
 62
     7
370
    18
100
AcDbPolyline
 90
       17
 70
     0
 43
0.0
 10
388.0047
 20
41.3696
 10
388.6201
 20
41.754
 10
390.5748
 20
42.7678
 10
394.0317
 20
44.2018
 10
399.1538
 20
45.8468
 10
406.1037
 20
47.4937
 10
415.0444
 20
48.9333
 10
426.1389
 20
49.9565
 10
439.5498
 20
50.3541
 10
453.2262
 20
50.1235
 10
465.0205
 20
49.4904
 10
474.9508
 20
48.5884
 10
483.0351
 20
47.551
 10
489.2914
 20
46.5117
 10
493.7379
 20
45.6041
 10
496.3925
 20
44.9615
 10
497.2734
 20
44.7177
  0
LWPOLYLINE
  5
68
330
1F
100
AcDbEntity
  8
Layer 1
 62
     7
370
    18
100
AcDbPolyline
 90
       57
 70
     0
 43
0.0
 10
271.0504
 20
78.3809
 10
270.8762
 20
78.4042
 10
270.4531
 20
78.0576
 10
269.9304
 20
76.7158
 10
269.4576
 20
73.7538
 10
269.1838
 20
68.5466
 10
269.2584
 20
60.4691
 10
269.8309
 20
48.8962
 10
271.0504
 20
33.2028
 10
274.1761
 20
-5.121
 10
279.7737
 20
-76.356
 10
286.9529
 20
-168.7833
 10
294.8234
 20
-270.6841
 10
302.4948
 20
-370.3396
 10
309.0767
 20
-456.0311
 10
313.6788
 20
-516.0398
 10
315.4107
 20
-538.6469
 10
315.5706
 20
-541.399
 10
316.7286
 20
-548.882
 10
319.9021
 20
-559.9357
 10
326.1084
 20
-573.4001
 10
336.365
 20
-588.1151
 10
351.6892
 20
-602.9207
 10
373.0984
 20
-616.6567
 10
401.61
 20
-628.1631
 10
436.8896
 20
-635.5897
 10
476.1415
 20
-638.5698
 10
516.6915
 20
-638.1687
 10
555.8655
 20
-635.4517
 10
590.9893
 20
-631.4842
 10
619.3886
 20
-627.3313
 10
638.3893
 20
-624.0583
 10
645.3171
 20
-622.7306
 10
648.4704
 20
-621.1099
 10
656.8342
 20
-616.228
 10
668.7645
 20
-608.0551
 10
682.6172
 20
-596.5614
 10
696.7481
 20
-581.7172
 10
709.5133
 20
-563.4927
 10
719.2687
 20
-541.8582
 10
724.3701
 20
-516.7839
 10
727.9634
 20
-471.4264
 10
733.7427
 20
-396.318
 10
740.8865
 20
-302.4926
 10
748.5735
 20
-200.9839
 10
755.9822
 20
-102.8257
 10
762.2911
 20
-19.0518
 10
766.6789
 20
39.3039
 10
768.324
 20
61.2078
 10
768.3767
 20
61.7167
 10
768.5047
 20
63.1063
 10
768.6628
 20
65.1712
 10
768.8059
 20
67.7058
 10
768.8887
 20
70.5046
 10
768.8662
 20
73.3621
 10
768.693
 20
76.0728
 10
768.324
 20
78.4311
  0
LWPOLYLINE
  5
69
330
1F
100
AcDbEntity
  8
Layer 1
 62
     7
100
AcDbPolyline
 90
       65
 70
     1
 43
0.0
 10
802.0809
 20
-235.8254
 10
802.4838
 20
-235.8484
 10
802.871
 20
-235.9173
 10
803.2424
 20
-236.0322
 10
803.5981
 20
-236.193
 10
803.9381
 20
-236.3998
 10
804.2624
 20
-236.6525
 10
804.571
 20
-236.9511
 10
804.8639
 20
-237.2956
 10
805.1281
 20
-237.6691
 10
805.357
 20
-238.0639
 10
805.5506
 20
-238.4801
 10
805.709
 20
-238.9175
 10
805.8322
 20
-239.3762
 10
805.9201
 20
-239.8562
 10
805.9729
 20
-240.3575
 10
805.9905
 20
-240.88
 10
805.9731
 20
-241.398
 10
805.921
 20
-241.8986
 10
805.834
 20
-242.3818
 10
805.7123
 20
-242.8476
 10
805.5558
 20
-243.2959
 10
805.3646
 20
-243.7269
 10
805.1385
 20
-244.1405
 10
804.8776
 20
-244.5367
 10
804.5919
 20
-244.8982
 10
804.2879
 20
-245.2114
 10
803.9657
 20
-245.4764
 10
803.6253
 20
-245.6932
 10
803.2666
 20
-245.8617
 10
802.8896
 20
-245.9821
 10
802.4944
 20
-246.0543
 10
802.0809
 20
-246.0784
 10
801.6675
 20
-246.0543
 10
801.2724
 20
-245.9821
 10
800.8955
 20
-245.8617
 10
800.5368
 20
-245.6932
 10
800.1963
 20
-245.4764
 10
799.8742
 20
-245.2114
 10
799.5703
 20
-244.8982
 10
799.2847
 20
-244.5367
 10
799.0238
 20
-244.1405
 10
798.7977
 20
-243.7269
 10
798.6063
 20
-243.2959
 10
798.4497
 20
-242.8476
 10
798.3279
 20
-242.3818
 10
798.2409
 20
-241.8986
 10
798.1887
 20
-241.398
 10
798.1713
 20
-240.88
 10
798.1889
 20
-240.3575
 10
798.2417
 20
-239.8562
 10
798.3298
 20
-239.3762
 10
798.453
 20
-238.9175
 10
798.6114
 20
-238.4801
 10
798.805
 20
-238.0639
 10
799.0338
 20
-237.6691
 10
799.2978
 20
-237.2956
 10
799.5907
 20
-236.9511
 10
799.8994
 20
-236.6525
 10
800.2238
 20
-236.3998
 10
800.5639
 20
-236.193
 10
800.9196
 20
-236.0322
 10
801.2911
 20
-235.9173
 10
801.6782
 20
-235.8484
 10
802.0809
 20
-235.8254
  0
LWPOLYLINE
  5
6A
330
1F
100
AcDbEntity
  8
Layer 1
 62
     7
100
AcDbPolyline
 90
       65
 70
     1
 43
0.0
 10
802.0809
 20
-225.9313
 10
802.4057
 20
-225.9492
 10
802.7182
 20
-226.0029
 10
803.0184
 20
-226.0925
 10
803.3062
 20
-226.2178
 10
803.5817
 20
-226.3791
 10
803.8449
 20
-226.5761
 10
804.0959
 20
-226.8091
 10
804.3346
 20
-227.0779
 10
804.5572
 20
-227.3801
 10
804.7502
 20
-227.6997
 10
804.9136
 20
-228.0367
 10
805.0473
 20
-228.3911
 10
805.1513
 20
-228.7629
 10
805.2256
 20
-229.152
 10
805.2702
 20
-229.5584
 10
805.2851
 20
-229.9822
 10
805.2702
 20
-230.3966
 10
805.2256
 20
-230.7975
 10
805.1513
 20
-231.1851
 10
805.0473
 20
-231.5592
 10
804.9136
 20
-231.92
 10
804.7502
 20
-232.2674
 10
804.5572
 20
-232.6013
 10
804.3346
 20
-232.9219
 10
804.0975
 20
-233.2075
 10
803.8477
 20
-233.455
 10
803.585
 20
-233.6645
 10
803.3097
 20
-233.836
 10
803.0216
 20
-233.9693
 10
802.7207
 20
-234.0646
 10
802.4072
 20
-234.1217
 10
802.0809
 20
-234.1408
 10
801.7546
 20
-234.1217
 10
801.4411
 20
-234.0646
 10
801.1403
 20
-233.9693
 10
800.8523
 20
-233.836
 10
800.577
 20
-233.6645
 10
800.3144
 20
-233.455
 10
800.0645
 20
-233.2075
 10
799.8272
 20
-232.9219
 10
799.6046
 20
-232.6013
 10
799.4116
 20
-232.2674
 10
799.2483
 20
-231.92
 10
799.1148
 20
-231.5592
 10
799.0109
 20
-231.1851
 10
798.9367
 20
-230.7975
 10
798.8921
 20
-230.3966
 10
798.8773
 20
-229.9822
 10
798.8921
 20
-229.5584
 10
798.9367
 20
-229.152
 10
799.0109
 20
-228.7629
 10
799.1148
 20
-228.3911
 10
799.2483
 20
-228.0367
 10
799.4116
 20
-227.6997
 10
799.6046
 20
-227.3801
 10
799.8272
 20
-227.0779
 10
800.0659
 20
-226.8091
 10
800.3169
 20
-226.5761
 10
800.5802
 20
-226.3791
 10
800.8558
 20
-226.2178
 10
801.1437
 20
-226.0925
 10
801.4438
 20
-226.0029
 10
801.7562
 20
-225.9492
 10
802.0809
 20
-225.9313
  0
LWPOLYLINE
  5
6B
330
1F
100
AcDbEntity
  8
Layer 1
 62
     7
100
AcDbPolyline
 90
      121
 70
     1
 43
0.0
 10
802.0809
 20
-248.5876
 10
802.7031
 20
-248.5565
 10
803.3002
 20
-248.4633
 10
803.8723
 20
-248.3079
 10
804.4193
 20
-248.0904
 10
804.9414
 20
-247.8107
 10
805.4384
 20
-247.4687
 10
805.9104
 20
-247.0646
 10
806.3575
 20
-246.5983
 10
806.5589
 20
-246.3547
 10
806.7493
 20
-246.0987
 10
806.9286
 20
-245.8304
 10
807.097
 20
-245.5499
 10
807.2544
 20
-245.2569
 10
807.4008
 20
-244.9517
 10
807.5362
 20
-244.6342
 10
807.6607
 20
-244.3043
 10
807.772
 20
-243.9618
 10
807.8684
 20
-243.6071
 10
807.95
 20
-243.2401
 10
808.0167
 20
-242.8608
 10
808.0686
 20
-242.4693
 10
808.1057
 20
-242.0655
 10
808.1279
 20
-241.6493
 10
808.1353
 20
-241.2209
 10
808.1228
 20
-240.7868
 10
808.0853
 20
-240.3538
 10
808.0227
 20
-239.922
 10
807.9351
 20
-239.4912
 10
807.8226
 20
-239.0615
 10
807.6849
 20
-238.633
 10
807.5223
 20
-238.2056
 10
807.3347
 20
-237.7794
 10
807.1235
 20
-237.3635
 10
806.8908
 20
-236.9672
 10
806.6365
 20
-236.5905
 10
806.3605
 20
-236.2333
 10
806.063
 20
-235.8957
 10
805.7438
 20
-235.5778
 10
805.403
 20
-235.2794
 10
805.0406
 20
-235.0007
 10
805.556
 20
-234.3939
 10
806.0027
 20
-233.7742
 10
806.3807
 20
-233.1416
 10
806.6899
 20
-232.4961
 10
806.9304
 20
-231.8377
 10
807.1021
 20
-231.1664
 10
807.2052
 20
-230.4822
 10
807.2395
 20
-229.7851
 10
807.216
 20
-229.0973
 10
807.1454
 20
-228.4415
 10
807.0277
 20
-227.8178
 10
806.8629
 20
-227.226
 10
806.6511
 20
-226.6661
 10
806.3921
 20
-226.1382
 10
806.0861
 20
-225.6422
 10
805.7329
 20
-225.1781
 10
805.3595
 20
-224.7747
 10
804.9623
 20
-224.4252
 10
804.5414
 20
-224.1294
 10
804.0968
 20
-223.8874
 10
803.6284
 20
-223.6992
 10
803.1363
 20
-223.5648
 10
802.6205
 20
-223.4842
 10
802.0809
 20
-223.4573
 10
801.5413
 20
-223.4842
 10
801.0255
 20
-223.5648
 10
800.5334
 20
-223.6992
 10
800.065
 20
-223.8874
 10
799.6205
 20
-224.1294
 10
799.1997
 20
-224.4252
 10
798.8026
 20
-224.7747
 10
798.4294
 20
-225.1781
 10
798.0762
 20
-225.6419
 10
797.7701
 20
-226.1371
 10
797.511
 20
-226.6636
 10
797.2991
 20
-227.2215
 10
797.1342
 20
-227.8108
 10
797.0164
 20
-228.4315
 10
796.9458
 20
-229.0835
 10
796.9222
 20
-229.767
 10
796.9566
 20
-230.4684
 10
797.0597
 20
-231.1563
 10
797.2316
 20
-231.8307
 10
797.4722
 20
-232.4917
 10
797.7815
 20
-233.1391
 10
798.1596
 20
-233.7731
 10
798.6063
 20
-234.3937
 10
799.1218
 20
-235.0007
 10
798.7592
 20
-235.2794
 10
798.4182
 20
-235.5778
 10
798.099
 20
-235.8957
 10
797.8013
 20
-236.2333
 10
797.5253
 20
-236.5905
 10
797.271
 20
-236.9672
 10
797.0382
 20
-237.3635
 10
796.827
 20
-237.7794
 10
796.6394
 20
-238.2065
 10
796.4768
 20
-238.6364
 10
796.3391
 20
-239.0691
 10
796.2266
 20
-239.5047
 10
796.139
 20
-239.9429
 10
796.0764
 20
-240.384
 10
796.0389
 20
-240.8278
 10
796.0264
 20
-241.2743
 10
796.0542
 20
-242.0751
 10
796.1376
 20
-242.8373
 10
796.2765
 20
-243.5607
 10
796.4711
 20
-244.2455
 10
796.7212
 20
-244.8917
 10
797.0268
 20
-245.4992
 10
797.3881
 20
-246.068
 10
797.8049
 20
-246.5983
 10
798.2517
 20
-247.0646
 10
798.7236
 20
-247.4687
 10
799.2205
 20
-247.8107
 10
799.7425
 20
-248.0904
 10
800.2895
 20
-248.3079
 10
800.8616
 20
-248.4633
 10
801.4587
 20
-248.5565
 10
802.0809
 20
-248.5876
  0
LWPOLYLINE
  5
6C
330
1F
100
AcDbEntity
  8
Layer 1
 62
     7
100
AcDbPolyline
 90
      136
 70
     1
 43
0.0
 10
814.0815
 20
-232.8857
 10
815.3306
 20
-226.3608
 10
822.0095
 20
-226.3608
 10
822.0095
 20
-223.8516
 10
813.8911
 20
-223.8516
 10
811.7737
 20
-234.7855
 10
813.837
 20
-236.0044
 10
814.1363
 20
-235.7356
 10
814.4504
 20
-235.5026
 10
814.7794
 20
-235.3056
 10
815.1232
 20
-235.1443
 10
815.4818
 20
-235.019
 10
815.8553
 20
-234.9294
 10
816.2437
 20
-234.8757
 10
816.6468
 20
-234.8578
 10
817.0524
 20
-234.8841
 10
817.4445
 20
-234.963
 10
817.8229
 20
-235.0946
 10
818.1878
 20
-235.2788
 10
818.5391
 20
-235.5156
 10
818.8768
 20
-235.8052
 10
819.2009
 20
-236.1474
 10
819.5114
 20
-236.5424
 10
819.8042
 20
-236.983
 10
820.058
 20
-237.4398
 10
820.2726
 20
-237.9129
 10
820.4483
 20
-238.4022
 10
820.5849
 20
-238.9077
 10
820.6825
 20
-239.4295
 10
820.741
 20
-239.9676
 10
820.7605
 20
-240.5219
 10
820.7406
 20
-241.0953
 10
820.6807
 20
-241.6457
 10
820.581
 20
-242.1731
 10
820.4415
 20
-242.6775
 10
820.262
 20
-243.1588
 10
820.0427
 20
-243.6173
 10
819.7836
 20
-244.0527
 10
819.4846
 20
-244.4652
 10
819.3324
 20
-244.6487
 10
819.1747
 20
-244.8226
 10
819.0115
 20
-244.9871
 10
818.8429
 20
-245.142
 10
818.6687
 20
-245.2874
 10
818.4891
 20
-245.4232
 10
818.3038
 20
-245.5495
 10
818.113
 20
-245.6661
 10
817.9141
 20
-245.7712
 10
817.7042
 20
-245.8623
 10
817.4832
 20
-245.9393
 10
817.2512
 20
-246.0024
 10
817.0082
 20
-246.0514
 10
816.7541
 20
-246.0865
 10
816.4889
 20
-246.1075
 10
816.2126
 20
-246.1145
 10
815.9312
 20
-246.0988
 10
815.6502
 20
-246.0517
 10
815.3696
 20
-245.9732
 10
815.0893
 20
-245.8634
 10
814.8095
 20
-245.7222
 10
814.5301
 20
-245.5497
 10
814.2511
 20
-245.3459
 10
813.9726
 20
-245.1108
 10
813.7045
 20
-244.8503
 10
813.4567
 20
-244.5707
 10
813.2294
 20
-244.2721
 10
813.0224
 20
-243.9544
 10
812.8357
 20
-243.6177
 10
812.6695
 20
-243.262
 10
812.5236
 20
-242.8871
 10
812.3982
 20
-242.4932
 10
810.552
 20
-243.2825
 10
810.7334
 20
-243.8726
 10
810.9448
 20
-244.4329
 10
811.1864
 20
-244.9635
 10
811.4581
 20
-245.4645
 10
811.7599
 20
-245.9358
 10
812.0918
 20
-246.3774
 10
812.4539
 20
-246.7893
 10
812.8461
 20
-247.1716
 10
813.2632
 20
-247.5204
 10
813.6895
 20
-247.8227
 10
814.1252
 20
-248.0785
 10
814.5701
 20
-248.2878
 10
815.0244
 20
-248.4506
 10
815.4881
 20
-248.5669
 10
815.961
 20
-248.6366
 10
816.4434
 20
-248.6599
 10
817.0861
 20
-248.6215
 10
817.7042
 20
-248.5064
 10
818.2977
 20
-248.3145
 10
818.8666
 20
-248.0458
 10
819.4109
 20
-247.7005
 10
819.9306
 20
-247.2784
 10
820.4257
 20
-246.7796
 10
820.8961
 20
-246.2041
 10
821.3225
 20
-245.5792
 10
821.6921
 20
-244.9235
 10
822.0049
 20
-244.2371
 10
822.2607
 20
-243.5199
 10
822.4597
 20
-242.7718
 10
822.6019
 20
-241.993
 10
822.6872
 20
-241.1833
 10
822.7156
 20
-240.3428
 10
822.6876
 20
-239.5067
 10
822.6035
 20
-238.7059
 10
822.4635
 20
-237.9404
 10
822.2674
 20
-237.2103
 10
822.0153
 20
-236.5154
 10
821.7073
 20
-235.8559
 10
821.3433
 20
-235.2316
 10
820.9234
 20
-234.6426
 10
820.7087
 20
-234.3807
 10
820.4856
 20
-234.1329
 10
820.2539
 20
-233.899
 10
820.0137
 20
-233.6792
 10
819.7651
 20
-233.4733
 10
819.508
 20
-233.2815
 10
819.2424
 20
-233.1037
 10
818.9683
 20
-232.9399
 10
818.6888
 20
-232.7927
 10
818.4068
 20
-232.6651
 10
818.1224
 20
-232.5573
 10
817.8356
 20
-232.4691
 10
817.5465
 20
-232.4005
 10
817.255
 20
-232.3515
 10
816.9614
 20
-232.3222
 10
816.6655
 20
-232.3124
 10
816.3637
 20
-232.3214
 10
816.056
 20
-232.3483
 10
815.7423
 20
-232.3931
 10
815.4225
 20
-232.4558
 10
815.0966
 20
-232.5365
 10
814.7645
 20
-232.635
 10
814.4261
 20
-232.7514
 10
814.0815
 20
-232.8857
  0
LWPOLYLINE
  5
6D
330
1F
100
AcDbEntity
  8
Layer 1
 62
     7
100
AcDbPolyline
 90
      129
 70
     1
 43
0.0
 10
833.2363
 20
-226.6836
 10
833.5497
 20
-226.9648
 10
833.842
 20
-227.2841
 10
834.113
 20
-227.6415
 10
834.3629
 20
-228.037
 10
834.5916
 20
-228.4707
 10
834.7991
 20
-228.9424
 10
834.9854
 20
-229.4523
 10
835.1504
 20
-230.0003
 10
835.335
 20
-230.727
 10
835.4949
 20
-231.4643
 10
835.6303
 20
-232.2122
 10
835.741
 20
-232.9708
 10
835.8272
 20
-233.7401
 10
835.8887
 20
-234.5201
 10
835.9256
 20
-235.3107
 10
835.9379
 20
-236.112
 10
835.9366
 20
-236.3044
 10
835.9328
 20
-236.5053
 10
835.9264
 20
-236.7146
 10
835.9174
 20
-236.9324
 10
835.906
 20
-237.1585
 10
835.892
 20
-237.393
 10
835.8754
 20
-237.6358
 10
835.8564
 20
-237.887
 10
835.7622
 20
-238.8507
 10
835.6391
 20
-239.7611
 10
835.4872
 20
-240.6184
 10
835.3065
 20
-241.4225
 10
835.0968
 20
-242.1734
 10
834.8584
 20
-242.8711
 10
834.5912
 20
-243.5157
 10
834.2951
 20
-244.1071
 10
834.025
 20
-244.5524
 10
833.7404
 20
-244.9383
 10
833.4413
 20
-245.2648
 10
833.1279
 20
-245.532
 10
832.8
 20
-245.7398
 10
832.4576
 20
-245.8882
 10
832.1009
 20
-245.9772
 10
831.7297
 20
-246.0069
 10
831.3154
 20
-245.9775
 10
830.921
 20
-245.8892
 10
830.5465
 20
-245.7422
 10
830.192
 20
-245.5363
 10
829.8574
 20
-245.2715
 10
829.5428
 20
-244.948
 10
829.2481
 20
-244.5656
 10
828.9734
 20
-244.1244
 10
828.8572
 20
-243.9106
 10
828.7461
 20
-243.6901
 10
828.6401
 20
-243.4628
 10
828.5392
 20
-243.2287
 10
828.4433
 20
-242.9878
 10
828.3526
 20
-242.7402
 10
828.267
 20
-242.4858
 10
828.1865
 20
-242.2246
 10
828.1107
 20
-241.9595
 10
828.0395
 20
-241.6927
 10
827.9731
 20
-241.4241
 10
827.9113
 20
-241.1539
 10
827.8543
 20
-240.8819
 10
827.8019
 20
-240.6081
 10
827.7542
 20
-240.3327
 10
827.7113
 20
-240.0554
 10
827.672
 20
-239.7787
 10
827.6357
 20
-239.5043
 10
827.6024
 20
-239.2322
 10
827.5721
 20
-238.9624
 10
827.5448
 20
-238.6947
 10
827.5204
 20
-238.4293
 10
827.499
 20
-238.1661
 10
827.4805
 20
-237.9051
 10
827.4646
 20
-237.6401
 10
827.4508
 20
-237.3651
 10
827.4391
 20
-237.0801
 10
827.4296
 20
-236.7853
 10
827.4222
 20
-236.4807
 10
827.4169
 20
-236.1665
 10
827.4138
 20
-235.8426
 10
827.4127
 20
-235.5091
 10
827.4174
 20
-235.1606
 10
827.4314
 20
-234.7918
 10
827.4547
 20
-234.4028
 10
827.4873
 20
-233.9934
 10
827.5293
 20
-233.5636
 10
827.5806
 20
-233.1132
 10
827.6413
 20
-232.6423
 10
827.7113
 20
-232.1506
 10
827.754
 20
-231.8777
 10
827.8011
 20
-231.6053
 10
827.8524
 20
-231.3334
 10
827.908
 20
-231.0621
 10
827.9679
 20
-230.7913
 10
828.032
 20
-230.5211
 10
828.1003
 20
-230.2514
 10
828.1728
 20
-229.9822
 10
828.2502
 20
-229.7167
 10
828.3331
 20
-229.4579
 10
828.4215
 20
-229.2057
 10
828.5154
 20
-228.9604
 10
828.6149
 20
-228.7217
 10
828.7199
 20
-228.4898
 10
828.8305
 20
-228.2647
 10
828.9467
 20
-228.0463
 10
829.0684
 20
-227.8363
 10
829.1961
 20
-227.6371
 10
829.3297
 20
-227.4485
 10
829.4692
 20
-227.2706
 10
829.6147
 20
-227.1034
 10
829.7662
 20
-226.9468
 10
829.9236
 20
-226.8009
 10
830.0869
 20
-226.6656
 10
830.257
 20
-226.5437
 10
830.4348
 20
-226.4381
 10
830.6202
 20
-226.3488
 10
830.8132
 20
-226.2757
 10
831.0138
 20
-226.2188
 10
831.2221
 20
-226.1782
 10
831.4379
 20
-226.1538
 10
831.6613
 20
-226.1457
 10
831.8849
 20
-226.1541
 10
832.1009
 20
-226.1794
 10
832.3092
 20
-226.2215
 10
832.5099
 20
-226.2804
 10
832.703
 20
-226.356
 10
832.8884
 20
-226.4485
 10
833.0662
 20
-226.5577
 10
833.2363
 20
-226.6836
  0
LWPOLYLINE
  5
6E
330
1F
100
AcDbEntity
  8
Layer 1
 62
     7
100
AcDbPolyline
 90
       65
 70
     1
 43
0.0
 10
831.7565
 20
-248.5523
 10
832.5491
 20
-248.4859
 10
833.2913
 20
-248.2868
 10
833.983
 20
-247.9549
 10
834.6242
 20
-247.4903
 10
835.215
 20
-246.8929
 10
835.7553
 20
-246.1628
 10
836.2451
 20
-245.2999
 10
836.6844
 20
-244.3043
 10
836.993
 20
-243.4354
 10
837.2604
 20
-242.5183
 10
837.4868
 20
-241.553
 10
837.6719
 20
-240.5397
 10
837.816
 20
-239.4781
 10
837.9189
 20
-238.3684
 10
837.9806
 20
-237.2105
 10
838.0012
 20
-236.0044
 10
837.9806
 20
-234.7986
 10
837.9189
 20
-233.6409
 10
837.816
 20
-232.5313
 10
837.6719
 20
-231.4699
 10
837.4868
 20
-230.4566
 10
837.2604
 20
-229.4914
 10
836.993
 20
-228.5743
 10
836.6844
 20
-227.7054
 10
836.2451
 20
-226.7098
 10
835.7553
 20
-225.8469
 10
835.215
 20
-225.1167
 10
834.6242
 20
-224.5194
 10
833.983
 20
-224.0547
 10
833.2913
 20
-223.7228
 10
832.5491
 20
-223.5237
 10
831.7565
 20
-223.4573
 10
830.9639
 20
-223.5237
 10
830.2217
 20
-223.7228
 10
829.53
 20
-224.0547
 10
828.8887
 20
-224.5194
 10
828.298
 20
-225.1167
 10
827.7577
 20
-225.8469
 10
827.2679
 20
-226.7098
 10
826.8286
 20
-227.7054
 10
826.52
 20
-228.5743
 10
826.2526
 20
-229.4914
 10
826.0262
 20
-230.4566
 10
825.841
 20
-231.4699
 10
825.697
 20
-232.5313
 10
825.594
 20
-233.6409
 10
825.5323
 20
-234.7986
 10
825.5117
 20
-236.0044
 10
825.5323
 20
-237.2105
 10
825.594
 20
-238.3684
 10
825.697
 20
-239.4781
 10
825.841
 20
-240.5397
 10
826.0262
 20
-241.553
 10
826.2526
 20
-242.5183
 10
826.52
 20
-243.4354
 10
826.8286
 20
-244.3043
 10
827.2679
 20
-245.2999
 10
827.7577
 20
-246.1628
 10
828.298
 20
-246.8929
 10
828.8887
 20
-247.4903
 10
829.53
 20
-247.9549
 10
830.2217
 20
-248.2868
 10
830.9639
 20
-248.4859
 10
831.7565
 20
-248.5523
  0
LWPOLYLINE
  5
6F
330
1F
100
AcDbEntity
  8
Layer 1
 62
     7
100
AcDbPolyline
 90
      165
 70
     1
 43
0.0
 10
856.5452
 20
-248.1581
 10
858.4456
 20
-248.1581
 10
858.4456
 20
-238.2993
 10
858.4301
 20
-237.6448
 10
858.3837
 20
-237.021
 10
858.3062
 20
-236.4281
 10
858.1979
 20
-235.866
 10
858.0585
 20
-235.3347
 10
857.8882
 20
-234.8342
 10
857.6869
 20
-234.3645
 10
857.4546
 20
-233.9256
 10
857.3249
 20
-233.7156
 10
857.1872
 20
-233.5164
 10
857.0415
 20
-233.3278
 10
856.8877
 20
-233.1499
 10
856.7258
 20
-232.9827
 10
856.556
 20
-232.8261
 10
856.378
 20
-232.6802
 10
856.1919
 20
-232.5449
 10
855.9942
 20
-232.4233
 10
855.7812
 20
-232.3179
 10
855.553
 20
-232.2287
 10
855.3095
 20
-232.1557
 10
855.0508
 20
-232.0989
 10
854.7767
 20
-232.0583
 10
854.4874
 20
-232.0339
 10
854.1827
 20
-232.0258
 10
853.8755
 20
-232.0398
 10
853.5779
 20
-232.0817
 10
853.2902
 20
-232.1517
 10
853.0121
 20
-232.2496
 10
852.7438
 20
-232.3756
 10
852.4853
 20
-232.5296
 10
852.2365
 20
-232.7117
 10
851.9974
 20
-232.9219
 10
851.7898
 20
-233.1312
 10
851.5916
 20
-233.3561
 10
851.4028
 20
-233.5965
 10
851.2233
 20
-233.8522
 10
851.0532
 20
-234.123
 10
850.8925
 20
-234.4087
 10
850.7411
 20
-234.7093
 10
850.599
 20
-235.0245
 10
850.4885
 20
-234.7335
 10
850.368
 20
-234.4526
 10
850.2373
 20
-234.1829
 10
850.0964
 20
-233.9256
 10
849.9669
 20
-233.7156
 10
849.8293
 20
-233.5164
 10
849.6836
 20
-233.3278
 10
849.5299
 20
-233.1499
 10
849.3681
 20
-232.9827
 10
849.1983
 20
-232.8261
 10
849.0203
 20
-232.6802
 10
848.8343
 20
-232.5449
 10
848.6365
 20
-232.4233
 10
848.4235
 20
-232.3179
 10
848.1952
 20
-232.2287
 10
847.9516
 20
-232.1557
 10
847.6928
 20
-232.0989
 10
847.4188
 20
-232.0583
 10
847.1295
 20
-232.0339
 10
846.825
 20
-232.0258
 10
846.5176
 20
-232.0398
 10
846.2199
 20
-232.0817
 10
845.932
 20
-232.1517
 10
845.6539
 20
-232.2496
 10
845.3856
 20
-232.3756
 10
845.127
 20
-232.5296
 10
844.8782
 20
-232.7117
 10
844.6391
 20
-232.9219
 10
844.4416
 20
-233.1212
 10
844.2525
 20
-233.3341
 10
844.0719
 20
-233.5606
 10
843.8997
 20
-233.8008
 10
843.736
 20
-234.0548
 10
843.5807
 20
-234.3226
 10
843.4339
 20
-234.6042
 10
843.2955
 20
-234.8997
 10
843.2955
 20
-232.3839
 10
841.3951
 20
-232.3839
 10
841.3951
 20
-248.1581
 10
843.2955
 20
-248.1581
 10
843.2955
 20
-240.0858
 10
843.3396
 20
-239.6154
 10
843.3973
 20
-239.1634
 10
843.4686
 20
-238.7296
 10
843.5534
 20
-238.3139
 10
843.6518
 20
-237.9161
 10
843.7638
 20
-237.5362
 10
843.8893
 20
-237.1739
 10
844.0283
 20
-236.8291
 10
844.1416
 20
-236.5839
 10
844.2643
 20
-236.3499
 10
844.3962
 20
-236.1269
 10
844.5374
 20
-235.9151
 10
844.688
 20
-235.7145
 10
844.8479
 20
-235.5251
 10
845.0172
 20
-235.3468
 10
845.1959
 20
-235.1798
 10
845.3809
 20
-235.0288
 10
845.5693
 20
-234.8978
 10
845.7611
 20
-234.787
 10
845.9563
 20
-234.6963
 10
846.1549
 20
-234.6257
 10
846.3568
 20
-234.5753
 10
846.5622
 20
-234.5451
 10
846.7709
 20
-234.535
 10
846.9745
 20
-234.5403
 10
847.1646
 20
-234.5563
 10
847.341
 20
-234.5828
 10
847.5039
 20
-234.62
 10
847.6531
 20
-234.6679
 10
847.7888
 20
-234.7263
 10
847.9109
 20
-234.7954
 10
848.0194
 20
-234.8751
 10
848.2932
 20
-235.1423
 10
848.5304
 20
-235.4555
 10
848.7311
 20
-235.8147
 10
848.8953
 20
-236.2197
 10
849.0229
 20
-236.6708
 10
849.1141
 20
-237.1677
 10
849.1688
 20
-237.7105
 10
849.187
 20
-238.2993
 10
849.187
 20
-248.1581
 10
851.088
 20
-248.1581
 10
851.088
 20
-238.2993
 10
851.0743
 20
-237.6956
 10
851.1445
 20
-237.4671
 10
851.2199
 20
-237.2469
 10
851.3005
 20
-237.0345
 10
851.3865
 20
-236.8291
 10
851.4997
 20
-236.5839
 10
851.6222
 20
-236.3499
 10
851.7541
 20
-236.1269
 10
851.8954
 20
-235.9151
 10
852.0459
 20
-235.7145
 10
852.2058
 20
-235.5251
 10
852.375
 20
-235.3468
 10
852.5535
 20
-235.1798
 10
852.7385
 20
-235.0288
 10
852.927
 20
-234.8978
 10
853.1188
 20
-234.787
 10
853.314
 20
-234.6963
 10
853.5125
 20
-234.6257
 10
853.7145
 20
-234.5753
 10
853.9198
 20
-234.5451
 10
854.1285
 20
-234.535
 10
854.3321
 20
-234.5403
 10
854.5222
 20
-234.5563
 10
854.6986
 20
-234.5828
 10
854.8615
 20
-234.62
 10
855.0109
 20
-234.6679
 10
855.1467
 20
-234.7263
 10
855.2689
 20
-234.7954
 10
855.3776
 20
-234.8751
 10
855.6512
 20
-235.1423
 10
855.8883
 20
-235.4555
 10
856.089
 20
-235.8147
 10
856.2532
 20
-236.2197
 10
856.381
 20
-236.6708
 10
856.4722
 20
-237.1677
 10
856.5269
 20
-237.7105
 10
856.5452
 20
-238.2993
 10
856.5452
 20
-248.1581
  0
LWPOLYLINE
  5
70
330
1F
100
AcDbEntity
  8
Layer 1
 62
     7
100
AcDbPolyline
 90
      165
 70
     1
 43
0.0
 10
877.2614
 20
-248.1581
 10
879.1618
 20
-248.1581
 10
879.1618
 20
-238.2993
 10
879.1463
 20
-237.6448
 10
879.0999
 20
-237.021
 10
879.0224
 20
-236.4281
 10
878.914
 20
-235.866
 10
878.7747
 20
-235.3347
 10
878.6043
 20
-234.8342
 10
878.403
 20
-234.3645
 10
878.1708
 20
-233.9256
 10
878.0411
 20
-233.7156
 10
877.9033
 20
-233.5164
 10
877.7576
 20
-233.3278
 10
877.6038
 20
-233.1499
 10
877.442
 20
-232.9827
 10
877.2721
 20
-232.8261
 10
877.0941
 20
-232.6802
 10
876.9081
 20
-232.5449
 10
876.7104
 20
-232.4233
 10
876.4974
 20
-232.3179
 10
876.2692
 20
-232.2287
 10
876.0257
 20
-232.1557
 10
875.7669
 20
-232.0989
 10
875.4929
 20
-232.0583
 10
875.2035
 20
-232.0339
 10
874.8988
 20
-232.0258
 10
874.5916
 20
-232.0398
 10
874.2941
 20
-232.0817
 10
874.0063
 20
-232.1517
 10
873.7283
 20
-232.2496
 10
873.46
 20
-232.3756
 10
873.2015
 20
-232.5296
 10
872.9527
 20
-232.7117
 10
872.7136
 20
-232.9219
 10
872.506
 20
-233.1312
 10
872.3078
 20
-233.3561
 10
872.119
 20
-233.5965
 10
871.9395
 20
-233.8522
 10
871.7694
 20
-234.123
 10
871.6087
 20
-234.4087
 10
871.4573
 20
-234.7093
 10
871.3152
 20
-235.0245
 10
871.2047
 20
-234.7335
 10
871.0842
 20
-234.4526
 10
870.9535
 20
-234.1829
 10
870.8126
 20
-233.9256
 10
870.6831
 20
-233.7156
 10
870.5455
 20
-233.5164
 10
870.3998
 20
-233.3278
 10
870.2461
 20
-233.1499
 10
870.0843
 20
-232.9827
 10
869.9144
 20
-232.8261
 10
869.7365
 20
-232.6802
 10
869.5504
 20
-232.5449
 10
869.3527
 20
-232.4233
 10
869.1397
 20
-232.3179
 10
868.9114
 20
-232.2287
 10
868.6678
 20
-232.1557
 10
868.409
 20
-232.0989
 10
868.135
 20
-232.0583
 10
867.8457
 20
-232.0339
 10
867.5412
 20
-232.0258
 10
867.2338
 20
-232.0398
 10
866.9361
 20
-232.0817
 10
866.6482
 20
-232.1517
 10
866.3701
 20
-232.2496
 10
866.1018
 20
-232.3756
 10
865.8432
 20
-232.5296
 10
865.5944
 20
-232.7117
 10
865.3553
 20
-232.9219
 10
865.1578
 20
-233.1212
 10
864.9687
 20
-233.3341
 10
864.7881
 20
-233.5606
 10
864.6159
 20
-233.8008
 10
864.4522
 20
-234.0548
 10
864.2969
 20
-234.3226
 10
864.1501
 20
-234.6042
 10
864.0117
 20
-234.8997
 10
864.0117
 20
-232.3839
 10
862.1113
 20
-232.3839
 10
862.1113
 20
-248.1581
 10
864.0117
 20
-248.1581
 10
864.0117
 20
-240.0858
 10
864.0558
 20
-239.6154
 10
864.1135
 20
-239.1634
 10
864.1848
 20
-238.7296
 10
864.2696
 20
-238.3139
 10
864.368
 20
-237.9161
 10
864.48
 20
-237.5362
 10
864.6055
 20
-237.1739
 10
864.7445
 20
-236.8291
 10
864.8578
 20
-236.5839
 10
864.9804
 20
-236.3499
 10
865.1124
 20
-236.1269
 10
865.2536
 20
-235.9151
 10
865.4042
 20
-235.7145
 10
865.5641
 20
-235.5251
 10
865.7334
 20
-235.3468
 10
865.9121
 20
-235.1798
 10
866.0971
 20
-235.0288
 10
866.2855
 20
-234.8978
 10
866.4773
 20
-234.787
 10
866.6725
 20
-234.6963
 10
866.8711
 20
-234.6257
 10
867.073
 20
-234.5753
 10
867.2784
 20
-234.5451
 10
867.4871
 20
-234.535
 10
867.6907
 20
-234.5403
 10
867.8807
 20
-234.5563
 10
868.0572
 20
-234.5828
 10
868.22
 20
-234.62
 10
868.3693
 20
-234.6679
 10
868.505
 20
-234.7263
 10
868.6271
 20
-234.7954
 10
868.7356
 20
-234.8751
 10
869.0094
 20
-235.1423
 10
869.2466
 20
-235.4555
 10
869.4473
 20
-235.8147
 10
869.6114
 20
-236.2197
 10
869.739
 20
-236.6708
 10
869.8302
 20
-237.1677
 10
869.8849
 20
-237.7105
 10
869.9031
 20
-238.2993
 10
869.9031
 20
-248.1581
 10
871.8041
 20
-248.1581
 10
871.8041
 20
-238.2993
 10
871.7904
 20
-237.6956
 10
871.8606
 20
-237.4671
 10
871.9361
 20
-237.2469
 10
872.0167
 20
-237.0345
 10
872.1027
 20
-236.8291
 10
872.2159
 20
-236.5839
 10
872.3384
 20
-236.3499
 10
872.4703
 20
-236.1269
 10
872.6116
 20
-235.9151
 10
872.7621
 20
-235.7145
 10
872.922
 20
-235.5251
 10
873.0912
 20
-235.3468
 10
873.2697
 20
-235.1798
 10
873.4547
 20
-235.0288
 10
873.6431
 20
-234.8978
 10
873.8349
 20
-234.787
 10
874.0301
 20
-234.6963
 10
874.2287
 20
-234.6257
 10
874.4306
 20
-234.5753
 10
874.636
 20
-234.5451
 10
874.8447
 20
-234.535
 10
875.0483
 20
-234.5403
 10
875.2384
 20
-234.5563
 10
875.4148
 20
-234.5828
 10
875.5777
 20
-234.62
 10
875.7271
 20
-234.6679
 10
875.8629
 20
-234.7263
 10
875.9851
 20
-234.7954
 10
876.0938
 20
-234.8751
 10
876.3674
 20
-235.1423
 10
876.6045
 20
-235.4555
 10
876.8052
 20
-235.8147
 10
876.9694
 20
-236.2197
 10
877.0972
 20
-236.6708
 10
877.1884
 20
-237.1677
 10
877.2431
 20
-237.7105
 10
877.2614
 20
-238.2993
 10
877.2614
 20
-248.1581
  0
LWPOLYLINE
  5
71
330
1F
100
AcDbEntity
  8
Layer 1
 62
     7
370
    18
100
AcDbPolyline
 90
        2
 70
     0
 43
0.0
 10
848.5338
 20
74.7961
 10
832.6933
 20
74.7961
  0
LWPOLYLINE
  5
72
330
1F
100
AcDbEntity
  8
Layer 1
 62
     7
370
    18
100
AcDbPolyline
 90
        2
 70
     0
 43
0.0
 10
840.6132
 20
74.8012
 10
840.6132
 20
-206.3115
  0
LWPOLYLINE
  5
73
330
1F
100
AcDbEntity
  8
Layer 1
 62
     7
370
    18
100
AcDbPolyline
 90
        2
 70
     0
 43
0.0
 10
848.5338
 20
-612.1398
 10
832.6933
 20
-612.1398
  0
LWPOLYLINE
  5
74
330
1F
100
AcDbEntity
  8
Layer 1
 62
     7
370
    18
100
AcDbPolyline
 90
        2
 70
     0
 43
0.0
 10
840.6132
 20
-612.1475
 10
840.6132
 20
-279.0617
  0
LWPOLYLINE
  5
75
330
1F
100
AcDbEntity
  8
Layer 1
 62
     7
100
AcDbPolyline
 90
       73
 70
     1
 43
0.0
 10
452.8884
 20
199.7531
 10
453.3222
 20
199.7267
 10
453.7398
 20
199.6476
 10
454.1413
 20
199.5157
 10
454.5267
 20
199.3311
 10
454.8959
 20
199.0938
 10
455.249
 20
198.8036
 10
455.5861
 20
198.4607
 10
455.907
 20
198.0651
 10
456.1969
 20
197.6379
 10
456.4481
 20
197.1904
 10
456.6606
 20
196.7226
 10
456.8345
 20
196.2347
 10
456.9697
 20
195.7265
 10
457.0663
 20
195.198
 10
457.1242
 20
194.6493
 10
457.1435
 20
194.0804
 10
457.124
 20
193.5246
 10
457.0654
 20
192.9878
 10
456.9677
 20
192.4701
 10
456.831
 20
191.9715
 10
456.6551
 20
191.4919
 10
456.4402
 20
191.0314
 10
456.186
 20
190.59
 10
455.8927
 20
190.1677
 10
455.5779
 20
189.7891
 10
455.2453
 20
189.461
 10
454.8949
 20
189.1834
 10
454.5266
 20
188.9564
 10
454.1404
 20
188.7798
 10
453.7365
 20
188.6537
 10
453.3147
 20
188.578
 10
452.875
 20
188.5528
 10
452.4439
 20
188.5788
 10
452.0273
 20
188.657
 10
451.625
 20
188.7873
 10
451.2371
 20
188.9698
 10
450.8637
 20
189.2045
 10
450.5047
 20
189.4914
 10
450.1603
 20
189.8306
 10
449.8304
 20
190.222
 10
449.5308
 20
190.6451
 10
449.2711
 20
191.089
 10
449.0514
 20
191.5537
 10
448.8716
 20
192.0392
 10
448.7318
 20
192.5454
 10
448.6319
 20
193.0725
 10
448.572
 20
193.6204
 10
448.552
 20
194.189
 10
448.572
 20
194.7545
 10
448.6319
 20
195.2982
 10
448.7318
 20
195.82
 10
448.8716
 20
196.3201
 10
449.0514
 20
196.7983
 10
449.2711
 20
197.2546
 10
449.5308
 20
197.6891
 10
449.8304
 20
198.1017
 10
449.9828
 20
198.2854
 10
450.1411
 20
198.4595
 10
450.3054
 20
198.6242
 10
450.4757
 20
198.7792
 10
450.652
 20
198.9247
 10
450.8343
 20
199.0607
 10
451.0226
 20
199.187
 10
451.2169
 20
199.3037
 10
451.4154
 20
199.409
 10
451.6169
 20
199.5003
 10
451.8214
 20
199.5776
 10
452.0288
 20
199.6408
 10
452.2393
 20
199.6899
 10
452.4527
 20
199.725
 10
452.6691
 20
199.7461
 10
452.8884
 20
199.7531
  0
LWPOLYLINE
  5
76
330
1F
100
AcDbEntity
  8
Layer 1
 62
     7
100
AcDbPolyline
 90
       69
 70
     1
 43
0.0
 10
459.074
 20
194.2597
 10
459.0443
 20
195.1243
 10
458.9551
 20
195.9495
 10
458.8064
 20
196.7355
 10
458.5983
 20
197.4821
 10
458.3307
 20
198.1895
 10
458.0037
 20
198.8576
 10
457.6172
 20
199.4865
 10
457.1712
 20
200.0763
 10
456.7151
 20
200.5727
 10
456.2271
 20
201.0081
 10
455.7073
 20
201.3825
 10
455.1556
 20
201.6958
 10
454.5721
 20
201.948
 10
453.9567
 20
202.1391
 10
453.3094
 20
202.2689
 10
452.6302
 20
202.3376
 10
452.087
 20
201.8705
 10
457.742
 20
210.8449
 10
455.2406
 20
210.8449
 10
448.0088
 20
199.3214
 10
447.6838
 20
198.7604
 10
447.4021
 20
198.1764
 10
447.1638
 20
197.5693
 10
446.9688
 20
196.9392
 10
446.8172
 20
196.2861
 10
446.7089
 20
195.61
 10
446.644
 20
194.9109
 10
446.6223
 20
194.189
 10
446.6507
 20
193.3566
 10
446.7361
 20
192.5563
 10
446.8783
 20
191.7879
 10
447.0775
 20
191.0517
 10
447.3336
 20
190.3474
 10
447.6467
 20
189.6752
 10
448.0168
 20
189.0349
 10
448.4439
 20
188.4266
 10
448.914
 20
187.8671
 10
449.4072
 20
187.3822
 10
449.9233
 20
186.9719
 10
450.4625
 20
186.6361
 10
451.0245
 20
186.3749
 10
451.6095
 20
186.1884
 10
452.2174
 20
186.0764
 10
452.8482
 20
186.0391
 10
453.488
 20
186.0761
 10
454.1023
 20
186.1873
 10
454.691
 20
186.3724
 10
455.2543
 20
186.6317
 10
455.7921
 20
186.965
 10
456.3043
 20
187.3723
 10
456.7911
 20
187.8536
 10
457.2524
 20
188.4089
 10
457.4576
 20
188.6927
 10
457.6518
 20
188.9878
 10
457.8349
 20
189.294
 10
458.0069
 20
189.6114
 10
458.1679
 20
189.94
 10
458.3178
 20
190.2799
 10
458.4567
 20
190.631
 10
458.5845
 20
190.9934
 10
458.6991
 20
191.3665
 10
458.7985
 20
191.7496
 10
458.8826
 20
192.1428
 10
458.9515
 20
192.546
 10
459.0051
 20
192.9594
 10
459.0434
 20
193.3827
 10
459.0663
 20
193.8162
 10
459.074
 20
194.2597
  0
LWPOLYLINE
  5
77
330
1F
100
AcDbEntity
  8
Layer 1
 62
     7
100
AcDbPolyline
 90
        7
 70
     1
 43
0.0
 10
463.8321
 20
186.4342
 10
465.7349
 20
186.4342
 10
465.7349
 20
211.1328
 10
461.1681
 20
210.4863
 10
461.1681
 20
208.297
 10
463.8321
 20
208.297
 10
463.8321
 20
186.4342
  0
LWPOLYLINE
  5
78
330
1F
100
AcDbEntity
  8
Layer 1
 62
     7
100
AcDbPolyline
 90
      129
 70
     1
 43
0.0
 10
476.7055
 20
208.0092
 10
477.0195
 20
207.7278
 10
477.3122
 20
207.4081
 10
477.5836
 20
207.0502
 10
477.8338
 20
206.6541
 10
478.0627
 20
206.2199
 10
478.2703
 20
205.7475
 10
478.4566
 20
205.2371
 10
478.6217
 20
204.6886
 10
478.8067
 20
203.9609
 10
478.967
 20
203.2224
 10
479.1026
 20
202.4733
 10
479.2135
 20
201.7135
 10
479.2997
 20
200.943
 10
479.3613
 20
200.1618
 10
479.3983
 20
199.37
 10
479.4106
 20
198.5676
 10
479.4093
 20
198.375
 10
479.4054
 20
198.1739
 10
479.399
 20
197.9645
 10
479.3901
 20
197.7466
 10
479.3786
 20
197.5204
 10
479.3646
 20
197.2857
 10
479.3482
 20
197.0427
 10
479.3293
 20
196.7912
 10
479.2348
 20
195.8261
 10
479.1115
 20
194.9143
 10
478.9594
 20
194.0558
 10
478.7784
 20
193.2506
 10
478.5686
 20
192.4987
 10
478.3299
 20
191.8001
 10
478.0623
 20
191.1549
 10
477.7659
 20
190.5629
 10
477.4953
 20
190.1167
 10
477.2103
 20
189.7301
 10
476.9108
 20
189.4031
 10
476.5968
 20
189.1356
 10
476.2684
 20
188.9275
 10
475.9256
 20
188.779
 10
475.5683
 20
188.6899
 10
475.1966
 20
188.6602
 10
474.7818
 20
188.6896
 10
474.3869
 20
188.7779
 10
474.0119
 20
188.9251
 10
473.657
 20
189.1311
 10
473.322
 20
189.3962
 10
473.007
 20
189.7202
 10
472.712
 20
190.1032
 10
472.437
 20
190.5452
 10
472.3206
 20
190.7592
 10
472.2093
 20
190.98
 10
472.1031
 20
191.2077
 10
472.002
 20
191.4421
 10
471.906
 20
191.6834
 10
471.815
 20
191.9315
 10
471.729
 20
192.1863
 10
471.6481
 20
192.4479
 10
471.5724
 20
192.7133
 10
471.5013
 20
192.9805
 10
471.4348
 20
193.2494
 10
471.373
 20
193.52
 10
471.3159
 20
193.7923
 10
471.2635
 20
194.0664
 10
471.2158
 20
194.3421
 10
471.1729
 20
194.6195
 10
471.1335
 20
194.8966
 10
471.0972
 20
195.1714
 10
471.0638
 20
195.4439
 10
471.0334
 20
195.7142
 10
471.006
 20
195.9823
 10
470.9815
 20
196.2482
 10
470.96
 20
196.5119
 10
470.9415
 20
196.7735
 10
470.9255
 20
197.0387
 10
470.9117
 20
197.3139
 10
470.9
 20
197.5992
 10
470.8905
 20
197.8944
 10
470.8831
 20
198.1994
 10
470.8778
 20
198.5142
 10
470.8746
 20
198.8387
 10
470.8736
 20
199.1728
 10
470.8783
 20
199.5217
 10
470.8923
 20
199.8908
 10
470.9158
 20
200.2802
 10
470.9485
 20
200.69
 10
470.9906
 20
201.1203
 10
471.0421
 20
201.5711
 10
471.1028
 20
202.0425
 10
471.1729
 20
202.5346
 10
471.2156
 20
202.8081
 10
471.2626
 20
203.0811
 10
471.314
 20
203.3535
 10
471.3696
 20
203.6253
 10
471.4295
 20
203.8965
 10
471.4937
 20
204.1671
 10
471.5621
 20
204.437
 10
471.6347
 20
204.7063
 10
471.7122
 20
204.9723
 10
471.7952
 20
205.2316
 10
471.8837
 20
205.4841
 10
471.9778
 20
205.7299
 10
472.0773
 20
205.9689
 10
472.1825
 20
206.2012
 10
472.2931
 20
206.4268
 10
472.4093
 20
206.6456
 10
472.5312
 20
206.8556
 10
472.6592
 20
207.055
 10
472.7931
 20
207.2436
 10
472.933
 20
207.4216
 10
473.0789
 20
207.5889
 10
473.2306
 20
207.7455
 10
473.3883
 20
207.8915
 10
473.5519
 20
208.0269
 10
473.7222
 20
208.1492
 10
473.9002
 20
208.2551
 10
474.0857
 20
208.3447
 10
474.279
 20
208.418
 10
474.4799
 20
208.475
 10
474.6885
 20
208.5157
 10
474.9047
 20
208.5401
 10
475.1287
 20
208.5482
 10
475.3524
 20
208.5398
 10
475.5685
 20
208.5146
 10
475.7771
 20
208.4725
 10
475.9781
 20
208.4136
 10
476.1714
 20
208.3378
 10
476.3571
 20
208.2452
 10
476.5352
 20
208.1356
 10
476.7055
 20
208.0092
  0
LWPOLYLINE
  5
79
330
1F
100
AcDbEntity
  8
Layer 1
 62
     7
100
AcDbPolyline
 90
       65
 70
     1
 43
0.0
 10
475.2234
 20
186.111
 10
476.0172
 20
186.1775
 10
476.7604
 20
186.3769
 10
477.4531
 20
186.7092
 10
478.0952
 20
187.1744
 10
478.6867
 20
187.7726
 10
479.2278
 20
188.5037
 10
479.7183
 20
189.3677
 10
480.1583
 20
190.3647
 10
480.4674
 20
191.235
 10
480.7352
 20
192.1534
 10
480.9618
 20
193.12
 10
481.1473
 20
194.1347
 10
481.2915
 20
195.1977
 10
481.3945
 20
196.3089
 10
481.4563
 20
197.4684
 10
481.4769
 20
198.6762
 10
481.4563
 20
199.8836
 10
481.3945
 20
201.043
 10
481.2915
 20
202.1541
 10
481.1473
 20
203.2171
 10
480.9618
 20
204.2318
 10
480.7352
 20
205.1983
 10
480.4674
 20
206.1166
 10
480.1583
 20
206.9865
 10
479.7183
 20
207.9834
 10
479.2278
 20
208.8474
 10
478.6867
 20
209.5785
 10
478.0952
 20
210.1767
 10
477.4531
 20
210.6419
 10
476.7604
 20
210.9742
 10
476.0172
 20
211.1736
 10
475.2234
 20
211.2401
 10
474.4296
 20
211.1736
 10
473.6864
 20
210.9742
 10
472.9937
 20
210.6419
 10
472.3517
 20
210.1767
 10
471.7602
 20
209.5785
 10
471.2193
 20
208.8474
 10
470.729
 20
207.9834
 10
470.2893
 20
206.9865
 10
469.9802
 20
206.1166
 10
469.7124
 20
205.1983
 10
469.4858
 20
204.2318
 10
469.3003
 20
203.2171
 10
469.1561
 20
202.1541
 10
469.0531
 20
201.043
 10
468.9913
 20
199.8836
 10
468.9707
 20
198.6762
 10
468.9913
 20
197.4684
 10
469.0531
 20
196.3089
 10
469.1561
 20
195.1977
 10
469.3003
 20
194.1347
 10
469.4858
 20
193.12
 10
469.7124
 20
192.1534
 10
469.9802
 20
191.235
 10
470.2893
 20
190.3647
 10
470.729
 20
189.3677
 10
471.2193
 20
188.5037
 10
471.7602
 20
187.7726
 10
472.3517
 20
187.1744
 10
472.9937
 20
186.7092
 10
473.6864
 20
186.3769
 10
474.4296
 20
186.1775
 10
475.2234
 20
186.111
  0
LWPOLYLINE
  5
7A
330
1F
100
AcDbEntity
  8
Layer 1
 62
     7
100
AcDbPolyline
 90
       13
 70
     1
 43
0.0
 10
491.9168
 20
186.4342
 10
494.336
 20
186.4342
 10
490.1488
 20
194.3317
 10
494.336
 20
202.2303
 10
491.9168
 20
202.2303
 10
488.9258
 20
196.1624
 10
485.9348
 20
202.2303
 10
483.5156
 20
202.2303
 10
487.7028
 20
194.3683
 10
483.5156
 20
186.4342
 10
485.9348
 20
186.4342
 10
488.9258
 20
192.5729
 10
491.9168
 20
186.4342
  0
LWPOLYLINE
  5
7B
330
1F
100
AcDbEntity
  8
Layer 1
 62
     7
100
AcDbPolyline
 90
        4
 70
     1
 43
0.0
 10
505.864
 20
208.1177
 10
505.864
 20
194.0085
 10
498.7948
 20
194.0085
 10
505.864
 20
208.1177
  0
LWPOLYLINE
  5
7C
330
1F
100
AcDbEntity
  8
Layer 1
 62
     7
100
AcDbPolyline
 90
       11
 70
     1
 43
0.0
 10
507.8481
 20
191.424
 10
510.187
 20
191.424
 10
510.187
 20
194.0085
 10
507.8481
 20
194.0085
 10
507.8213
 20
210.8449
 10
505.1573
 20
210.8449
 10
495.4232
 20
191.424
 10
505.864
 20
191.424
 10
505.864
 20
186.4342
 10
507.8481
 20
186.4342
 10
507.8481
 20
191.424
  0
LWPOLYLINE
  5
7D
330
1F
100
AcDbEntity
  8
Layer 1
 62
     7
100
AcDbPolyline
 90
        7
 70
     1
 43
0.0
 10
515.4882
 20
186.4342
 10
517.3911
 20
186.4342
 10
517.3911
 20
211.1328
 10
512.8242
 20
210.4863
 10
512.8242
 20
208.297
 10
515.4882
 20
208.297
 10
515.4882
 20
186.4342
  0
LWPOLYLINE
  5
7E
330
1F
100
AcDbEntity
  8
Layer 1
 62
     7
100
AcDbPolyline
 90
      129
 70
     1
 43
0.0
 10
528.3616
 20
208.0092
 10
528.6756
 20
207.7278
 10
528.9683
 20
207.4081
 10
529.2398
 20
207.0502
 10
529.4899
 20
206.6541
 10
529.7188
 20
206.2199
 10
529.9264
 20
205.7475
 10
530.1127
 20
205.2371
 10
530.2778
 20
204.6886
 10
530.4628
 20
203.9609
 10
530.6231
 20
203.2224
 10
530.7587
 20
202.4733
 10
530.8696
 20
201.7135
 10
530.9558
 20
200.943
 10
531.0174
 20
200.1618
 10
531.0544
 20
199.37
 10
531.0667
 20
198.5676
 10
531.0654
 20
198.375
 10
531.0615
 20
198.1739
 10
531.0551
 20
197.9645
 10
531.0462
 20
197.7466
 10
531.0347
 20
197.5204
 10
531.0207
 20
197.2857
 10
531.0043
 20
197.0427
 10
530.9854
 20
196.7912
 10
530.8909
 20
195.8261
 10
530.7676
 20
194.9143
 10
530.6155
 20
194.0558
 10
530.4345
 20
193.2506
 10
530.2247
 20
192.4987
 10
529.986
 20
191.8001
 10
529.7184
 20
191.1549
 10
529.422
 20
190.5629
 10
529.1514
 20
190.1167
 10
528.8664
 20
189.7301
 10
528.5669
 20
189.4031
 10
528.2529
 20
189.1356
 10
527.9245
 20
188.9275
 10
527.5817
 20
188.779
 10
527.2244
 20
188.6899
 10
526.8527
 20
188.6602
 10
526.4379
 20
188.6896
 10
526.043
 20
188.7779
 10
525.668
 20
188.9251
 10
525.3131
 20
189.1311
 10
524.9781
 20
189.3962
 10
524.6631
 20
189.7202
 10
524.3681
 20
190.1032
 10
524.0931
 20
190.5452
 10
523.9767
 20
190.7592
 10
523.8654
 20
190.98
 10
523.7592
 20
191.2077
 10
523.6581
 20
191.4421
 10
523.5621
 20
191.6834
 10
523.4711
 20
191.9315
 10
523.3851
 20
192.1863
 10
523.3042
 20
192.4479
 10
523.2285
 20
192.7133
 10
523.1574
 20
192.9805
 10
523.0909
 20
193.2494
 10
523.0291
 20
193.52
 10
522.972
 20
193.7923
 10
522.9196
 20
194.0664
 10
522.8719
 20
194.3421
 10
522.829
 20
194.6195
 10
522.7896
 20
194.8966
 10
522.7533
 20
195.1714
 10
522.7199
 20
195.4439
 10
522.6895
 20
195.7142
 10
522.6621
 20
195.9823
 10
522.6377
 20
196.2482
 10
522.6162
 20
196.5119
 10
522.5976
 20
196.7735
 10
522.5816
 20
197.0387
 10
522.5678
 20
197.3139
 10
522.5561
 20
197.5992
 10
522.5466
 20
197.8944
 10
522.5392
 20
198.1994
 10
522.5339
 20
198.5142
 10
522.5307
 20
198.8387
 10
522.5297
 20
199.1728
 10
522.5344
 20
199.5217
 10
522.5485
 20
199.8908
 10
522.5719
 20
200.2802
 10
522.6047
 20
200.69
 10
522.6468
 20
201.1203
 10
522.6982
 20
201.5711
 10
522.7589
 20
202.0425
 10
522.829
 20
202.5346
 10
522.8717
 20
202.8081
 10
522.9187
 20
203.0811
 10
522.9701
 20
203.3535
 10
523.0257
 20
203.6253
 10
523.0856
 20
203.8965
 10
523.1498
 20
204.1671
 10
523.2182
 20
204.437
 10
523.2908
 20
204.7063
 10
523.3683
 20
204.9723
 10
523.4513
 20
205.2316
 10
523.5398
 20
205.4841
 10
523.6339
 20
205.7299
 10
523.7335
 20
205.9689
 10
523.8386
 20
206.2012
 10
523.9492
 20
206.4268
 10
524.0654
 20
206.6456
 10
524.1873
 20
206.8556
 10
524.3153
 20
207.055
 10
524.4492
 20
207.2436
 10
524.5891
 20
207.4216
 10
524.735
 20
207.5889
 10
524.8867
 20
207.7455
 10
525.0444
 20
207.8915
 10
525.208
 20
208.0269
 10
525.3783
 20
208.1492
 10
525.5563
 20
208.2551
 10
525.7418
 20
208.3447
 10
525.9351
 20
208.418
 10
526.136
 20
208.475
 10
526.3446
 20
208.5157
 10
526.5608
 20
208.5401
 10
526.7848
 20
208.5482
 10
527.0085
 20
208.5398
 10
527.2246
 20
208.5146
 10
527.4332
 20
208.4725
 10
527.6342
 20
208.4136
 10
527.8275
 20
208.3378
 10
528.0132
 20
208.2452
 10
528.1913
 20
208.1356
 10
528.3616
 20
208.0092
  0
LWPOLYLINE
  5
7F
330
1F
100
AcDbEntity
  8
Layer 1
 62
     7
100
AcDbPolyline
 90
       65
 70
     1
 43
0.0
 10
526.8795
 20
186.111
 10
527.6733
 20
186.1775
 10
528.4166
 20
186.3769
 10
529.1092
 20
186.7092
 10
529.7514
 20
187.1744
 10
530.3429
 20
187.7726
 10
530.8839
 20
188.5037
 10
531.3744
 20
189.3677
 10
531.8144
 20
190.3647
 10
532.1235
 20
191.235
 10
532.3913
 20
192.1534
 10
532.6179
 20
193.12
 10
532.8034
 20
194.1347
 10
532.9476
 20
195.1977
 10
533.0506
 20
196.3089
 10
533.1124
 20
197.4684
 10
533.133
 20
198.6762
 10
533.1124
 20
199.8836
 10
533.0506
 20
201.043
 10
532.9476
 20
202.1541
 10
532.8034
 20
203.2171
 10
532.6179
 20
204.2318
 10
532.3913
 20
205.1983
 10
532.1235
 20
206.1166
 10
531.8144
 20
206.9865
 10
531.3744
 20
207.9834
 10
530.8839
 20
208.8474
 10
530.3429
 20
209.5785
 10
529.7514
 20
210.1767
 10
529.1092
 20
210.6419
 10
528.4166
 20
210.9742
 10
527.6733
 20
211.1736
 10
526.8795
 20
211.2401
 10
526.0857
 20
211.1736
 10
525.3425
 20
210.9742
 10
524.6498
 20
210.6419
 10
524.0078
 20
210.1767
 10
523.4163
 20
209.5785
 10
522.8754
 20
208.8474
 10
522.3851
 20
207.9834
 10
521.9454
 20
206.9865
 10
521.6364
 20
206.1166
 10
521.3685
 20
205.1983
 10
521.1419
 20
204.2318
 10
520.9565
 20
203.2171
 10
520.8122
 20
202.1541
 10
520.7092
 20
201.043
 10
520.6474
 20
199.8836
 10
520.6268
 20
198.6762
 10
520.6474
 20
197.4684
 10
520.7092
 20
196.3089
 10
520.8122
 20
195.1977
 10
520.9565
 20
194.1347
 10
521.1419
 20
193.12
 10
521.3685
 20
192.1534
 10
521.6364
 20
191.235
 10
521.9454
 20
190.3647
 10
522.3851
 20
189.3677
 10
522.8754
 20
188.5037
 10
523.4163
 20
187.7726
 10
524.0078
 20
187.1744
 10
524.6498
 20
186.7092
 10
525.3425
 20
186.3769
 10
526.0857
 20
186.1775
 10
526.8795
 20
186.111
  0
LWPOLYLINE
  5
80
330
1F
100
AcDbEntity
  8
Layer 1
 62
     7
100
AcDbPolyline
 90
      165
 70
     1
 43
0.0
 10
551.7016
 20
186.5062
 10
553.6045
 20
186.5062
 10
553.6045
 20
196.3783
 10
553.589
 20
197.0339
 10
553.5425
 20
197.6585
 10
553.465
 20
198.2522
 10
553.3566
 20
198.8151
 10
553.2171
 20
199.3471
 10
553.0467
 20
199.8482
 10
552.8453
 20
200.3186
 10
552.6129
 20
200.7582
 10
552.4829
 20
200.9682
 10
552.345
 20
201.1676
 10
552.199
 20
201.3562
 10
552.045
 20
201.5342
 10
551.8829
 20
201.7015
 10
551.7127
 20
201.8581
 10
551.5344
 20
202.0041
 10
551.3479
 20
202.1395
 10
551.15
 20
202.2618
 10
550.9368
 20
202.3678
 10
550.7083
 20
202.4574
 10
550.4645
 20
202.5307
 10
550.2054
 20
202.5877
 10
549.931
 20
202.6284
 10
549.6412
 20
202.6528
 10
549.336
 20
202.6609
 10
549.0283
 20
202.6469
 10
548.7305
 20
202.6047
 10
548.4424
 20
202.5345
 10
548.164
 20
202.4363
 10
547.8954
 20
202.31
 10
547.6366
 20
202.1557
 10
547.3875
 20
201.9735
 10
547.1481
 20
201.7632
 10
546.9404
 20
201.5533
 10
546.742
 20
201.3278
 10
546.5528
 20
201.0871
 10
546.373
 20
200.831
 10
546.2026
 20
200.5598
 10
546.0415
 20
200.2736
 10
545.8897
 20
199.9724
 10
545.7473
 20
199.6564
 10
545.637
 20
199.9482
 10
545.5163
 20
200.2298
 10
545.3854
 20
200.5002
 10
545.2444
 20
200.7582
 10
545.1147
 20
200.9682
 10
544.9769
 20
201.1676
 10
544.831
 20
201.3562
 10
544.677
 20
201.5342
 10
544.5149
 20
201.7015
 10
544.3448
 20
201.8581
 10
544.1666
 20
202.0041
 10
543.9803
 20
202.1395
 10
543.7823
 20
202.2618
 10
543.5691
 20
202.3678
 10
543.3405
 20
202.4574
 10
543.0966
 20
202.5307
 10
542.8374
 20
202.5877
 10
542.563
 20
202.6284
 10
542.2733
 20
202.6528
 10
541.9684
 20
202.6609
 10
541.6607
 20
202.6469
 10
541.3627
 20
202.6047
 10
541.0745
 20
202.5345
 10
540.796
 20
202.4363
 10
540.5272
 20
202.31
 10
540.2683
 20
202.1557
 10
540.0191
 20
201.9735
 10
539.7797
 20
201.7632
 10
539.5819
 20
201.5636
 10
539.3925
 20
201.3504
 10
539.2115
 20
201.1236
 10
539.039
 20
200.8831
 10
538.875
 20
200.6288
 10
538.7195
 20
200.3607
 10
538.5726
 20
200.0786
 10
538.4343
 20
199.7826
 10
538.4343
 20
202.3011
 10
536.5305
 20
202.3011
 10
536.5305
 20
186.5062
 10
538.4343
 20
186.5062
 10
538.4343
 20
194.5888
 10
538.4783
 20
195.0599
 10
538.5359
 20
195.5127
 10
538.6072
 20
195.9471
 10
538.6921
 20
196.3634
 10
538.7906
 20
196.7617
 10
538.9027
 20
197.1423
 10
539.0284
 20
197.5051
 10
539.1677
 20
197.8504
 10
539.2812
 20
198.096
 10
539.4041
 20
198.3304
 10
539.5363
 20
198.5536
 10
539.6777
 20
198.7655
 10
539.8286
 20
198.9663
 10
539.9887
 20
199.1559
 10
540.1582
 20
199.3344
 10
540.3371
 20
199.5019
 10
540.5224
 20
199.6532
 10
540.711
 20
199.7843
 10
540.903
 20
199.8952
 10
541.0984
 20
199.9859
 10
541.2972
 20
200.0565
 10
541.4993
 20
200.1068
 10
541.7049
 20
200.137
 10
541.9139
 20
200.1471
 10
542.1178
 20
200.1418
 10
542.3082
 20
200.1259
 10
542.4849
 20
200.0993
 10
542.6481
 20
200.062
 10
542.7977
 20
200.0141
 10
542.9336
 20
199.9555
 10
543.0559
 20
199.8862
 10
543.1646
 20
199.8062
 10
543.4388
 20
199.5386
 10
543.6763
 20
199.2251
 10
543.8773
 20
198.8657
 10
544.0418
 20
198.4603
 10
544.1696
 20
198.0089
 10
544.261
 20
197.5114
 10
544.3157
 20
196.9679
 10
544.334
 20
196.3783
 10
544.334
 20
186.5062
 10
546.2369
 20
186.5062
 10
546.2369
 20
196.3783
 10
546.2235
 20
196.9823
 10
546.2938
 20
197.2113
 10
546.3695
 20
197.4318
 10
546.4503
 20
197.6446
 10
546.5362
 20
197.8504
 10
546.6495
 20
198.096
 10
546.7721
 20
198.3304
 10
546.9042
 20
198.5536
 10
547.0457
 20
198.7655
 10
547.1965
 20
198.9663
 10
547.3566
 20
199.1559
 10
547.5261
 20
199.3344
 10
547.7047
 20
199.5019
 10
547.89
 20
199.6532
 10
548.0787
 20
199.7843
 10
548.2709
 20
199.8952
 10
548.4664
 20
199.9859
 10
548.6654
 20
200.0565
 10
548.8677
 20
200.1068
 10
549.0734
 20
200.137
 10
549.2824
 20
200.1471
 10
549.4863
 20
200.1418
 10
549.6765
 20
200.1259
 10
549.8532
 20
200.0993
 10
550.0162
 20
200.062
 10
550.1656
 20
200.0141
 10
550.3014
 20
199.9555
 10
550.4236
 20
199.8862
 10
550.5322
 20
199.8062
 10
550.8064
 20
199.5386
 10
551.0439
 20
199.2251
 10
551.2449
 20
198.8657
 10
551.4094
 20
198.4603
 10
551.5372
 20
198.0089
 10
551.6286
 20
197.5114
 10
551.6833
 20
196.9679
 10
551.7016
 20
196.3783
 10
551.7016
 20
186.5062
  0
LWPOLYLINE
  5
81
330
1F
100
AcDbEntity
  8
Layer 1
 62
     7
100
AcDbPolyline
 90
      165
 70
     1
 43
0.0
 10
572.4455
 20
186.5062
 10
574.3484
 20
186.5062
 10
574.3484
 20
196.3783
 10
574.3329
 20
197.0339
 10
574.2864
 20
197.6585
 10
574.209
 20
198.2522
 10
574.1005
 20
198.8151
 10
573.9611
 20
199.3471
 10
573.7906
 20
199.8482
 10
573.5892
 20
200.3186
 10
573.3568
 20
200.7582
 10
573.2269
 20
200.9682
 10
573.0889
 20
201.1676
 10
572.943
 20
201.3562
 10
572.789
 20
201.5342
 10
572.6269
 20
201.7015
 10
572.4567
 20
201.8581
 10
572.2783
 20
202.0041
 10
572.0918
 20
202.1395
 10
571.8939
 20
202.2618
 10
571.6807
 20
202.3678
 10
571.4522
 20
202.4574
 10
571.2084
 20
202.5307
 10
570.9493
 20
202.5877
 10
570.6749
 20
202.6284
 10
570.3851
 20
202.6528
 10
570.0799
 20
202.6609
 10
569.7722
 20
202.6469
 10
569.4744
 20
202.6047
 10
569.1863
 20
202.5345
 10
568.9079
 20
202.4363
 10
568.6394
 20
202.31
 10
568.3805
 20
202.1557
 10
568.1315
 20
201.9735
 10
567.8921
 20
201.7632
 10
567.6843
 20
201.5533
 10
567.4859
 20
201.3278
 10
567.2968
 20
201.0871
 10
567.117
 20
200.831
 10
566.9465
 20
200.5598
 10
566.7854
 20
200.2736
 10
566.6337
 20
199.9724
 10
566.4913
 20
199.6564
 10
566.3809
 20
199.9482
 10
566.2602
 20
200.2298
 10
566.1293
 20
200.5002
 10
565.9883
 20
200.7582
 10
565.8586
 20
200.9682
 10
565.7208
 20
201.1676
 10
565.5749
 20
201.3562
 10
565.4209
 20
201.5342
 10
565.2588
 20
201.7015
 10
565.0887
 20
201.8581
 10
564.9105
 20
202.0041
 10
564.7242
 20
202.1395
 10
564.5263
 20
202.2618
 10
564.313
 20
202.3678
 10
564.0844
 20
202.4574
 10
563.8405
 20
202.5307
 10
563.5814
 20
202.5877
 10
563.3069
 20
202.6284
 10
563.0172
 20
202.6528
 10
562.7123
 20
202.6609
 10
562.4046
 20
202.6469
 10
562.1066
 20
202.6047
 10
561.8184
 20
202.5345
 10
561.5399
 20
202.4363
 10
561.2712
 20
202.31
 10
561.0122
 20
202.1557
 10
560.763
 20
201.9735
 10
560.5236
 20
201.7632
 10
560.3258
 20
201.5636
 10
560.1364
 20
201.3504
 10
559.9554
 20
201.1236
 10
559.7829
 20
200.8831
 10
559.6189
 20
200.6288
 10
559.4634
 20
200.3607
 10
559.3165
 20
200.0786
 10
559.1782
 20
199.7826
 10
559.1782
 20
202.3011
 10
557.2744
 20
202.3011
 10
557.2744
 20
186.5062
 10
559.1782
 20
186.5062
 10
559.1782
 20
194.5888
 10
559.2222
 20
195.0599
 10
559.2799
 20
195.5127
 10
559.3511
 20
195.9471
 10
559.436
 20
196.3634
 10
559.5345
 20
196.7617
 10
559.6466
 20
197.1423
 10
559.7723
 20
197.5051
 10
559.9116
 20
197.8504
 10
560.0251
 20
198.096
 10
560.148
 20
198.3304
 10
560.2802
 20
198.5536
 10
560.4217
 20
198.7655
 10
560.5725
 20
198.9663
 10
560.7327
 20
199.1559
 10
560.9022
 20
199.3344
 10
561.0811
 20
199.5019
 10
561.2663
 20
199.6532
 10
561.455
 20
199.7843
 10
561.6469
 20
199.8952
 10
561.8423
 20
199.9859
 10
562.0411
 20
200.0565
 10
562.2432
 20
200.1068
 10
562.4488
 20
200.137
 10
562.6578
 20
200.1471
 10
562.8618
 20
200.1418
 10
563.0521
 20
200.1259
 10
563.2289
 20
200.0993
 10
563.3921
 20
200.062
 10
563.5417
 20
200.0141
 10
563.6776
 20
199.9555
 10
563.7999
 20
199.8862
 10
563.9086
 20
199.8062
 10
564.1828
 20
199.5386
 10
564.4203
 20
199.2251
 10
564.6213
 20
198.8657
 10
564.7858
 20
198.4603
 10
564.9136
 20
198.0089
 10
565.005
 20
197.5114
 10
565.0597
 20
196.9679
 10
565.078
 20
196.3783
 10
565.078
 20
186.5062
 10
566.9808
 20
186.5062
 10
566.9808
 20
196.3783
 10
566.9674
 20
196.9823
 10
567.0378
 20
197.2113
 10
567.1134
 20
197.4318
 10
567.1942
 20
197.6446
 10
567.2801
 20
197.8504
 10
567.3934
 20
198.096
 10
567.5161
 20
198.3304
 10
567.6482
 20
198.5536
 10
567.7897
 20
198.7655
 10
567.9405
 20
198.9663
 10
568.1006
 20
199.1559
 10
568.27
 20
199.3344
 10
568.4486
 20
199.5019
 10
568.6339
 20
199.6532
 10
568.8226
 20
199.7843
 10
569.0148
 20
199.8952
 10
569.2103
 20
199.9859
 10
569.4093
 20
200.0565
 10
569.6116
 20
200.1068
 10
569.8173
 20
200.137
 10
570.0263
 20
200.1471
 10
570.2302
 20
200.1418
 10
570.4204
 20
200.1259
 10
570.5971
 20
200.0993
 10
570.7601
 20
200.062
 10
570.9095
 20
200.0141
 10
571.0453
 20
199.9555
 10
571.1675
 20
199.8862
 10
571.2761
 20
199.8062
 10
571.5503
 20
199.5386
 10
571.7878
 20
199.2251
 10
571.9888
 20
198.8657
 10
572.1533
 20
198.4603
 10
572.2811
 20
198.0089
 10
572.3725
 20
197.5114
 10
572.4272
 20
196.9679
 10
572.4455
 20
196.3783
 10
572.4455
 20
186.5062
  0
LWPOLYLINE
  5
82
330
1F
100
AcDbEntity
  8
Layer 1
 62
     7
370
    18
100
AcDbPolyline
 90
        2
 70
     0
 43
0.0
 10
271.0532
 20
205.0086
 10
271.0532
 20
184.0926
  0
LWPOLYLINE
  5
83
330
1F
100
AcDbEntity
  8
Layer 1
 62
     7
370
    18
100
AcDbPolyline
 90
        2
 70
     0
 43
0.0
 10
271.0504
 20
194.5502
 10
428.9906
 20
194.5502
  0
LWPOLYLINE
  5
84
330
1F
100
AcDbEntity
  8
Layer 1
 62
     7
370
    18
100
AcDbPolyline
 90
        2
 70
     0
 43
0.0
 10
768.8925
 20
205.0086
 10
768.8925
 20
184.0926
  0
LWPOLYLINE
  5
85
330
1F
100
AcDbEntity
  8
Layer 1
 62
     7
370
    18
100
AcDbPolyline
 90
        2
 70
     0
 43
0.0
 10
768.8954
 20
194.5502
 10
610.9552
 20
194.5502
  0
ENDSEC
  0
SECTION
  2
OBJECTS
  0
DICTIONARY
  5
C
330
0
100
AcDbDictionary
281
     1
  3
ACAD_DETAILVIEWSTYLE
350
8D
  3
ACAD_GROUP
350
D
  3
ACAD_LAYOUT
350
1A
  3
ACAD_MATERIAL
350
43
  3
ACAD_MLEADERSTYLE
350
5B
  3
ACAD_MLINESTYLE
350
17
  3
ACAD_PLOTSETTINGS
350
19
  3
ACAD_PLOTSTYLENAME
350
E
  3
ACAD_SCALELIST
350
47
  3
ACAD_SECTIONVIEWSTYLE
350
8E
  3
ACAD_TABLESTYLE
350
59
  3
ACAD_VISUALSTYLE
350
2A
  3
ACDB_RECOMPOSE_DATA
350
8A
  3
AcDbVariableDictionary
350
86
  0
SUN
  5
5D
330
29
100
AcDbSun
 90
        1
290
     0
 63
     7
421
 16777215
 40
1.0
291
     1
 91
  2455826
 92
 54000000
292
     0
 70
     2
 71
   256
280
     1
  0
DICTIONARY
  5
8D
102
{ACAD_REACTORS
330
C
102
}
330
C
100
AcDbDictionary
281
     1
  0
DICTIONARY
  5
D
102
{ACAD_REACTORS
330
C
102
}
330
C
100
AcDbDictionary
281
     1
  0
DICTIONARY
  5
1A
102
{ACAD_REACTORS
330
C
102
}
330
C
100
AcDbDictionary
281
     1
  3
Layout1
350
1E
  3
Layout2
350
26
  3
Model
350
22
  0
DICTIONARY
  5
43
102
{ACAD_REACTORS
330
C
102
}
330
C
100
AcDbDictionary
281
     1
  3
ByBlock
350
45
  3
ByLayer
350
44
  3
Global
350
46
  0
DICTIONARY
  5
5B
102
{ACAD_REACTORS
330
C
102
}
330
C
100
AcDbDictionary
281
     1
  3
Standard
350
5C
  0
DICTIONARY
  5
17
102
{ACAD_REACTORS
330
C
102
}
330
C
100
AcDbDictionary
281
     1
  3
Standard
350
18
  0
DICTIONARY
  5
19
102
{ACAD_REACTORS
330
C
102
}
330
C
100
AcDbDictionary
281
     1
  0
ACDBDICTIONARYWDFLT
  5
E
102
{ACAD_REACTORS
330
C
102
}
330
C
100
AcDbDictionary
281
     1
  3
Normal
350
F
100
AcDbDictionaryWithDefault
340
F
  0
DICTIONARY
  5
47
102
{ACAD_REACTORS
330
C
102
}
330
C
100
AcDbDictionary
281
     1
  3
A0
350
48
  3
A1
350
49
  3
A2
350
4A
  3
A3
350
4B
  3
A4
350
4C
  3
A5
350
4D
  3
A6
350
4E
  3
A7
350
4F
  3
A8
350
50
  3
A9
350
51
  3
B1
350
52
  3
B2
350
53
  3
B3
350
54
  3
B4
350
55
  3
B5
350
56
  3
B6
350
57
  3
B7
350
58
  0
DICTIONARY
  5
8E
102
{ACAD_REACTORS
330
C
102
}
330
C
100
AcDbDictionary
281
     1
  0
DICTIONARY
  5
59
102
{ACAD_REACTORS
330
C
102
}
330
C
100
AcDbDictionary
281
     1
  3
Standard
350
5A
  0
DICTIONARY
  5
2A
102
{ACAD_REACTORS
330
C
102
}
330
C
100
AcDbDictionary
281
     1
  3
2dWireframe
350
2F
  3
Basic
350
32
  3
Brighten
350
36
  3
ColorChange
350
3A
  3
Conceptual
350
34
  3
Dim
350
35
  3
EdgeColorOff
350
3D
  3
Facepattern
350
39
  3
Flat
350
2B
  3
FlatWithEdges
350
2C
  3
Gouraud
350
2D
  3
GouraudWithEdges
350
2E
  3
Hidden
350
31
  3
JitterOff
350
3B
  3
Linepattern
350
38
  3
OverhangOff
350
3C
  3
Realistic
350
33
  3
Shaded
350
42
  3
Shaded with edges
350
41
  3
Shades of Gray
350
3E
  3
Sketchy
350
3F
  3
Thicken
350
37
  3
Wireframe
350
30
  3
X-Ray
350
40
  0
XRECORD
  5
8A
102
{ACAD_REACTORS
330
C
102
}
330
C
100
AcDbXrecord
280
     1
 90
        1
330
5A
  0
DICTIONARY
  5
86
102
{ACAD_REACTORS
330
C
102
}
330
C
100
AcDbDictionary
281
     1
  3
CANNOSCALE
350
87
  3
CMLEADERSTYLE
350
8C
  3
CTABLESTYLE
350
8B
  0
LAYOUT
  5
1E
102
{ACAD_REACTORS
330
1A
102
}
330
1A
100
AcDbPlotSettings
  1

  2
none_device
  4

  6

 40
0.0
 41
0.0
 42
0.0
 43
0.0
 44
0.0
 45
0.0
 46
0.0
 47
0.0
 48
0.0
 49
0.0
140
0.0
141
0.0
142
1.0
143
1.0
 70
   688
 72
     0
 73
     0
 74
     5
  7

 75
    16
 76
     0
 77
     2
 78
   300
147
1.0
148
0.0
149
0.0
100
AcDbLayout
  1
Layout1
 70
     1
 71
     1
 10
0.0
 20
0.0
 11
12.0
 21
9.0
 12
0.0
 22
0.0
 32
0.0
 14
1.000000000000000E+20
 24
1.000000000000000E+20
 34
1.000000000000000E+20
 15
-1.000000000000000E+20
 25
-1.000000000000000E+20
 35
-1.000000000000000E+20
146
0.0
 13
0.0
 23
0.0
 33
0.0
 16
1.0
 26
0.0
 36
0.0
 17
0.0
 27
1.0
 37
0.0
 76
     0
330
1B
  0
LAYOUT
  5
26
102
{ACAD_REACTORS
330
1A
102
}
330
1A
100
AcDbPlotSettings
  1

  2
none_device
  4

  6

 40
0.0
 41
0.0
 42
0.0
 43
0.0
 44
0.0
 45
0.0
 46
0.0
 47
0.0
 48
0.0
 49
0.0
140
0.0
141
0.0
142
1.0
143
1.0
 70
   688
 72
     0
 73
     0
 74
     5
  7

 75
    16
 76
     0
 77
     2
 78
   300
147
1.0
148
0.0
149
0.0
100
AcDbLayout
  1
Layout2
 70
     1
 71
     2
 10
0.0
 20
0.0
 11
0.0
 21
0.0
 12
0.0
 22
0.0
 32
0.0
 14
0.0
 24
0.0
 34
0.0
 15
0.0
 25
0.0
 35
0.0
146
0.0
 13
0.0
 23
0.0
 33
0.0
 16
1.0
 26
0.0
 36
0.0
 17
0.0
 27
1.0
 37
0.0
 76
     0
330
23
  0
LAYOUT
  5
22
102
{ACAD_REACTORS
330
1A
102
}
330
1A
100
AcDbPlotSettings
  1

  2
none_device
  4
Letter_(8.50_x_11.00_Inches)
  6

 40
6.35
 41
6.35
 42
6.35000508
 43
6.35000508
 44
215.9
 45
279.4
 46
0.0
 47
0.0
 48
0.0
 49
0.0
140
0.0
141
0.0
142
1.0
143
1.0
 70
  1712
 72
     0
 73
     0
 74
     0
  7

 75
     0
 76
     0
 77
     2
 78
   300
147
1.0
148
0.0
149
0.0
100
AcDbLayout
  1
Model
 70
     1
 71
     0
 10
0.0
 20
0.0
 11
12.0
 21
9.0
 12
0.0
 22
0.0
 32
0.0
 14
195.793
 24
-667.3587
 34
0.0
 15
942.4642
 25
246.0065
 35
0.0
146
0.0
 13
0.0
 23
0.0
 33
0.0
 16
1.0
 26
0.0
 36
0.0
 17
0.0
 27
1.0
 37
0.0
 76
     0
330
1F
331
29
  0
MATERIAL
  5
45
102
{ACAD_REACTORS
330
43
102
}
330
43
100
AcDbMaterial
  1
ByBlock
 72
     1
 94
      127
  0
MATERIAL
  5
44
102
{ACAD_REACTORS
330
43
102
}
330
43
100
AcDbMaterial
  1
ByLayer
 72
     1
 94
      127
  0
MATERIAL
  5
46
102
{ACAD_REACTORS
330
43
102
}
330
43
100
AcDbMaterial
  1
Global
 72
     1
 94
      127
  0
MLEADERSTYLE
  5
5C
102
{ACAD_REACTORS
330
5B
102
}
330
5B
100
AcDbMLeaderStyle
179
     2
170
     2
171
     1
172
     0
 90
        2
 40
0.0
 41
0.0
173
     1
 91
-1056964608
340
14
 92
       -2
290
     1
 42
0.09
291
     1
 43
0.36
  3
Standard
341
0
 44
0.18
300

342
11
174
     1
178
     6
175
     1
176
     0
 93
-1056964608
 45
0.18
292
     0
297
     0
 46
0.18
343
0
 94
-1056964608
 47
1.0
 49
1.0
140
1.0
293
     1
141
0.0
294
     1
177
     0
142
1.0
295
     0
296
     0
143
0.125
271
     0
272
     9
273
     9
298
     0
  0
MLINESTYLE
  5
18
102
{ACAD_REACTORS
330
17
102
}
330
17
100
AcDbMlineStyle
  2
Standard
 70
     0
  3

 62
   256
 51
90.0
 52
90.0
 71
     2
 49
0.5
 62
   256
  6
BYLAYER
 49
-0.5
 62
   256
  6
BYLAYER
  0
ACDBPLACEHOLDER
  5
F
102
{ACAD_REACTORS
330
E
102
}
330
E
  0
SCALE
  5
48
102
{ACAD_REACTORS
330
47
102
}
330
47
100
AcDbScale
 70
     0
300
1:1
140
1.0
141
1.0
290
     1
  0
SCALE
  5
49
102
{ACAD_REACTORS
330
47
102
}
330
47
100
AcDbScale
 70
     0
300
1/128" = 1'-0"
140
0.0078125
141
12.0
290
     0
  0
SCALE
  5
4A
102
{ACAD_REACTORS
330
47
102
}
330
47
100
AcDbScale
 70
     0
300
1/64" = 1'-0"
140
0.015625
141
12.0
290
     0
  0
SCALE
  5
4B
102
{ACAD_REACTORS
330
47
102
}
330
47
100
AcDbScale
 70
     0
300
1/32" = 1'-0"
140
0.03125
141
12.0
290
     0
  0
SCALE
  5
4C
102
{ACAD_REACTORS
330
47
102
}
330
47
100
AcDbScale
 70
     0
300
1/16" = 1'-0"
140
0.0625
141
12.0
290
     0
  0
SCALE
  5
4D
102
{ACAD_REACTORS
330
47
102
}
330
47
100
AcDbScale
 70
     0
300
3/32" = 1'-0"
140
0.09375
141
12.0
290
     0
  0
SCALE
  5
4E
102
{ACAD_REACTORS
330
47
102
}
330
47
100
AcDbScale
 70
     0
300
1/8" = 1'-0"
140
0.125
141
12.0
290
     0
  0
SCALE
  5
4F
102
{ACAD_REACTORS
330
47
102
}
330
47
100
AcDbScale
 70
     0
300
3/16" = 1'-0"
140
0.1875
141
12.0
290
     0
  0
SCALE
  5
50
102
{ACAD_REACTORS
330
47
102
}
330
47
100
AcDbScale
 70
     0
300
1/4" = 1'-0"
140
0.25
141
12.0
290
     0
  0
SCALE
  5
51
102
{ACAD_REACTORS
330
47
102
}
330
47
100
AcDbScale
 70
     0
300
3/8" = 1'-0"
140
0.375
141
12.0
290
     0
  0
SCALE
  5
52
102
{ACAD_REACTORS
330
47
102
}
330
47
100
AcDbScale
 70
     0
300
1/2" = 1'-0"
140
0.5
141
12.0
290
     0
  0
SCALE
  5
53
102
{ACAD_REACTORS
330
47
102
}
330
47
100
AcDbScale
 70
     0
300
3/4" = 1'-0"
140
0.75
141
12.0
290
     0
  0
SCALE
  5
54
102
{ACAD_REACTORS
330
47
102
}
330
47
100
AcDbScale
 70
     0
300
1" = 1'-0"
140
1.0
141
12.0
290
     0
  0
SCALE
  5
55
102
{ACAD_REACTORS
330
47
102
}
330
47
100
AcDbScale
 70
     0
300
1-1/2" = 1'-0"
140
1.5
141
12.0
290
     0
  0
SCALE
  5
56
102
{ACAD_REACTORS
330
47
102
}
330
47
100
AcDbScale
 70
     0
300
3" = 1'-0"
140
3.0
141
12.0
290
     0
  0
SCALE
  5
57
102
{ACAD_REACTORS
330
47
102
}
330
47
100
AcDbScale
 70
     0
300
6" = 1'-0"
140
6.0
141
12.0
290
     0
  0
SCALE
  5
58
102
{ACAD_REACTORS
330
47
102
}
330
47
100
AcDbScale
 70
     0
300
1'-0" = 1'-0"
140
12.0
141
12.0
290
     0
  0
TABLESTYLE
  5
5A
102
{ACAD_REACTORS
330
59
102
}
102
{ACAD_XDICTIONARY
360
88
102
}
330
59
100
AcDbTableStyle
  3
Standard
 70
     0
 71
     0
 40
0.06
 41
0.06
280
     0
281
     0
  7
Standard
140
0.18
170
     2
 62
     0
 63
   257
283
     0
 90
        4
 91
        0
  1

274
    -2
284
     1
 64
     0
275
    -2
285
     1
 65
     0
276
    -2
286
     1
 66
     0
277
    -2
287
     1
 67
     0
278
    -2
288
     1
 68
     0
279
    -2
289
     1
 69
     0
  7
Standard
140
0.25
170
     5
 62
     0
 63
   257
283
     0
 90
        4
 91
        0
  1

274
    -2
284
     1
 64
     0
275
    -2
285
     1
 65
     0
276
    -2
286
     1
 66
     0
277
    -2
287
     1
 67
     0
278
    -2
288
     1
 68
     0
279
    -2
289
     1
 69
     0
  7
Standard
140
0.18
170
     5
 62
     0
 63
   257
283
     0
 90
        4
 91
        0
  1

274
    -2
284
     1
 64
     0
275
    -2
285
     1
 65
     0
276
    -2
286
     1
 66
     0
277
    -2
287
     1
 67
     0
278
    -2
288
     1
 68
     0
279
    -2
289
     1
 69
     0
  0
VISUALSTYLE
  5
2F
102
{ACAD_REACTORS
330
2A
102
}
330
2A
100
AcDbVisualStyle
  2
2dWireframe
 70
     4
177
     3
291
     0
 70
    58
 90
        0
176
     1
 90
        2
176
     1
 90
        0
176
     1
 90
        0
176
     1
 40
0.6
176
     1
 40
30.0
176
     1
 62
     7
420
 16777215
176
     1
 90
        1
176
     1
 90
        4
176
     1
 62
     7
176
     1
 62
   257
176
     1
 90
        1
176
     1
 90
        1
176
     1
 40
1.0
176
     1
 90
        0
176
     1
 62
   257
176
     1
 40
1.0
176
     1
 90
        1
176
     1
 90
        6
176
     1
 90
        2
176
     1
 62
     7
176
     1
 90
        5
176
     1
 90
        0
176
     1
 90
        0
176
     1
290
     0
176
     1
 90
        1
176
     1
 40
0.0
176
     1
 90
        0
176
     1
290
     1
176
     1
290
     1
176
     1
290
     0
176
     1
290
     0
176
     1
290
     0
176
     1
290
     0
176
     1
290
     0
176
     1
290
     0
176
     1
290
     0
176
     1
 90
       50
176
     1
 40
0.0
176
     1
 40
1.0
176
     1
 90
        0
176
     1
 62
    18
420
        0
176
     1
 90
       50
176
     1
 90
        3
176
     1
 62
     5
420
      255
176
     1
290
     0
176
     1
 90
       50
176
     1
 90
       50
176
     1
 90
       50
176
     1
290
     0
176
     1
 90
       50
176
     1
 62
   256
176
     0
 40
1.0
176
     0
 90
        2
176
     1
  1
strokes_ogs.tif
176
     1
290
     0
176
     1
 40
1.0
176
     1
 40
1.0
176
     1
  0
VISUALSTYLE
  5
32
102
{ACAD_REACTORS
330
2A
102
}
330
2A
100
AcDbVisualStyle
  2
Basic
 70
     7
177
     3
291
     1
 70
    58
 90
        1
176
     1
 90
        0
176
     1
 90
        1
176
     1
 90
        0
176
     1
 40
0.6
176
     1
 40
30.0
176
     1
 62
     7
420
 16777215
176
     1
 90
        0
176
     1
 90
        4
176
     1
 62
     7
176
     1
 62
   257
176
     1
 90
        1
176
     1
 90
        1
176
     1
 40
1.0
176
     1
 90
        8
176
     1
 62
     7
176
     1
 40
1.0
176
     1
 90
        1
176
     1
 90
        6
176
     1
 90
        2
176
     1
 62
     7
176
     1
 90
        5
176
     1
 90
        0
176
     1
 90
        0
176
     1
290
     0
176
     1
 90
        1
176
     1
 40
0.0
176
     1
 90
        0
176
     1
290
     0
176
     1
290
     1
176
     1
290
     1
176
     1
290
     0
176
     1
290
     0
176
     1
290
     0
176
     1
290
     0
176
     1
290
     0
176
     1
290
     0
176
     1
 90
       50
176
     1
 40
0.0
176
     1
 40
1.0
176
     1
 90
        0
176
     1
 62
    18
420
        0
176
     1
 90
       50
176
     1
 90
        3
176
     1
 62
     5
420
      255
176
     1
290
     0
176
     1
 90
       50
176
     1
 90
       50
176
     1
 90
       50
176
     1
290
     0
176
     1
 90
       50
176
     1
 62
   256
176
     0
 40
1.0
176
     0
 90
        2
176
     1
  1
strokes_ogs.tif
176
     1
290
     0
176
     1
 40
1.0
176
     1
 40
1.0
176
     1
  0
VISUALSTYLE
  5
36
102
{ACAD_REACTORS
330
2A
102
}
330
2A
100
AcDbVisualStyle
  2
Brighten
 70
    12
177
     3
291
     1
 70
    58
 90
        2
176
     1
 90
        2
176
     1
 90
        0
176
     1
 90
        0
176
     1
 40
0.6
176
     1
 40
30.0
176
     1
 62
     7
420
 16777215
176
     1
 90
        1
176
     1
 90
        4
176
     1
 62
     7
176
     1
 62
   257
176
     1
 90
        1
176
     1
 90
        1
176
     1
 40
1.0
176
     1
 90
        8
176
     1
 62
     7
176
     1
 40
1.0
176
     1
 90
        1
176
     1
 90
        6
176
     1
 90
        2
176
     1
 62
     7
176
     1
 90
        5
176
     1
 90
        0
176
     1
 90
        0
176
     1
290
     0
176
     1
 90
        1
176
     1
 40
50.0
176
     1
 90
        0
176
     1
290
     0
176
     1
290
     1
176
     1
290
     1
176
     1
290
     0
176
     1
290
     0
176
     1
290
     0
176
     1
290
     0
176
     1
290
     0
176
     1
290
     0
176
     1
 90
       50
176
     1
 40
0.0
176
     1
 40
1.0
176
     1
 90
        0
176
     1
 62
    18
420
        0
176
     1
 90
       50
176
     1
 90
        3
176
     1
 62
     5
420
      255
176
     1
290
     0
176
     1
 90
       50
176
     1
 90
       50
176
     1
 90
       50
176
     1
290
     0
176
     1
 90
       50
176
     1
 62
   256
176
     0
 40
1.0
176
     0
 90
        2
176
     1
  1
strokes_ogs.tif
176
     1
290
     0
176
     1
 40
1.0
176
     1
 40
1.0
176
     1
  0
VISUALSTYLE
  5
3A
102
{ACAD_REACTORS
330
2A
102
}
330
2A
100
AcDbVisualStyle
  2
ColorChange
 70
    16
177
     3
291
     1
 70
    58
 90
        2
176
     1
 90
        2
176
     1
 90
        3
176
     1
 90
        0
176
     1
 40
0.6
176
     1
 40
30.0
176
     1
 62
     8
420
  8421504
176
     1
 90
        1
176
     1
 90
        4
176
     1
 62
     7
176
     1
 62
   257
176
     1
 90
        1
176
     1
 90
        1
176
     1
 40
1.0
176
     1
 90
        8
176
     1
 62
     8
420
  8421504
176
     1
 40
1.0
176
     1
 90
        1
176
     1
 90
        6
176
     1
 90
        2
176
     1
 62
     7
176
     1
 90
        5
176
     1
 90
        0
176
     1
 90
        0
176
     1
290
     0
176
     1
 90
        1
176
     1
 40
0.0
176
     1
 90
        0
176
     1
290
     0
176
     1
290
     1
176
     1
290
     1
176
     1
290
     0
176
     1
290
     0
176
     1
290
     0
176
     1
290
     0
176
     1
290
     0
176
     1
290
     0
176
     1
 90
       50
176
     1
 40
0.0
176
     1
 40
1.0
176
     1
 90
        0
176
     1
 62
    18
420
        0
176
     1
 90
       50
176
     1
 90
        3
176
     1
 62
     5
420
      255
176
     1
290
     0
176
     1
 90
       50
176
     1
 90
       50
176
     1
 90
       50
176
     1
290
     0
176
     1
 90
       50
176
     1
 62
   256
176
     0
 40
1.0
176
     0
 90
        2
176
     1
  1
strokes_ogs.tif
176
     1
290
     0
176
     1
 40
1.0
176
     1
 40
1.0
176
     1
  0
VISUALSTYLE
  5
34
102
{ACAD_REACTORS
330
2A
102
}
330
2A
100
AcDbVisualStyle
  2
Conceptual
 70
     9
177
     3
291
     0
 70
    58
 90
        3
176
     1
 90
        2
176
     1
 90
        0
176
     1
 90
        0
176
     1
 40
0.6
176
     1
 40
30.0
176
     1
 62
     7
420
 16777215
176
     1
 90
        2
176
     1
 90
        2
176
     1
 62
     7
176
     1
 62
   257
176
     1
 90
        1
176
     1
 90
        1
176
     1
 40
179.0
176
     1
 90
        8
176
     1
 62
     7
176
     1
 40
1.0
176
     1
 90
        1
176
     1
 90
        6
176
     1
 90
        2
176
     1
 62
     7
176
     1
 90
        3
176
     1
 90
        0
176
     1
 90
        0
176
     1
290
     0
176
     1
 90
        1
176
     1
 40
0.0
176
     1
 90
        0
176
     1
290
     0
176
     1
290
     1
176
     1
290
     1
176
     1
290
     0
176
     1
290
     0
176
     1
290
     0
176
     1
290
     0
176
     1
290
     0
176
     1
290
     0
176
     1
 90
       50
176
     1
 40
0.0
176
     1
 40
1.0
176
     1
 90
        0
176
     1
 62
    18
420
        0
176
     1
 90
       50
176
     1
 90
        3
176
     1
 62
     5
420
      255
176
     1
290
     0
176
     1
 90
       50
176
     1
 90
       50
176
     1
 90
       50
176
     1
290
     0
176
     1
 90
       50
176
     1
 62
   256
176
     0
 40
1.0
176
     0
 90
        2
176
     1
  1
strokes_ogs.tif
176
     1
290
     0
176
     1
 40
1.0
176
     1
 40
1.0
176
     1
  0
VISUALSTYLE
  5
35
102
{ACAD_REACTORS
330
2A
102
}
330
2A
100
AcDbVisualStyle
  2
Dim
 70
    11
177
     3
291
     1
 70
    58
 90
        2
176
     1
 90
        2
176
     1
 90
        0
176
     1
 90
        0
176
     1
 40
0.6
176
     1
 40
30.0
176
     1
 62
     7
420
 16777215
176
     1
 90
        1
176
     1
 90
        4
176
     1
 62
     7
176
     1
 62
   257
176
     1
 90
        1
176
     1
 90
        1
176
     1
 40
1.0
176
     1
 90
        8
176
     1
 62
     7
176
     1
 40
1.0
176
     1
 90
        1
176
     1
 90
        6
176
     1
 90
        2
176
     1
 62
     7
176
     1
 90
        5
176
     1
 90
        0
176
     1
 90
        0
176
     1
290
     0
176
     1
 90
        1
176
     1
 40
-50.0
176
     1
 90
        0
176
     1
290
     0
176
     1
290
     1
176
     1
290
     1
176
     1
290
     0
176
     1
290
     0
176
     1
290
     0
176
     1
290
     0
176
     1
290
     0
176
     1
290
     0
176
     1
 90
       50
176
     1
 40
0.0
176
     1
 40
1.0
176
     1
 90
        0
176
     1
 62
    18
420
        0
176
     1
 90
       50
176
     1
 90
        3
176
     1
 62
     5
420
      255
176
     1
290
     0
176
     1
 90
       50
176
     1
 90
       50
176
     1
 90
       50
176
     1
290
     0
176
     1
 90
       50
176
     1
 62
   256
176
     0
 40
1.0
176
     0
 90
        2
176
     1
  1
strokes_ogs.tif
176
     1
290
     0
176
     1
 40
1.0
176
     1
 40
1.0
176
     1
  0
VISUALSTYLE
  5
3D
102
{ACAD_REACTORS
330
2A
102
}
330
2A
100
AcDbVisualStyle
  2
EdgeColorOff
 70
    22
177
     3
291
     1
 70
    58
 90
        2
176
     0
 90
        2
176
     0
 90
        0
176
     0
 90
        0
176
     0
 40
0.6
176
     0
 40
30.0
176
     0
 62
     7
420
 16777215
176
     0
 90
        1
176
     0
 90
        4
176
     0
 62
     7
176
     0
 62
   257
176
     0
 90
        1
176
     0
 90
        1
176
     0
 40
1.0
176
     0
 90
        8
176
     2
 62
     7
176
     0
 40
1.0
176
     0
 90
        1
176
     0
 90
        6
176
     0
 90
        2
176
     0
 62
     7
176
     0
 90
        5
176
     0
 90
        0
176
     0
 90
        0
176
     0
290
     0
176
     0
 90
        1
176
     0
 40
0.0
176
     0
 90
        0
176
     0
290
     0
176
     0
290
     1
176
     0
290
     1
176
     0
290
     0
176
     0
290
     0
176
     0
290
     0
176
     0
290
     0
176
     0
290
     0
176
     0
290
     0
176
     0
 90
       50
176
     0
 40
0.0
176
     0
 40
1.0
176
     0
 90
        0
176
     0
 62
    18
420
        0
176
     0
 90
       50
176
     0
 90
        3
176
     0
 62
     5
420
      255
176
     0
290
     0
176
     0
 90
       50
176
     0
 90
       50
176
     0
 90
       50
176
     0
290
     0
176
     0
 90
       50
176
     0
 62
   256
176
     0
 40
1.0
176
     0
 90
        2
176
     0
  1
strokes_ogs.tif
176
     0
290
     0
176
     0
 40
1.0
176
     0
 40
1.0
176
     0
  0
VISUALSTYLE
  5
39
102
{ACAD_REACTORS
330
2A
102
}
330
2A
100
AcDbVisualStyle
  2
Facepattern
 70
    15
177
     3
291
     1
 70
    58
 90
        2
176
     1
 90
        2
176
     1
 90
        0
176
     1
 90
        0
176
     1
 40
0.6
176
     1
 40
30.0
176
     1
 62
     7
420
 16777215
176
     1
 90
        1
176
     1
 90
        4
176
     1
 62
     7
176
     1
 62
   257
176
     1
 90
        1
176
     1
 90
        1
176
     1
 40
1.0
176
     1
 90
        8
176
     1
 62
     7
176
     1
 40
1.0
176
     1
 90
        1
176
     1
 90
        6
176
     1
 90
        2
176
     1
 62
     7
176
     1
 90
        5
176
     1
 90
        0
176
     1
 90
        0
176
     1
290
     0
176
     1
 90
        1
176
     1
 40
0.0
176
     1
 90
        0
176
     1
290
     0
176
     1
290
     1
176
     1
290
     1
176
     1
290
     0
176
     1
290
     0
176
     1
290
     0
176
     1
290
     0
176
     1
290
     0
176
     1
290
     0
176
     1
 90
       50
176
     1
 40
0.0
176
     1
 40
1.0
176
     1
 90
        0
176
     1
 62
    18
420
        0
176
     1
 90
       50
176
     1
 90
        3
176
     1
 62
     5
420
      255
176
     1
290
     0
176
     1
 90
       50
176
     1
 90
       50
176
     1
 90
       50
176
     1
290
     0
176
     1
 90
       50
176
     1
 62
   256
176
     0
 40
1.0
176
     0
 90
        2
176
     1
  1
strokes_ogs.tif
176
     1
290
     0
176
     1
 40
1.0
176
     1
 40
1.0
176
     1
  0
VISUALSTYLE
  5
2B
102
{ACAD_REACTORS
330
2A
102
}
330
2A
100
AcDbVisualStyle
  2
Flat
 70
     0
177
     3
291
     1
 70
    58
 90
        2
176
     1
 90
        1
176
     1
 90
        1
176
     1
 90
        2
176
     1
 40
0.6
176
     1
 40
30.0
176
     1
 62
     7
420
 16777215
176
     1
 90
        0
176
     1
 90
        0
176
     1
 62
     7
176
     1
 62
   257
176
     1
 90
        1
176
     1
 90
        1
176
     1
 40
1.0
176
     1
 90
        8
176
     1
 62
     7
176
     1
 40
1.0
176
     1
 90
        1
176
     1
 90
        6
176
     1
 90
        2
176
     1
 62
     7
176
     1
 90
        5
176
     1
 90
        0
176
     1
 90
        0
176
     1
290
     0
176
     1
 90
       13
176
     1
 40
0.0
176
     1
 90
        0
176
     1
290
     0
176
     1
290
     1
176
     1
290
     1
176
     1
290
     0
176
     1
290
     0
176
     1
290
     0
176
     1
290
     0
176
     1
290
     0
176
     1
290
     0
176
     1
 90
       50
176
     1
 40
0.0
176
     1
 40
1.0
176
     1
 90
        0
176
     1
 62
    18
420
        0
176
     1
 90
       50
176
     1
 90
        3
176
     1
 62
     5
420
      255
176
     1
290
     0
176
     1
 90
       50
176
     1
 90
       50
176
     1
 90
       50
176
     1
290
     0
176
     1
 90
       50
176
     1
 62
   256
176
     0
 40
1.0
176
     0
 90
        2
176
     1
  1
strokes_ogs.tif
176
     1
290
     0
176
     1
 40
1.0
176
     1
 40
1.0
176
     1
  0
VISUALSTYLE
  5
2C
102
{ACAD_REACTORS
330
2A
102
}
330
2A
100
AcDbVisualStyle
  2
FlatWithEdges
 70
     1
177
     3
291
     1
 70
    58
 90
        2
176
     1
 90
        1
176
     1
 90
        1
176
     1
 90
        2
176
     1
 40
0.6
176
     1
 40
30.0
176
     1
 62
     7
420
 16777215
176
     1
 90
        1
176
     1
 90
        0
176
     1
 62
     7
176
     1
 62
   257
176
     1
 90
        1
176
     1
 90
        1
176
     1
 40
1.0
176
     1
 90
        0
176
     1
 62
   257
176
     1
 40
1.0
176
     1
 90
        1
176
     1
 90
        6
176
     1
 90
        2
176
     1
 62
     7
176
     1
 90
        5
176
     1
 90
        0
176
     1
 90
        0
176
     1
290
     0
176
     1
 90
       13
176
     1
 40
0.0
176
     1
 90
        0
176
     1
290
     0
176
     1
290
     1
176
     1
290
     1
176
     1
290
     0
176
     1
290
     0
176
     1
290
     0
176
     1
290
     0
176
     1
290
     0
176
     1
290
     0
176
     1
 90
       50
176
     1
 40
0.0
176
     1
 40
1.0
176
     1
 90
        0
176
     1
 62
    18
420
        0
176
     1
 90
       50
176
     1
 90
        3
176
     1
 62
     5
420
      255
176
     1
290
     0
176
     1
 90
       50
176
     1
 90
       50
176
     1
 90
       50
176
     1
290
     0
176
     1
 90
       50
176
     1
 62
   256
176
     0
 40
1.0
176
     0
 90
        2
176
     1
  1
strokes_ogs.tif
176
     1
290
     0
176
     1
 40
1.0
176
     1
 40
1.0
176
     1
  0
VISUALSTYLE
  5
2D
102
{ACAD_REACTORS
330
2A
102
}
330
2A
100
AcDbVisualStyle
  2
Gouraud
 70
     2
177
     3
291
     1
 70
    58
 90
        2
176
     1
 90
        2
176
     1
 90
        1
176
     1
 90
        2
176
     1
 40
0.6
176
     1
 40
30.0
176
     1
 62
     7
420
 16777215
176
     1
 90
        0
176
     1
 90
        0
176
     1
 62
     7
176
     1
 62
   257
176
     1
 90
        1
176
     1
 90
        1
176
     1
 40
1.0
176
     1
 90
        0
176
     1
 62
     7
176
     1
 40
1.0
176
     1
 90
        1
176
     1
 90
        6
176
     1
 90
        2
176
     1
 62
     7
176
     1
 90
        5
176
     1
 90
        0
176
     1
 90
        0
176
     1
290
     0
176
     1
 90
       13
176
     1
 40
0.0
176
     1
 90
        0
176
     1
290
     0
176
     1
290
     1
176
     1
290
     1
176
     1
290
     0
176
     1
290
     0
176
     1
290
     0
176
     1
290
     0
176
     1
290
     0
176
     1
290
     0
176
     1
 90
       50
176
     1
 40
0.0
176
     1
 40
1.0
176
     1
 90
        0
176
     1
 62
    18
420
        0
176
     1
 90
       50
176
     1
 90
        3
176
     1
 62
     5
420
      255
176
     1
290
     0
176
     1
 90
       50
176
     1
 90
       50
176
     1
 90
       50
176
     1
290
     0
176
     1
 90
       50
176
     1
 62
   256
176
     0
 40
1.0
176
     0
 90
        2
176
     1
  1
strokes_ogs.tif
176
     1
290
     0
176
     1
 40
1.0
176
     1
 40
1.0
176
     1
  0
VISUALSTYLE
  5
2E
102
{ACAD_REACTORS
330
2A
102
}
330
2A
100
AcDbVisualStyle
  2
GouraudWithEdges
 70
     3
177
     3
291
     1
 70
    58
 90
        2
176
     1
 90
        2
176
     1
 90
        1
176
     1
 90
        2
176
     1
 40
0.6
176
     1
 40
30.0
176
     1
 62
     7
420
 16777215
176
     1
 90
        1
176
     1
 90
        0
176
     1
 62
     7
176
     1
 62
   257
176
     1
 90
        1
176
     1
 90
        1
176
     1
 40
1.0
176
     1
 90
        0
176
     1
 62
   257
176
     1
 40
1.0
176
     1
 90
        1
176
     1
 90
        6
176
     1
 90
        2
176
     1
 62
     7
176
     1
 90
        5
176
     1
 90
        0
176
     1
 90
        0
176
     1
290
     0
176
     1
 90
       13
176
     1
 40
0.0
176
     1
 90
        0
176
     1
290
     0
176
     1
290
     1
176
     1
290
     1
176
     1
290
     0
176
     1
290
     0
176
     1
290
     0
176
     1
290
     0
176
     1
290
     0
176
     1
290
     0
176
     1
 90
       50
176
     1
 40
0.0
176
     1
 40
1.0
176
     1
 90
        0
176
     1
 62
    18
420
        0
176
     1
 90
       50
176
     1
 90
        3
176
     1
 62
     5
420
      255
176
     1
290
     0
176
     1
 90
       50
176
     1
 90
       50
176
     1
 90
       50
176
     1
290
     0
176
     1
 90
       50
176
     1
 62
   256
176
     0
 40
1.0
176
     0
 90
        2
176
     1
  1
strokes_ogs.tif
176
     1
290
     0
176
     1
 40
1.0
176
     1
 40
1.0
176
     1
  0
VISUALSTYLE
  5
31
102
{ACAD_REACTORS
330
2A
102
}
330
2A
100
AcDbVisualStyle
  2
Hidden
 70
     6
177
     3
291
     0
 70
    58
 90
        1
176
     1
 90
        2
176
     1
 90
        2
176
     1
 90
        0
176
     1
 40
0.6
176
     1
 40
30.0
176
     1
 62
     7
420
 16777215
176
     1
 90
        2
176
     1
 90
        2
176
     1
 62
     7
176
     1
 62
   257
176
     1
 90
        2
176
     1
 90
        1
176
     1
 40
40.0
176
     1
 90
        0
176
     1
 62
   257
176
     1
 40
1.0
176
     1
 90
        1
176
     1
 90
        6
176
     1
 90
        2
176
     1
 62
     7
176
     1
 90
        3
176
     1
 90
        0
176
     1
 90
        0
176
     1
290
     0
176
     1
 90
        1
176
     1
 40
0.0
176
     1
 90
        0
176
     1
290
     0
176
     1
290
     1
176
     1
290
     1
176
     1
290
     0
176
     1
290
     0
176
     1
290
     0
176
     1
290
     0
176
     1
290
     0
176
     1
290
     0
176
     1
 90
       50
176
     1
 40
0.0
176
     1
 40
1.0
176
     1
 90
        0
176
     1
 62
    18
420
        0
176
     1
 90
       50
176
     1
 90
        3
176
     1
 62
     5
420
      255
176
     1
290
     0
176
     1
 90
       50
176
     1
 90
       50
176
     1
 90
       50
176
     1
290
     0
176
     1
 90
       50
176
     1
 62
   256
176
     0
 40
1.0
176
     0
 90
        2
176
     1
  1
strokes_ogs.tif
176
     1
290
     0
176
     1
 40
1.0
176
     1
 40
1.0
176
     1
  0
VISUALSTYLE
  5
3B
102
{ACAD_REACTORS
330
2A
102
}
330
2A
100
AcDbVisualStyle
  2
JitterOff
 70
    20
177
     3
291
     1
 70
    58
 90
        2
176
     0
 90
        2
176
     0
 90
        0
176
     0
 90
        0
176
     0
 40
0.6
176
     0
 40
30.0
176
     0
 62
     7
420
 16777215
176
     0
 90
        1
176
     0
 90
        4
176
     0
 62
     7
176
     0
 62
   257
176
     0
 90
        1
176
     0
 90
        1
176
     0
 40
1.0
176
     0
 90
       10
176
     2
 62
     7
176
     0
 40
1.0
176
     0
 90
        1
176
     0
 90
        6
176
     0
 90
        2
176
     0
 62
     7
176
     0
 90
        5
176
     0
 90
        0
176
     0
 90
        0
176
     0
290
     0
176
     0
 90
        1
176
     0
 40
0.0
176
     0
 90
        0
176
     0
290
     0
176
     0
290
     1
176
     0
290
     1
176
     0
290
     0
176
     0
290
     0
176
     0
290
     0
176
     0
290
     0
176
     0
290
     0
176
     0
290
     0
176
     0
 90
       50
176
     0
 40
0.0
176
     0
 40
1.0
176
     0
 90
        0
176
     0
 62
    18
420
        0
176
     0
 90
       50
176
     0
 90
        3
176
     0
 62
     5
420
      255
176
     0
290
     0
176
     0
 90
       50
176
     0
 90
       50
176
     0
 90
       50
176
     0
290
     0
176
     0
 90
       50
176
     0
 62
   256
176
     0
 40
1.0
176
     0
 90
        2
176
     0
  1
strokes_ogs.tif
176
     0
290
     0
176
     0
 40
1.0
176
     0
 40
1.0
176
     0
  0
VISUALSTYLE
  5
38
102
{ACAD_REACTORS
330
2A
102
}
330
2A
100
AcDbVisualStyle
  2
Linepattern
 70
    14
177
     3
291
     1
 70
    58
 90
        2
176
     1
 90
        2
176
     1
 90
        0
176
     1
 90
        0
176
     1
 40
0.6
176
     1
 40
30.0
176
     1
 62
     7
420
 16777215
176
     1
 90
        1
176
     1
 90
        4
176
     1
 62
     7
176
     1
 62
   257
176
     1
 90
        7
176
     1
 90
        7
176
     1
 40
1.0
176
     1
 90
        8
176
     1
 62
     7
176
     1
 40
1.0
176
     1
 90
        1
176
     1
 90
        6
176
     1
 90
        2
176
     1
 62
     7
176
     1
 90
        5
176
     1
 90
        0
176
     1
 90
        0
176
     1
290
     0
176
     1
 90
        1
176
     1
 40
0.0
176
     1
 90
        0
176
     1
290
     0
176
     1
290
     1
176
     1
290
     1
176
     1
290
     0
176
     1
290
     0
176
     1
290
     0
176
     1
290
     0
176
     1
290
     0
176
     1
290
     0
176
     1
 90
       50
176
     1
 40
0.0
176
     1
 40
1.0
176
     1
 90
        0
176
     1
 62
    18
420
        0
176
     1
 90
       50
176
     1
 90
        3
176
     1
 62
     5
420
      255
176
     1
290
     0
176
     1
 90
       50
176
     1
 90
       50
176
     1
 90
       50
176
     1
290
     0
176
     1
 90
       50
176
     1
 62
   256
176
     0
 40
1.0
176
     0
 90
        2
176
     1
  1
strokes_ogs.tif
176
     1
290
     0
176
     1
 40
1.0
176
     1
 40
1.0
176
     1
  0
VISUALSTYLE
  5
3C
102
{ACAD_REACTORS
330
2A
102
}
330
2A
100
AcDbVisualStyle
  2
OverhangOff
 70
    21
177
     3
291
     1
 70
    58
 90
        2
176
     0
 90
        2
176
     0
 90
        0
176
     0
 90
        0
176
     0
 40
0.6
176
     0
 40
30.0
176
     0
 62
     7
420
 16777215
176
     0
 90
        1
176
     0
 90
        4
176
     0
 62
     7
176
     0
 62
   257
176
     0
 90
        1
176
     0
 90
        1
176
     0
 40
1.0
176
     0
 90
        9
176
     2
 62
     7
176
     0
 40
1.0
176
     0
 90
        1
176
     0
 90
        6
176
     0
 90
        2
176
     0
 62
     7
176
     0
 90
        5
176
     0
 90
        0
176
     0
 90
        0
176
     0
290
     0
176
     0
 90
        1
176
     0
 40
0.0
176
     0
 90
        0
176
     0
290
     0
176
     0
290
     1
176
     0
290
     1
176
     0
290
     0
176
     0
290
     0
176
     0
290
     0
176
     0
290
     0
176
     0
290
     0
176
     0
290
     0
176
     0
 90
       50
176
     0
 40
0.0
176
     0
 40
1.0
176
     0
 90
        0
176
     0
 62
    18
420
        0
176
     0
 90
       50
176
     0
 90
        3
176
     0
 62
     5
420
      255
176
     0
290
     0
176
     0
 90
       50
176
     0
 90
       50
176
     0
 90
       50
176
     0
290
     0
176
     0
 90
       50
176
     0
 62
   256
176
     0
 40
1.0
176
     0
 90
        2
176
     0
  1
strokes_ogs.tif
176
     0
290
     0
176
     0
 40
1.0
176
     0
 40
1.0
176
     0
  0
VISUALSTYLE
  5
33
102
{ACAD_REACTORS
330
2A
102
}
330
2A
100
AcDbVisualStyle
  2
Realistic
 70
     8
177
     3
291
     0
 70
    58
 90
        2
176
     1
 90
        3
176
     1
 90
        0
176
     1
 90
        2
176
     1
 40
0.6
176
     1
 40
30.0
176
     1
 62
     7
420
 16777215
176
     1
 90
        0
176
     1
 90
        0
176
     1
 62
     7
176
     1
 62
   257
176
     1
 90
        1
176
     1
 90
        1
176
     1
 40
1.0
176
     1
 90
        8
176
     1
 62
   257
176
     1
 40
1.0
176
     1
 90
        1
176
     1
 90
        6
176
     1
 90
        2
176
     1
 62
     7
176
     1
 90
        3
176
     1
 90
        0
176
     1
 90
        0
176
     1
290
     0
176
     1
 90
       13
176
     1
 40
0.0
176
     1
 90
        0
176
     1
290
     0
176
     1
290
     1
176
     1
290
     1
176
     1
290
     0
176
     1
290
     0
176
     1
290
     0
176
     1
290
     0
176
     1
290
     0
176
     1
290
     0
176
     1
 90
       50
176
     1
 40
0.0
176
     1
 40
1.0
176
     1
 90
        0
176
     1
 62
    18
420
        0
176
     1
 90
       50
176
     1
 90
        3
176
     1
 62
     5
420
      255
176
     1
290
     0
176
     1
 90
       50
176
     1
 90
       50
176
     1
 90
       50
176
     1
290
     0
176
     1
 90
       50
176
     1
 62
   256
176
     0
 40
1.0
176
     0
 90
        2
176
     1
  1
strokes_ogs.tif
176
     1
290
     0
176
     1
 40
1.0
176
     1
 40
1.0
176
     1
  0
VISUALSTYLE
  5
42
102
{ACAD_REACTORS
330
2A
102
}
330
2A
100
AcDbVisualStyle
  2
Shaded
 70
    27
177
     3
291
     0
 70
    58
 90
        2
176
     1
 90
        2
176
     1
 90
        1
176
     1
 90
        2
176
     1
 40
0.6
176
     1
 40
30.0
176
     1
 62
     7
420
 16777215
176
     1
 90
        0
176
     1
 90
        4
176
     1
 62
     7
176
     1
 62
   257
176
     1
 90
        1
176
     1
 90
        1
176
     1
 40
1.0
176
     1
 90
        8
176
     1
 62
   257
176
     1
 40
1.0
176
     1
 90
        1
176
     1
 90
        6
176
     1
 90
        2
176
     1
 62
     8
420
  7895160
176
     1
 90
        3
176
     1
 90
        0
176
     1
 90
        0
176
     1
290
     0
176
     1
 90
        5
176
     1
 40
0.0
176
     1
 90
        0
176
     1
290
     0
176
     1
290
     1
176
     1
290
     1
176
     1
290
     0
176
     1
290
     0
176
     1
290
     0
176
     1
290
     0
176
     1
290
     0
176
     1
290
     0
176
     1
 90
       50
176
     1
 40
0.0
176
     1
 40
1.0
176
     1
 90
        0
176
     1
 62
    18
420
        0
176
     1
 90
       50
176
     1
 90
        3
176
     1
 62
     5
420
      255
176
     1
290
     0
176
     1
 90
       50
176
     1
 90
       50
176
     1
 90
       50
176
     1
290
     0
176
     1
 90
       50
176
     1
 62
   256
176
     0
 40
1.0
176
     0
 90
        2
176
     1
  1
strokes_ogs.tif
176
     1
290
     0
176
     1
 40
1.0
176
     1
 40
1.0
176
     1
  0
VISUALSTYLE
  5
41
102
{ACAD_REACTORS
330
2A
102
}
330
2A
100
AcDbVisualStyle
  2
Shaded with edges
 70
    26
177
     3
291
     0
 70
    58
 90
        2
176
     1
 90
        2
176
     1
 90
        1
176
     1
 90
        2
176
     1
 40
0.6
176
     1
 40
30.0
176
     1
 62
     7
420
 16777215
176
     1
 90
        1
176
     1
 90
       10
176
     1
 62
     7
176
     1
 62
   257
176
     1
 90
        2
176
     1
 90
        1
176
     1
 40
1.0
176
     1
 90
        8
176
     1
 62
   257
176
     1
 40
1.0
176
     1
 90
        1
176
     1
 90
        6
176
     1
 90
        2
176
     1
 62
     7
176
     1
 90
        3
176
     1
 90
        0
176
     1
 90
        0
176
     1
290
     0
176
     1
 90
        5
176
     1
 40
0.0
176
     1
 90
        0
176
     1
290
     0
176
     1
290
     1
176
     1
290
     1
176
     1
290
     0
176
     1
290
     0
176
     1
290
     0
176
     1
290
     0
176
     1
290
     0
176
     1
290
     0
176
     1
 90
       50
176
     1
 40
0.0
176
     1
 40
1.0
176
     1
 90
        0
176
     1
 62
    18
420
        0
176
     1
 90
       50
176
     1
 90
        3
176
     1
 62
     5
420
      255
176
     1
290
     0
176
     1
 90
       50
176
     1
 90
       50
176
     1
 90
       50
176
     1
290
     0
176
     1
 90
       50
176
     1
 62
   256
176
     0
 40
1.0
176
     0
 90
        2
176
     1
  1
strokes_ogs.tif
176
     1
290
     0
176
     1
 40
1.0
176
     1
 40
1.0
176
     1
  0
VISUALSTYLE
  5
3E
102
{ACAD_REACTORS
330
2A
102
}
330
2A
100
AcDbVisualStyle
  2
Shades of Gray
 70
    23
177
     3
291
     0
 70
    58
 90
        2
176
     1
 90
        2
176
     1
 90
        3
176
     1
 90
        0
176
     1
 40
0.6
176
     1
 40
30.0
176
     1
 62
     7
420
 16777215
176
     1
 90
        2
176
     1
 90
        2
176
     1
 62
     7
176
     1
 62
     7
176
     1
 90
        1
176
     1
 90
        1
176
     1
 40
40.0
176
     1
 90
        8
176
     1
 62
     7
176
     1
 40
1.0
176
     1
 90
        1
176
     1
 90
        6
176
     1
 90
        2
176
     1
 62
     7
176
     1
 90
        3
176
     1
 90
        0
176
     1
 90
        0
176
     1
290
     0
176
     1
 90
        1
176
     1
 40
0.0
176
     1
 90
        0
176
     1
290
     0
176
     1
290
     1
176
     1
290
     1
176
     1
290
     0
176
     1
290
     0
176
     1
290
     0
176
     1
290
     0
176
     1
290
     0
176
     1
290
     0
176
     1
 90
       50
176
     1
 40
0.0
176
     1
 40
1.0
176
     1
 90
        0
176
     1
 62
    18
420
        0
176
     1
 90
       50
176
     1
 90
        3
176
     1
 62
     5
420
      255
176
     1
290
     0
176
     1
 90
       50
176
     1
 90
       50
176
     1
 90
       50
176
     1
290
     0
176
     1
 90
       50
176
     1
 62
   256
176
     0
 40
1.0
176
     0
 90
        2
176
     1
  1
strokes_ogs.tif
176
     1
290
     0
176
     1
 40
1.0
176
     1
 40
1.0
176
     1
  0
VISUALSTYLE
  5
3F
102
{ACAD_REACTORS
330
2A
102
}
330
2A
100
AcDbVisualStyle
  2
Sketchy
 70
    24
177
     3
291
     0
 70
    58
 90
        1
176
     1
 90
        2
176
     1
 90
        2
176
     1
 90
        0
176
     1
 40
0.6
176
     1
 40
30.0
176
     1
 62
     7
420
 16777215
176
     1
 90
        2
176
     1
 90
        2
176
     1
 62
     7
176
     1
 62
     7
176
     1
 90
        1
176
     1
 90
        1
176
     1
 40
40.0
176
     1
 90
       11
176
     1
 62
     7
176
     1
 40
1.0
176
     1
 90
        1
176
     1
 90
        6
176
     1
 90
        2
176
     1
 62
     7
176
     1
 90
        6
176
     1
 90
        0
176
     1
 90
        0
176
     1
290
     0
176
     1
 90
        1
176
     1
 40
0.0
176
     1
 90
        0
176
     1
290
     0
176
     1
290
     1
176
     1
290
     1
176
     1
290
     0
176
     1
290
     0
176
     1
290
     0
176
     1
290
     0
176
     1
290
     0
176
     1
290
     0
176
     1
 90
       50
176
     1
 40
0.0
176
     1
 40
1.0
176
     1
 90
        0
176
     1
 62
    18
420
        0
176
     1
 90
       50
176
     1
 90
        3
176
     1
 62
     5
420
      255
176
     1
290
     0
176
     1
 90
       50
176
     1
 90
       50
176
     1
 90
       50
176
     1
290
     0
176
     1
 90
       50
176
     1
 62
   256
176
     0
 40
1.0
176
     0
 90
        2
176
     1
  1
strokes_ogs.tif
176
     1
290
     0
176
     1
 40
1.0
176
     1
 40
1.0
176
     1
  0
VISUALSTYLE
  5
37
102
{ACAD_REACTORS
330
2A
102
}
330
2A
100
AcDbVisualStyle
  2
Thicken
 70
    13
177
     3
291
     1
 70
    58
 90
        2
176
     1
 90
        2
176
     1
 90
        0
176
     1
 90
        0
176
     1
 40
0.6
176
     1
 40
30.0
176
     1
 62
     7
420
 16777215
176
     1
 90
        1
176
     1
 90
        4
176
     1
 62
     7
176
     1
 62
   257
176
     1
 90
        1
176
     1
 90
        1
176
     1
 40
1.0
176
     1
 90
       12
176
     1
 62
     7
176
     1
 40
1.0
176
     1
 90
        1
176
     1
 90
        6
176
     1
 90
        2
176
     1
 62
     7
176
     1
 90
        5
176
     1
 90
        0
176
     1
 90
        0
176
     1
290
     0
176
     1
 90
        1
176
     1
 40
0.0
176
     1
 90
        0
176
     1
290
     0
176
     1
290
     1
176
     1
290
     1
176
     1
290
     0
176
     1
290
     0
176
     1
290
     0
176
     1
290
     0
176
     1
290
     0
176
     1
290
     0
176
     1
 90
       50
176
     1
 40
0.0
176
     1
 40
1.0
176
     1
 90
        0
176
     1
 62
    18
420
        0
176
     1
 90
       50
176
     1
 90
        3
176
     1
 62
     5
420
      255
176
     1
290
     0
176
     1
 90
       50
176
     1
 90
       50
176
     1
 90
       50
176
     1
290
     0
176
     1
 90
       50
176
     1
 62
   256
176
     0
 40
1.0
176
     0
 90
        2
176
     1
  1
strokes_ogs.tif
176
     1
290
     0
176
     1
 40
1.0
176
     1
 40
1.0
176
     1
  0
VISUALSTYLE
  5
30
102
{ACAD_REACTORS
330
2A
102
}
330
2A
100
AcDbVisualStyle
  2
Wireframe
 70
     5
177
     3
291
     0
 70
    58
 90
        0
176
     1
 90
        2
176
     1
 90
        0
176
     1
 90
        0
176
     1
 40
0.6
176
     1
 40
30.0
176
     1
 62
     7
420
 16777215
176
     1
 90
        1
176
     1
 90
        4
176
     1
 62
     7
176
     1
 62
   257
176
     1
 90
        1
176
     1
 90
        1
176
     1
 40
1.0
176
     1
 90
        0
176
     1
 62
   257
176
     1
 40
1.0
176
     1
 90
        1
176
     1
 90
        6
176
     1
 90
        2
176
     1
 62
     7
176
     1
 90
        3
176
     1
 90
        0
176
     1
 90
        0
176
     1
290
     0
176
     1
 90
        1
176
     1
 40
0.0
176
     1
 90
        0
176
     1
290
     0
176
     1
290
     1
176
     1
290
     1
176
     1
290
     0
176
     1
290
     0
176
     1
290
     0
176
     1
290
     0
176
     1
290
     0
176
     1
290
     0
176
     1
 90
       50
176
     1
 40
0.0
176
     1
 40
1.0
176
     1
 90
        0
176
     1
 62
    18
420
        0
176
     1
 90
       50
176
     1
 90
        3
176
     1
 62
     5
420
      255
176
     1
290
     0
176
     1
 90
       50
176
     1
 90
       50
176
     1
 90
       50
176
     1
290
     0
176
     1
 90
       50
176
     1
 62
   256
176
     0
 40
1.0
176
     0
 90
        2
176
     1
  1
strokes_ogs.tif
176
     1
290
     0
176
     1
 40
1.0
176
     1
 40
1.0
176
     1
  0
VISUALSTYLE
  5
40
102
{ACAD_REACTORS
330
2A
102
}
330
2A
100
AcDbVisualStyle
  2
X-Ray
 70
    25
177
     3
291
     0
 70
    58
 90
        2
176
     1
 90
        2
176
     1
 90
        1
176
     1
 90
        1
176
     1
 40
0.5
176
     1
 40
30.0
176
     1
 62
     7
420
 16777215
176
     1
 90
        1
176
     1
 90
        0
176
     1
 62
     7
176
     1
 62
   257
176
     1
 90
        1
176
     1
 90
        1
176
     1
 40
1.0
176
     1
 90
        8
176
     1
 62
     7
176
     1
 40
1.0
176
     1
 90
        1
176
     1
 90
        6
176
     1
 90
        2
176
     1
 62
     7
176
     1
 90
        3
176
     1
 90
        0
176
     1
 90
        0
176
     1
290
     0
176
     1
 90
       13
176
     1
 40
0.0
176
     1
 90
        0
176
     1
290
     0
176
     1
290
     1
176
     1
290
     1
176
     1
290
     0
176
     1
290
     0
176
     1
290
     0
176
     1
290
     0
176
     1
290
     0
176
     1
290
     0
176
     1
 90
       50
176
     1
 40
0.0
176
     1
 40
1.0
176
     1
 90
        0
176
     1
 62
    18
420
        0
176
     1
 90
       50
176
     1
 90
        3
176
     1
 62
     5
420
      255
176
     1
290
     0
176
     1
 90
       50
176
     1
 90
       50
176
     1
 90
       50
176
     1
290
     0
176
     1
 90
       50
176
     1
 62
   256
176
     0
 40
1.0
176
     0
 90
        2
176
     1
  1
strokes_ogs.tif
176
     1
290
     0
176
     1
 40
1.0
176
     1
 40
1.0
176
     1
  0
DICTIONARYVAR
  5
87
102
{ACAD_REACTORS
330
86
102
}
330
86
100
DictionaryVariables
280
     0
  1
1:1
  0
DICTIONARYVAR
  5
8C
102
{ACAD_REACTORS
330
86
102
}
330
86
100
DictionaryVariables
280
     0
  1
Standard
  0
DICTIONARYVAR
  5
8B
102
{ACAD_REACTORS
330
86
102
}
330
86
100
DictionaryVariables
280
     0
  1
Standard
  0
DICTIONARY
  5
88
330
5A
100
AcDbDictionary
280
     1
281
     1
  3
ACAD_ROUNDTRIP_2008_TABLESTYLE_CELLSTYLEMAP
360
89
  0
CELLSTYLEMAP
  5
89
102
{ACAD_REACTORS
330
88
102
}
330
88
100
AcDbCellStyleMap
 90
        3
300
CELLSTYLE
  1
TABLEFORMAT_BEGIN
 90
        5
170
     1
 91
        0
 92
    32768
 62
   257
 93
        1
300
CONTENTFORMAT
  1
CONTENTFORMAT_BEGIN
 90
        0
 91
        0
 92
        4
 93
        0
300

 40
0.0
140
1.0
 94
        5
 62
     0
340
11
144
0.25
309
CONTENTFORMAT_END
171
     1
301
MARGIN
  1
CELLMARGIN_BEGIN
 40
0.06
 40
0.06
 40
0.06
 40
0.06
 40
0.06
 40
0.06
309
CELLMARGIN_END
 94
        6
 95
        1
302
GRIDFORMAT
  1
GRIDFORMAT_BEGIN
 90
        0
 91
        1
 62
     0
 92
       -2
340
14
 93
        0
 40
0.045
309
GRIDFORMAT_END
 95
        2
302
GRIDFORMAT
  1
GRIDFORMAT_BEGIN
 90
        0
 91
        1
 62
     0
 92
       -2
340
14
 93
        0
 40
0.045
309
GRIDFORMAT_END
 95
        4
302
GRIDFORMAT
  1
GRIDFORMAT_BEGIN
 90
        0
 91
        1
 62
     0
 92
       -2
340
14
 93
        0
 40
0.045
309
GRIDFORMAT_END
 95
        8
302
GRIDFORMAT
  1
GRIDFORMAT_BEGIN
 90
        0
 91
        1
 62
     0
 92
       -2
340
14
 93
        0
 40
0.045
309
GRIDFORMAT_END
 95
       16
302
GRIDFORMAT
  1
GRIDFORMAT_BEGIN
 90
        0
 91
        1
 62
     0
 92
       -2
340
14
 93
        0
 40
0.045
309
GRIDFORMAT_END
 95
       32
302
GRIDFORMAT
  1
GRIDFORMAT_BEGIN
 90
        0
 91
        1
 62
     0
 92
       -2
340
14
 93
        0
 40
0.045
309
GRIDFORMAT_END
309
TABLEFORMAT_END
  1
CELLSTYLE_BEGIN
 90
        1
 91
        1
300
_TITLE
309
CELLSTYLE_END
300
CELLSTYLE
  1
TABLEFORMAT_BEGIN
 90
        5
170
     1
 91
        0
 92
        0
 62
   257
 93
        1
300
CONTENTFORMAT
  1
CONTENTFORMAT_BEGIN
 90
        0
 91
        0
 92
        4
 93
        0
300

 40
0.0
140
1.0
 94
        5
 62
     0
340
11
144
0.18
309
CONTENTFORMAT_END
171
     1
301
MARGIN
  1
CELLMARGIN_BEGIN
 40
0.06
 40
0.06
 40
0.06
 40
0.06
 40
0.06
 40
0.06
309
CELLMARGIN_END
 94
        6
 95
        1
302
GRIDFORMAT
  1
GRIDFORMAT_BEGIN
 90
        0
 91
        1
 62
     0
 92
       -2
340
14
 93
        0
 40
0.045
309
GRIDFORMAT_END
 95
        2
302
GRIDFORMAT
  1
GRIDFORMAT_BEGIN
 90
        0
 91
        1
 62
     0
 92
       -2
340
14
 93
        0
 40
0.045
309
GRIDFORMAT_END
 95
        4
302
GRIDFORMAT
  1
GRIDFORMAT_BEGIN
 90
        0
 91
        1
 62
     0
 92
       -2
340
14
 93
        0
 40
0.045
309
GRIDFORMAT_END
 95
        8
302
GRIDFORMAT
  1
GRIDFORMAT_BEGIN
 90
        0
 91
        1
 62
     0
 92
       -2
340
14
 93
        0
 40
0.045
309
GRIDFORMAT_END
 95
       16
302
GRIDFORMAT
  1
GRIDFORMAT_BEGIN
 90
        0
 91
        1
 62
     0
 92
       -2
340
14
 93
        0
 40
0.045
309
GRIDFORMAT_END
 95
       32
302
GRIDFORMAT
  1
GRIDFORMAT_BEGIN
 90
        0
 91
        1
 62
     0
 92
       -2
340
14
 93
        0
 40
0.045
309
GRIDFORMAT_END
309
TABLEFORMAT_END
  1
CELLSTYLE_BEGIN
 90
        2
 91
        1
300
_HEADER
309
CELLSTYLE_END
300
CELLSTYLE
  1
TABLEFORMAT_BEGIN
 90
        5
170
     1
 91
        0
 92
        0
 62
   257
 93
        1
300
CONTENTFORMAT
  1
CONTENTFORMAT_BEGIN
 90
        0
 91
        0
 92
        4
 93
        0
300

 40
0.0
140
1.0
 94
        2
 62
     0
340
11
144
0.18
309
CONTENTFORMAT_END
171
     1
301
MARGIN
  1
CELLMARGIN_BEGIN
 40
0.06
 40
0.06
 40
0.06
 40
0.06
 40
0.06
 40
0.06
309
CELLMARGIN_END
 94
        6
 95
        1
302
GRIDFORMAT
  1
GRIDFORMAT_BEGIN
 90
        0
 91
        1
 62
     0
 92
       -2
340
14
 93
        0
 40
0.045
309
GRIDFORMAT_END
 95
        2
302
GRIDFORMAT
  1
GRIDFORMAT_BEGIN
 90
        0
 91
        1
 62
     0
 92
       -2
340
14
 93
        0
 40
0.045
309
GRIDFORMAT_END
 95
        4
302
GRIDFORMAT
  1
GRIDFORMAT_BEGIN
 90
        0
 91
        1
 62
     0
 92
       -2
340
14
 93
        0
 40
0.045
309
GRIDFORMAT_END
 95
        8
302
GRIDFORMAT
  1
GRIDFORMAT_BEGIN
 90
        0
 91
        1
 62
     0
 92
       -2
340
14
 93
        0
 40
0.045
309
GRIDFORMAT_END
 95
       16
302
GRIDFORMAT
  1
GRIDFORMAT_BEGIN
 90
        0
 91
        1
 62
     0
 92
       -2
340
14
 93
        0
 40
0.045
309
GRIDFORMAT_END
 95
       32
302
GRIDFORMAT
  1
GRIDFORMAT_BEGIN
 90
        0
 91
        1
 62
     0
 92
       -2
340
14
 93
        0
 40
0.045
309
GRIDFORMAT_END
309
TABLEFORMAT_END
  1
CELLSTYLE_BEGIN
 90
        3
 91
        2
300
_DATA
309
CELLSTYLE_END
  0
ENDSEC
  0
EOF
