  0
SECTION
  2
HEADER
  9
$ACADVER
  1
AC1027
  9
$ACADMAINTVER
 70
   105
  9
$DWGCODEPAGE
  3
ANSI_1252
  9
$LASTSAVEDBY
  1
Office Desk
  9
$REQUIREDVERSIONS
160
                 0
  9
$INSBASE
 10
0.0
 20
0.0
 30
0.0
  9
$EXTMIN
 10
211.1154
 20
-508.6673
 30
0.0
  9
$EXTMAX
 10
722.9714
 20
374.7019
 30
0.0
  9
$LIMMIN
 10
0.0
 20
0.0
  9
$LIMMAX
 10
12.0
 20
9.0
  9
$ORTHOMODE
 70
     0
  9
$REGENMODE
 70
     1
  9
$FILLMODE
 70
     1
  9
$QTEXTMODE
 70
     0
  9
$MIRRTEXT
 70
     1
  9
$LTSCALE
 40
1.0
  9
$ATTMODE
 70
     1
  9
$TEXTSIZE
 40
0.2
  9
$TRACEWID
 40
0.05
  9
$TEXTSTYLE
  7
Standard
  9
$CLAYER
  8
0
  9
$CELTYPE
  6
ByLayer
  9
$CECOLOR
 62
   256
  9
$CELTSCALE
 40
1.0
  9
$DISPSILH
 70
     0
  9
$DIMSCALE
 40
1.0
  9
$DIMASZ
 40
0.18
  9
$DIMEXO
 40
0.0625
  9
$DIMDLI
 40
0.38
  9
$DIMRND
 40
0.0
  9
$DIMDLE
 40
0.0
  9
$DIMEXE
 40
0.18
  9
$DIMTP
 40
0.0
  9
$DIMTM
 40
0.0
  9
$DIMTXT
 40
0.18
  9
$DIMCEN
 40
0.09
  9
$DIMTSZ
 40
0.0
  9
$DIMTOL
 70
     0
  9
$DIMLIM
 70
     0
  9
$DIMTIH
 70
     1
  9
$DIMTOH
 70
     1
  9
$DIMSE1
 70
     0
  9
$DIMSE2
 70
     0
  9
$DIMTAD
 70
     0
  9
$DIMZIN
 70
     0
  9
$DIMBLK
  1

  9
$DIMASO
 70
     1
  9
$DIMSHO
 70
     1
  9
$DIMPOST
  1

  9
$DIMAPOST
  1

  9
$DIMALT
 70
     0
  9
$DIMALTD
 70
     2
  9
$DIMALTF
 40
25.4
  9
$DIMLFAC
 40
1.0
  9
$DIMTOFL
 70
     0
  9
$DIMTVP
 40
0.0
  9
$DIMTIX
 70
     0
  9
$DIMSOXD
 70
     0
  9
$DIMSAH
 70
     0
  9
$DIMBLK1
  1

  9
$DIMBLK2
  1

  9
$DIMSTYLE
  2
Standard
  9
$DIMCLRD
 70
     0
  9
$DIMCLRE
 70
     0
  9
$DIMCLRT
 70
     0
  9
$DIMTFAC
 40
1.0
  9
$DIMGAP
 40
0.09
  9
$DIMJUST
 70
     0
  9
$DIMSD1
 70
     0
  9
$DIMSD2
 70
     0
  9
$DIMTOLJ
 70
     1
  9
$DIMTZIN
 70
     0
  9
$DIMALTZ
 70
     0
  9
$DIMALTTZ
 70
     0
  9
$DIMUPT
 70
     0
  9
$DIMDEC
 70
     4
  9
$DIMTDEC
 70
     4
  9
$DIMALTU
 70
     2
  9
$DIMALTTD
 70
     2
  9
$DIMTXSTY
  7
Standard
  9
$DIMAUNIT
 70
     0
  9
$DIMADEC
 70
     0
  9
$DIMALTRND
 40
0.0
  9
$DIMAZIN
 70
     0
  9
$DIMDSEP
 70
    46
  9
$DIMATFIT
 70
     3
  9
$DIMFRAC
 70
     0
  9
$DIMLDRBLK
  1

  9
$DIMLUNIT
 70
     2
  9
$DIMLWD
 70
    -2
  9
$DIMLWE
 70
    -2
  9
$DIMTMOVE
 70
     0
  9
$DIMFXL
 40
1.0
  9
$DIMFXLON
 70
     0
  9
$DIMJOGANG
 40
0.7853981633974483
  9
$DIMTFILL
 70
     0
  9
$DIMTFILLCLR
 70
     0
  9
$DIMARCSYM
 70
     0
  9
$DIMLTYPE
  6

  9
$DIMLTEX1
  6

  9
$DIMLTEX2
  6

  9
$DIMTXTDIRECTION
 70
     0
  9
$LUNITS
 70
     2
  9
$LUPREC
 70
     4
  9
$SKETCHINC
 40
0.1
  9
$FILLETRAD
 40
0.0
  9
$AUNITS
 70
     0
  9
$AUPREC
 70
     0
  9
$MENU
  1
.
  9
$ELEVATION
 40
0.0
  9
$PELEVATION
 40
0.0
  9
$THICKNESS
 40
0.0
  9
$LIMCHECK
 70
     0
  9
$CHAMFERA
 40
0.0
  9
$CHAMFERB
 40
0.0
  9
$CHAMFERC
 40
0.0
  9
$CHAMFERD
 40
0.0
  9
$SKPOLY
 70
     0
  9
$TDCREATE
 40
2461006.690425521
  9
$TDUCREATE
 40
2461006.461258855
  9
$TDUPDATE
 40
2461006.690425521
  9
$TDUUPDATE
 40
2461006.461258855
  9
$TDINDWG
 40
0.0000000116
  9
$TDUSRTIMER
 40
0.0000000116
  9
$USRTIMER
 70
     1
  9
$ANGBASE
 50
0.0
  9
$ANGDIR
 70
     0
  9
$PDMODE
 70
     0
  9
$PDSIZE
 40
0.0
  9
$PLINEWID
 40
0.0
  9
$SPLFRAME
 70
     0
  9
$SPLINETYPE
 70
     6
  9
$SPLINESEGS
 70
     8
  9
$HANDSEED
  5
80
  9
$SURFTAB1
 70
     6
  9
$SURFTAB2
 70
     6
  9
$SURFTYPE
 70
     6
  9
$SURFU
 70
     6
  9
$SURFV
 70
     6
  9
$UCSBASE
  2

  9
$UCSNAME
  2

  9
$UCSORG
 10
0.0
 20
0.0
 30
0.0
  9
$UCSXDIR
 10
1.0
 20
0.0
 30
0.0
  9
$UCSYDIR
 10
0.0
 20
1.0
 30
0.0
  9
$UCSORTHOREF
  2

  9
$UCSORTHOVIEW
 70
     0
  9
$UCSORGTOP
 10
0.0
 20
0.0
 30
0.0
  9
$UCSORGBOTTOM
 10
0.0
 20
0.0
 30
0.0
  9
$UCSORGLEFT
 10
0.0
 20
0.0
 30
0.0
  9
$UCSORGRIGHT
 10
0.0
 20
0.0
 30
0.0
  9
$UCSORGFRONT
 10
0.0
 20
0.0
 30
0.0
  9
$UCSORGBACK
 10
0.0
 20
0.0
 30
0.0
  9
$PUCSBASE
  2

  9
$PUCSNAME
  2

  9
$PUCSORG
 10
0.0
 20
0.0
 30
0.0
  9
$PUCSXDIR
 10
1.0
 20
0.0
 30
0.0
  9
$PUCSYDIR
 10
0.0
 20
1.0
 30
0.0
  9
$PUCSORTHOREF
  2

  9
$PUCSORTHOVIEW
 70
     0
  9
$PUCSORGTOP
 10
0.0
 20
0.0
 30
0.0
  9
$PUCSORGBOTTOM
 10
0.0
 20
0.0
 30
0.0
  9
$PUCSORGLEFT
 10
0.0
 20
0.0
 30
0.0
  9
$PUCSORGRIGHT
 10
0.0
 20
0.0
 30
0.0
  9
$PUCSORGFRONT
 10
0.0
 20
0.0
 30
0.0
  9
$PUCSORGBACK
 10
0.0
 20
0.0
 30
0.0
  9
$USERI1
 70
     0
  9
$USERI2
 70
     0
  9
$USERI3
 70
     0
  9
$USERI4
 70
     0
  9
$USERI5
 70
     0
  9
$USERR1
 40
0.0
  9
$USERR2
 40
0.0
  9
$USERR3
 40
0.0
  9
$USERR4
 40
0.0
  9
$USERR5
 40
0.0
  9
$WORLDVIEW
 70
     1
  9
$SHADEDGE
 70
     3
  9
$SHADEDIF
 70
    70
  9
$TILEMODE
 70
     1
  9
$MAXACTVP
 70
    64
  9
$PINSBASE
 10
0.0
 20
0.0
 30
0.0
  9
$PLIMCHECK
 70
     0
  9
$PEXTMIN
 10
1.000000000000000E+20
 20
1.000000000000000E+20
 30
1.000000000000000E+20
  9
$PEXTMAX
 10
-1.000000000000000E+20
 20
-1.000000000000000E+20
 30
-1.000000000000000E+20
  9
$PLIMMIN
 10
0.0
 20
0.0
  9
$PLIMMAX
 10
12.0
 20
9.0
  9
$UNITMODE
 70
     0
  9
$VISRETAIN
 70
     1
  9
$PLINEGEN
 70
     0
  9
$PSLTSCALE
 70
     1
  9
$TREEDEPTH
 70
  3020
  9
$CMLSTYLE
  2
Standard
  9
$CMLJUST
 70
     0
  9
$CMLSCALE
 40
1.0
  9
$PROXYGRAPHICS
 70
     1
  9
$MEASUREMENT
 70
     0
  9
$CELWEIGHT
370
    -1
  9
$ENDCAPS
280
     0
  9
$JOINSTYLE
280
     0
  9
$LWDISPLAY
290
     0
  9
$INSUNITS
 70
     4
  9
$HYPERLINKBASE
  1

  9
$STYLESHEET
  1

  9
$XEDIT
290
     1
  9
$CEPSNTYPE
380
     0
  9
$PSTYLEMODE
290
     1
  9
$FINGERPRINTGUID
  2
{7d63bd31-9565-4ec3-b5d1-1b7f67d465ef}
  9
$VERSIONGUID
  2
{FAEB1C32-E019-11D5-929B-00C0DF256EC4}
  9
$EXTNAMES
290
     1
  9
$PSVPSCALE
 40
0.0
  9
$OLESTARTUP
290
     0
  9
$SORTENTS
280
   127
  9
$INDEXCTL
280
     0
  9
$HIDETEXT
280
     1
  9
$XCLIPFRAME
280
     2
  9
$HALOGAP
280
     0
  9
$OBSCOLOR
 70
   257
  9
$OBSLTYPE
280
     0
  9
$INTERSECTIONDISPLAY
280
     0
  9
$INTERSECTIONCOLOR
 70
   257
  9
$DIMASSOC
280
     2
  9
$PROJECTNAME
  1

  9
$CAMERADISPLAY
290
     0
  9
$LENSLENGTH
 40
50.0
  9
$CAMERAHEIGHT
 40
0.0
  9
$STEPSPERSEC
 40
2.0
  9
$STEPSIZE
 40
6.0
  9
$3DDWFPREC
 40
2.0
  9
$PSOLWIDTH
 40
0.25
  9
$PSOLHEIGHT
 40
4.0
  9
$LOFTANG1
 40
1.570796326794897
  9
$LOFTANG2
 40
1.570796326794897
  9
$LOFTMAG1
 40
0.0
  9
$LOFTMAG2
 40
0.0
  9
$LOFTPARAM
 70
     7
  9
$LOFTNORMALS
280
     1
  9
$LATITUDE
 40
37.795
  9
$LONGITUDE
 40
-122.394
  9
$NORTHDIRECTION
 40
0.0
  9
$TIMEZONE
 70
 -8000
  9
$LIGHTGLYPHDISPLAY
280
     1
  9
$TILEMODELIGHTSYNCH
280
     1
  9
$CMATERIAL
347
44
  9
$SOLIDHIST
280
     0
  9
$SHOWHIST
280
     1
  9
$DWFFRAME
280
     2
  9
$DGNFRAME
280
     2
  9
$REALWORLDSCALE
290
     1
  9
$INTERFERECOLOR
 62
   256
  9
$CSHADOW
280
     0
  9
$SHADOWPLANELOCATION
 40
0.0
  0
ENDSEC
  0
SECTION
  2
CLASSES
  0
CLASS
  1
ACDBDICTIONARYWDFLT
  2
AcDbDictionaryWithDefault
  3
ObjectDBX Classes
 90
        0
 91
        3
280
     0
281
     0
  0
CLASS
  1
VISUALSTYLE
  2
AcDbVisualStyle
  3
ObjectDBX Classes
 90
     4095
 91
        3
280
     0
281
     0
  0
CLASS
  1
MATERIAL
  2
AcDbMaterial
  3
ObjectDBX Classes
 90
     1153
 91
        3
280
     0
281
     0
  0
CLASS
  1
SCALE
  2
AcDbScale
  3
ObjectDBX Classes
 90
     1153
 91
        3
280
     0
281
     0
  0
CLASS
  1
TABLESTYLE
  2
AcDbTableStyle
  3
ObjectDBX Classes
 90
     4095
 91
        3
280
     0
281
     0
  0
CLASS
  1
MLEADERSTYLE
  2
AcDbMLeaderStyle
  3
ACDB_MLEADERSTYLE_CLASS
 90
     4095
 91
        3
280
     0
281
     0
  0
CLASS
  1
SUN
  2
AcDbSun
  3
SCENEOE
 90
     1153
 91
        3
280
     0
281
     0
  0
CLASS
  1
DICTIONARYVAR
  2
AcDbDictionaryVar
  3
ObjectDBX Classes
 90
        0
 91
        3
280
     0
281
     0
  0
CLASS
  1
CELLSTYLEMAP
  2
AcDbCellStyleMap
  3
ObjectDBX Classes
 90
     1152
 91
        3
280
     0
281
     0
  0
ENDSEC
  0
SECTION
  2
TABLES
  0
TABLE
  2
VPORT
  5
8
330
0
100
AcDbSymbolTable
 70
     1
  0
VPORT
  5
29
330
8
100
AcDbSymbolTableRecord
100
AcDbViewportTableRecord
  2
*Active
 70
     0
 10
0.0
 20
0.0
 11
1.0
 21
1.0
 12
10.42990654205607
 22
4.5
 13
0.0
 23
0.0
 14
0.5
 24
0.5
 15
0.5
 25
0.5
 16
0.0
 26
0.0
 36
1.0
 17
0.0
 27
0.0
 37
0.0
 40
9.0
 41
1.972972972850329
 42
50.0
 43
0.0
 44
0.0
 50
0.0
 51
0.0
 71
     0
 72
   100
 73
     1
 74
     3
 75
     0
 76
     0
 77
     0
 78
     0
281
     0
 65
     1
110
0.0
120
0.0
130
0.0
111
1.0
121
0.0
131
0.0
112
0.0
122
1.0
132
0.0
 79
     0
146
0.0
348
2F
 60
     3
 61
     5
292
     1
282
     1
141
0.0
142
0.0
 63
   250
361
5D
  0
ENDTAB
  0
TABLE
  2
LTYPE
  5
5
330
0
100
AcDbSymbolTable
 70
     1
  0
LTYPE
  5
14
330
5
100
AcDbSymbolTableRecord
100
AcDbLinetypeTableRecord
  2
ByBlock
 70
     0
  3

 72
    65
 73
     0
 40
0.0
  0
LTYPE
  5
15
330
5
100
AcDbSymbolTableRecord
100
AcDbLinetypeTableRecord
  2
ByLayer
 70
     0
  3

 72
    65
 73
     0
 40
0.0
  0
LTYPE
  5
16
330
5
100
AcDbSymbolTableRecord
100
AcDbLinetypeTableRecord
  2
Continuous
 70
     0
  3
Solid line
 72
    65
 73
     0
 40
0.0
  0
ENDTAB
  0
TABLE
  2
LAYER
  5
2
330
0
100
AcDbSymbolTable
 70
     2
  0
LAYER
  5
10
330
2
100
AcDbSymbolTableRecord
100
AcDbLayerTableRecord
  2
0
 70
     0
 62
     7
  6
Continuous
370
    -3
390
F
347
46
348
0
  0
LAYER
  5
5F
330
2
100
AcDbSymbolTableRecord
100
AcDbLayerTableRecord
  2
Layer 1
 70
     0
 62
     7
  6
Continuous
370
    -3
390
F
347
46
348
0
  0
ENDTAB
  0
TABLE
  2
STYLE
  5
3
330
0
100
AcDbSymbolTable
 70
     1
  0
STYLE
  5
11
330
3
100
AcDbSymbolTableRecord
100
AcDbTextStyleTableRecord
  2
Standard
 70
     0
 40
0.0
 41
1.0
 50
0.0
 71
     0
 42
0.2
  3
txt
  4

  0
ENDTAB
  0
TABLE
  2
VIEW
  5
6
330
0
100
AcDbSymbolTable
 70
     0
  0
ENDTAB
  0
TABLE
  2
UCS
  5
7
330
0
100
AcDbSymbolTable
 70
     0
  0
ENDTAB
  0
TABLE
  2
APPID
  5
9
330
0
100
AcDbSymbolTable
 70
     2
  0
APPID
  5
12
330
9
100
AcDbSymbolTableRecord
100
AcDbRegAppTableRecord
  2
ACAD
 70
     0
  0
APPID
  5
5E
330
9
100
AcDbSymbolTableRecord
100
AcDbRegAppTableRecord
  2
ODA
 70
     0
  0
ENDTAB
  0
TABLE
  2
DIMSTYLE
  5
A
330
0
100
AcDbSymbolTable
 70
     1
100
AcDbDimStyleTable
  0
DIMSTYLE
105
27
330
A
100
AcDbSymbolTableRecord
100
AcDbDimStyleTableRecord
  2
Standard
 70
     0
178
     0
340
11
  0
ENDTAB
  0
TABLE
  2
BLOCK_RECORD
  5
1
330
0
100
AcDbSymbolTable
 70
     1
  0
BLOCK_RECORD
  5
1F
330
1
100
AcDbSymbolTableRecord
100
AcDbBlockTableRecord
  2
*Model_Space
340
22
 70
     0
280
     1
281
     0
  0
BLOCK_RECORD
  5
1B
330
1
100
AcDbSymbolTableRecord
100
AcDbBlockTableRecord
  2
*Paper_Space
340
1E
 70
     0
280
     1
281
     0
  0
BLOCK_RECORD
  5
23
330
1
100
AcDbSymbolTableRecord
100
AcDbBlockTableRecord
  2
*Paper_Space0
340
26
 70
     0
280
     1
281
     0
  0
ENDTAB
  0
ENDSEC
  0
SECTION
  2
BLOCKS
  0
BLOCK
  5
20
330
1F
100
AcDbEntity
  8
0
100
AcDbBlockBegin
  2
*Model_Space
 70
     0
 10
0.0
 20
0.0
 30
0.0
  3
*Model_Space
  1

  0
ENDBLK
  5
21
330
1F
100
AcDbEntity
  8
0
100
AcDbBlockEnd
  0
BLOCK
  5
1C
330
1B
100
AcDbEntity
 67
     1
  8
0
100
AcDbBlockBegin
  2
*Paper_Space
 70
     0
 10
0.0
 20
0.0
 30
0.0
  3
*Paper_Space
  1

  0
ENDBLK
  5
1D
330
1B
100
AcDbEntity
 67
     1
  8
0
100
AcDbBlockEnd
  0
BLOCK
  5
24
330
23
100
AcDbEntity
  8
0
100
AcDbBlockBegin
  2
*Paper_Space0
 70
     0
 10
0.0
 20
0.0
 30
0.0
  3
*Paper_Space0
  1

  0
ENDBLK
  5
25
330
23
100
AcDbEntity
  8
0
100
AcDbBlockEnd
  0
ENDSEC
  0
SECTION
  2
ENTITIES
  0
LWPOLYLINE
  5
60
330
1F
100
AcDbEntity
  8
Layer 1
 62
   250
370
    18
100
AcDbPolyline
 90
        5
 70
     1
 43
0.0
 10
211.2036
 20
-508.5791
 10
722.8832
 20
-508.5791
 10
722.8832
 20
374.6137
 10
211.2036
 20
374.6137
 10
211.2036
 20
-508.5791
  0
LWPOLYLINE
  5
61
330
1F
100
AcDbEntity
  8
Layer 1
 62
     7
100
AcDbPolyline
 90
        4
 70
     1
 43
0.0
 10
417.2108
 20
341.1322
 10
417.2108
 20
326.2069
 10
409.1235
 20
326.2069
 10
417.2108
 20
341.1322
  0
LWPOLYLINE
  5
62
330
1F
100
AcDbEntity
  8
Layer 1
 62
     7
100
AcDbPolyline
 90
       11
 70
     1
 43
0.0
 10
419.4812
 20
323.4725
 10
422.1564
 20
323.4725
 10
422.1564
 20
326.2069
 10
419.4812
 20
326.2069
 10
419.4503
 20
344.0182
 10
416.4019
 20
344.0182
 10
405.2668
 20
323.4725
 10
417.2108
 20
323.4725
 10
417.2108
 20
318.1939
 10
419.4812
 20
318.1939
 10
419.4812
 20
323.4725
  0
LWPOLYLINE
  5
63
330
1F
100
AcDbEntity
  8
Layer 1
 62
     7
100
AcDbPolyline
 90
        7
 70
     1
 43
0.0
 10
428.2209
 20
318.1939
 10
430.3987
 20
318.1939
 10
430.3987
 20
344.3223
 10
425.1732
 20
343.6387
 10
425.1732
 20
341.3224
 10
428.2209
 20
341.3224
 10
428.2209
 20
318.1939
  0
LWPOLYLINE
  5
64
330
1F
100
AcDbEntity
  8
Layer 1
 62
     7
100
AcDbPolyline
 90
      136
 70
     1
 43
0.0
 10
438.1128
 20
334.4487
 10
439.5433
 20
341.3601
 10
447.1949
 20
341.3601
 10
447.1949
 20
344.0182
 10
437.8945
 20
344.0182
 10
435.4684
 20
332.4356
 10
437.8328
 20
331.1446
 10
438.1756
 20
331.4294
 10
438.5354
 20
331.6762
 10
438.9123
 20
331.8849
 10
439.3062
 20
332.0557
 10
439.7171
 20
332.1886
 10
440.145
 20
332.2834
 10
440.5899
 20
332.3403
 10
441.0517
 20
332.3593
 10
441.5164
 20
332.3314
 10
441.9655
 20
332.2478
 10
442.399
 20
332.1084
 10
442.8169
 20
331.9132
 10
443.2193
 20
331.6623
 10
443.6061
 20
331.3556
 10
443.9773
 20
330.9932
 10
444.3331
 20
330.575
 10
444.6684
 20
330.1082
 10
444.9591
 20
329.6242
 10
445.2051
 20
329.1231
 10
445.4064
 20
328.6048
 10
445.563
 20
328.0693
 10
445.6749
 20
327.5165
 10
445.742
 20
326.9466
 10
445.7644
 20
326.3594
 10
445.7415
 20
325.7519
 10
445.6729
 20
325.1688
 10
445.5586
 20
324.6101
 10
445.3987
 20
324.0757
 10
445.193
 20
323.5656
 10
444.9417
 20
323.0799
 10
444.6448
 20
322.6186
 10
444.3022
 20
322.1815
 10
444.128
 20
321.9871
 10
443.9474
 20
321.8029
 10
443.7605
 20
321.6288
 10
443.5672
 20
321.4648
 10
443.3677
 20
321.3108
 10
443.1619
 20
321.167
 10
442.9498
 20
321.0332
 10
442.7314
 20
320.9094
 10
442.5035
 20
320.7981
 10
442.263
 20
320.7017
 10
442.0098
 20
320.6201
 10
441.744
 20
320.5534
 10
441.4655
 20
320.5016
 10
441.1744
 20
320.4645
 10
440.8706
 20
320.4423
 10
440.5543
 20
320.4349
 10
440.2319
 20
320.4515
 10
439.9099
 20
320.5013
 10
439.5883
 20
320.5844
 10
439.2672
 20
320.7006
 10
438.9466
 20
320.8501
 10
438.6265
 20
321.0328
 10
438.307
 20
321.2487
 10
437.9879
 20
321.4979
 10
437.6808
 20
321.7738
 10
437.397
 20
322.0699
 10
437.1366
 20
322.3861
 10
436.8994
 20
322.7225
 10
436.6856
 20
323.0791
 10
436.4952
 20
323.4559
 10
436.328
 20
323.8529
 10
436.1841
 20
324.27
 10
434.0687
 20
323.4348
 10
434.2766
 20
322.8097
 10
434.519
 20
322.216
 10
434.7958
 20
321.6537
 10
435.107
 20
321.1229
 10
435.4528
 20
320.6236
 10
435.833
 20
320.1557
 10
436.2477
 20
319.7193
 10
436.6969
 20
319.3144
 10
437.1748
 20
318.9451
 10
437.6633
 20
318.6249
 10
438.1626
 20
318.354
 10
438.6725
 20
318.1323
 10
439.193
 20
317.9599
 10
439.7243
 20
317.8367
 10
440.2662
 20
317.7627
 10
440.8188
 20
317.7381
 10
441.555
 20
317.7788
 10
442.263
 20
317.9008
 10
442.9428
 20
318.1041
 10
443.5945
 20
318.3887
 10
444.218
 20
318.7546
 10
444.8133
 20
319.2017
 10
445.3804
 20
319.7301
 10
445.9194
 20
320.3398
 10
446.4079
 20
321.0017
 10
446.8313
 20
321.6962
 10
447.1895
 20
322.4234
 10
447.4827
 20
323.1832
 10
447.7107
 20
323.9756
 10
447.8736
 20
324.8007
 10
447.9713
 20
325.6584
 10
448.0039
 20
326.5487
 10
447.9718
 20
327.4343
 10
447.8755
 20
328.2826
 10
447.7151
 20
329.0935
 10
447.4905
 20
329.867
 10
447.2018
 20
330.6032
 10
446.8489
 20
331.3019
 10
446.432
 20
331.9633
 10
445.951
 20
332.5872
 10
445.7051
 20
332.8647
 10
445.4494
 20
333.1273
 10
445.184
 20
333.3751
 10
444.909
 20
333.608
 10
444.6242
 20
333.826
 10
444.3297
 20
334.0293
 10
444.0254
 20
334.2177
 10
443.7115
 20
334.3913
 10
443.391
 20
334.5471
 10
443.0678
 20
334.6821
 10
442.7418
 20
334.7964
 10
442.4131
 20
334.8899
 10
442.0818
 20
334.9625
 10
441.7478
 20
335.0145
 10
441.4113
 20
335.0456
 10
441.0723
 20
335.056
 10
440.7269
 20
335.0465
 10
440.3746
 20
335.018
 10
440.0153
 20
334.9705
 10
439.649
 20
334.9041
 10
439.2757
 20
334.8187
 10
438.8952
 20
334.7143
 10
438.5076
 20
334.591
 10
438.1128
 20
334.4487
  0
LWPOLYLINE
  5
65
330
1F
100
AcDbEntity
  8
Layer 1
 62
     7
100
AcDbPolyline
 90
      165
 70
     1
 43
0.0
 10
469.3408
 20
318.2701
 10
471.5178
 20
318.2701
 10
471.5178
 20
328.7134
 10
471.5001
 20
329.4069
 10
471.4469
 20
330.0677
 10
471.3582
 20
330.6958
 10
471.2341
 20
331.2913
 10
471.0744
 20
331.8541
 10
470.8793
 20
332.3843
 10
470.6488
 20
332.882
 10
470.3827
 20
333.347
 10
470.2342
 20
333.5691
 10
470.0765
 20
333.78
 10
469.9096
 20
333.9796
 10
469.7334
 20
334.168
 10
469.548
 20
334.3451
 10
469.3533
 20
334.5111
 10
469.1493
 20
334.6658
 10
468.936
 20
334.8093
 10
468.7096
 20
334.9383
 10
468.4656
 20
335.0502
 10
468.2042
 20
335.1449
 10
467.9253
 20
335.2224
 10
467.6289
 20
335.2827
 10
467.315
 20
335.3257
 10
466.9836
 20
335.3516
 10
466.6347
 20
335.3602
 10
466.2827
 20
335.3454
 10
465.9418
 20
335.3008
 10
465.6121
 20
335.2266
 10
465.2935
 20
335.1227
 10
464.9861
 20
334.9891
 10
464.6898
 20
334.8258
 10
464.4047
 20
334.6328
 10
464.1307
 20
334.4101
 10
463.893
 20
334.1882
 10
463.6661
 20
333.9499
 10
463.4498
 20
333.6953
 10
463.2442
 20
333.4245
 10
463.0493
 20
333.1377
 10
462.8651
 20
332.8351
 10
462.6917
 20
332.5166
 10
462.529
 20
332.1826
 10
462.4025
 20
332.4907
 10
462.2645
 20
332.7884
 10
462.1149
 20
333.0742
 10
461.9537
 20
333.347
 10
461.8052
 20
333.5691
 10
461.6475
 20
333.78
 10
461.4805
 20
333.9796
 10
461.3042
 20
334.168
 10
461.1187
 20
334.3451
 10
460.924
 20
334.5111
 10
460.7201
 20
334.6658
 10
460.507
 20
334.8093
 10
460.2806
 20
334.9383
 10
460.0367
 20
335.0502
 10
459.7752
 20
335.1449
 10
459.4964
 20
335.2224
 10
459.2
 20
335.2827
 10
458.8861
 20
335.3257
 10
458.5547
 20
335.3516
 10
458.2058
 20
335.3602
 10
457.8535
 20
335.3454
 10
457.5124
 20
335.3008
 10
457.1826
 20
335.2266
 10
456.864
 20
335.1227
 10
456.5566
 20
334.9891
 10
456.2604
 20
334.8258
 10
455.9755
 20
334.6328
 10
455.7018
 20
334.4101
 10
455.4752
 20
334.1988
 10
455.2584
 20
333.9732
 10
455.0514
 20
333.7332
 10
454.8541
 20
333.4788
 10
454.6665
 20
333.2099
 10
454.4886
 20
332.9264
 10
454.3203
 20
332.6283
 10
454.1618
 20
332.3154
 10
454.1618
 20
334.9798
 10
451.9847
 20
334.9798
 10
451.9847
 20
318.2701
 10
454.1618
 20
318.2701
 10
454.1618
 20
326.8214
 10
454.2125
 20
327.3196
 10
454.2787
 20
327.7984
 10
454.3605
 20
328.2579
 10
454.4577
 20
328.6982
 10
454.5704
 20
329.1195
 10
454.6986
 20
329.5219
 10
454.8424
 20
329.9057
 10
455.0016
 20
330.2708
 10
455.1315
 20
330.5307
 10
455.272
 20
330.7787
 10
455.4233
 20
331.0148
 10
455.5852
 20
331.2391
 10
455.7577
 20
331.4515
 10
455.941
 20
331.652
 10
456.1349
 20
331.8407
 10
456.3395
 20
332.0175
 10
456.5514
 20
332.1777
 10
456.7671
 20
332.3166
 10
456.9868
 20
332.4341
 10
457.2103
 20
332.5302
 10
457.4377
 20
332.605
 10
457.669
 20
332.6584
 10
457.9042
 20
332.6904
 10
458.1433
 20
332.7011
 10
458.3766
 20
332.6955
 10
458.5943
 20
332.6786
 10
458.7965
 20
332.6504
 10
458.9831
 20
332.611
 10
459.1542
 20
332.5602
 10
459.3097
 20
332.4983
 10
459.4496
 20
332.425
 10
459.5739
 20
332.3405
 10
459.8875
 20
332.0574
 10
460.1592
 20
331.7257
 10
460.3892
 20
331.3453
 10
460.5773
 20
330.9162
 10
460.7236
 20
330.4385
 10
460.8282
 20
329.9121
 10
460.8909
 20
329.3371
 10
460.9118
 20
328.7134
 10
460.9118
 20
318.2701
 10
463.0889
 20
318.2701
 10
463.0889
 20
328.7134
 10
463.0734
 20
329.3531
 10
463.154
 20
329.5953
 10
463.2405
 20
329.8284
 10
463.3329
 20
330.0533
 10
463.4313
 20
330.2708
 10
463.5609
 20
330.5307
 10
463.7013
 20
330.7787
 10
463.8524
 20
331.0148
 10
464.0142
 20
331.2391
 10
464.1867
 20
331.4515
 10
464.3699
 20
331.652
 10
464.5639
 20
331.8407
 10
464.7685
 20
332.0175
 10
464.9804
 20
332.1777
 10
465.1961
 20
332.3166
 10
465.4158
 20
332.4341
 10
465.6393
 20
332.5302
 10
465.8667
 20
332.605
 10
466.098
 20
332.6584
 10
466.3332
 20
332.6904
 10
466.5723
 20
332.7011
 10
466.8056
 20
332.6955
 10
467.0233
 20
332.6786
 10
467.2255
 20
332.6504
 10
467.4121
 20
332.611
 10
467.5831
 20
332.5602
 10
467.7386
 20
332.4983
 10
467.8785
 20
332.425
 10
468.0028
 20
332.3405
 10
468.3164
 20
332.0574
 10
468.5882
 20
331.7257
 10
468.8181
 20
331.3453
 10
469.0063
 20
330.9162
 10
469.1526
 20
330.4385
 10
469.2572
 20
329.9121
 10
469.3199
 20
329.3371
 10
469.3408
 20
328.7134
 10
469.3408
 20
318.2701
  0
LWPOLYLINE
  5
66
330
1F
100
AcDbEntity
  8
Layer 1
 62
     7
100
AcDbPolyline
 90
      165
 70
     1
 43
0.0
 10
493.073
 20
318.2701
 10
495.25
 20
318.2701
 10
495.25
 20
328.7134
 10
495.2323
 20
329.4069
 10
495.1791
 20
330.0677
 10
495.0904
 20
330.6958
 10
494.9662
 20
331.2913
 10
494.8066
 20
331.8541
 10
494.6115
 20
332.3843
 10
494.3809
 20
332.882
 10
494.1149
 20
333.347
 10
493.9664
 20
333.5691
 10
493.8087
 20
333.78
 10
493.6418
 20
333.9796
 10
493.4656
 20
334.168
 10
493.2802
 20
334.3451
 10
493.0855
 20
334.5111
 10
492.8815
 20
334.6658
 10
492.6682
 20
334.8093
 10
492.4418
 20
334.9383
 10
492.1978
 20
335.0502
 10
491.9364
 20
335.1449
 10
491.6575
 20
335.2224
 10
491.3611
 20
335.2827
 10
491.0472
 20
335.3257
 10
490.7158
 20
335.3516
 10
490.3669
 20
335.3602
 10
490.0148
 20
335.3454
 10
489.674
 20
335.3008
 10
489.3442
 20
335.2266
 10
489.0257
 20
335.1227
 10
488.7182
 20
334.9891
 10
488.422
 20
334.8258
 10
488.1369
 20
334.6328
 10
487.8629
 20
334.4101
 10
487.6252
 20
334.1882
 10
487.3983
 20
333.9499
 10
487.182
 20
333.6953
 10
486.9764
 20
333.4245
 10
486.7815
 20
333.1377
 10
486.5973
 20
332.8351
 10
486.4239
 20
332.5166
 10
486.2612
 20
332.1826
 10
486.1347
 20
332.4907
 10
485.9967
 20
332.7884
 10
485.8471
 20
333.0742
 10
485.6859
 20
333.347
 10
485.5374
 20
333.5691
 10
485.3797
 20
333.78
 10
485.2127
 20
333.9796
 10
485.0364
 20
334.168
 10
484.8509
 20
334.3451
 10
484.6562
 20
334.5111
 10
484.4523
 20
334.6658
 10
484.2392
 20
334.8093
 10
484.0128
 20
334.9383
 10
483.7689
 20
335.0502
 10
483.5074
 20
335.1449
 10
483.2286
 20
335.2224
 10
482.9322
 20
335.2827
 10
482.6183
 20
335.3257
 10
482.2869
 20
335.3516
 10
481.938
 20
335.3602
 10
481.5857
 20
335.3454
 10
481.2446
 20
335.3008
 10
480.9148
 20
335.2266
 10
480.5962
 20
335.1227
 10
480.2888
 20
334.9891
 10
479.9926
 20
334.8258
 10
479.7077
 20
334.6328
 10
479.434
 20
334.4101
 10
479.2074
 20
334.1988
 10
478.9906
 20
333.9732
 10
478.7836
 20
333.7332
 10
478.5863
 20
333.4788
 10
478.3986
 20
333.2099
 10
478.2207
 20
332.9264
 10
478.0525
 20
332.6283
 10
477.8939
 20
332.3154
 10
477.8939
 20
334.9798
 10
475.7169
 20
334.9798
 10
475.7169
 20
318.2701
 10
477.8939
 20
318.2701
 10
477.8939
 20
326.8214
 10
477.9447
 20
327.3196
 10
478.0109
 20
327.7984
 10
478.0926
 20
328.2579
 10
478.1899
 20
328.6982
 10
478.3026
 20
329.1195
 10
478.4308
 20
329.5219
 10
478.5746
 20
329.9057
 10
478.7338
 20
330.2708
 10
478.8637
 20
330.5307
 10
479.0042
 20
330.7787
 10
479.1554
 20
331.0148
 10
479.3173
 20
331.2391
 10
479.4899
 20
331.4515
 10
479.6731
 20
331.652
 10
479.8671
 20
331.8407
 10
480.0717
 20
332.0175
 10
480.2836
 20
332.1777
 10
480.4993
 20
332.3166
 10
480.719
 20
332.4341
 10
480.9425
 20
332.5302
 10
481.1699
 20
332.605
 10
481.4012
 20
332.6584
 10
481.6364
 20
332.6904
 10
481.8755
 20
332.7011
 10
482.1088
 20
332.6955
 10
482.3265
 20
332.6786
 10
482.5287
 20
332.6504
 10
482.7153
 20
332.611
 10
482.8864
 20
332.5602
 10
483.0419
 20
332.4983
 10
483.1818
 20
332.425
 10
483.3061
 20
332.3405
 10
483.6197
 20
332.0574
 10
483.8914
 20
331.7257
 10
484.1214
 20
331.3453
 10
484.3095
 20
330.9162
 10
484.4558
 20
330.4385
 10
484.5604
 20
329.9121
 10
484.6231
 20
329.3371
 10
484.644
 20
328.7134
 10
484.644
 20
318.2701
 10
486.8211
 20
318.2701
 10
486.8211
 20
328.7134
 10
486.8056
 20
329.3531
 10
486.8862
 20
329.5953
 10
486.9727
 20
329.8284
 10
487.0651
 20
330.0533
 10
487.1635
 20
330.2708
 10
487.2931
 20
330.5307
 10
487.4335
 20
330.7787
 10
487.5846
 20
331.0148
 10
487.7464
 20
331.2391
 10
487.9189
 20
331.4515
 10
488.1021
 20
331.652
 10
488.2961
 20
331.8407
 10
488.5007
 20
332.0175
 10
488.7126
 20
332.1777
 10
488.9283
 20
332.3166
 10
489.148
 20
332.4341
 10
489.3715
 20
332.5302
 10
489.5989
 20
332.605
 10
489.8302
 20
332.6584
 10
490.0654
 20
332.6904
 10
490.3045
 20
332.7011
 10
490.5378
 20
332.6955
 10
490.7555
 20
332.6786
 10
490.9577
 20
332.6504
 10
491.1443
 20
332.611
 10
491.3153
 20
332.5602
 10
491.4708
 20
332.4983
 10
491.6107
 20
332.425
 10
491.735
 20
332.3405
 10
492.0486
 20
332.0574
 10
492.3204
 20
331.7257
 10
492.5503
 20
331.3453
 10
492.7385
 20
330.9162
 10
492.8848
 20
330.4385
 10
492.9894
 20
329.9121
 10
493.0521
 20
329.3371
 10
493.073
 20
328.7134
 10
493.073
 20
318.2701
  0
LWPOLYLINE
  5
67
330
1F
100
AcDbEntity
  8
Layer 1
 62
     7
370
    18
100
AcDbPolyline
 90
       53
 70
     1
 43
0.0
 10
292.6513
 20
276.0555
 10
292.7939
 20
276.0555
 10
292.7344
 20
276.1391
 10
292.6895
 20
276.223
 10
292.6612
 20
276.3069
 10
292.6513
 20
276.391
 10
295.5714
 20
277.9551
 10
303.9465
 20
279.412
 10
317.1985
 20
280.7303
 10
334.7494
 20
281.8789
 10
356.0213
 20
282.8266
 10
380.4363
 20
283.5421
 10
407.4162
 20
283.9943
 10
436.3832
 20
284.152
 10
464.613
 20
284.0023
 10
490.9722
 20
283.5726
 10
514.9273
 20
282.8916
 10
535.9451
 20
281.9882
 10
553.4919
 20
280.8911
 10
567.0344
 20
279.6293
 10
576.039
 20
278.2315
 10
579.9725
 20
276.7266
 10
580.1158
 20
276.7266
 10
580.1158
 20
272.9623
 10
580.1158
 20
272.9048
 10
580.1158
 20
-452.2588
 10
579.5155
 20
-452.2588
 10
574.6224
 20
-460.5615
 10
565.082
 20
-468.3813
 10
551.3751
 20
-475.5567
 10
533.9827
 20
-481.9257
 10
513.3853
 20
-487.3268
 10
490.0639
 20
-491.5983
 10
464.4993
 20
-494.5783
 10
437.1723
 20
-496.1053
 10
408.1877
 20
-495.5013
 10
381.1475
 20
-492.4854
 10
356.6401
 20
-487.6289
 10
335.2537
 20
-481.5028
 10
317.5767
 20
-474.6783
 10
304.1974
 20
-467.7265
 10
295.7041
 20
-461.2184
 10
292.6851
 20
-455.7253
 10
291.5053
 20
-368.3462
 10
290.9484
 20
-278.7035
 10
290.8708
 20
-187.4005
 10
291.1291
 20
-95.0405
 10
291.5798
 20
-2.2267
 10
292.0794
 20
90.4376
 10
292.4844
 20
182.3492
 10
292.6513
 20
272.9048
 10
292.6513
 20
272.9623
 10
292.6513
 20
276.0555
  0
LWPOLYLINE
  5
68
330
1F
100
AcDbEntity
  8
Layer 1
 62
     7
370
    18
100
AcDbPolyline
 90
        9
 70
     0
 43
0.0
 10
292.6513
 20
276.0555
 10
299.3469
 20
275.3636
 10
318.173
 20
273.6892
 10
347.2385
 20
271.6344
 10
384.6525
 20
269.8013
 10
428.5239
 20
268.7919
 10
476.9617
 20
269.2083
 10
528.0749
 20
271.6525
 10
579.9725
 20
276.7266
  0
LWPOLYLINE
  5
69
330
1F
100
AcDbEntity
  8
Layer 1
 62
     7
100
AcDbPolyline
 90
       65
 70
     1
 43
0.0
 10
614.8067
 20
-62.5496
 10
615.2826
 20
-62.5747
 10
615.7399
 20
-62.65
 10
616.1786
 20
-62.7755
 10
616.5988
 20
-62.9512
 10
617.0004
 20
-63.177
 10
617.3834
 20
-63.453
 10
617.7479
 20
-63.7791
 10
618.0939
 20
-64.1554
 10
618.4059
 20
-64.5633
 10
618.6763
 20
-64.9946
 10
618.905
 20
-65.4491
 10
619.0921
 20
-65.9269
 10
619.2375
 20
-66.4279
 10
619.3414
 20
-66.9522
 10
619.4037
 20
-67.4997
 10
619.4245
 20
-68.0704
 10
619.404
 20
-68.6362
 10
619.3424
 20
-69.183
 10
619.2397
 20
-69.7107
 10
619.096
 20
-70.2195
 10
618.9112
 20
-70.7092
 10
618.6852
 20
-71.1799
 10
618.4182
 20
-71.6317
 10
618.1101
 20
-72.0644
 10
617.7726
 20
-72.4592
 10
617.4135
 20
-72.8014
 10
617.033
 20
-73.0908
 10
616.6309
 20
-73.3276
 10
616.2072
 20
-73.5117
 10
615.762
 20
-73.6431
 10
615.2951
 20
-73.722
 10
614.8067
 20
-73.7483
 10
614.3184
 20
-73.722
 10
613.8517
 20
-73.6431
 10
613.4065
 20
-73.5117
 10
612.9829
 20
-73.3276
 10
612.5808
 20
-73.0908
 10
612.2002
 20
-72.8014
 10
611.8413
 20
-72.4592
 10
611.504
 20
-72.0644
 10
611.1958
 20
-71.6317
 10
610.9287
 20
-71.1799
 10
610.7026
 20
-70.7092
 10
610.5177
 20
-70.2195
 10
610.3738
 20
-69.7107
 10
610.271
 20
-69.183
 10
610.2094
 20
-68.6362
 10
610.1888
 20
-68.0704
 10
610.2096
 20
-67.4997
 10
610.272
 20
-66.9522
 10
610.376
 20
-66.4279
 10
610.5216
 20
-65.9269
 10
610.7087
 20
-65.4491
 10
610.9374
 20
-64.9946
 10
611.2076
 20
-64.5633
 10
611.5194
 20
-64.1554
 10
611.8654
 20
-63.7791
 10
612.23
 20
-63.453
 10
612.6131
 20
-63.177
 10
613.0148
 20
-62.9512
 10
613.435
 20
-62.7755
 10
613.8738
 20
-62.65
 10
614.331
 20
-62.5747
 10
614.8067
 20
-62.5496
  0
LWPOLYLINE
  5
6A
330
1F
100
AcDbEntity
  8
Layer 1
 62
     7
100
AcDbPolyline
 90
       65
 70
     1
 43
0.0
 10
614.8067
 20
-51.7429
 10
615.1904
 20
-51.7625
 10
615.5595
 20
-51.8211
 10
615.914
 20
-51.9189
 10
616.2539
 20
-52.0559
 10
616.5794
 20
-52.232
 10
616.8903
 20
-52.4473
 10
617.1867
 20
-52.7017
 10
617.4686
 20
-52.9953
 10
617.7316
 20
-53.3254
 10
617.9596
 20
-53.6745
 10
618.1525
 20
-54.0426
 10
618.3105
 20
-54.4297
 10
618.4333
 20
-54.8357
 10
618.5211
 20
-55.2607
 10
618.5737
 20
-55.7046
 10
618.5913
 20
-56.1675
 10
618.5737
 20
-56.6201
 10
618.5211
 20
-57.058
 10
618.4333
 20
-57.4813
 10
618.3105
 20
-57.89
 10
618.1525
 20
-58.284
 10
617.9596
 20
-58.6634
 10
617.7316
 20
-59.0282
 10
617.4686
 20
-59.3783
 10
617.1886
 20
-59.6902
 10
616.8935
 20
-59.9606
 10
616.5833
 20
-60.1894
 10
616.2581
 20
-60.3767
 10
615.9178
 20
-60.5223
 10
615.5624
 20
-60.6263
 10
615.1921
 20
-60.6888
 10
614.8067
 20
-60.7096
 10
614.4213
 20
-60.6888
 10
614.051
 20
-60.6263
 10
613.6958
 20
-60.5223
 10
613.3556
 20
-60.3767
 10
613.0304
 20
-60.1894
 10
612.7202
 20
-59.9606
 10
612.425
 20
-59.6902
 10
612.1447
 20
-59.3783
 10
611.8817
 20
-59.0282
 10
611.6538
 20
-58.6634
 10
611.461
 20
-58.284
 10
611.3032
 20
-57.89
 10
611.1805
 20
-57.4813
 10
611.0928
 20
-57.058
 10
611.0402
 20
-56.6201
 10
611.0227
 20
-56.1675
 10
611.0402
 20
-55.7046
 10
611.0928
 20
-55.2607
 10
611.1805
 20
-54.8357
 10
611.3032
 20
-54.4297
 10
611.461
 20
-54.0426
 10
611.6538
 20
-53.6745
 10
611.8817
 20
-53.3254
 10
612.1447
 20
-52.9953
 10
612.4267
 20
-52.7017
 10
612.7231
 20
-52.4473
 10
613.0342
 20
-52.232
 10
613.3597
 20
-52.0559
 10
613.6997
 20
-51.9189
 10
614.0542
 20
-51.8211
 10
614.4232
 20
-51.7625
 10
614.8067
 20
-51.7429
  0
LWPOLYLINE
  5
6B
330
1F
100
AcDbEntity
  8
Layer 1
 62
     7
100
AcDbPolyline
 90
      121
 70
     1
 43
0.0
 10
614.8067
 20
-76.489
 10
615.5416
 20
-76.4551
 10
616.2469
 20
-76.3532
 10
616.9226
 20
-76.1835
 10
617.5688
 20
-75.9459
 10
618.1853
 20
-75.6403
 10
618.7724
 20
-75.2669
 10
619.33
 20
-74.8255
 10
619.858
 20
-74.3161
 10
620.0959
 20
-74.05
 10
620.3208
 20
-73.7705
 10
620.5326
 20
-73.4775
 10
620.7315
 20
-73.171
 10
620.9174
 20
-72.8511
 10
621.0904
 20
-72.5177
 10
621.2503
 20
-72.1708
 10
621.3973
 20
-71.8105
 10
621.5288
 20
-71.4364
 10
621.6427
 20
-71.049
 10
621.739
 20
-70.6482
 10
621.8179
 20
-70.2339
 10
621.8791
 20
-69.8063
 10
621.9229
 20
-69.3652
 10
621.9492
 20
-68.9107
 10
621.9579
 20
-68.4427
 10
621.9431
 20
-67.9686
 10
621.8988
 20
-67.4957
 10
621.8249
 20
-67.024
 10
621.7215
 20
-66.5535
 10
621.5885
 20
-66.0842
 10
621.426
 20
-65.6162
 10
621.2339
 20
-65.1494
 10
621.0123
 20
-64.6838
 10
620.7629
 20
-64.2296
 10
620.4879
 20
-63.7967
 10
620.1875
 20
-63.3852
 10
619.8616
 20
-62.9951
 10
619.5101
 20
-62.6264
 10
619.1331
 20
-62.2792
 10
618.7306
 20
-61.9533
 10
618.3026
 20
-61.6489
 10
618.9114
 20
-60.9862
 10
619.439
 20
-60.3093
 10
619.8854
 20
-59.6183
 10
620.2506
 20
-58.9132
 10
620.5347
 20
-58.1941
 10
620.7376
 20
-57.4608
 10
620.8593
 20
-56.7136
 10
620.8999
 20
-55.9522
 10
620.8721
 20
-55.201
 10
620.7887
 20
-54.4847
 10
620.6497
 20
-53.8034
 10
620.4551
 20
-53.157
 10
620.2048
 20
-52.5455
 10
619.899
 20
-51.9689
 10
619.5375
 20
-51.4272
 10
619.1203
 20
-50.9203
 10
618.6792
 20
-50.4797
 10
618.2101
 20
-50.0979
 10
617.713
 20
-49.7748
 10
617.1878
 20
-49.5106
 10
616.6346
 20
-49.305
 10
616.0533
 20
-49.1582
 10
615.444
 20
-49.0702
 10
614.8067
 20
-49.0408
 10
614.1693
 20
-49.0702
 10
613.56
 20
-49.1582
 10
612.9788
 20
-49.305
 10
612.4256
 20
-49.5106
 10
611.9005
 20
-49.7748
 10
611.4035
 20
-50.0979
 10
610.9345
 20
-50.4797
 10
610.4937
 20
-50.9203
 10
610.0765
 20
-51.4269
 10
609.7149
 20
-51.9677
 10
609.4089
 20
-52.5428
 10
609.1586
 20
-53.1522
 10
608.9638
 20
-53.7958
 10
608.8247
 20
-54.4738
 10
608.7412
 20
-55.186
 10
608.7134
 20
-55.9325
 10
608.754
 20
-56.6985
 10
608.8758
 20
-57.4499
 10
609.0788
 20
-58.1865
 10
609.363
 20
-58.9084
 10
609.7284
 20
-59.6156
 10
610.1749
 20
-60.3081
 10
610.7026
 20
-60.9859
 10
611.3115
 20
-61.6489
 10
610.8832
 20
-61.9533
 10
610.4805
 20
-62.2792
 10
610.1034
 20
-62.6264
 10
609.7518
 20
-62.9951
 10
609.4258
 20
-63.3852
 10
609.1254
 20
-63.7967
 10
608.8504
 20
-64.2296
 10
608.601
 20
-64.6838
 10
608.3794
 20
-65.1503
 10
608.1873
 20
-65.6198
 10
608.0248
 20
-66.0925
 10
607.8918
 20
-66.5682
 10
607.7884
 20
-67.0469
 10
607.7145
 20
-67.5286
 10
607.6702
 20
-68.0133
 10
607.6554
 20
-68.501
 10
607.6882
 20
-69.3758
 10
607.7867
 20
-70.2082
 10
607.9508
 20
-70.9984
 10
608.1806
 20
-71.7464
 10
608.4759
 20
-72.4521
 10
608.837
 20
-73.1156
 10
609.2637
 20
-73.7369
 10
609.756
 20
-74.3161
 10
610.2838
 20
-74.8255
 10
610.8412
 20
-75.2669
 10
611.4281
 20
-75.6403
 10
612.0447
 20
-75.9459
 10
612.6908
 20
-76.1835
 10
613.3665
 20
-76.3532
 10
614.0718
 20
-76.4551
 10
614.8067
 20
-76.489
  0
LWPOLYLINE
  5
6C
330
1F
100
AcDbEntity
  8
Layer 1
 62
     7
100
AcDbPolyline
 90
      136
 70
     1
 43
0.0
 10
628.9813
 20
-59.3388
 10
630.4567
 20
-52.2121
 10
638.3456
 20
-52.2121
 10
638.3456
 20
-49.4715
 10
628.7565
 20
-49.4715
 10
626.2554
 20
-61.4138
 10
628.6926
 20
-62.7452
 10
629.046
 20
-62.4516
 10
629.4171
 20
-62.1971
 10
629.8056
 20
-61.9819
 10
630.2117
 20
-61.8058
 10
630.6354
 20
-61.6688
 10
631.0765
 20
-61.571
 10
631.5352
 20
-61.5124
 10
632.0114
 20
-61.4928
 10
632.4905
 20
-61.5215
 10
632.9536
 20
-61.6077
 10
633.4006
 20
-61.7514
 10
633.8315
 20
-61.9526
 10
634.2464
 20
-62.2113
 10
634.6453
 20
-62.5275
 10
635.0281
 20
-62.9014
 10
635.3949
 20
-63.3328
 10
635.7408
 20
-63.814
 10
636.0405
 20
-64.3129
 10
636.294
 20
-64.8296
 10
636.5015
 20
-65.3641
 10
636.6628
 20
-65.9163
 10
636.778
 20
-66.4862
 10
636.8472
 20
-67.0739
 10
636.8702
 20
-67.6793
 10
636.8466
 20
-68.3056
 10
636.776
 20
-68.9067
 10
636.6582
 20
-69.4827
 10
636.4934
 20
-70.0337
 10
636.2815
 20
-70.5594
 10
636.0225
 20
-71.0602
 10
635.7164
 20
-71.5358
 10
635.3633
 20
-71.9863
 10
635.1835
 20
-72.1867
 10
634.9972
 20
-72.3767
 10
634.8045
 20
-72.5564
 10
634.6053
 20
-72.7256
 10
634.3996
 20
-72.8844
 10
634.1874
 20
-73.0327
 10
633.9686
 20
-73.1705
 10
633.7432
 20
-73.2979
 10
633.5083
 20
-73.4127
 10
633.2603
 20
-73.5122
 10
632.9993
 20
-73.5964
 10
632.7253
 20
-73.6653
 10
632.4382
 20
-73.7188
 10
632.138
 20
-73.7571
 10
631.8248
 20
-73.78
 10
631.4985
 20
-73.7877
 10
631.1662
 20
-73.7705
 10
630.8342
 20
-73.7191
 10
630.5028
 20
-73.6334
 10
630.1718
 20
-73.5134
 10
629.8412
 20
-73.3592
 10
629.5112
 20
-73.1708
 10
629.1817
 20
-72.9482
 10
628.8527
 20
-72.6915
 10
628.536
 20
-72.4069
 10
628.2434
 20
-72.1016
 10
627.9748
 20
-71.7754
 10
627.7303
 20
-71.4285
 10
627.5099
 20
-71.0607
 10
627.3135
 20
-70.6721
 10
627.1413
 20
-70.2627
 10
626.9931
 20
-69.8324
 10
624.8124
 20
-70.6945
 10
625.0266
 20
-71.339
 10
625.2764
 20
-71.951
 10
625.5617
 20
-72.5306
 10
625.8826
 20
-73.0778
 10
626.2391
 20
-73.5925
 10
626.6312
 20
-74.0749
 10
627.0588
 20
-74.5248
 10
627.5221
 20
-74.9423
 10
628.0147
 20
-75.3233
 10
628.5183
 20
-75.6535
 10
629.0329
 20
-75.9329
 10
629.5584
 20
-76.1615
 10
630.095
 20
-76.3393
 10
630.6427
 20
-76.4663
 10
631.2014
 20
-76.5425
 10
631.7711
 20
-76.5679
 10
632.5303
 20
-76.526
 10
633.2604
 20
-76.4002
 10
633.9614
 20
-76.1906
 10
634.6333
 20
-75.8972
 10
635.2762
 20
-75.52
 10
635.89
 20
-75.0589
 10
636.4747
 20
-74.5141
 10
637.0304
 20
-73.8855
 10
637.5341
 20
-73.2029
 10
637.9707
 20
-72.4868
 10
638.34
 20
-71.7371
 10
638.6423
 20
-70.9537
 10
638.8773
 20
-70.1367
 10
639.0452
 20
-69.2861
 10
639.1459
 20
-68.4018
 10
639.1795
 20
-67.4837
 10
639.1464
 20
-66.5705
 10
639.0471
 20
-65.6958
 10
638.8817
 20
-64.8597
 10
638.6502
 20
-64.0622
 10
638.3524
 20
-63.3033
 10
637.9886
 20
-62.5829
 10
637.5587
 20
-61.901
 10
637.0627
 20
-61.2577
 10
636.8092
 20
-60.9717
 10
636.5456
 20
-60.701
 10
636.2719
 20
-60.4456
 10
635.9883
 20
-60.2055
 10
635.6946
 20
-59.9806
 10
635.3909
 20
-59.7711
 10
635.0771
 20
-59.5769
 10
634.7534
 20
-59.398
 10
634.4232
 20
-59.2372
 10
634.0902
 20
-59.0979
 10
633.7542
 20
-58.9801
 10
633.4155
 20
-58.8837
 10
633.074
 20
-58.8088
 10
632.7298
 20
-58.7554
 10
632.3829
 20
-58.7233
 10
632.0334
 20
-58.7126
 10
631.677
 20
-58.7224
 10
631.3135
 20
-58.7518
 10
630.9429
 20
-58.8008
 10
630.5652
 20
-58.8693
 10
630.1803
 20
-58.9574
 10
629.788
 20
-59.065
 10
629.3884
 20
-59.1921
 10
628.9813
 20
-59.3388
  0
LWPOLYLINE
  5
6D
330
1F
100
AcDbEntity
  8
Layer 1
 62
     7
100
AcDbPolyline
 90
      129
 70
     1
 43
0.0
 10
651.6062
 20
-52.5647
 10
651.9764
 20
-52.8718
 10
652.3216
 20
-53.2205
 10
652.6418
 20
-53.6109
 10
652.9369
 20
-54.0429
 10
653.207
 20
-54.5166
 10
653.4521
 20
-55.0319
 10
653.6721
 20
-55.5888
 10
653.867
 20
-56.1873
 10
654.085
 20
-56.981
 10
654.274
 20
-57.7863
 10
654.4339
 20
-58.6032
 10
654.5647
 20
-59.4318
 10
654.6664
 20
-60.272
 10
654.7391
 20
-61.1239
 10
654.7827
 20
-61.9874
 10
654.7972
 20
-62.8627
 10
654.7957
 20
-63.0729
 10
654.7912
 20
-63.2923
 10
654.7836
 20
-63.5209
 10
654.7731
 20
-63.7587
 10
654.7595
 20
-64.0056
 10
654.743
 20
-64.2617
 10
654.7235
 20
-64.527
 10
654.701
 20
-64.8013
 10
654.5897
 20
-65.8539
 10
654.4443
 20
-66.8483
 10
654.2649
 20
-67.7846
 10
654.0514
 20
-68.6629
 10
653.8038
 20
-69.483
 10
653.5222
 20
-70.2451
 10
653.2065
 20
-70.9492
 10
652.8568
 20
-71.5952
 10
652.5377
 20
-72.0815
 10
652.2016
 20
-72.503
 10
651.8484
 20
-72.8596
 10
651.4781
 20
-73.1514
 10
651.0908
 20
-73.3784
 10
650.6865
 20
-73.5405
 10
650.2651
 20
-73.6378
 10
649.8267
 20
-73.6702
 10
649.3373
 20
-73.6381
 10
648.8714
 20
-73.5417
 10
648.4292
 20
-73.381
 10
648.0104
 20
-73.1562
 10
647.6153
 20
-72.867
 10
647.2436
 20
-72.5136
 10
646.8956
 20
-72.0959
 10
646.5711
 20
-71.614
 10
646.4338
 20
-71.3805
 10
646.3026
 20
-71.1397
 10
646.1774
 20
-70.8914
 10
646.0581
 20
-70.6357
 10
645.9449
 20
-70.3726
 10
645.8378
 20
-70.1022
 10
645.7367
 20
-69.8243
 10
645.6416
 20
-69.539
 10
645.5521
 20
-69.2494
 10
645.468
 20
-68.958
 10
645.3895
 20
-68.6647
 10
645.3166
 20
-68.3695
 10
645.2492
 20
-68.0724
 10
645.1873
 20
-67.7734
 10
645.131
 20
-67.4725
 10
645.0803
 20
-67.1697
 10
645.0339
 20
-66.8675
 10
644.991
 20
-66.5678
 10
644.9517
 20
-66.2706
 10
644.9159
 20
-65.9759
 10
644.8836
 20
-65.6836
 10
644.8548
 20
-65.3937
 10
644.8295
 20
-65.1062
 10
644.8077
 20
-64.8211
 10
644.7888
 20
-64.5317
 10
644.7725
 20
-64.2313
 10
644.7588
 20
-63.9201
 10
644.7475
 20
-63.5981
 10
644.7388
 20
-63.2654
 10
644.7326
 20
-62.9222
 10
644.7288
 20
-62.5684
 10
644.7276
 20
-62.2042
 10
644.7331
 20
-61.8235
 10
644.7496
 20
-61.4207
 10
644.7772
 20
-60.9958
 10
644.8158
 20
-60.5487
 10
644.8653
 20
-60.0792
 10
644.926
 20
-59.5873
 10
644.9976
 20
-59.0729
 10
645.0803
 20
-58.5359
 10
645.1308
 20
-58.2378
 10
645.1863
 20
-57.9403
 10
645.2469
 20
-57.6434
 10
645.3126
 20
-57.347
 10
645.3833
 20
-57.0513
 10
645.459
 20
-56.7561
 10
645.5397
 20
-56.4615
 10
645.6254
 20
-56.1675
 10
645.7168
 20
-55.8775
 10
645.8147
 20
-55.5948
 10
645.9192
 20
-55.3194
 10
646.0301
 20
-55.0514
 10
646.1476
 20
-54.7907
 10
646.2716
 20
-54.5374
 10
646.4023
 20
-54.2915
 10
646.5395
 20
-54.053
 10
646.6832
 20
-53.8237
 10
646.834
 20
-53.606
 10
646.9918
 20
-53.4001
 10
647.1566
 20
-53.2058
 10
647.3285
 20
-53.0231
 10
647.5074
 20
-52.8521
 10
647.6933
 20
-52.6927
 10
647.8862
 20
-52.545
 10
648.0872
 20
-52.4119
 10
648.2972
 20
-52.2965
 10
648.5161
 20
-52.1989
 10
648.7441
 20
-52.1191
 10
648.9811
 20
-52.057
 10
649.2271
 20
-52.0126
 10
649.482
 20
-51.986
 10
649.7459
 20
-51.9771
 10
650.01
 20
-51.9863
 10
650.2651
 20
-52.0139
 10
650.5112
 20
-52.0599
 10
650.7482
 20
-52.1242
 10
650.9763
 20
-52.2069
 10
651.1953
 20
-52.3079
 10
651.4053
 20
-52.4272
 10
651.6062
 20
-52.5647
  0
LWPOLYLINE
  5
6E
330
1F
100
AcDbEntity
  8
Layer 1
 62
     7
100
AcDbPolyline
 90
       65
 70
     1
 43
0.0
 10
649.8583
 20
-76.4504
 10
650.7945
 20
-76.3779
 10
651.6711
 20
-76.1604
 10
652.4882
 20
-75.7979
 10
653.2456
 20
-75.2904
 10
653.9434
 20
-74.6379
 10
654.5815
 20
-73.8404
 10
655.16
 20
-72.898
 10
655.6789
 20
-71.8105
 10
656.0434
 20
-70.8614
 10
656.3593
 20
-69.8598
 10
656.6267
 20
-68.8055
 10
656.8454
 20
-67.6987
 10
657.0156
 20
-66.5392
 10
657.1371
 20
-65.3272
 10
657.2101
 20
-64.0625
 10
657.2344
 20
-62.7452
 10
657.2101
 20
-61.4282
 10
657.1371
 20
-60.1637
 10
657.0156
 20
-58.9518
 10
656.8454
 20
-57.7924
 10
656.6267
 20
-56.6856
 10
656.3593
 20
-55.6314
 10
656.0434
 20
-54.6298
 10
655.6789
 20
-53.6807
 10
655.16
 20
-52.5932
 10
654.5815
 20
-51.6508
 10
653.9434
 20
-50.8533
 10
653.2456
 20
-50.2008
 10
652.4882
 20
-49.6933
 10
651.6711
 20
-49.3308
 10
650.7945
 20
-49.1133
 10
649.8583
 20
-49.0408
 10
648.9221
 20
-49.1133
 10
648.0455
 20
-49.3308
 10
647.2284
 20
-49.6933
 10
646.471
 20
-50.2008
 10
645.7732
 20
-50.8533
 10
645.1351
 20
-51.6508
 10
644.5566
 20
-52.5932
 10
644.0377
 20
-53.6807
 10
643.6732
 20
-54.6298
 10
643.3573
 20
-55.6314
 10
643.0899
 20
-56.6856
 10
642.8712
 20
-57.7924
 10
642.701
 20
-58.9518
 10
642.5794
 20
-60.1637
 10
642.5065
 20
-61.4282
 10
642.4822
 20
-62.7452
 10
642.5065
 20
-64.0625
 10
642.5794
 20
-65.3272
 10
642.701
 20
-66.5392
 10
642.8712
 20
-67.6987
 10
643.0899
 20
-68.8055
 10
643.3573
 20
-69.8598
 10
643.6732
 20
-70.8614
 10
644.0377
 20
-71.8105
 10
644.5566
 20
-72.898
 10
645.1351
 20
-73.8404
 10
645.7732
 20
-74.6379
 10
646.471
 20
-75.2904
 10
647.2284
 20
-75.7979
 10
648.0455
 20
-76.1604
 10
648.9221
 20
-76.3779
 10
649.8583
 20
-76.4504
  0
LWPOLYLINE
  5
6F
330
1F
100
AcDbEntity
  8
Layer 1
 62
     7
100
AcDbPolyline
 90
      165
 70
     1
 43
0.0
 10
679.1378
 20
-76.0198
 10
681.3824
 20
-76.0198
 10
681.3824
 20
-65.2517
 10
681.3641
 20
-64.5368
 10
681.3093
 20
-63.8556
 10
681.2178
 20
-63.208
 10
681.0898
 20
-62.594
 10
680.9252
 20
-62.0137
 10
680.7241
 20
-61.467
 10
680.4863
 20
-60.954
 10
680.212
 20
-60.4746
 10
680.0588
 20
-60.2453
 10
679.8961
 20
-60.0276
 10
679.7239
 20
-59.8217
 10
679.5423
 20
-59.6274
 10
679.3512
 20
-59.4447
 10
679.1505
 20
-59.2737
 10
678.9403
 20
-59.1143
 10
678.7205
 20
-58.9665
 10
678.4869
 20
-58.8337
 10
678.2354
 20
-58.7186
 10
677.9658
 20
-58.6211
 10
677.6782
 20
-58.5414
 10
677.3726
 20
-58.4793
 10
677.0489
 20
-58.435
 10
676.7071
 20
-58.4084
 10
676.3472
 20
-58.3995
 10
675.9843
 20
-58.4148
 10
675.6329
 20
-58.4606
 10
675.2931
 20
-58.537
 10
674.9647
 20
-58.644
 10
674.6478
 20
-58.7816
 10
674.3424
 20
-58.9498
 10
674.0485
 20
-59.1487
 10
673.7661
 20
-59.3783
 10
673.5209
 20
-59.6069
 10
673.2868
 20
-59.8526
 10
673.0638
 20
-60.1151
 10
672.8518
 20
-60.3944
 10
672.6509
 20
-60.6902
 10
672.461
 20
-61.0023
 10
672.2822
 20
-61.3306
 10
672.1144
 20
-61.6749
 10
671.9839
 20
-61.357
 10
671.8415
 20
-61.0502
 10
671.6871
 20
-60.7556
 10
671.5207
 20
-60.4746
 10
671.3677
 20
-60.2453
 10
671.2052
 20
-60.0276
 10
671.0332
 20
-59.8217
 10
670.8516
 20
-59.6274
 10
670.6605
 20
-59.4447
 10
670.4599
 20
-59.2737
 10
670.2497
 20
-59.1143
 10
670.0299
 20
-58.9665
 10
669.7963
 20
-58.8337
 10
669.5447
 20
-58.7186
 10
669.2751
 20
-58.6211
 10
668.9874
 20
-58.5414
 10
668.6817
 20
-58.4793
 10
668.3581
 20
-58.435
 10
668.0164
 20
-58.4084
 10
667.6567
 20
-58.3995
 10
667.2936
 20
-58.4148
 10
666.942
 20
-58.4606
 10
666.6019
 20
-58.537
 10
666.2735
 20
-58.644
 10
665.9565
 20
-58.7816
 10
665.6511
 20
-58.9498
 10
665.3572
 20
-59.1487
 10
665.0748
 20
-59.3783
 10
664.8415
 20
-59.596
 10
664.6181
 20
-59.8285
 10
664.4048
 20
-60.0759
 10
664.2014
 20
-60.3383
 10
664.008
 20
-60.6157
 10
663.8246
 20
-60.9082
 10
663.6512
 20
-61.2158
 10
663.4878
 20
-61.5385
 10
663.4878
 20
-58.7907
 10
661.2431
 20
-58.7907
 10
661.2431
 20
-76.0198
 10
663.4878
 20
-76.0198
 10
663.4878
 20
-67.2029
 10
663.5399
 20
-66.6892
 10
663.608
 20
-66.1955
 10
663.6922
 20
-65.7217
 10
663.7924
 20
-65.2676
 10
663.9086
 20
-64.8332
 10
664.0409
 20
-64.4181
 10
664.1891
 20
-64.0224
 10
664.3533
 20
-63.6459
 10
664.4872
 20
-63.3781
 10
664.632
 20
-63.1224
 10
664.7879
 20
-62.8789
 10
664.9547
 20
-62.6476
 10
665.1325
 20
-62.4285
 10
665.3214
 20
-62.2216
 10
665.5214
 20
-62.0269
 10
665.7324
 20
-61.8445
 10
665.951
 20
-61.6795
 10
666.1735
 20
-61.5365
 10
666.4001
 20
-61.4155
 10
666.6306
 20
-61.3164
 10
666.8652
 20
-61.2393
 10
667.1037
 20
-61.1843
 10
667.3463
 20
-61.1512
 10
667.5928
 20
-61.1402
 10
667.8333
 20
-61.146
 10
668.0577
 20
-61.1634
 10
668.2661
 20
-61.1924
 10
668.4585
 20
-61.2331
 10
668.6348
 20
-61.2853
 10
668.7951
 20
-61.3491
 10
668.9393
 20
-61.4246
 10
669.0674
 20
-61.5116
 10
669.3908
 20
-61.8035
 10
669.671
 20
-62.1456
 10
669.908
 20
-62.5378
 10
670.1019
 20
-62.9803
 10
670.2527
 20
-63.4729
 10
670.3604
 20
-64.0157
 10
670.425
 20
-64.6086
 10
670.4465
 20
-65.2517
 10
670.4465
 20
-76.0198
 10
672.6919
 20
-76.0198
 10
672.6919
 20
-65.2517
 10
672.6757
 20
-64.5923
 10
672.7587
 20
-64.3427
 10
672.8478
 20
-64.1023
 10
672.9431
 20
-63.8702
 10
673.0446
 20
-63.6459
 10
673.1782
 20
-63.3781
 10
673.323
 20
-63.1224
 10
673.4788
 20
-62.8789
 10
673.6456
 20
-62.6476
 10
673.8234
 20
-62.4285
 10
674.0123
 20
-62.2216
 10
674.2121
 20
-62.0269
 10
674.4229
 20
-61.8445
 10
674.6415
 20
-61.6795
 10
674.8641
 20
-61.5365
 10
675.0906
 20
-61.4155
 10
675.3212
 20
-61.3164
 10
675.5557
 20
-61.2393
 10
675.7943
 20
-61.1843
 10
676.0368
 20
-61.1512
 10
676.2833
 20
-61.1402
 10
676.5238
 20
-61.146
 10
676.7483
 20
-61.1634
 10
676.9567
 20
-61.1924
 10
677.1491
 20
-61.2331
 10
677.3255
 20
-61.2853
 10
677.4859
 20
-61.3491
 10
677.6303
 20
-61.4246
 10
677.7587
 20
-61.5116
 10
678.0818
 20
-61.8035
 10
678.3619
 20
-62.1456
 10
678.599
 20
-62.5378
 10
678.7929
 20
-62.9803
 10
678.9438
 20
-63.4729
 10
679.0516
 20
-64.0157
 10
679.1162
 20
-64.6086
 10
679.1378
 20
-65.2517
 10
679.1378
 20
-76.0198
  0
LWPOLYLINE
  5
70
330
1F
100
AcDbEntity
  8
Layer 1
 62
     7
100
AcDbPolyline
 90
      165
 70
     1
 43
0.0
 10
703.6069
 20
-76.0198
 10
705.8516
 20
-76.0198
 10
705.8516
 20
-65.2517
 10
705.8333
 20
-64.5368
 10
705.7784
 20
-63.8556
 10
705.687
 20
-63.208
 10
705.559
 20
-62.594
 10
705.3944
 20
-62.0137
 10
705.1932
 20
-61.467
 10
704.9554
 20
-60.954
 10
704.6811
 20
-60.4746
 10
704.5279
 20
-60.2453
 10
704.3652
 20
-60.0276
 10
704.193
 20
-59.8217
 10
704.0114
 20
-59.6274
 10
703.8203
 20
-59.4447
 10
703.6196
 20
-59.2737
 10
703.4094
 20
-59.1143
 10
703.1896
 20
-58.9665
 10
702.9561
 20
-58.8337
 10
702.7045
 20
-58.7186
 10
702.435
 20
-58.6211
 10
702.1474
 20
-58.5414
 10
701.8417
 20
-58.4793
 10
701.518
 20
-58.435
 10
701.1763
 20
-58.4084
 10
700.8164
 20
-58.3995
 10
700.4535
 20
-58.4148
 10
700.1021
 20
-58.4606
 10
699.7622
 20
-58.537
 10
699.4338
 20
-58.644
 10
699.1169
 20
-58.7816
 10
698.8115
 20
-58.9498
 10
698.5176
 20
-59.1487
 10
698.2352
 20
-59.3783
 10
697.99
 20
-59.6069
 10
697.7559
 20
-59.8526
 10
697.5329
 20
-60.1151
 10
697.3209
 20
-60.3944
 10
697.12
 20
-60.6902
 10
696.9301
 20
-61.0023
 10
696.7513
 20
-61.3306
 10
696.5835
 20
-61.6749
 10
696.453
 20
-61.357
 10
696.3107
 20
-61.0502
 10
696.1563
 20
-60.7556
 10
695.9899
 20
-60.4746
 10
695.8369
 20
-60.2453
 10
695.6744
 20
-60.0276
 10
695.5024
 20
-59.8217
 10
695.3208
 20
-59.6274
 10
695.1297
 20
-59.4447
 10
694.9291
 20
-59.2737
 10
694.7189
 20
-59.1143
 10
694.4991
 20
-58.9665
 10
694.2655
 20
-58.8337
 10
694.0139
 20
-58.7186
 10
693.7442
 20
-58.6211
 10
693.4565
 20
-58.5414
 10
693.1508
 20
-58.4793
 10
692.8272
 20
-58.435
 10
692.4855
 20
-58.4084
 10
692.1258
 20
-58.3995
 10
691.7627
 20
-58.4148
 10
691.4111
 20
-58.4606
 10
691.0711
 20
-58.537
 10
690.7426
 20
-58.644
 10
690.4256
 20
-58.7816
 10
690.1202
 20
-58.9498
 10
689.8264
 20
-59.1487
 10
689.544
 20
-59.3783
 10
689.3106
 20
-59.596
 10
689.0873
 20
-59.8285
 10
688.8739
 20
-60.0759
 10
688.6705
 20
-60.3383
 10
688.4771
 20
-60.6157
 10
688.2937
 20
-60.9082
 10
688.1203
 20
-61.2158
 10
687.9569
 20
-61.5385
 10
687.9569
 20
-58.7907
 10
685.7123
 20
-58.7907
 10
685.7123
 20
-76.0198
 10
687.9569
 20
-76.0198
 10
687.9569
 20
-67.2029
 10
688.009
 20
-66.6892
 10
688.0772
 20
-66.1955
 10
688.1614
 20
-65.7217
 10
688.2616
 20
-65.2676
 10
688.3778
 20
-64.8332
 10
688.51
 20
-64.4181
 10
688.6582
 20
-64.0224
 10
688.8224
 20
-63.6459
 10
688.9563
 20
-63.3781
 10
689.1011
 20
-63.1224
 10
689.257
 20
-62.8789
 10
689.4238
 20
-62.6476
 10
689.6016
 20
-62.4285
 10
689.7905
 20
-62.2216
 10
689.9905
 20
-62.0269
 10
690.2015
 20
-61.8445
 10
690.4201
 20
-61.6795
 10
690.6427
 20
-61.5365
 10
690.8692
 20
-61.4155
 10
691.0998
 20
-61.3164
 10
691.3343
 20
-61.2393
 10
691.5729
 20
-61.1843
 10
691.8154
 20
-61.1512
 10
692.0619
 20
-61.1402
 10
692.3024
 20
-61.146
 10
692.5269
 20
-61.1634
 10
692.7353
 20
-61.1924
 10
692.9276
 20
-61.2331
 10
693.1039
 20
-61.2853
 10
693.2642
 20
-61.3491
 10
693.4084
 20
-61.4246
 10
693.5365
 20
-61.5116
 10
693.8599
 20
-61.8035
 10
694.1401
 20
-62.1456
 10
694.3771
 20
-62.5378
 10
694.5711
 20
-62.9803
 10
694.7219
 20
-63.4729
 10
694.8296
 20
-64.0157
 10
694.8942
 20
-64.6086
 10
694.9157
 20
-65.2517
 10
694.9157
 20
-76.0198
 10
697.161
 20
-76.0198
 10
697.161
 20
-65.2517
 10
697.1449
 20
-64.5923
 10
697.2278
 20
-64.3427
 10
697.3169
 20
-64.1023
 10
697.4122
 20
-63.8702
 10
697.5137
 20
-63.6459
 10
697.6474
 20
-63.3781
 10
697.7921
 20
-63.1224
 10
697.9479
 20
-62.8789
 10
698.1147
 20
-62.6476
 10
698.2926
 20
-62.4285
 10
698.4814
 20
-62.2216
 10
698.6813
 20
-62.0269
 10
698.8921
 20
-61.8445
 10
699.1107
 20
-61.6795
 10
699.3332
 20
-61.5365
 10
699.5598
 20
-61.4155
 10
699.7903
 20
-61.3164
 10
700.0249
 20
-61.2393
 10
700.2634
 20
-61.1843
 10
700.506
 20
-61.1512
 10
700.7525
 20
-61.1402
 10
700.993
 20
-61.146
 10
701.2174
 20
-61.1634
 10
701.4259
 20
-61.1924
 10
701.6183
 20
-61.2331
 10
701.7946
 20
-61.2853
 10
701.955
 20
-61.3491
 10
702.0994
 20
-61.4246
 10
702.2278
 20
-61.5116
 10
702.551
 20
-61.8035
 10
702.8311
 20
-62.1456
 10
703.0681
 20
-62.5378
 10
703.2621
 20
-62.9803
 10
703.4129
 20
-63.4729
 10
703.5207
 20
-64.0157
 10
703.5853
 20
-64.6086
 10
703.6069
 20
-65.2517
 10
703.6069
 20
-76.0198
  0
LWPOLYLINE
  5
71
330
1F
100
AcDbEntity
  8
Layer 1
 62
     7
370
    18
100
AcDbPolyline
 90
        2
 70
     0
 43
0.0
 10
669.675
 20
276.721
 10
650.9648
 20
276.721
  0
LWPOLYLINE
  5
72
330
1F
100
AcDbEntity
  8
Layer 1
 62
     7
370
    18
100
AcDbPolyline
 90
        2
 70
     0
 43
0.0
 10
660.3196
 20
276.7266
 10
660.3196
 20
-30.3136
  0
LWPOLYLINE
  5
73
330
1F
100
AcDbEntity
  8
Layer 1
 62
     7
370
    18
100
AcDbPolyline
 90
        2
 70
     0
 43
0.0
 10
669.675
 20
-473.5721
 10
650.9648
 20
-473.5721
  0
LWPOLYLINE
  5
74
330
1F
100
AcDbEntity
  8
Layer 1
 62
     7
370
    18
100
AcDbPolyline
 90
        2
 70
     0
 43
0.0
 10
660.3196
 20
-473.5805
 10
660.3196
 20
-109.7737
  0
LWPOLYLINE
  5
75
330
1F
100
AcDbEntity
  8
Layer 1
 62
     7
370
    18
100
AcDbPolyline
 90
       33
 70
     1
 43
0.0
 10
362.2711
 20
344.4363
 10
364.5429
 20
344.1567
 10
366.6588
 20
343.3547
 10
368.5736
 20
342.0857
 10
370.2419
 20
340.405
 10
371.6184
 20
338.368
 10
372.6577
 20
336.0301
 10
373.3146
 20
333.4465
 10
373.5436
 20
330.6727
 10
373.3146
 20
327.8989
 10
372.6577
 20
325.3154
 10
371.6184
 20
322.9775
 10
370.2419
 20
320.9405
 10
368.5736
 20
319.2598
 10
366.6588
 20
317.9908
 10
364.5429
 20
317.1888
 10
362.2711
 20
316.9092
 10
359.9994
 20
317.1888
 10
357.8834
 20
317.9908
 10
355.9687
 20
319.2598
 10
354.3004
 20
320.9405
 10
352.9239
 20
322.9775
 10
351.8846
 20
325.3154
 10
351.2277
 20
327.8989
 10
350.9987
 20
330.6727
 10
351.2277
 20
333.4465
 10
351.8846
 20
336.0301
 10
352.9239
 20
338.368
 10
354.3004
 20
340.405
 10
355.9687
 20
342.0857
 10
357.8834
 20
343.3547
 10
359.9994
 20
344.1567
 10
362.2711
 20
344.4363
  0
LWPOLYLINE
  5
76
330
1F
100
AcDbEntity
  8
Layer 1
 62
     7
370
    18
100
AcDbPolyline
 90
        9
 70
     0
 43
0.0
 10
367.8743
 20
353.7869
 10
364.2791
 20
338.4512
 10
361.5482
 20
326.8553
 10
359.5628
 20
318.4767
 10
358.2044
 20
312.7929
 10
357.3543
 20
309.2816
 10
356.8939
 20
307.4204
 10
356.7047
 20
306.6868
 10
356.668
 20
306.5583
  0
ENDSEC
  0
SECTION
  2
OBJECTS
  0
DICTIONARY
  5
C
330
0
100
AcDbDictionary
281
     1
  3
ACAD_DETAILVIEWSTYLE
350
7E
  3
ACAD_GROUP
350
D
  3
ACAD_LAYOUT
350
1A
  3
ACAD_MATERIAL
350
43
  3
ACAD_MLEADERSTYLE
350
5B
  3
ACAD_MLINESTYLE
350
17
  3
ACAD_PLOTSETTINGS
350
19
  3
ACAD_PLOTSTYLENAME
350
E
  3
ACAD_SCALELIST
350
47
  3
ACAD_SECTIONVIEWSTYLE
350
7F
  3
ACAD_TABLESTYLE
350
59
  3
ACAD_VISUALSTYLE
350
2A
  3
ACDB_RECOMPOSE_DATA
350
7B
  3
AcDbVariableDictionary
350
77
  0
SUN
  5
5D
330
29
100
AcDbSun
 90
        1
290
     0
 63
     7
421
 16777215
 40
1.0
291
     1
 91
  2455826
 92
 54000000
292
     0
 70
     2
 71
   256
280
     1
  0
DICTIONARY
  5
7E
102
{ACAD_REACTORS
330
C
102
}
330
C
100
AcDbDictionary
281
     1
  0
DICTIONARY
  5
D
102
{ACAD_REACTORS
330
C
102
}
330
C
100
AcDbDictionary
281
     1
  0
DICTIONARY
  5
1A
102
{ACAD_REACTORS
330
C
102
}
330
C
100
AcDbDictionary
281
     1
  3
Layout1
350
1E
  3
Layout2
350
26
  3
Model
350
22
  0
DICTIONARY
  5
43
102
{ACAD_REACTORS
330
C
102
}
330
C
100
AcDbDictionary
281
     1
  3
ByBlock
350
45
  3
ByLayer
350
44
  3
Global
350
46
  0
DICTIONARY
  5
5B
102
{ACAD_REACTORS
330
C
102
}
330
C
100
AcDbDictionary
281
     1
  3
Standard
350
5C
  0
DICTIONARY
  5
17
102
{ACAD_REACTORS
330
C
102
}
330
C
100
AcDbDictionary
281
     1
  3
Standard
350
18
  0
DICTIONARY
  5
19
102
{ACAD_REACTORS
330
C
102
}
330
C
100
AcDbDictionary
281
     1
  0
ACDBDICTIONARYWDFLT
  5
E
102
{ACAD_REACTORS
330
C
102
}
330
C
100
AcDbDictionary
281
     1
  3
Normal
350
F
100
AcDbDictionaryWithDefault
340
F
  0
DICTIONARY
  5
47
102
{ACAD_REACTORS
330
C
102
}
330
C
100
AcDbDictionary
281
     1
  3
A0
350
48
  3
A1
350
49
  3
A2
350
4A
  3
A3
350
4B
  3
A4
350
4C
  3
A5
350
4D
  3
A6
350
4E
  3
A7
350
4F
  3
A8
350
50
  3
A9
350
51
  3
B1
350
52
  3
B2
350
53
  3
B3
350
54
  3
B4
350
55
  3
B5
350
56
  3
B6
350
57
  3
B7
350
58
  0
DICTIONARY
  5
7F
102
{ACAD_REACTORS
330
C
102
}
330
C
100
AcDbDictionary
281
     1
  0
DICTIONARY
  5
59
102
{ACAD_REACTORS
330
C
102
}
330
C
100
AcDbDictionary
281
     1
  3
Standard
350
5A
  0
DICTIONARY
  5
2A
102
{ACAD_REACTORS
330
C
102
}
330
C
100
AcDbDictionary
281
     1
  3
2dWireframe
350
2F
  3
Basic
350
32
  3
Brighten
350
36
  3
ColorChange
350
3A
  3
Conceptual
350
34
  3
Dim
350
35
  3
EdgeColorOff
350
3D
  3
Facepattern
350
39
  3
Flat
350
2B
  3
FlatWithEdges
350
2C
  3
Gouraud
350
2D
  3
GouraudWithEdges
350
2E
  3
Hidden
350
31
  3
JitterOff
350
3B
  3
Linepattern
350
38
  3
OverhangOff
350
3C
  3
Realistic
350
33
  3
Shaded
350
42
  3
Shaded with edges
350
41
  3
Shades of Gray
350
3E
  3
Sketchy
350
3F
  3
Thicken
350
37
  3
Wireframe
350
30
  3
X-Ray
350
40
  0
XRECORD
  5
7B
102
{ACAD_REACTORS
330
C
102
}
330
C
100
AcDbXrecord
280
     1
 90
        1
330
5A
  0
DICTIONARY
  5
77
102
{ACAD_REACTORS
330
C
102
}
330
C
100
AcDbDictionary
281
     1
  3
CANNOSCALE
350
78
  3
CMLEADERSTYLE
350
7D
  3
CTABLESTYLE
350
7C
  0
LAYOUT
  5
1E
102
{ACAD_REACTORS
330
1A
102
}
330
1A
100
AcDbPlotSettings
  1

  2
none_device
  4

  6

 40
0.0
 41
0.0
 42
0.0
 43
0.0
 44
0.0
 45
0.0
 46
0.0
 47
0.0
 48
0.0
 49
0.0
140
0.0
141
0.0
142
1.0
143
1.0
 70
   688
 72
     0
 73
     0
 74
     5
  7

 75
    16
 76
     0
 77
     2
 78
   300
147
1.0
148
0.0
149
0.0
100
AcDbLayout
  1
Layout1
 70
     1
 71
     1
 10
0.0
 20
0.0
 11
12.0
 21
9.0
 12
0.0
 22
0.0
 32
0.0
 14
1.000000000000000E+20
 24
1.000000000000000E+20
 34
1.000000000000000E+20
 15
-1.000000000000000E+20
 25
-1.000000000000000E+20
 35
-1.000000000000000E+20
146
0.0
 13
0.0
 23
0.0
 33
0.0
 16
1.0
 26
0.0
 36
0.0
 17
0.0
 27
1.0
 37
0.0
 76
     0
330
1B
  0
LAYOUT
  5
26
102
{ACAD_REACTORS
330
1A
102
}
330
1A
100
AcDbPlotSettings
  1

  2
none_device
  4

  6

 40
0.0
 41
0.0
 42
0.0
 43
0.0
 44
0.0
 45
0.0
 46
0.0
 47
0.0
 48
0.0
 49
0.0
140
0.0
141
0.0
142
1.0
143
1.0
 70
   688
 72
     0
 73
     0
 74
     5
  7

 75
    16
 76
     0
 77
     2
 78
   300
147
1.0
148
0.0
149
0.0
100
AcDbLayout
  1
Layout2
 70
     1
 71
     2
 10
0.0
 20
0.0
 11
0.0
 21
0.0
 12
0.0
 22
0.0
 32
0.0
 14
0.0
 24
0.0
 34
0.0
 15
0.0
 25
0.0
 35
0.0
146
0.0
 13
0.0
 23
0.0
 33
0.0
 16
1.0
 26
0.0
 36
0.0
 17
0.0
 27
1.0
 37
0.0
 76
     0
330
23
  0
LAYOUT
  5
22
102
{ACAD_REACTORS
330
1A
102
}
330
1A
100
AcDbPlotSettings
  1

  2
none_device
  4
Letter_(8.50_x_11.00_Inches)
  6

 40
6.35
 41
6.35
 42
6.35000508
 43
6.35000508
 44
215.9
 45
279.4
 46
0.0
 47
0.0
 48
0.0
 49
0.0
140
0.0
141
0.0
142
1.0
143
1.0
 70
  1712
 72
     0
 73
     0
 74
     0
  7

 75
     0
 76
     0
 77
     2
 78
   300
147
1.0
148
0.0
149
0.0
100
AcDbLayout
  1
Model
 70
     1
 71
     0
 10
0.0
 20
0.0
 11
12.0
 21
9.0
 12
0.0
 22
0.0
 32
0.0
 14
211.1154
 24
-508.6673
 34
0.0
 15
722.9714
 25
374.7019
 35
0.0
146
0.0
 13
0.0
 23
0.0
 33
0.0
 16
1.0
 26
0.0
 36
0.0
 17
0.0
 27
1.0
 37
0.0
 76
     0
330
1F
331
29
  0
MATERIAL
  5
45
102
{ACAD_REACTORS
330
43
102
}
330
43
100
AcDbMaterial
  1
ByBlock
 72
     1
 94
      127
  0
MATERIAL
  5
44
102
{ACAD_REACTORS
330
43
102
}
330
43
100
AcDbMaterial
  1
ByLayer
 72
     1
 94
      127
  0
MATERIAL
  5
46
102
{ACAD_REACTORS
330
43
102
}
330
43
100
AcDbMaterial
  1
Global
 72
     1
 94
      127
  0
MLEADERSTYLE
  5
5C
102
{ACAD_REACTORS
330
5B
102
}
330
5B
100
AcDbMLeaderStyle
179
     2
170
     2
171
     1
172
     0
 90
        2
 40
0.0
 41
0.0
173
     1
 91
-1056964608
340
14
 92
       -2
290
     1
 42
0.09
291
     1
 43
0.36
  3
Standard
341
0
 44
0.18
300

342
11
174
     1
178
     6
175
     1
176
     0
 93
-1056964608
 45
0.18
292
     0
297
     0
 46
0.18
343
0
 94
-1056964608
 47
1.0
 49
1.0
140
1.0
293
     1
141
0.0
294
     1
177
     0
142
1.0
295
     0
296
     0
143
0.125
271
     0
272
     9
273
     9
298
     0
  0
MLINESTYLE
  5
18
102
{ACAD_REACTORS
330
17
102
}
330
17
100
AcDbMlineStyle
  2
Standard
 70
     0
  3

 62
   256
 51
90.0
 52
90.0
 71
     2
 49
0.5
 62
   256
  6
BYLAYER
 49
-0.5
 62
   256
  6
BYLAYER
  0
ACDBPLACEHOLDER
  5
F
102
{ACAD_REACTORS
330
E
102
}
330
E
  0
SCALE
  5
48
102
{ACAD_REACTORS
330
47
102
}
330
47
100
AcDbScale
 70
     0
300
1:1
140
1.0
141
1.0
290
     1
  0
SCALE
  5
49
102
{ACAD_REACTORS
330
47
102
}
330
47
100
AcDbScale
 70
     0
300
1/128" = 1'-0"
140
0.0078125
141
12.0
290
     0
  0
SCALE
  5
4A
102
{ACAD_REACTORS
330
47
102
}
330
47
100
AcDbScale
 70
     0
300
1/64" = 1'-0"
140
0.015625
141
12.0
290
     0
  0
SCALE
  5
4B
102
{ACAD_REACTORS
330
47
102
}
330
47
100
AcDbScale
 70
     0
300
1/32" = 1'-0"
140
0.03125
141
12.0
290
     0
  0
SCALE
  5
4C
102
{ACAD_REACTORS
330
47
102
}
330
47
100
AcDbScale
 70
     0
300
1/16" = 1'-0"
140
0.0625
141
12.0
290
     0
  0
SCALE
  5
4D
102
{ACAD_REACTORS
330
47
102
}
330
47
100
AcDbScale
 70
     0
300
3/32" = 1'-0"
140
0.09375
141
12.0
290
     0
  0
SCALE
  5
4E
102
{ACAD_REACTORS
330
47
102
}
330
47
100
AcDbScale
 70
     0
300
1/8" = 1'-0"
140
0.125
141
12.0
290
     0
  0
SCALE
  5
4F
102
{ACAD_REACTORS
330
47
102
}
330
47
100
AcDbScale
 70
     0
300
3/16" = 1'-0"
140
0.1875
141
12.0
290
     0
  0
SCALE
  5
50
102
{ACAD_REACTORS
330
47
102
}
330
47
100
AcDbScale
 70
     0
300
1/4" = 1'-0"
140
0.25
141
12.0
290
     0
  0
SCALE
  5
51
102
{ACAD_REACTORS
330
47
102
}
330
47
100
AcDbScale
 70
     0
300
3/8" = 1'-0"
140
0.375
141
12.0
290
     0
  0
SCALE
  5
52
102
{ACAD_REACTORS
330
47
102
}
330
47
100
AcDbScale
 70
     0
300
1/2" = 1'-0"
140
0.5
141
12.0
290
     0
  0
SCALE
  5
53
102
{ACAD_REACTORS
330
47
102
}
330
47
100
AcDbScale
 70
     0
300
3/4" = 1'-0"
140
0.75
141
12.0
290
     0
  0
SCALE
  5
54
102
{ACAD_REACTORS
330
47
102
}
330
47
100
AcDbScale
 70
     0
300
1" = 1'-0"
140
1.0
141
12.0
290
     0
  0
SCALE
  5
55
102
{ACAD_REACTORS
330
47
102
}
330
47
100
AcDbScale
 70
     0
300
1-1/2" = 1'-0"
140
1.5
141
12.0
290
     0
  0
SCALE
  5
56
102
{ACAD_REACTORS
330
47
102
}
330
47
100
AcDbScale
 70
     0
300
3" = 1'-0"
140
3.0
141
12.0
290
     0
  0
SCALE
  5
57
102
{ACAD_REACTORS
330
47
102
}
330
47
100
AcDbScale
 70
     0
300
6" = 1'-0"
140
6.0
141
12.0
290
     0
  0
SCALE
  5
58
102
{ACAD_REACTORS
330
47
102
}
330
47
100
AcDbScale
 70
     0
300
1'-0" = 1'-0"
140
12.0
141
12.0
290
     0
  0
TABLESTYLE
  5
5A
102
{ACAD_REACTORS
330
59
102
}
102
{ACAD_XDICTIONARY
360
79
102
}
330
59
100
AcDbTableStyle
  3
Standard
 70
     0
 71
     0
 40
0.06
 41
0.06
280
     0
281
     0
  7
Standard
140
0.18
170
     2
 62
     0
 63
   257
283
     0
 90
        4
 91
        0
  1

274
    -2
284
     1
 64
     0
275
    -2
285
     1
 65
     0
276
    -2
286
     1
 66
     0
277
    -2
287
     1
 67
     0
278
    -2
288
     1
 68
     0
279
    -2
289
     1
 69
     0
  7
Standard
140
0.25
170
     5
 62
     0
 63
   257
283
     0
 90
        4
 91
        0
  1

274
    -2
284
     1
 64
     0
275
    -2
285
     1
 65
     0
276
    -2
286
     1
 66
     0
277
    -2
287
     1
 67
     0
278
    -2
288
     1
 68
     0
279
    -2
289
     1
 69
     0
  7
Standard
140
0.18
170
     5
 62
     0
 63
   257
283
     0
 90
        4
 91
        0
  1

274
    -2
284
     1
 64
     0
275
    -2
285
     1
 65
     0
276
    -2
286
     1
 66
     0
277
    -2
287
     1
 67
     0
278
    -2
288
     1
 68
     0
279
    -2
289
     1
 69
     0
  0
VISUALSTYLE
  5
2F
102
{ACAD_REACTORS
330
2A
102
}
330
2A
100
AcDbVisualStyle
  2
2dWireframe
 70
     4
177
     3
291
     0
 70
    58
 90
        0
176
     1
 90
        2
176
     1
 90
        0
176
     1
 90
        0
176
     1
 40
0.6
176
     1
 40
30.0
176
     1
 62
     7
420
 16777215
176
     1
 90
        1
176
     1
 90
        4
176
     1
 62
     7
176
     1
 62
   257
176
     1
 90
        1
176
     1
 90
        1
176
     1
 40
1.0
176
     1
 90
        0
176
     1
 62
   257
176
     1
 40
1.0
176
     1
 90
        1
176
     1
 90
        6
176
     1
 90
        2
176
     1
 62
     7
176
     1
 90
        5
176
     1
 90
        0
176
     1
 90
        0
176
     1
290
     0
176
     1
 90
        1
176
     1
 40
0.0
176
     1
 90
        0
176
     1
290
     1
176
     1
290
     1
176
     1
290
     0
176
     1
290
     0
176
     1
290
     0
176
     1
290
     0
176
     1
290
     0
176
     1
290
     0
176
     1
290
     0
176
     1
 90
       50
176
     1
 40
0.0
176
     1
 40
1.0
176
     1
 90
        0
176
     1
 62
    18
420
        0
176
     1
 90
       50
176
     1
 90
        3
176
     1
 62
     5
420
      255
176
     1
290
     0
176
     1
 90
       50
176
     1
 90
       50
176
     1
 90
       50
176
     1
290
     0
176
     1
 90
       50
176
     1
 62
   256
176
     0
 40
1.0
176
     0
 90
        2
176
     1
  1
strokes_ogs.tif
176
     1
290
     0
176
     1
 40
1.0
176
     1
 40
1.0
176
     1
  0
VISUALSTYLE
  5
32
102
{ACAD_REACTORS
330
2A
102
}
330
2A
100
AcDbVisualStyle
  2
Basic
 70
     7
177
     3
291
     1
 70
    58
 90
        1
176
     1
 90
        0
176
     1
 90
        1
176
     1
 90
        0
176
     1
 40
0.6
176
     1
 40
30.0
176
     1
 62
     7
420
 16777215
176
     1
 90
        0
176
     1
 90
        4
176
     1
 62
     7
176
     1
 62
   257
176
     1
 90
        1
176
     1
 90
        1
176
     1
 40
1.0
176
     1
 90
        8
176
     1
 62
     7
176
     1
 40
1.0
176
     1
 90
        1
176
     1
 90
        6
176
     1
 90
        2
176
     1
 62
     7
176
     1
 90
        5
176
     1
 90
        0
176
     1
 90
        0
176
     1
290
     0
176
     1
 90
        1
176
     1
 40
0.0
176
     1
 90
        0
176
     1
290
     0
176
     1
290
     1
176
     1
290
     1
176
     1
290
     0
176
     1
290
     0
176
     1
290
     0
176
     1
290
     0
176
     1
290
     0
176
     1
290
     0
176
     1
 90
       50
176
     1
 40
0.0
176
     1
 40
1.0
176
     1
 90
        0
176
     1
 62
    18
420
        0
176
     1
 90
       50
176
     1
 90
        3
176
     1
 62
     5
420
      255
176
     1
290
     0
176
     1
 90
       50
176
     1
 90
       50
176
     1
 90
       50
176
     1
290
     0
176
     1
 90
       50
176
     1
 62
   256
176
     0
 40
1.0
176
     0
 90
        2
176
     1
  1
strokes_ogs.tif
176
     1
290
     0
176
     1
 40
1.0
176
     1
 40
1.0
176
     1
  0
VISUALSTYLE
  5
36
102
{ACAD_REACTORS
330
2A
102
}
330
2A
100
AcDbVisualStyle
  2
Brighten
 70
    12
177
     3
291
     1
 70
    58
 90
        2
176
     1
 90
        2
176
     1
 90
        0
176
     1
 90
        0
176
     1
 40
0.6
176
     1
 40
30.0
176
     1
 62
     7
420
 16777215
176
     1
 90
        1
176
     1
 90
        4
176
     1
 62
     7
176
     1
 62
   257
176
     1
 90
        1
176
     1
 90
        1
176
     1
 40
1.0
176
     1
 90
        8
176
     1
 62
     7
176
     1
 40
1.0
176
     1
 90
        1
176
     1
 90
        6
176
     1
 90
        2
176
     1
 62
     7
176
     1
 90
        5
176
     1
 90
        0
176
     1
 90
        0
176
     1
290
     0
176
     1
 90
        1
176
     1
 40
50.0
176
     1
 90
        0
176
     1
290
     0
176
     1
290
     1
176
     1
290
     1
176
     1
290
     0
176
     1
290
     0
176
     1
290
     0
176
     1
290
     0
176
     1
290
     0
176
     1
290
     0
176
     1
 90
       50
176
     1
 40
0.0
176
     1
 40
1.0
176
     1
 90
        0
176
     1
 62
    18
420
        0
176
     1
 90
       50
176
     1
 90
        3
176
     1
 62
     5
420
      255
176
     1
290
     0
176
     1
 90
       50
176
     1
 90
       50
176
     1
 90
       50
176
     1
290
     0
176
     1
 90
       50
176
     1
 62
   256
176
     0
 40
1.0
176
     0
 90
        2
176
     1
  1
strokes_ogs.tif
176
     1
290
     0
176
     1
 40
1.0
176
     1
 40
1.0
176
     1
  0
VISUALSTYLE
  5
3A
102
{ACAD_REACTORS
330
2A
102
}
330
2A
100
AcDbVisualStyle
  2
ColorChange
 70
    16
177
     3
291
     1
 70
    58
 90
        2
176
     1
 90
        2
176
     1
 90
        3
176
     1
 90
        0
176
     1
 40
0.6
176
     1
 40
30.0
176
     1
 62
     8
420
  8421504
176
     1
 90
        1
176
     1
 90
        4
176
     1
 62
     7
176
     1
 62
   257
176
     1
 90
        1
176
     1
 90
        1
176
     1
 40
1.0
176
     1
 90
        8
176
     1
 62
     8
420
  8421504
176
     1
 40
1.0
176
     1
 90
        1
176
     1
 90
        6
176
     1
 90
        2
176
     1
 62
     7
176
     1
 90
        5
176
     1
 90
        0
176
     1
 90
        0
176
     1
290
     0
176
     1
 90
        1
176
     1
 40
0.0
176
     1
 90
        0
176
     1
290
     0
176
     1
290
     1
176
     1
290
     1
176
     1
290
     0
176
     1
290
     0
176
     1
290
     0
176
     1
290
     0
176
     1
290
     0
176
     1
290
     0
176
     1
 90
       50
176
     1
 40
0.0
176
     1
 40
1.0
176
     1
 90
        0
176
     1
 62
    18
420
        0
176
     1
 90
       50
176
     1
 90
        3
176
     1
 62
     5
420
      255
176
     1
290
     0
176
     1
 90
       50
176
     1
 90
       50
176
     1
 90
       50
176
     1
290
     0
176
     1
 90
       50
176
     1
 62
   256
176
     0
 40
1.0
176
     0
 90
        2
176
     1
  1
strokes_ogs.tif
176
     1
290
     0
176
     1
 40
1.0
176
     1
 40
1.0
176
     1
  0
VISUALSTYLE
  5
34
102
{ACAD_REACTORS
330
2A
102
}
330
2A
100
AcDbVisualStyle
  2
Conceptual
 70
     9
177
     3
291
     0
 70
    58
 90
        3
176
     1
 90
        2
176
     1
 90
        0
176
     1
 90
        0
176
     1
 40
0.6
176
     1
 40
30.0
176
     1
 62
     7
420
 16777215
176
     1
 90
        2
176
     1
 90
        2
176
     1
 62
     7
176
     1
 62
   257
176
     1
 90
        1
176
     1
 90
        1
176
     1
 40
179.0
176
     1
 90
        8
176
     1
 62
     7
176
     1
 40
1.0
176
     1
 90
        1
176
     1
 90
        6
176
     1
 90
        2
176
     1
 62
     7
176
     1
 90
        3
176
     1
 90
        0
176
     1
 90
        0
176
     1
290
     0
176
     1
 90
        1
176
     1
 40
0.0
176
     1
 90
        0
176
     1
290
     0
176
     1
290
     1
176
     1
290
     1
176
     1
290
     0
176
     1
290
     0
176
     1
290
     0
176
     1
290
     0
176
     1
290
     0
176
     1
290
     0
176
     1
 90
       50
176
     1
 40
0.0
176
     1
 40
1.0
176
     1
 90
        0
176
     1
 62
    18
420
        0
176
     1
 90
       50
176
     1
 90
        3
176
     1
 62
     5
420
      255
176
     1
290
     0
176
     1
 90
       50
176
     1
 90
       50
176
     1
 90
       50
176
     1
290
     0
176
     1
 90
       50
176
     1
 62
   256
176
     0
 40
1.0
176
     0
 90
        2
176
     1
  1
strokes_ogs.tif
176
     1
290
     0
176
     1
 40
1.0
176
     1
 40
1.0
176
     1
  0
VISUALSTYLE
  5
35
102
{ACAD_REACTORS
330
2A
102
}
330
2A
100
AcDbVisualStyle
  2
Dim
 70
    11
177
     3
291
     1
 70
    58
 90
        2
176
     1
 90
        2
176
     1
 90
        0
176
     1
 90
        0
176
     1
 40
0.6
176
     1
 40
30.0
176
     1
 62
     7
420
 16777215
176
     1
 90
        1
176
     1
 90
        4
176
     1
 62
     7
176
     1
 62
   257
176
     1
 90
        1
176
     1
 90
        1
176
     1
 40
1.0
176
     1
 90
        8
176
     1
 62
     7
176
     1
 40
1.0
176
     1
 90
        1
176
     1
 90
        6
176
     1
 90
        2
176
     1
 62
     7
176
     1
 90
        5
176
     1
 90
        0
176
     1
 90
        0
176
     1
290
     0
176
     1
 90
        1
176
     1
 40
-50.0
176
     1
 90
        0
176
     1
290
     0
176
     1
290
     1
176
     1
290
     1
176
     1
290
     0
176
     1
290
     0
176
     1
290
     0
176
     1
290
     0
176
     1
290
     0
176
     1
290
     0
176
     1
 90
       50
176
     1
 40
0.0
176
     1
 40
1.0
176
     1
 90
        0
176
     1
 62
    18
420
        0
176
     1
 90
       50
176
     1
 90
        3
176
     1
 62
     5
420
      255
176
     1
290
     0
176
     1
 90
       50
176
     1
 90
       50
176
     1
 90
       50
176
     1
290
     0
176
     1
 90
       50
176
     1
 62
   256
176
     0
 40
1.0
176
     0
 90
        2
176
     1
  1
strokes_ogs.tif
176
     1
290
     0
176
     1
 40
1.0
176
     1
 40
1.0
176
     1
  0
VISUALSTYLE
  5
3D
102
{ACAD_REACTORS
330
2A
102
}
330
2A
100
AcDbVisualStyle
  2
EdgeColorOff
 70
    22
177
     3
291
     1
 70
    58
 90
        2
176
     0
 90
        2
176
     0
 90
        0
176
     0
 90
        0
176
     0
 40
0.6
176
     0
 40
30.0
176
     0
 62
     7
420
 16777215
176
     0
 90
        1
176
     0
 90
        4
176
     0
 62
     7
176
     0
 62
   257
176
     0
 90
        1
176
     0
 90
        1
176
     0
 40
1.0
176
     0
 90
        8
176
     2
 62
     7
176
     0
 40
1.0
176
     0
 90
        1
176
     0
 90
        6
176
     0
 90
        2
176
     0
 62
     7
176
     0
 90
        5
176
     0
 90
        0
176
     0
 90
        0
176
     0
290
     0
176
     0
 90
        1
176
     0
 40
0.0
176
     0
 90
        0
176
     0
290
     0
176
     0
290
     1
176
     0
290
     1
176
     0
290
     0
176
     0
290
     0
176
     0
290
     0
176
     0
290
     0
176
     0
290
     0
176
     0
290
     0
176
     0
 90
       50
176
     0
 40
0.0
176
     0
 40
1.0
176
     0
 90
        0
176
     0
 62
    18
420
        0
176
     0
 90
       50
176
     0
 90
        3
176
     0
 62
     5
420
      255
176
     0
290
     0
176
     0
 90
       50
176
     0
 90
       50
176
     0
 90
       50
176
     0
290
     0
176
     0
 90
       50
176
     0
 62
   256
176
     0
 40
1.0
176
     0
 90
        2
176
     0
  1
strokes_ogs.tif
176
     0
290
     0
176
     0
 40
1.0
176
     0
 40
1.0
176
     0
  0
VISUALSTYLE
  5
39
102
{ACAD_REACTORS
330
2A
102
}
330
2A
100
AcDbVisualStyle
  2
Facepattern
 70
    15
177
     3
291
     1
 70
    58
 90
        2
176
     1
 90
        2
176
     1
 90
        0
176
     1
 90
        0
176
     1
 40
0.6
176
     1
 40
30.0
176
     1
 62
     7
420
 16777215
176
     1
 90
        1
176
     1
 90
        4
176
     1
 62
     7
176
     1
 62
   257
176
     1
 90
        1
176
     1
 90
        1
176
     1
 40
1.0
176
     1
 90
        8
176
     1
 62
     7
176
     1
 40
1.0
176
     1
 90
        1
176
     1
 90
        6
176
     1
 90
        2
176
     1
 62
     7
176
     1
 90
        5
176
     1
 90
        0
176
     1
 90
        0
176
     1
290
     0
176
     1
 90
        1
176
     1
 40
0.0
176
     1
 90
        0
176
     1
290
     0
176
     1
290
     1
176
     1
290
     1
176
     1
290
     0
176
     1
290
     0
176
     1
290
     0
176
     1
290
     0
176
     1
290
     0
176
     1
290
     0
176
     1
 90
       50
176
     1
 40
0.0
176
     1
 40
1.0
176
     1
 90
        0
176
     1
 62
    18
420
        0
176
     1
 90
       50
176
     1
 90
        3
176
     1
 62
     5
420
      255
176
     1
290
     0
176
     1
 90
       50
176
     1
 90
       50
176
     1
 90
       50
176
     1
290
     0
176
     1
 90
       50
176
     1
 62
   256
176
     0
 40
1.0
176
     0
 90
        2
176
     1
  1
strokes_ogs.tif
176
     1
290
     0
176
     1
 40
1.0
176
     1
 40
1.0
176
     1
  0
VISUALSTYLE
  5
2B
102
{ACAD_REACTORS
330
2A
102
}
330
2A
100
AcDbVisualStyle
  2
Flat
 70
     0
177
     3
291
     1
 70
    58
 90
        2
176
     1
 90
        1
176
     1
 90
        1
176
     1
 90
        2
176
     1
 40
0.6
176
     1
 40
30.0
176
     1
 62
     7
420
 16777215
176
     1
 90
        0
176
     1
 90
        0
176
     1
 62
     7
176
     1
 62
   257
176
     1
 90
        1
176
     1
 90
        1
176
     1
 40
1.0
176
     1
 90
        8
176
     1
 62
     7
176
     1
 40
1.0
176
     1
 90
        1
176
     1
 90
        6
176
     1
 90
        2
176
     1
 62
     7
176
     1
 90
        5
176
     1
 90
        0
176
     1
 90
        0
176
     1
290
     0
176
     1
 90
       13
176
     1
 40
0.0
176
     1
 90
        0
176
     1
290
     0
176
     1
290
     1
176
     1
290
     1
176
     1
290
     0
176
     1
290
     0
176
     1
290
     0
176
     1
290
     0
176
     1
290
     0
176
     1
290
     0
176
     1
 90
       50
176
     1
 40
0.0
176
     1
 40
1.0
176
     1
 90
        0
176
     1
 62
    18
420
        0
176
     1
 90
       50
176
     1
 90
        3
176
     1
 62
     5
420
      255
176
     1
290
     0
176
     1
 90
       50
176
     1
 90
       50
176
     1
 90
       50
176
     1
290
     0
176
     1
 90
       50
176
     1
 62
   256
176
     0
 40
1.0
176
     0
 90
        2
176
     1
  1
strokes_ogs.tif
176
     1
290
     0
176
     1
 40
1.0
176
     1
 40
1.0
176
     1
  0
VISUALSTYLE
  5
2C
102
{ACAD_REACTORS
330
2A
102
}
330
2A
100
AcDbVisualStyle
  2
FlatWithEdges
 70
     1
177
     3
291
     1
 70
    58
 90
        2
176
     1
 90
        1
176
     1
 90
        1
176
     1
 90
        2
176
     1
 40
0.6
176
     1
 40
30.0
176
     1
 62
     7
420
 16777215
176
     1
 90
        1
176
     1
 90
        0
176
     1
 62
     7
176
     1
 62
   257
176
     1
 90
        1
176
     1
 90
        1
176
     1
 40
1.0
176
     1
 90
        0
176
     1
 62
   257
176
     1
 40
1.0
176
     1
 90
        1
176
     1
 90
        6
176
     1
 90
        2
176
     1
 62
     7
176
     1
 90
        5
176
     1
 90
        0
176
     1
 90
        0
176
     1
290
     0
176
     1
 90
       13
176
     1
 40
0.0
176
     1
 90
        0
176
     1
290
     0
176
     1
290
     1
176
     1
290
     1
176
     1
290
     0
176
     1
290
     0
176
     1
290
     0
176
     1
290
     0
176
     1
290
     0
176
     1
290
     0
176
     1
 90
       50
176
     1
 40
0.0
176
     1
 40
1.0
176
     1
 90
        0
176
     1
 62
    18
420
        0
176
     1
 90
       50
176
     1
 90
        3
176
     1
 62
     5
420
      255
176
     1
290
     0
176
     1
 90
       50
176
     1
 90
       50
176
     1
 90
       50
176
     1
290
     0
176
     1
 90
       50
176
     1
 62
   256
176
     0
 40
1.0
176
     0
 90
        2
176
     1
  1
strokes_ogs.tif
176
     1
290
     0
176
     1
 40
1.0
176
     1
 40
1.0
176
     1
  0
VISUALSTYLE
  5
2D
102
{ACAD_REACTORS
330
2A
102
}
330
2A
100
AcDbVisualStyle
  2
Gouraud
 70
     2
177
     3
291
     1
 70
    58
 90
        2
176
     1
 90
        2
176
     1
 90
        1
176
     1
 90
        2
176
     1
 40
0.6
176
     1
 40
30.0
176
     1
 62
     7
420
 16777215
176
     1
 90
        0
176
     1
 90
        0
176
     1
 62
     7
176
     1
 62
   257
176
     1
 90
        1
176
     1
 90
        1
176
     1
 40
1.0
176
     1
 90
        0
176
     1
 62
     7
176
     1
 40
1.0
176
     1
 90
        1
176
     1
 90
        6
176
     1
 90
        2
176
     1
 62
     7
176
     1
 90
        5
176
     1
 90
        0
176
     1
 90
        0
176
     1
290
     0
176
     1
 90
       13
176
     1
 40
0.0
176
     1
 90
        0
176
     1
290
     0
176
     1
290
     1
176
     1
290
     1
176
     1
290
     0
176
     1
290
     0
176
     1
290
     0
176
     1
290
     0
176
     1
290
     0
176
     1
290
     0
176
     1
 90
       50
176
     1
 40
0.0
176
     1
 40
1.0
176
     1
 90
        0
176
     1
 62
    18
420
        0
176
     1
 90
       50
176
     1
 90
        3
176
     1
 62
     5
420
      255
176
     1
290
     0
176
     1
 90
       50
176
     1
 90
       50
176
     1
 90
       50
176
     1
290
     0
176
     1
 90
       50
176
     1
 62
   256
176
     0
 40
1.0
176
     0
 90
        2
176
     1
  1
strokes_ogs.tif
176
     1
290
     0
176
     1
 40
1.0
176
     1
 40
1.0
176
     1
  0
VISUALSTYLE
  5
2E
102
{ACAD_REACTORS
330
2A
102
}
330
2A
100
AcDbVisualStyle
  2
GouraudWithEdges
 70
     3
177
     3
291
     1
 70
    58
 90
        2
176
     1
 90
        2
176
     1
 90
        1
176
     1
 90
        2
176
     1
 40
0.6
176
     1
 40
30.0
176
     1
 62
     7
420
 16777215
176
     1
 90
        1
176
     1
 90
        0
176
     1
 62
     7
176
     1
 62
   257
176
     1
 90
        1
176
     1
 90
        1
176
     1
 40
1.0
176
     1
 90
        0
176
     1
 62
   257
176
     1
 40
1.0
176
     1
 90
        1
176
     1
 90
        6
176
     1
 90
        2
176
     1
 62
     7
176
     1
 90
        5
176
     1
 90
        0
176
     1
 90
        0
176
     1
290
     0
176
     1
 90
       13
176
     1
 40
0.0
176
     1
 90
        0
176
     1
290
     0
176
     1
290
     1
176
     1
290
     1
176
     1
290
     0
176
     1
290
     0
176
     1
290
     0
176
     1
290
     0
176
     1
290
     0
176
     1
290
     0
176
     1
 90
       50
176
     1
 40
0.0
176
     1
 40
1.0
176
     1
 90
        0
176
     1
 62
    18
420
        0
176
     1
 90
       50
176
     1
 90
        3
176
     1
 62
     5
420
      255
176
     1
290
     0
176
     1
 90
       50
176
     1
 90
       50
176
     1
 90
       50
176
     1
290
     0
176
     1
 90
       50
176
     1
 62
   256
176
     0
 40
1.0
176
     0
 90
        2
176
     1
  1
strokes_ogs.tif
176
     1
290
     0
176
     1
 40
1.0
176
     1
 40
1.0
176
     1
  0
VISUALSTYLE
  5
31
102
{ACAD_REACTORS
330
2A
102
}
330
2A
100
AcDbVisualStyle
  2
Hidden
 70
     6
177
     3
291
     0
 70
    58
 90
        1
176
     1
 90
        2
176
     1
 90
        2
176
     1
 90
        0
176
     1
 40
0.6
176
     1
 40
30.0
176
     1
 62
     7
420
 16777215
176
     1
 90
        2
176
     1
 90
        2
176
     1
 62
     7
176
     1
 62
   257
176
     1
 90
        2
176
     1
 90
        1
176
     1
 40
40.0
176
     1
 90
        0
176
     1
 62
   257
176
     1
 40
1.0
176
     1
 90
        1
176
     1
 90
        6
176
     1
 90
        2
176
     1
 62
     7
176
     1
 90
        3
176
     1
 90
        0
176
     1
 90
        0
176
     1
290
     0
176
     1
 90
        1
176
     1
 40
0.0
176
     1
 90
        0
176
     1
290
     0
176
     1
290
     1
176
     1
290
     1
176
     1
290
     0
176
     1
290
     0
176
     1
290
     0
176
     1
290
     0
176
     1
290
     0
176
     1
290
     0
176
     1
 90
       50
176
     1
 40
0.0
176
     1
 40
1.0
176
     1
 90
        0
176
     1
 62
    18
420
        0
176
     1
 90
       50
176
     1
 90
        3
176
     1
 62
     5
420
      255
176
     1
290
     0
176
     1
 90
       50
176
     1
 90
       50
176
     1
 90
       50
176
     1
290
     0
176
     1
 90
       50
176
     1
 62
   256
176
     0
 40
1.0
176
     0
 90
        2
176
     1
  1
strokes_ogs.tif
176
     1
290
     0
176
     1
 40
1.0
176
     1
 40
1.0
176
     1
  0
VISUALSTYLE
  5
3B
102
{ACAD_REACTORS
330
2A
102
}
330
2A
100
AcDbVisualStyle
  2
JitterOff
 70
    20
177
     3
291
     1
 70
    58
 90
        2
176
     0
 90
        2
176
     0
 90
        0
176
     0
 90
        0
176
     0
 40
0.6
176
     0
 40
30.0
176
     0
 62
     7
420
 16777215
176
     0
 90
        1
176
     0
 90
        4
176
     0
 62
     7
176
     0
 62
   257
176
     0
 90
        1
176
     0
 90
        1
176
     0
 40
1.0
176
     0
 90
       10
176
     2
 62
     7
176
     0
 40
1.0
176
     0
 90
        1
176
     0
 90
        6
176
     0
 90
        2
176
     0
 62
     7
176
     0
 90
        5
176
     0
 90
        0
176
     0
 90
        0
176
     0
290
     0
176
     0
 90
        1
176
     0
 40
0.0
176
     0
 90
        0
176
     0
290
     0
176
     0
290
     1
176
     0
290
     1
176
     0
290
     0
176
     0
290
     0
176
     0
290
     0
176
     0
290
     0
176
     0
290
     0
176
     0
290
     0
176
     0
 90
       50
176
     0
 40
0.0
176
     0
 40
1.0
176
     0
 90
        0
176
     0
 62
    18
420
        0
176
     0
 90
       50
176
     0
 90
        3
176
     0
 62
     5
420
      255
176
     0
290
     0
176
     0
 90
       50
176
     0
 90
       50
176
     0
 90
       50
176
     0
290
     0
176
     0
 90
       50
176
     0
 62
   256
176
     0
 40
1.0
176
     0
 90
        2
176
     0
  1
strokes_ogs.tif
176
     0
290
     0
176
     0
 40
1.0
176
     0
 40
1.0
176
     0
  0
VISUALSTYLE
  5
38
102
{ACAD_REACTORS
330
2A
102
}
330
2A
100
AcDbVisualStyle
  2
Linepattern
 70
    14
177
     3
291
     1
 70
    58
 90
        2
176
     1
 90
        2
176
     1
 90
        0
176
     1
 90
        0
176
     1
 40
0.6
176
     1
 40
30.0
176
     1
 62
     7
420
 16777215
176
     1
 90
        1
176
     1
 90
        4
176
     1
 62
     7
176
     1
 62
   257
176
     1
 90
        7
176
     1
 90
        7
176
     1
 40
1.0
176
     1
 90
        8
176
     1
 62
     7
176
     1
 40
1.0
176
     1
 90
        1
176
     1
 90
        6
176
     1
 90
        2
176
     1
 62
     7
176
     1
 90
        5
176
     1
 90
        0
176
     1
 90
        0
176
     1
290
     0
176
     1
 90
        1
176
     1
 40
0.0
176
     1
 90
        0
176
     1
290
     0
176
     1
290
     1
176
     1
290
     1
176
     1
290
     0
176
     1
290
     0
176
     1
290
     0
176
     1
290
     0
176
     1
290
     0
176
     1
290
     0
176
     1
 90
       50
176
     1
 40
0.0
176
     1
 40
1.0
176
     1
 90
        0
176
     1
 62
    18
420
        0
176
     1
 90
       50
176
     1
 90
        3
176
     1
 62
     5
420
      255
176
     1
290
     0
176
     1
 90
       50
176
     1
 90
       50
176
     1
 90
       50
176
     1
290
     0
176
     1
 90
       50
176
     1
 62
   256
176
     0
 40
1.0
176
     0
 90
        2
176
     1
  1
strokes_ogs.tif
176
     1
290
     0
176
     1
 40
1.0
176
     1
 40
1.0
176
     1
  0
VISUALSTYLE
  5
3C
102
{ACAD_REACTORS
330
2A
102
}
330
2A
100
AcDbVisualStyle
  2
OverhangOff
 70
    21
177
     3
291
     1
 70
    58
 90
        2
176
     0
 90
        2
176
     0
 90
        0
176
     0
 90
        0
176
     0
 40
0.6
176
     0
 40
30.0
176
     0
 62
     7
420
 16777215
176
     0
 90
        1
176
     0
 90
        4
176
     0
 62
     7
176
     0
 62
   257
176
     0
 90
        1
176
     0
 90
        1
176
     0
 40
1.0
176
     0
 90
        9
176
     2
 62
     7
176
     0
 40
1.0
176
     0
 90
        1
176
     0
 90
        6
176
     0
 90
        2
176
     0
 62
     7
176
     0
 90
        5
176
     0
 90
        0
176
     0
 90
        0
176
     0
290
     0
176
     0
 90
        1
176
     0
 40
0.0
176
     0
 90
        0
176
     0
290
     0
176
     0
290
     1
176
     0
290
     1
176
     0
290
     0
176
     0
290
     0
176
     0
290
     0
176
     0
290
     0
176
     0
290
     0
176
     0
290
     0
176
     0
 90
       50
176
     0
 40
0.0
176
     0
 40
1.0
176
     0
 90
        0
176
     0
 62
    18
420
        0
176
     0
 90
       50
176
     0
 90
        3
176
     0
 62
     5
420
      255
176
     0
290
     0
176
     0
 90
       50
176
     0
 90
       50
176
     0
 90
       50
176
     0
290
     0
176
     0
 90
       50
176
     0
 62
   256
176
     0
 40
1.0
176
     0
 90
        2
176
     0
  1
strokes_ogs.tif
176
     0
290
     0
176
     0
 40
1.0
176
     0
 40
1.0
176
     0
  0
VISUALSTYLE
  5
33
102
{ACAD_REACTORS
330
2A
102
}
330
2A
100
AcDbVisualStyle
  2
Realistic
 70
     8
177
     3
291
     0
 70
    58
 90
        2
176
     1
 90
        3
176
     1
 90
        0
176
     1
 90
        2
176
     1
 40
0.6
176
     1
 40
30.0
176
     1
 62
     7
420
 16777215
176
     1
 90
        0
176
     1
 90
        0
176
     1
 62
     7
176
     1
 62
   257
176
     1
 90
        1
176
     1
 90
        1
176
     1
 40
1.0
176
     1
 90
        8
176
     1
 62
   257
176
     1
 40
1.0
176
     1
 90
        1
176
     1
 90
        6
176
     1
 90
        2
176
     1
 62
     7
176
     1
 90
        3
176
     1
 90
        0
176
     1
 90
        0
176
     1
290
     0
176
     1
 90
       13
176
     1
 40
0.0
176
     1
 90
        0
176
     1
290
     0
176
     1
290
     1
176
     1
290
     1
176
     1
290
     0
176
     1
290
     0
176
     1
290
     0
176
     1
290
     0
176
     1
290
     0
176
     1
290
     0
176
     1
 90
       50
176
     1
 40
0.0
176
     1
 40
1.0
176
     1
 90
        0
176
     1
 62
    18
420
        0
176
     1
 90
       50
176
     1
 90
        3
176
     1
 62
     5
420
      255
176
     1
290
     0
176
     1
 90
       50
176
     1
 90
       50
176
     1
 90
       50
176
     1
290
     0
176
     1
 90
       50
176
     1
 62
   256
176
     0
 40
1.0
176
     0
 90
        2
176
     1
  1
strokes_ogs.tif
176
     1
290
     0
176
     1
 40
1.0
176
     1
 40
1.0
176
     1
  0
VISUALSTYLE
  5
42
102
{ACAD_REACTORS
330
2A
102
}
330
2A
100
AcDbVisualStyle
  2
Shaded
 70
    27
177
     3
291
     0
 70
    58
 90
        2
176
     1
 90
        2
176
     1
 90
        1
176
     1
 90
        2
176
     1
 40
0.6
176
     1
 40
30.0
176
     1
 62
     7
420
 16777215
176
     1
 90
        0
176
     1
 90
        4
176
     1
 62
     7
176
     1
 62
   257
176
     1
 90
        1
176
     1
 90
        1
176
     1
 40
1.0
176
     1
 90
        8
176
     1
 62
   257
176
     1
 40
1.0
176
     1
 90
        1
176
     1
 90
        6
176
     1
 90
        2
176
     1
 62
     8
420
  7895160
176
     1
 90
        3
176
     1
 90
        0
176
     1
 90
        0
176
     1
290
     0
176
     1
 90
        5
176
     1
 40
0.0
176
     1
 90
        0
176
     1
290
     0
176
     1
290
     1
176
     1
290
     1
176
     1
290
     0
176
     1
290
     0
176
     1
290
     0
176
     1
290
     0
176
     1
290
     0
176
     1
290
     0
176
     1
 90
       50
176
     1
 40
0.0
176
     1
 40
1.0
176
     1
 90
        0
176
     1
 62
    18
420
        0
176
     1
 90
       50
176
     1
 90
        3
176
     1
 62
     5
420
      255
176
     1
290
     0
176
     1
 90
       50
176
     1
 90
       50
176
     1
 90
       50
176
     1
290
     0
176
     1
 90
       50
176
     1
 62
   256
176
     0
 40
1.0
176
     0
 90
        2
176
     1
  1
strokes_ogs.tif
176
     1
290
     0
176
     1
 40
1.0
176
     1
 40
1.0
176
     1
  0
VISUALSTYLE
  5
41
102
{ACAD_REACTORS
330
2A
102
}
330
2A
100
AcDbVisualStyle
  2
Shaded with edges
 70
    26
177
     3
291
     0
 70
    58
 90
        2
176
     1
 90
        2
176
     1
 90
        1
176
     1
 90
        2
176
     1
 40
0.6
176
     1
 40
30.0
176
     1
 62
     7
420
 16777215
176
     1
 90
        1
176
     1
 90
       10
176
     1
 62
     7
176
     1
 62
   257
176
     1
 90
        2
176
     1
 90
        1
176
     1
 40
1.0
176
     1
 90
        8
176
     1
 62
   257
176
     1
 40
1.0
176
     1
 90
        1
176
     1
 90
        6
176
     1
 90
        2
176
     1
 62
     7
176
     1
 90
        3
176
     1
 90
        0
176
     1
 90
        0
176
     1
290
     0
176
     1
 90
        5
176
     1
 40
0.0
176
     1
 90
        0
176
     1
290
     0
176
     1
290
     1
176
     1
290
     1
176
     1
290
     0
176
     1
290
     0
176
     1
290
     0
176
     1
290
     0
176
     1
290
     0
176
     1
290
     0
176
     1
 90
       50
176
     1
 40
0.0
176
     1
 40
1.0
176
     1
 90
        0
176
     1
 62
    18
420
        0
176
     1
 90
       50
176
     1
 90
        3
176
     1
 62
     5
420
      255
176
     1
290
     0
176
     1
 90
       50
176
     1
 90
       50
176
     1
 90
       50
176
     1
290
     0
176
     1
 90
       50
176
     1
 62
   256
176
     0
 40
1.0
176
     0
 90
        2
176
     1
  1
strokes_ogs.tif
176
     1
290
     0
176
     1
 40
1.0
176
     1
 40
1.0
176
     1
  0
VISUALSTYLE
  5
3E
102
{ACAD_REACTORS
330
2A
102
}
330
2A
100
AcDbVisualStyle
  2
Shades of Gray
 70
    23
177
     3
291
     0
 70
    58
 90
        2
176
     1
 90
        2
176
     1
 90
        3
176
     1
 90
        0
176
     1
 40
0.6
176
     1
 40
30.0
176
     1
 62
     7
420
 16777215
176
     1
 90
        2
176
     1
 90
        2
176
     1
 62
     7
176
     1
 62
     7
176
     1
 90
        1
176
     1
 90
        1
176
     1
 40
40.0
176
     1
 90
        8
176
     1
 62
     7
176
     1
 40
1.0
176
     1
 90
        1
176
     1
 90
        6
176
     1
 90
        2
176
     1
 62
     7
176
     1
 90
        3
176
     1
 90
        0
176
     1
 90
        0
176
     1
290
     0
176
     1
 90
        1
176
     1
 40
0.0
176
     1
 90
        0
176
     1
290
     0
176
     1
290
     1
176
     1
290
     1
176
     1
290
     0
176
     1
290
     0
176
     1
290
     0
176
     1
290
     0
176
     1
290
     0
176
     1
290
     0
176
     1
 90
       50
176
     1
 40
0.0
176
     1
 40
1.0
176
     1
 90
        0
176
     1
 62
    18
420
        0
176
     1
 90
       50
176
     1
 90
        3
176
     1
 62
     5
420
      255
176
     1
290
     0
176
     1
 90
       50
176
     1
 90
       50
176
     1
 90
       50
176
     1
290
     0
176
     1
 90
       50
176
     1
 62
   256
176
     0
 40
1.0
176
     0
 90
        2
176
     1
  1
strokes_ogs.tif
176
     1
290
     0
176
     1
 40
1.0
176
     1
 40
1.0
176
     1
  0
VISUALSTYLE
  5
3F
102
{ACAD_REACTORS
330
2A
102
}
330
2A
100
AcDbVisualStyle
  2
Sketchy
 70
    24
177
     3
291
     0
 70
    58
 90
        1
176
     1
 90
        2
176
     1
 90
        2
176
     1
 90
        0
176
     1
 40
0.6
176
     1
 40
30.0
176
     1
 62
     7
420
 16777215
176
     1
 90
        2
176
     1
 90
        2
176
     1
 62
     7
176
     1
 62
     7
176
     1
 90
        1
176
     1
 90
        1
176
     1
 40
40.0
176
     1
 90
       11
176
     1
 62
     7
176
     1
 40
1.0
176
     1
 90
        1
176
     1
 90
        6
176
     1
 90
        2
176
     1
 62
     7
176
     1
 90
        6
176
     1
 90
        0
176
     1
 90
        0
176
     1
290
     0
176
     1
 90
        1
176
     1
 40
0.0
176
     1
 90
        0
176
     1
290
     0
176
     1
290
     1
176
     1
290
     1
176
     1
290
     0
176
     1
290
     0
176
     1
290
     0
176
     1
290
     0
176
     1
290
     0
176
     1
290
     0
176
     1
 90
       50
176
     1
 40
0.0
176
     1
 40
1.0
176
     1
 90
        0
176
     1
 62
    18
420
        0
176
     1
 90
       50
176
     1
 90
        3
176
     1
 62
     5
420
      255
176
     1
290
     0
176
     1
 90
       50
176
     1
 90
       50
176
     1
 90
       50
176
     1
290
     0
176
     1
 90
       50
176
     1
 62
   256
176
     0
 40
1.0
176
     0
 90
        2
176
     1
  1
strokes_ogs.tif
176
     1
290
     0
176
     1
 40
1.0
176
     1
 40
1.0
176
     1
  0
VISUALSTYLE
  5
37
102
{ACAD_REACTORS
330
2A
102
}
330
2A
100
AcDbVisualStyle
  2
Thicken
 70
    13
177
     3
291
     1
 70
    58
 90
        2
176
     1
 90
        2
176
     1
 90
        0
176
     1
 90
        0
176
     1
 40
0.6
176
     1
 40
30.0
176
     1
 62
     7
420
 16777215
176
     1
 90
        1
176
     1
 90
        4
176
     1
 62
     7
176
     1
 62
   257
176
     1
 90
        1
176
     1
 90
        1
176
     1
 40
1.0
176
     1
 90
       12
176
     1
 62
     7
176
     1
 40
1.0
176
     1
 90
        1
176
     1
 90
        6
176
     1
 90
        2
176
     1
 62
     7
176
     1
 90
        5
176
     1
 90
        0
176
     1
 90
        0
176
     1
290
     0
176
     1
 90
        1
176
     1
 40
0.0
176
     1
 90
        0
176
     1
290
     0
176
     1
290
     1
176
     1
290
     1
176
     1
290
     0
176
     1
290
     0
176
     1
290
     0
176
     1
290
     0
176
     1
290
     0
176
     1
290
     0
176
     1
 90
       50
176
     1
 40
0.0
176
     1
 40
1.0
176
     1
 90
        0
176
     1
 62
    18
420
        0
176
     1
 90
       50
176
     1
 90
        3
176
     1
 62
     5
420
      255
176
     1
290
     0
176
     1
 90
       50
176
     1
 90
       50
176
     1
 90
       50
176
     1
290
     0
176
     1
 90
       50
176
     1
 62
   256
176
     0
 40
1.0
176
     0
 90
        2
176
     1
  1
strokes_ogs.tif
176
     1
290
     0
176
     1
 40
1.0
176
     1
 40
1.0
176
     1
  0
VISUALSTYLE
  5
30
102
{ACAD_REACTORS
330
2A
102
}
330
2A
100
AcDbVisualStyle
  2
Wireframe
 70
     5
177
     3
291
     0
 70
    58
 90
        0
176
     1
 90
        2
176
     1
 90
        0
176
     1
 90
        0
176
     1
 40
0.6
176
     1
 40
30.0
176
     1
 62
     7
420
 16777215
176
     1
 90
        1
176
     1
 90
        4
176
     1
 62
     7
176
     1
 62
   257
176
     1
 90
        1
176
     1
 90
        1
176
     1
 40
1.0
176
     1
 90
        0
176
     1
 62
   257
176
     1
 40
1.0
176
     1
 90
        1
176
     1
 90
        6
176
     1
 90
        2
176
     1
 62
     7
176
     1
 90
        3
176
     1
 90
        0
176
     1
 90
        0
176
     1
290
     0
176
     1
 90
        1
176
     1
 40
0.0
176
     1
 90
        0
176
     1
290
     0
176
     1
290
     1
176
     1
290
     1
176
     1
290
     0
176
     1
290
     0
176
     1
290
     0
176
     1
290
     0
176
     1
290
     0
176
     1
290
     0
176
     1
 90
       50
176
     1
 40
0.0
176
     1
 40
1.0
176
     1
 90
        0
176
     1
 62
    18
420
        0
176
     1
 90
       50
176
     1
 90
        3
176
     1
 62
     5
420
      255
176
     1
290
     0
176
     1
 90
       50
176
     1
 90
       50
176
     1
 90
       50
176
     1
290
     0
176
     1
 90
       50
176
     1
 62
   256
176
     0
 40
1.0
176
     0
 90
        2
176
     1
  1
strokes_ogs.tif
176
     1
290
     0
176
     1
 40
1.0
176
     1
 40
1.0
176
     1
  0
VISUALSTYLE
  5
40
102
{ACAD_REACTORS
330
2A
102
}
330
2A
100
AcDbVisualStyle
  2
X-Ray
 70
    25
177
     3
291
     0
 70
    58
 90
        2
176
     1
 90
        2
176
     1
 90
        1
176
     1
 90
        1
176
     1
 40
0.5
176
     1
 40
30.0
176
     1
 62
     7
420
 16777215
176
     1
 90
        1
176
     1
 90
        0
176
     1
 62
     7
176
     1
 62
   257
176
     1
 90
        1
176
     1
 90
        1
176
     1
 40
1.0
176
     1
 90
        8
176
     1
 62
     7
176
     1
 40
1.0
176
     1
 90
        1
176
     1
 90
        6
176
     1
 90
        2
176
     1
 62
     7
176
     1
 90
        3
176
     1
 90
        0
176
     1
 90
        0
176
     1
290
     0
176
     1
 90
       13
176
     1
 40
0.0
176
     1
 90
        0
176
     1
290
     0
176
     1
290
     1
176
     1
290
     1
176
     1
290
     0
176
     1
290
     0
176
     1
290
     0
176
     1
290
     0
176
     1
290
     0
176
     1
290
     0
176
     1
 90
       50
176
     1
 40
0.0
176
     1
 40
1.0
176
     1
 90
        0
176
     1
 62
    18
420
        0
176
     1
 90
       50
176
     1
 90
        3
176
     1
 62
     5
420
      255
176
     1
290
     0
176
     1
 90
       50
176
     1
 90
       50
176
     1
 90
       50
176
     1
290
     0
176
     1
 90
       50
176
     1
 62
   256
176
     0
 40
1.0
176
     0
 90
        2
176
     1
  1
strokes_ogs.tif
176
     1
290
     0
176
     1
 40
1.0
176
     1
 40
1.0
176
     1
  0
DICTIONARYVAR
  5
78
102
{ACAD_REACTORS
330
77
102
}
330
77
100
DictionaryVariables
280
     0
  1
1:1
  0
DICTIONARYVAR
  5
7D
102
{ACAD_REACTORS
330
77
102
}
330
77
100
DictionaryVariables
280
     0
  1
Standard
  0
DICTIONARYVAR
  5
7C
102
{ACAD_REACTORS
330
77
102
}
330
77
100
DictionaryVariables
280
     0
  1
Standard
  0
DICTIONARY
  5
79
330
5A
100
AcDbDictionary
280
     1
281
     1
  3
ACAD_ROUNDTRIP_2008_TABLESTYLE_CELLSTYLEMAP
360
7A
  0
CELLSTYLEMAP
  5
7A
102
{ACAD_REACTORS
330
79
102
}
330
79
100
AcDbCellStyleMap
 90
        3
300
CELLSTYLE
  1
TABLEFORMAT_BEGIN
 90
        5
170
     1
 91
        0
 92
    32768
 62
   257
 93
        1
300
CONTENTFORMAT
  1
CONTENTFORMAT_BEGIN
 90
        0
 91
        0
 92
        4
 93
        0
300

 40
0.0
140
1.0
 94
        5
 62
     0
340
11
144
0.25
309
CONTENTFORMAT_END
171
     1
301
MARGIN
  1
CELLMARGIN_BEGIN
 40
0.06
 40
0.06
 40
0.06
 40
0.06
 40
0.06
 40
0.06
309
CELLMARGIN_END
 94
        6
 95
        1
302
GRIDFORMAT
  1
GRIDFORMAT_BEGIN
 90
        0
 91
        1
 62
     0
 92
       -2
340
14
 93
        0
 40
0.045
309
GRIDFORMAT_END
 95
        2
302
GRIDFORMAT
  1
GRIDFORMAT_BEGIN
 90
        0
 91
        1
 62
     0
 92
       -2
340
14
 93
        0
 40
0.045
309
GRIDFORMAT_END
 95
        4
302
GRIDFORMAT
  1
GRIDFORMAT_BEGIN
 90
        0
 91
        1
 62
     0
 92
       -2
340
14
 93
        0
 40
0.045
309
GRIDFORMAT_END
 95
        8
302
GRIDFORMAT
  1
GRIDFORMAT_BEGIN
 90
        0
 91
        1
 62
     0
 92
       -2
340
14
 93
        0
 40
0.045
309
GRIDFORMAT_END
 95
       16
302
GRIDFORMAT
  1
GRIDFORMAT_BEGIN
 90
        0
 91
        1
 62
     0
 92
       -2
340
14
 93
        0
 40
0.045
309
GRIDFORMAT_END
 95
       32
302
GRIDFORMAT
  1
GRIDFORMAT_BEGIN
 90
        0
 91
        1
 62
     0
 92
       -2
340
14
 93
        0
 40
0.045
309
GRIDFORMAT_END
309
TABLEFORMAT_END
  1
CELLSTYLE_BEGIN
 90
        1
 91
        1
300
_TITLE
309
CELLSTYLE_END
300
CELLSTYLE
  1
TABLEFORMAT_BEGIN
 90
        5
170
     1
 91
        0
 92
        0
 62
   257
 93
        1
300
CONTENTFORMAT
  1
CONTENTFORMAT_BEGIN
 90
        0
 91
        0
 92
        4
 93
        0
300

 40
0.0
140
1.0
 94
        5
 62
     0
340
11
144
0.18
309
CONTENTFORMAT_END
171
     1
301
MARGIN
  1
CELLMARGIN_BEGIN
 40
0.06
 40
0.06
 40
0.06
 40
0.06
 40
0.06
 40
0.06
309
CELLMARGIN_END
 94
        6
 95
        1
302
GRIDFORMAT
  1
GRIDFORMAT_BEGIN
 90
        0
 91
        1
 62
     0
 92
       -2
340
14
 93
        0
 40
0.045
309
GRIDFORMAT_END
 95
        2
302
GRIDFORMAT
  1
GRIDFORMAT_BEGIN
 90
        0
 91
        1
 62
     0
 92
       -2
340
14
 93
        0
 40
0.045
309
GRIDFORMAT_END
 95
        4
302
GRIDFORMAT
  1
GRIDFORMAT_BEGIN
 90
        0
 91
        1
 62
     0
 92
       -2
340
14
 93
        0
 40
0.045
309
GRIDFORMAT_END
 95
        8
302
GRIDFORMAT
  1
GRIDFORMAT_BEGIN
 90
        0
 91
        1
 62
     0
 92
       -2
340
14
 93
        0
 40
0.045
309
GRIDFORMAT_END
 95
       16
302
GRIDFORMAT
  1
GRIDFORMAT_BEGIN
 90
        0
 91
        1
 62
     0
 92
       -2
340
14
 93
        0
 40
0.045
309
GRIDFORMAT_END
 95
       32
302
GRIDFORMAT
  1
GRIDFORMAT_BEGIN
 90
        0
 91
        1
 62
     0
 92
       -2
340
14
 93
        0
 40
0.045
309
GRIDFORMAT_END
309
TABLEFORMAT_END
  1
CELLSTYLE_BEGIN
 90
        2
 91
        1
300
_HEADER
309
CELLSTYLE_END
300
CELLSTYLE
  1
TABLEFORMAT_BEGIN
 90
        5
170
     1
 91
        0
 92
        0
 62
   257
 93
        1
300
CONTENTFORMAT
  1
CONTENTFORMAT_BEGIN
 90
        0
 91
        0
 92
        4
 93
        0
300

 40
0.0
140
1.0
 94
        2
 62
     0
340
11
144
0.18
309
CONTENTFORMAT_END
171
     1
301
MARGIN
  1
CELLMARGIN_BEGIN
 40
0.06
 40
0.06
 40
0.06
 40
0.06
 40
0.06
 40
0.06
309
CELLMARGIN_END
 94
        6
 95
        1
302
GRIDFORMAT
  1
GRIDFORMAT_BEGIN
 90
        0
 91
        1
 62
     0
 92
       -2
340
14
 93
        0
 40
0.045
309
GRIDFORMAT_END
 95
        2
302
GRIDFORMAT
  1
GRIDFORMAT_BEGIN
 90
        0
 91
        1
 62
     0
 92
       -2
340
14
 93
        0
 40
0.045
309
GRIDFORMAT_END
 95
        4
302
GRIDFORMAT
  1
GRIDFORMAT_BEGIN
 90
        0
 91
        1
 62
     0
 92
       -2
340
14
 93
        0
 40
0.045
309
GRIDFORMAT_END
 95
        8
302
GRIDFORMAT
  1
GRIDFORMAT_BEGIN
 90
        0
 91
        1
 62
     0
 92
       -2
340
14
 93
        0
 40
0.045
309
GRIDFORMAT_END
 95
       16
302
GRIDFORMAT
  1
GRIDFORMAT_BEGIN
 90
        0
 91
        1
 62
     0
 92
       -2
340
14
 93
        0
 40
0.045
309
GRIDFORMAT_END
 95
       32
302
GRIDFORMAT
  1
GRIDFORMAT_BEGIN
 90
        0
 91
        1
 62
     0
 92
       -2
340
14
 93
        0
 40
0.045
309
GRIDFORMAT_END
309
TABLEFORMAT_END
  1
CELLSTYLE_BEGIN
 90
        3
 91
        2
300
_DATA
309
CELLSTYLE_END
  0
ENDSEC
  0
EOF
