  0
SECTION
  2
HEADER
  9
$ACADVER
  1
AC1027
  9
$ACADMAINTVER
 70
   105
  9
$DWGCODEPAGE
  3
ANSI_1252
  9
$LASTSAVEDBY
  1
Office Desk
  9
$REQUIREDVERSIONS
160
                 0
  9
$INSBASE
 10
0.0
 20
0.0
 30
0.0
  9
$EXTMIN
 10
211.1154
 20
-508.6673
 30
0.0
  9
$EXTMAX
 10
722.9714
 20
374.7019
 30
0.0
  9
$LIMMIN
 10
0.0
 20
0.0
  9
$LIMMAX
 10
12.0
 20
9.0
  9
$ORTHOMODE
 70
     0
  9
$REGENMODE
 70
     1
  9
$FILLMODE
 70
     1
  9
$QTEXTMODE
 70
     0
  9
$MIRRTEXT
 70
     1
  9
$LTSCALE
 40
1.0
  9
$ATTMODE
 70
     1
  9
$TEXTSIZE
 40
0.2
  9
$TRACEWID
 40
0.05
  9
$TEXTSTYLE
  7
Standard
  9
$CLAYER
  8
0
  9
$CELTYPE
  6
ByLayer
  9
$CECOLOR
 62
   256
  9
$CELTSCALE
 40
1.0
  9
$DISPSILH
 70
     0
  9
$DIMSCALE
 40
1.0
  9
$DIMASZ
 40
0.18
  9
$DIMEXO
 40
0.0625
  9
$DIMDLI
 40
0.38
  9
$DIMRND
 40
0.0
  9
$DIMDLE
 40
0.0
  9
$DIMEXE
 40
0.18
  9
$DIMTP
 40
0.0
  9
$DIMTM
 40
0.0
  9
$DIMTXT
 40
0.18
  9
$DIMCEN
 40
0.09
  9
$DIMTSZ
 40
0.0
  9
$DIMTOL
 70
     0
  9
$DIMLIM
 70
     0
  9
$DIMTIH
 70
     1
  9
$DIMTOH
 70
     1
  9
$DIMSE1
 70
     0
  9
$DIMSE2
 70
     0
  9
$DIMTAD
 70
     0
  9
$DIMZIN
 70
     0
  9
$DIMBLK
  1

  9
$DIMASO
 70
     1
  9
$DIMSHO
 70
     1
  9
$DIMPOST
  1

  9
$DIMAPOST
  1

  9
$DIMALT
 70
     0
  9
$DIMALTD
 70
     2
  9
$DIMALTF
 40
25.4
  9
$DIMLFAC
 40
1.0
  9
$DIMTOFL
 70
     0
  9
$DIMTVP
 40
0.0
  9
$DIMTIX
 70
     0
  9
$DIMSOXD
 70
     0
  9
$DIMSAH
 70
     0
  9
$DIMBLK1
  1

  9
$DIMBLK2
  1

  9
$DIMSTYLE
  2
Standard
  9
$DIMCLRD
 70
     0
  9
$DIMCLRE
 70
     0
  9
$DIMCLRT
 70
     0
  9
$DIMTFAC
 40
1.0
  9
$DIMGAP
 40
0.09
  9
$DIMJUST
 70
     0
  9
$DIMSD1
 70
     0
  9
$DIMSD2
 70
     0
  9
$DIMTOLJ
 70
     1
  9
$DIMTZIN
 70
     0
  9
$DIMALTZ
 70
     0
  9
$DIMALTTZ
 70
     0
  9
$DIMUPT
 70
     0
  9
$DIMDEC
 70
     4
  9
$DIMTDEC
 70
     4
  9
$DIMALTU
 70
     2
  9
$DIMALTTD
 70
     2
  9
$DIMTXSTY
  7
Standard
  9
$DIMAUNIT
 70
     0
  9
$DIMADEC
 70
     0
  9
$DIMALTRND
 40
0.0
  9
$DIMAZIN
 70
     0
  9
$DIMDSEP
 70
    46
  9
$DIMATFIT
 70
     3
  9
$DIMFRAC
 70
     0
  9
$DIMLDRBLK
  1

  9
$DIMLUNIT
 70
     2
  9
$DIMLWD
 70
    -2
  9
$DIMLWE
 70
    -2
  9
$DIMTMOVE
 70
     0
  9
$DIMFXL
 40
1.0
  9
$DIMFXLON
 70
     0
  9
$DIMJOGANG
 40
0.7853981633974483
  9
$DIMTFILL
 70
     0
  9
$DIMTFILLCLR
 70
     0
  9
$DIMARCSYM
 70
     0
  9
$DIMLTYPE
  6

  9
$DIMLTEX1
  6

  9
$DIMLTEX2
  6

  9
$DIMTXTDIRECTION
 70
     0
  9
$LUNITS
 70
     2
  9
$LUPREC
 70
     4
  9
$SKETCHINC
 40
0.1
  9
$FILLETRAD
 40
0.0
  9
$AUNITS
 70
     0
  9
$AUPREC
 70
     0
  9
$MENU
  1
.
  9
$ELEVATION
 40
0.0
  9
$PELEVATION
 40
0.0
  9
$THICKNESS
 40
0.0
  9
$LIMCHECK
 70
     0
  9
$CHAMFERA
 40
0.0
  9
$CHAMFERB
 40
0.0
  9
$CHAMFERC
 40
0.0
  9
$CHAMFERD
 40
0.0
  9
$SKPOLY
 70
     0
  9
$TDCREATE
 40
2461006.692785949
  9
$TDUCREATE
 40
2461006.463619283
  9
$TDUPDATE
 40
2461006.692785949
  9
$TDUUPDATE
 40
2461006.463619283
  9
$TDINDWG
 40
0.0000000116
  9
$TDUSRTIMER
 40
0.0000000116
  9
$USRTIMER
 70
     1
  9
$ANGBASE
 50
0.0
  9
$ANGDIR
 70
     0
  9
$PDMODE
 70
     0
  9
$PDSIZE
 40
0.0
  9
$PLINEWID
 40
0.0
  9
$SPLFRAME
 70
     0
  9
$SPLINETYPE
 70
     6
  9
$SPLINESEGS
 70
     8
  9
$HANDSEED
  5
83
  9
$SURFTAB1
 70
     6
  9
$SURFTAB2
 70
     6
  9
$SURFTYPE
 70
     6
  9
$SURFU
 70
     6
  9
$SURFV
 70
     6
  9
$UCSBASE
  2

  9
$UCSNAME
  2

  9
$UCSORG
 10
0.0
 20
0.0
 30
0.0
  9
$UCSXDIR
 10
1.0
 20
0.0
 30
0.0
  9
$UCSYDIR
 10
0.0
 20
1.0
 30
0.0
  9
$UCSORTHOREF
  2

  9
$UCSORTHOVIEW
 70
     0
  9
$UCSORGTOP
 10
0.0
 20
0.0
 30
0.0
  9
$UCSORGBOTTOM
 10
0.0
 20
0.0
 30
0.0
  9
$UCSORGLEFT
 10
0.0
 20
0.0
 30
0.0
  9
$UCSORGRIGHT
 10
0.0
 20
0.0
 30
0.0
  9
$UCSORGFRONT
 10
0.0
 20
0.0
 30
0.0
  9
$UCSORGBACK
 10
0.0
 20
0.0
 30
0.0
  9
$PUCSBASE
  2

  9
$PUCSNAME
  2

  9
$PUCSORG
 10
0.0
 20
0.0
 30
0.0
  9
$PUCSXDIR
 10
1.0
 20
0.0
 30
0.0
  9
$PUCSYDIR
 10
0.0
 20
1.0
 30
0.0
  9
$PUCSORTHOREF
  2

  9
$PUCSORTHOVIEW
 70
     0
  9
$PUCSORGTOP
 10
0.0
 20
0.0
 30
0.0
  9
$PUCSORGBOTTOM
 10
0.0
 20
0.0
 30
0.0
  9
$PUCSORGLEFT
 10
0.0
 20
0.0
 30
0.0
  9
$PUCSORGRIGHT
 10
0.0
 20
0.0
 30
0.0
  9
$PUCSORGFRONT
 10
0.0
 20
0.0
 30
0.0
  9
$PUCSORGBACK
 10
0.0
 20
0.0
 30
0.0
  9
$USERI1
 70
     0
  9
$USERI2
 70
     0
  9
$USERI3
 70
     0
  9
$USERI4
 70
     0
  9
$USERI5
 70
     0
  9
$USERR1
 40
0.0
  9
$USERR2
 40
0.0
  9
$USERR3
 40
0.0
  9
$USERR4
 40
0.0
  9
$USERR5
 40
0.0
  9
$WORLDVIEW
 70
     1
  9
$SHADEDGE
 70
     3
  9
$SHADEDIF
 70
    70
  9
$TILEMODE
 70
     1
  9
$MAXACTVP
 70
    64
  9
$PINSBASE
 10
0.0
 20
0.0
 30
0.0
  9
$PLIMCHECK
 70
     0
  9
$PEXTMIN
 10
1.000000000000000E+20
 20
1.000000000000000E+20
 30
1.000000000000000E+20
  9
$PEXTMAX
 10
-1.000000000000000E+20
 20
-1.000000000000000E+20
 30
-1.000000000000000E+20
  9
$PLIMMIN
 10
0.0
 20
0.0
  9
$PLIMMAX
 10
12.0
 20
9.0
  9
$UNITMODE
 70
     0
  9
$VISRETAIN
 70
     1
  9
$PLINEGEN
 70
     0
  9
$PSLTSCALE
 70
     1
  9
$TREEDEPTH
 70
  3020
  9
$CMLSTYLE
  2
Standard
  9
$CMLJUST
 70
     0
  9
$CMLSCALE
 40
1.0
  9
$PROXYGRAPHICS
 70
     1
  9
$MEASUREMENT
 70
     0
  9
$CELWEIGHT
370
    -1
  9
$ENDCAPS
280
     0
  9
$JOINSTYLE
280
     0
  9
$LWDISPLAY
290
     0
  9
$INSUNITS
 70
     4
  9
$HYPERLINKBASE
  1

  9
$STYLESHEET
  1

  9
$XEDIT
290
     1
  9
$CEPSNTYPE
380
     0
  9
$PSTYLEMODE
290
     1
  9
$FINGERPRINTGUID
  2
{b5d7fad3-2cfe-4671-a55d-2b2b4a13a2be}
  9
$VERSIONGUID
  2
{FAEB1C32-E019-11D5-929B-00C0DF256EC4}
  9
$EXTNAMES
290
     1
  9
$PSVPSCALE
 40
0.0
  9
$OLESTARTUP
290
     0
  9
$SORTENTS
280
   127
  9
$INDEXCTL
280
     0
  9
$HIDETEXT
280
     1
  9
$XCLIPFRAME
280
     2
  9
$HALOGAP
280
     0
  9
$OBSCOLOR
 70
   257
  9
$OBSLTYPE
280
     0
  9
$INTERSECTIONDISPLAY
280
     0
  9
$INTERSECTIONCOLOR
 70
   257
  9
$DIMASSOC
280
     2
  9
$PROJECTNAME
  1

  9
$CAMERADISPLAY
290
     0
  9
$LENSLENGTH
 40
50.0
  9
$CAMERAHEIGHT
 40
0.0
  9
$STEPSPERSEC
 40
2.0
  9
$STEPSIZE
 40
6.0
  9
$3DDWFPREC
 40
2.0
  9
$PSOLWIDTH
 40
0.25
  9
$PSOLHEIGHT
 40
4.0
  9
$LOFTANG1
 40
1.570796326794897
  9
$LOFTANG2
 40
1.570796326794897
  9
$LOFTMAG1
 40
0.0
  9
$LOFTMAG2
 40
0.0
  9
$LOFTPARAM
 70
     7
  9
$LOFTNORMALS
280
     1
  9
$LATITUDE
 40
37.795
  9
$LONGITUDE
 40
-122.394
  9
$NORTHDIRECTION
 40
0.0
  9
$TIMEZONE
 70
 -8000
  9
$LIGHTGLYPHDISPLAY
280
     1
  9
$TILEMODELIGHTSYNCH
280
     1
  9
$CMATERIAL
347
44
  9
$SOLIDHIST
280
     0
  9
$SHOWHIST
280
     1
  9
$DWFFRAME
280
     2
  9
$DGNFRAME
280
     2
  9
$REALWORLDSCALE
290
     1
  9
$INTERFERECOLOR
 62
   256
  9
$CSHADOW
280
     0
  9
$SHADOWPLANELOCATION
 40
0.0
  0
ENDSEC
  0
SECTION
  2
CLASSES
  0
CLASS
  1
ACDBDICTIONARYWDFLT
  2
AcDbDictionaryWithDefault
  3
ObjectDBX Classes
 90
        0
 91
        3
280
     0
281
     0
  0
CLASS
  1
VISUALSTYLE
  2
AcDbVisualStyle
  3
ObjectDBX Classes
 90
     4095
 91
        3
280
     0
281
     0
  0
CLASS
  1
MATERIAL
  2
AcDbMaterial
  3
ObjectDBX Classes
 90
     1153
 91
        3
280
     0
281
     0
  0
CLASS
  1
SCALE
  2
AcDbScale
  3
ObjectDBX Classes
 90
     1153
 91
        3
280
     0
281
     0
  0
CLASS
  1
TABLESTYLE
  2
AcDbTableStyle
  3
ObjectDBX Classes
 90
     4095
 91
        3
280
     0
281
     0
  0
CLASS
  1
MLEADERSTYLE
  2
AcDbMLeaderStyle
  3
ACDB_MLEADERSTYLE_CLASS
 90
     4095
 91
        3
280
     0
281
     0
  0
CLASS
  1
SUN
  2
AcDbSun
  3
SCENEOE
 90
     1153
 91
        3
280
     0
281
     0
  0
CLASS
  1
DICTIONARYVAR
  2
AcDbDictionaryVar
  3
ObjectDBX Classes
 90
        0
 91
        3
280
     0
281
     0
  0
CLASS
  1
CELLSTYLEMAP
  2
AcDbCellStyleMap
  3
ObjectDBX Classes
 90
     1152
 91
        3
280
     0
281
     0
  0
ENDSEC
  0
SECTION
  2
TABLES
  0
TABLE
  2
VPORT
  5
8
330
0
100
AcDbSymbolTable
 70
     1
  0
VPORT
  5
29
330
8
100
AcDbSymbolTableRecord
100
AcDbViewportTableRecord
  2
*Active
 70
     0
 10
0.0
 20
0.0
 11
1.0
 21
1.0
 12
10.42990654205607
 22
4.5
 13
0.0
 23
0.0
 14
0.5
 24
0.5
 15
0.5
 25
0.5
 16
0.0
 26
0.0
 36
1.0
 17
0.0
 27
0.0
 37
0.0
 40
9.0
 41
1.972972972850329
 42
50.0
 43
0.0
 44
0.0
 50
0.0
 51
0.0
 71
     0
 72
   100
 73
     1
 74
     3
 75
     0
 76
     0
 77
     0
 78
     0
281
     0
 65
     1
110
0.0
120
0.0
130
0.0
111
1.0
121
0.0
131
0.0
112
0.0
122
1.0
132
0.0
 79
     0
146
0.0
348
2F
 60
     3
 61
     5
292
     1
282
     1
141
0.0
142
0.0
 63
   250
361
5D
  0
ENDTAB
  0
TABLE
  2
LTYPE
  5
5
330
0
100
AcDbSymbolTable
 70
     1
  0
LTYPE
  5
14
330
5
100
AcDbSymbolTableRecord
100
AcDbLinetypeTableRecord
  2
ByBlock
 70
     0
  3

 72
    65
 73
     0
 40
0.0
  0
LTYPE
  5
15
330
5
100
AcDbSymbolTableRecord
100
AcDbLinetypeTableRecord
  2
ByLayer
 70
     0
  3

 72
    65
 73
     0
 40
0.0
  0
LTYPE
  5
16
330
5
100
AcDbSymbolTableRecord
100
AcDbLinetypeTableRecord
  2
Continuous
 70
     0
  3
Solid line
 72
    65
 73
     0
 40
0.0
  0
ENDTAB
  0
TABLE
  2
LAYER
  5
2
330
0
100
AcDbSymbolTable
 70
     2
  0
LAYER
  5
10
330
2
100
AcDbSymbolTableRecord
100
AcDbLayerTableRecord
  2
0
 70
     0
 62
     7
  6
Continuous
370
    -3
390
F
347
46
348
0
  0
LAYER
  5
5F
330
2
100
AcDbSymbolTableRecord
100
AcDbLayerTableRecord
  2
Layer 1
 70
     0
 62
     7
  6
Continuous
370
    -3
390
F
347
46
348
0
  0
ENDTAB
  0
TABLE
  2
STYLE
  5
3
330
0
100
AcDbSymbolTable
 70
     1
  0
STYLE
  5
11
330
3
100
AcDbSymbolTableRecord
100
AcDbTextStyleTableRecord
  2
Standard
 70
     0
 40
0.0
 41
1.0
 50
0.0
 71
     0
 42
0.2
  3
txt
  4

  0
ENDTAB
  0
TABLE
  2
VIEW
  5
6
330
0
100
AcDbSymbolTable
 70
     0
  0
ENDTAB
  0
TABLE
  2
UCS
  5
7
330
0
100
AcDbSymbolTable
 70
     0
  0
ENDTAB
  0
TABLE
  2
APPID
  5
9
330
0
100
AcDbSymbolTable
 70
     2
  0
APPID
  5
12
330
9
100
AcDbSymbolTableRecord
100
AcDbRegAppTableRecord
  2
ACAD
 70
     0
  0
APPID
  5
5E
330
9
100
AcDbSymbolTableRecord
100
AcDbRegAppTableRecord
  2
ODA
 70
     0
  0
ENDTAB
  0
TABLE
  2
DIMSTYLE
  5
A
330
0
100
AcDbSymbolTable
 70
     1
100
AcDbDimStyleTable
  0
DIMSTYLE
105
27
330
A
100
AcDbSymbolTableRecord
100
AcDbDimStyleTableRecord
  2
Standard
 70
     0
178
     0
340
11
  0
ENDTAB
  0
TABLE
  2
BLOCK_RECORD
  5
1
330
0
100
AcDbSymbolTable
 70
     1
  0
BLOCK_RECORD
  5
1F
330
1
100
AcDbSymbolTableRecord
100
AcDbBlockTableRecord
  2
*Model_Space
340
22
 70
     0
280
     1
281
     0
  0
BLOCK_RECORD
  5
1B
330
1
100
AcDbSymbolTableRecord
100
AcDbBlockTableRecord
  2
*Paper_Space
340
1E
 70
     0
280
     1
281
     0
  0
BLOCK_RECORD
  5
23
330
1
100
AcDbSymbolTableRecord
100
AcDbBlockTableRecord
  2
*Paper_Space0
340
26
 70
     0
280
     1
281
     0
  0
ENDTAB
  0
ENDSEC
  0
SECTION
  2
BLOCKS
  0
BLOCK
  5
20
330
1F
100
AcDbEntity
  8
0
100
AcDbBlockBegin
  2
*Model_Space
 70
     0
 10
0.0
 20
0.0
 30
0.0
  3
*Model_Space
  1

  0
ENDBLK
  5
21
330
1F
100
AcDbEntity
  8
0
100
AcDbBlockEnd
  0
BLOCK
  5
1C
330
1B
100
AcDbEntity
 67
     1
  8
0
100
AcDbBlockBegin
  2
*Paper_Space
 70
     0
 10
0.0
 20
0.0
 30
0.0
  3
*Paper_Space
  1

  0
ENDBLK
  5
1D
330
1B
100
AcDbEntity
 67
     1
  8
0
100
AcDbBlockEnd
  0
BLOCK
  5
24
330
23
100
AcDbEntity
  8
0
100
AcDbBlockBegin
  2
*Paper_Space0
 70
     0
 10
0.0
 20
0.0
 30
0.0
  3
*Paper_Space0
  1

  0
ENDBLK
  5
25
330
23
100
AcDbEntity
  8
0
100
AcDbBlockEnd
  0
ENDSEC
  0
SECTION
  2
ENTITIES
  0
LWPOLYLINE
  5
60
330
1F
100
AcDbEntity
  8
Layer 1
 62
   250
370
    18
100
AcDbPolyline
 90
        5
 70
     1
 43
0.0
 10
211.2036
 20
-508.5791
 10
722.8832
 20
-508.5791
 10
722.8832
 20
374.6137
 10
211.2036
 20
374.6137
 10
211.2036
 20
-508.5791
  0
LWPOLYLINE
  5
61
330
1F
100
AcDbEntity
  8
Layer 1
 62
     7
370
    18
100
AcDbPolyline
 90
       33
 70
     1
 43
0.0
 10
426.1517
 20
297.5958
 10
456.8034
 20
296.5498
 10
485.346
 20
295.2008
 10
511.1683
 20
293.6042
 10
533.6595
 20
291.8152
 10
552.2083
 20
289.8891
 10
566.204
 20
287.8813
 10
575.0353
 20
285.8471
 10
578.0914
 20
283.8418
 10
574.967
 20
282.0086
 10
566.0721
 20
280.4674
 10
552.0189
 20
279.2396
 10
533.42
 20
278.3465
 10
510.8876
 20
277.8094
 10
485.034
 20
277.6497
 10
456.4717
 20
277.8886
 10
425.813
 20
278.5476
 10
395.3094
 20
279.3817
 10
367.1578
 20
280.1726
 10
341.8883
 20
280.9803
 10
320.0309
 20
281.865
 10
302.1157
 20
282.8868
 10
288.6729
 20
284.1059
 10
280.2325
 20
285.5823
 10
277.3246
 20
287.3762
 10
280.3009
 20
289.4212
 10
288.805
 20
291.5204
 10
302.3054
 20
293.537
 10
320.2707
 20
295.3342
 10
342.1695
 20
296.7754
 10
367.4702
 20
297.7239
 10
395.6414
 20
298.0429
 10
426.1517
 20
297.5958
  0
LWPOLYLINE
  5
62
330
1F
100
AcDbEntity
  8
Layer 1
 62
     7
370
    18
100
AcDbPolyline
 90
        2
 70
     0
 43
0.0
 10
277.3246
 20
287.3762
 10
278.2114
 20
-391.3955
  0
LWPOLYLINE
  5
63
330
1F
100
AcDbEntity
  8
Layer 1
 62
     7
370
    18
100
AcDbPolyline
 90
        2
 70
     0
 43
0.0
 10
565.539
 20
-386.8406
 10
566.7056
 20
-367.8558
  0
LWPOLYLINE
  5
64
330
1F
100
AcDbEntity
  8
Layer 1
 62
     7
370
    18
100
AcDbPolyline
 90
       26
 70
     0
 43
0.0
 10
577.6524
 20
283.1346
 10
565.5331
 20
-386.85
 10
564.0179
 20
-398.6289
 10
559.2271
 20
-412.4132
 10
550.8094
 20
-427.2839
 10
538.4129
 20
-442.322
 10
521.6863
 20
-456.6087
 10
500.2779
 20
-469.2251
 10
473.8362
 20
-479.2522
 10
442.0095
 20
-485.7711
 10
408.8577
 20
-486.6661
 10
378.9227
 20
-481.6281
 10
352.5753
 20
-472.449
 10
330.1866
 20
-460.9206
 10
312.1274
 20
-448.8349
 10
298.7688
 20
-437.9838
 10
290.4815
 20
-430.159
 10
287.6367
 20
-427.1526
 10
284.4763
 20
-420.1677
 10
282.0972
 20
-413.1011
 10
280.3757
 20
-405.9227
 10
279.1882
 20
-398.602
 10
278.4113
 20
-391.1086
 10
277.9212
 20
-383.4123
 10
277.5945
 20
-375.4827
 10
277.3075
 20
-367.2895
  0
LWPOLYLINE
  5
65
330
1F
100
AcDbEntity
  8
Layer 1
 62
     7
100
AcDbPolyline
 90
       65
 70
     1
 43
0.0
 10
614.25
 20
-55.025
 10
614.6319
 20
-55.0485
 10
614.9988
 20
-55.1192
 10
615.3509
 20
-55.2369
 10
615.688
 20
-55.4016
 10
616.0103
 20
-55.6134
 10
616.3177
 20
-55.8723
 10
616.6102
 20
-56.1782
 10
616.8878
 20
-56.5311
 10
617.1382
 20
-56.9137
 10
617.3551
 20
-57.3182
 10
617.5386
 20
-57.7445
 10
617.6887
 20
-58.1926
 10
617.8055
 20
-58.6625
 10
617.8888
 20
-59.1542
 10
617.9388
 20
-59.6676
 10
617.9555
 20
-60.2029
 10
617.939
 20
-60.7335
 10
617.8896
 20
-61.2464
 10
617.8072
 20
-61.7413
 10
617.6919
 20
-62.2185
 10
617.5436
 20
-62.6778
 10
617.3623
 20
-63.1193
 10
617.148
 20
-63.543
 10
616.9007
 20
-63.9488
 10
616.6299
 20
-64.3191
 10
616.3418
 20
-64.64
 10
616.0364
 20
-64.9115
 10
615.7138
 20
-65.1335
 10
615.3738
 20
-65.3062
 10
615.0165
 20
-65.4295
 10
614.6419
 20
-65.5034
 10
614.25
 20
-65.5281
 10
613.8582
 20
-65.5034
 10
613.4837
 20
-65.4295
 10
613.1265
 20
-65.3062
 10
612.7865
 20
-65.1335
 10
612.4639
 20
-64.9115
 10
612.1585
 20
-64.64
 10
611.8705
 20
-64.3191
 10
611.5998
 20
-63.9488
 10
611.3525
 20
-63.543
 10
611.1382
 20
-63.1193
 10
610.9568
 20
-62.6778
 10
610.8084
 20
-62.2185
 10
610.693
 20
-61.7413
 10
610.6105
 20
-61.2464
 10
610.561
 20
-60.7335
 10
610.5445
 20
-60.2029
 10
610.5612
 20
-59.6676
 10
610.6113
 20
-59.1542
 10
610.6947
 20
-58.6625
 10
610.8115
 20
-58.1926
 10
610.9617
 20
-57.7445
 10
611.1452
 20
-57.3182
 10
611.362
 20
-56.9137
 10
611.6122
 20
-56.5311
 10
611.8898
 20
-56.1782
 10
612.1824
 20
-55.8723
 10
612.4898
 20
-55.6134
 10
612.8122
 20
-55.4016
 10
613.1493
 20
-55.2369
 10
613.5014
 20
-55.1192
 10
613.8683
 20
-55.0485
 10
614.25
 20
-55.025
  0
LWPOLYLINE
  5
66
330
1F
100
AcDbEntity
  8
Layer 1
 62
     7
100
AcDbPolyline
 90
       65
 70
     1
 43
0.0
 10
614.25
 20
-44.8896
 10
614.5579
 20
-44.9079
 10
614.854
 20
-44.963
 10
615.1385
 20
-45.0547
 10
615.4113
 20
-45.1831
 10
615.6724
 20
-45.3483
 10
615.9219
 20
-45.5502
 10
616.1598
 20
-45.7888
 10
616.386
 20
-46.0642
 10
616.597
 20
-46.3738
 10
616.78
 20
-46.7012
 10
616.9348
 20
-47.0464
 10
617.0615
 20
-47.4094
 10
617.1601
 20
-47.7902
 10
617.2305
 20
-48.1888
 10
617.2728
 20
-48.6052
 10
617.2869
 20
-49.0393
 10
617.2728
 20
-49.4638
 10
617.2305
 20
-49.8745
 10
617.1601
 20
-50.2715
 10
617.0615
 20
-50.6548
 10
616.9348
 20
-51.0244
 10
616.78
 20
-51.3802
 10
616.597
 20
-51.7223
 10
616.386
 20
-52.0507
 10
616.1613
 20
-52.3433
 10
615.9245
 20
-52.5968
 10
615.6756
 20
-52.8114
 10
615.4146
 20
-52.987
 10
615.1415
 20
-53.1236
 10
614.8564
 20
-53.2212
 10
614.5592
 20
-53.2798
 10
614.25
 20
-53.2993
 10
613.9408
 20
-53.2798
 10
613.6436
 20
-53.2212
 10
613.3585
 20
-53.1236
 10
613.0855
 20
-52.987
 10
612.8246
 20
-52.8114
 10
612.5757
 20
-52.5968
 10
612.3388
 20
-52.3433
 10
612.1139
 20
-52.0507
 10
611.9029
 20
-51.7223
 10
611.72
 20
-51.3802
 10
611.5653
 20
-51.0244
 10
611.4387
 20
-50.6548
 10
611.3402
 20
-50.2715
 10
611.2699
 20
-49.8745
 10
611.2277
 20
-49.4638
 10
611.2136
 20
-49.0393
 10
611.2277
 20
-48.6052
 10
611.2699
 20
-48.1888
 10
611.3402
 20
-47.7902
 10
611.4387
 20
-47.4094
 10
611.5653
 20
-47.0464
 10
611.72
 20
-46.7012
 10
611.9029
 20
-46.3738
 10
612.1139
 20
-46.0642
 10
612.3402
 20
-45.7888
 10
612.5781
 20
-45.5502
 10
612.8277
 20
-45.3483
 10
613.0889
 20
-45.1831
 10
613.3618
 20
-45.0547
 10
613.6462
 20
-44.963
 10
613.9423
 20
-44.9079
 10
614.25
 20
-44.8896
  0
LWPOLYLINE
  5
67
330
1F
100
AcDbEntity
  8
Layer 1
 62
     7
100
AcDbPolyline
 90
      121
 70
     1
 43
0.0
 10
614.25
 20
-68.0986
 10
614.8397
 20
-68.0668
 10
615.4057
 20
-67.9713
 10
615.9479
 20
-67.8121
 10
616.4664
 20
-67.5892
 10
616.9612
 20
-67.3027
 10
617.4323
 20
-66.9524
 10
617.8797
 20
-66.5384
 10
618.3034
 20
-66.0607
 10
618.4943
 20
-65.8111
 10
618.6747
 20
-65.5489
 10
618.8447
 20
-65.2741
 10
619.0043
 20
-64.9867
 10
619.1534
 20
-64.6866
 10
619.2922
 20
-64.3739
 10
619.4205
 20
-64.0486
 10
619.5385
 20
-63.7107
 10
619.644
 20
-63.3599
 10
619.7354
 20
-62.9965
 10
619.8127
 20
-62.6206
 10
619.876
 20
-62.2321
 10
619.9252
 20
-61.831
 10
619.9603
 20
-61.4173
 10
619.9814
 20
-60.991
 10
619.9884
 20
-60.5521
 10
619.9765
 20
-60.1075
 10
619.941
 20
-59.6639
 10
619.8817
 20
-59.2215
 10
619.7987
 20
-58.7803
 10
619.692
 20
-58.3401
 10
619.5615
 20
-57.9012
 10
619.4074
 20
-57.4633
 10
619.2296
 20
-57.0267
 10
619.0294
 20
-56.6007
 10
618.8088
 20
-56.1947
 10
618.5677
 20
-55.8088
 10
618.3062
 20
-55.4429
 10
618.0242
 20
-55.0971
 10
617.7217
 20
-54.7714
 10
617.3987
 20
-54.4658
 10
617.0552
 20
-54.1803
 10
617.5438
 20
-53.5587
 10
617.9671
 20
-52.9239
 10
618.3254
 20
-52.2758
 10
618.6184
 20
-51.6145
 10
618.8464
 20
-50.94
 10
619.0092
 20
-50.2523
 10
619.1068
 20
-49.5515
 10
619.1394
 20
-48.8374
 10
619.1171
 20
-48.1328
 10
619.0502
 20
-47.4611
 10
618.9386
 20
-46.8221
 10
618.7825
 20
-46.2158
 10
618.5817
 20
-45.6423
 10
618.3362
 20
-45.1015
 10
618.0461
 20
-44.5934
 10
617.7114
 20
-44.118
 10
617.3575
 20
-43.7048
 10
616.9811
 20
-43.3467
 10
616.5821
 20
-43.0437
 10
616.1607
 20
-42.7959
 10
615.7168
 20
-42.6031
 10
615.2504
 20
-42.4654
 10
614.7614
 20
-42.3828
 10
614.25
 20
-42.3553
 10
613.7386
 20
-42.3828
 10
613.2497
 20
-42.4654
 10
612.7833
 20
-42.6031
 10
612.3394
 20
-42.7959
 10
611.918
 20
-43.0437
 10
611.5192
 20
-43.3467
 10
611.1429
 20
-43.7048
 10
610.7892
 20
-44.118
 10
610.4544
 20
-44.5932
 10
610.1643
 20
-45.1004
 10
609.9187
 20
-45.6398
 10
609.7178
 20
-46.2113
 10
609.5615
 20
-46.815
 10
609.4499
 20
-47.4508
 10
609.3829
 20
-48.1187
 10
609.3606
 20
-48.8189
 10
609.3932
 20
-49.5374
 10
609.4909
 20
-50.2421
 10
609.6538
 20
-50.933
 10
609.8819
 20
-51.61
 10
610.175
 20
-52.2733
 10
610.5334
 20
-52.9228
 10
610.9568
 20
-53.5584
 10
611.4454
 20
-54.1803
 10
611.1017
 20
-54.4658
 10
610.7785
 20
-54.7714
 10
610.4759
 20
-55.0971
 10
610.1938
 20
-55.4429
 10
609.9322
 20
-55.8088
 10
609.6911
 20
-56.1947
 10
609.4705
 20
-56.6007
 10
609.2704
 20
-57.0267
 10
609.0925
 20
-57.4642
 10
608.9384
 20
-57.9046
 10
608.808
 20
-58.3479
 10
608.7013
 20
-58.794
 10
608.6183
 20
-59.243
 10
608.559
 20
-59.6948
 10
608.5235
 20
-60.1494
 10
608.5116
 20
-60.6068
 10
608.5379
 20
-61.4272
 10
608.617
 20
-62.2079
 10
608.7486
 20
-62.9491
 10
608.933
 20
-63.6506
 10
609.1701
 20
-64.3124
 10
609.4598
 20
-64.9348
 10
609.8021
 20
-65.5175
 10
610.1972
 20
-66.0607
 10
610.6207
 20
-66.5384
 10
611.068
 20
-66.9524
 10
611.539
 20
-67.3027
 10
612.0337
 20
-67.5892
 10
612.5521
 20
-67.8121
 10
613.0943
 20
-67.9713
 10
613.6603
 20
-68.0668
 10
614.25
 20
-68.0986
  0
LWPOLYLINE
  5
68
330
1F
100
AcDbEntity
  8
Layer 1
 62
     7
100
AcDbPolyline
 90
      136
 70
     1
 43
0.0
 10
625.6242
 20
-52.0137
 10
626.8081
 20
-45.3296
 10
633.1384
 20
-45.3296
 10
633.1384
 20
-42.7592
 10
625.4438
 20
-42.7592
 10
623.4368
 20
-53.9598
 10
625.3925
 20
-55.2084
 10
625.6761
 20
-54.933
 10
625.9738
 20
-54.6944
 10
626.2856
 20
-54.4925
 10
626.6115
 20
-54.3274
 10
626.9514
 20
-54.1989
 10
627.3054
 20
-54.1072
 10
627.6735
 20
-54.0521
 10
628.0556
 20
-54.0338
 10
628.4401
 20
-54.0607
 10
628.8116
 20
-54.1416
 10
629.1703
 20
-54.2763
 10
629.5162
 20
-54.465
 10
629.8491
 20
-54.7077
 10
630.1691
 20
-55.0043
 10
630.4763
 20
-55.3549
 10
630.7706
 20
-55.7595
 10
631.0481
 20
-56.2108
 10
631.2887
 20
-56.6788
 10
631.4921
 20
-57.1634
 10
631.6586
 20
-57.6647
 10
631.7881
 20
-58.1826
 10
631.8805
 20
-58.7171
 10
631.936
 20
-59.2683
 10
631.9545
 20
-59.8361
 10
631.9356
 20
-60.4235
 10
631.8789
 20
-60.9873
 10
631.7844
 20
-61.5275
 10
631.6521
 20
-62.0442
 10
631.4821
 20
-62.5374
 10
631.2742
 20
-63.007
 10
631.0286
 20
-63.453
 10
630.7453
 20
-63.8756
 10
630.601
 20
-64.0635
 10
630.4516
 20
-64.2417
 10
630.2969
 20
-64.4102
 10
630.1371
 20
-64.5689
 10
629.972
 20
-64.7178
 10
629.8017
 20
-64.857
 10
629.6261
 20
-64.9862
 10
629.4453
 20
-65.1057
 10
629.2568
 20
-65.2134
 10
629.0578
 20
-65.3067
 10
628.8484
 20
-65.3857
 10
628.6285
 20
-65.4503
 10
628.3981
 20
-65.5005
 10
628.1573
 20
-65.5364
 10
627.9059
 20
-65.5579
 10
627.6441
 20
-65.5651
 10
627.3774
 20
-65.549
 10
627.1111
 20
-65.5008
 10
626.8451
 20
-65.4204
 10
626.5795
 20
-65.3079
 10
626.3142
 20
-65.1633
 10
626.0494
 20
-64.9866
 10
625.785
 20
-64.7778
 10
625.521
 20
-64.537
 10
625.2669
 20
-64.2701
 10
625.032
 20
-63.9837
 10
624.8165
 20
-63.6778
 10
624.6203
 20
-63.3524
 10
624.4434
 20
-63.0075
 10
624.2859
 20
-62.643
 10
624.1477
 20
-62.259
 10
624.0288
 20
-61.8554
 10
622.2789
 20
-62.664
 10
622.4508
 20
-63.2685
 10
622.6512
 20
-63.8425
 10
622.8802
 20
-64.3861
 10
623.1377
 20
-64.8993
 10
623.4238
 20
-65.382
 10
623.7384
 20
-65.8344
 10
624.0816
 20
-66.2564
 10
624.4533
 20
-66.648
 10
624.8486
 20
-67.0053
 10
625.2527
 20
-67.315
 10
625.6656
 20
-67.5771
 10
626.0873
 20
-67.7915
 10
626.5179
 20
-67.9582
 10
626.9573
 20
-68.0773
 10
627.4056
 20
-68.1488
 10
627.8628
 20
-68.1726
 10
628.472
 20
-68.1333
 10
629.0578
 20
-68.0153
 10
629.6204
 20
-67.8188
 10
630.1595
 20
-67.5436
 10
630.6754
 20
-67.1898
 10
631.1679
 20
-66.7574
 10
631.6371
 20
-66.2465
 10
632.083
 20
-65.6569
 10
632.4872
 20
-65.0167
 10
632.8375
 20
-64.345
 10
633.1339
 20
-63.6419
 10
633.3764
 20
-62.9072
 10
633.5651
 20
-62.1409
 10
633.6998
 20
-61.3431
 10
633.7807
 20
-60.5137
 10
633.8076
 20
-59.6527
 10
633.781
 20
-58.7962
 10
633.7014
 20
-57.9758
 10
633.5686
 20
-57.1917
 10
633.3828
 20
-56.4437
 10
633.1439
 20
-55.7319
 10
632.852
 20
-55.0563
 10
632.507
 20
-54.4168
 10
632.109
 20
-53.8134
 10
631.9055
 20
-53.5451
 10
631.694
 20
-53.2912
 10
631.4744
 20
-53.0517
 10
631.2468
 20
-52.8265
 10
631.0111
 20
-52.6156
 10
630.7674
 20
-52.4191
 10
630.5157
 20
-52.237
 10
630.2559
 20
-52.0692
 10
629.991
 20
-51.9184
 10
629.7237
 20
-51.7877
 10
629.4541
 20
-51.6772
 10
629.1823
 20
-51.5869
 10
628.9083
 20
-51.5166
 10
628.632
 20
-51.4665
 10
628.3537
 20
-51.4364
 10
628.0733
 20
-51.4264
 10
627.7873
 20
-51.4356
 10
627.4956
 20
-51.4631
 10
627.1982
 20
-51.5091
 10
626.8951
 20
-51.5733
 10
626.5862
 20
-51.6559
 10
626.2715
 20
-51.7569
 10
625.9508
 20
-51.8761
 10
625.6242
 20
-52.0137
  0
LWPOLYLINE
  5
69
330
1F
100
AcDbEntity
  8
Layer 1
 62
     7
100
AcDbPolyline
 90
      129
 70
     1
 43
0.0
 10
643.7791
 20
-45.6603
 10
644.0762
 20
-45.9483
 10
644.3532
 20
-46.2754
 10
644.6101
 20
-46.6415
 10
644.847
 20
-47.0467
 10
645.0637
 20
-47.4909
 10
645.2603
 20
-47.9741
 10
645.4369
 20
-48.4964
 10
645.5933
 20
-49.0578
 10
645.7682
 20
-49.8022
 10
645.9199
 20
-50.5575
 10
646.0481
 20
-51.3237
 10
646.1531
 20
-52.1008
 10
646.2347
 20
-52.8889
 10
646.2931
 20
-53.6879
 10
646.328
 20
-54.4978
 10
646.3397
 20
-55.3187
 10
646.3385
 20
-55.5158
 10
646.3348
 20
-55.7216
 10
646.3288
 20
-55.936
 10
646.3203
 20
-56.159
 10
646.3094
 20
-56.3906
 10
646.2962
 20
-56.6308
 10
646.2805
 20
-56.8796
 10
646.2625
 20
-57.1369
 10
646.1732
 20
-58.1241
 10
646.0565
 20
-59.0567
 10
645.9125
 20
-59.9349
 10
645.7412
 20
-60.7586
 10
645.5425
 20
-61.5278
 10
645.3165
 20
-62.2426
 10
645.0632
 20
-62.9029
 10
644.7826
 20
-63.5088
 10
644.5266
 20
-63.9649
 10
644.2568
 20
-64.3602
 10
643.9734
 20
-64.6947
 10
643.6763
 20
-64.9684
 10
643.3655
 20
-65.1812
 10
643.0411
 20
-65.3333
 10
642.703
 20
-65.4245
 10
642.3512
 20
-65.4549
 10
641.9585
 20
-65.4248
 10
641.5846
 20
-65.3344
 10
641.2297
 20
-65.1837
 10
640.8937
 20
-64.9728
 10
640.5766
 20
-64.7016
 10
640.2784
 20
-64.3702
 10
639.9991
 20
-63.9785
 10
639.7387
 20
-63.5265
 10
639.6286
 20
-63.3075
 10
639.5233
 20
-63.0816
 10
639.4228
 20
-62.8487
 10
639.3271
 20
-62.6089
 10
639.2363
 20
-62.3622
 10
639.1503
 20
-62.1085
 10
639.0692
 20
-61.8479
 10
638.9929
 20
-61.5803
 10
638.9211
 20
-61.3087
 10
638.8536
 20
-61.0354
 10
638.7907
 20
-60.7603
 10
638.7321
 20
-60.4835
 10
638.678
 20
-60.2048
 10
638.6284
 20
-59.9244
 10
638.5832
 20
-59.6422
 10
638.5425
 20
-59.3582
 10
638.5052
 20
-59.0748
 10
638.4708
 20
-58.7937
 10
638.4393
 20
-58.515
 10
638.4106
 20
-58.2385
 10
638.3847
 20
-57.9644
 10
638.3616
 20
-57.6925
 10
638.3412
 20
-57.4228
 10
638.3237
 20
-57.1554
 10
638.3086
 20
-56.884
 10
638.2955
 20
-56.6023
 10
638.2845
 20
-56.3104
 10
638.2755
 20
-56.0084
 10
638.2685
 20
-55.6964
 10
638.2635
 20
-55.3745
 10
638.2605
 20
-55.0427
 10
638.2595
 20
-54.7011
 10
638.2639
 20
-54.344
 10
638.2772
 20
-53.9663
 10
638.2993
 20
-53.5678
 10
638.3302
 20
-53.1484
 10
638.37
 20
-52.7081
 10
638.4187
 20
-52.2467
 10
638.4762
 20
-51.7643
 10
638.5425
 20
-51.2606
 10
638.583
 20
-50.981
 10
638.6276
 20
-50.702
 10
638.6763
 20
-50.4235
 10
638.729
 20
-50.1456
 10
638.7857
 20
-49.8682
 10
638.8465
 20
-49.5913
 10
638.9112
 20
-49.315
 10
638.98
 20
-49.0393
 10
639.0533
 20
-48.7673
 10
639.1319
 20
-48.5022
 10
639.2156
 20
-48.2439
 10
639.3047
 20
-47.9926
 10
639.3989
 20
-47.7481
 10
639.4985
 20
-47.5105
 10
639.6033
 20
-47.2799
 10
639.7134
 20
-47.0562
 10
639.8288
 20
-46.8411
 10
639.9497
 20
-46.637
 10
640.0764
 20
-46.4438
 10
640.2086
 20
-46.2616
 10
640.3465
 20
-46.0903
 10
640.4901
 20
-45.9299
 10
640.6393
 20
-45.7804
 10
640.7941
 20
-45.6418
 10
640.9554
 20
-45.517
 10
641.1239
 20
-45.4088
 10
641.2996
 20
-45.3172
 10
641.4825
 20
-45.2423
 10
641.6727
 20
-45.1841
 10
641.87
 20
-45.1425
 10
642.0746
 20
-45.1175
 10
642.2863
 20
-45.1092
 10
642.4983
 20
-45.1178
 10
642.703
 20
-45.1437
 10
642.9005
 20
-45.1869
 10
643.0907
 20
-45.2472
 10
643.2737
 20
-45.3247
 10
643.4494
 20
-45.4194
 10
643.6179
 20
-45.5313
 10
643.7791
 20
-45.6603
  0
LWPOLYLINE
  5
6A
330
1F
100
AcDbEntity
  8
Layer 1
 62
     7
100
AcDbPolyline
 90
       65
 70
     1
 43
0.0
 10
642.3765
 20
-68.0624
 10
643.1278
 20
-67.9944
 10
643.8312
 20
-67.7904
 10
644.4868
 20
-67.4504
 10
645.0946
 20
-66.9745
 10
645.6545
 20
-66.3625
 10
646.1666
 20
-65.6146
 10
646.6308
 20
-64.7306
 10
647.0472
 20
-63.7107
 10
647.3397
 20
-62.8206
 10
647.5932
 20
-61.8812
 10
647.8077
 20
-60.8924
 10
647.9832
 20
-59.8543
 10
648.1197
 20
-58.7669
 10
648.2173
 20
-57.6301
 10
648.2758
 20
-56.4439
 10
648.2953
 20
-55.2084
 10
648.2758
 20
-53.9732
 10
648.2173
 20
-52.7872
 10
648.1197
 20
-51.6506
 10
647.9832
 20
-50.5633
 10
647.8077
 20
-49.5253
 10
647.5932
 20
-48.5365
 10
647.3397
 20
-47.5971
 10
647.0472
 20
-46.707
 10
646.6308
 20
-45.6871
 10
646.1666
 20
-44.8031
 10
645.6545
 20
-44.0552
 10
645.0946
 20
-43.4432
 10
644.4868
 20
-42.9673
 10
643.8312
 20
-42.6273
 10
643.1278
 20
-42.4233
 10
642.3765
 20
-42.3553
 10
641.6253
 20
-42.4233
 10
640.9219
 20
-42.6273
 10
640.2663
 20
-42.9673
 10
639.6585
 20
-43.4432
 10
639.0986
 20
-44.0552
 10
638.5865
 20
-44.8031
 10
638.1223
 20
-45.6871
 10
637.7059
 20
-46.707
 10
637.4134
 20
-47.5971
 10
637.1599
 20
-48.5365
 10
636.9454
 20
-49.5253
 10
636.7698
 20
-50.5633
 10
636.6333
 20
-51.6506
 10
636.5357
 20
-52.7872
 10
636.4772
 20
-53.9732
 10
636.4577
 20
-55.2084
 10
636.4772
 20
-56.4439
 10
636.5357
 20
-57.6301
 10
636.6333
 20
-58.7669
 10
636.7698
 20
-59.8543
 10
636.9454
 20
-60.8924
 10
637.1599
 20
-61.8812
 10
637.4134
 20
-62.8206
 10
637.7059
 20
-63.7107
 10
638.1223
 20
-64.7306
 10
638.5865
 20
-65.6146
 10
639.0986
 20
-66.3625
 10
639.6585
 20
-66.9745
 10
640.2663
 20
-67.4504
 10
640.9219
 20
-67.7904
 10
641.6253
 20
-67.9944
 10
642.3765
 20
-68.0624
  0
LWPOLYLINE
  5
6B
330
1F
100
AcDbEntity
  8
Layer 1
 62
     7
100
AcDbPolyline
 90
      165
 70
     1
 43
0.0
 10
665.8713
 20
-67.6585
 10
667.6725
 20
-67.6585
 10
667.6725
 20
-57.5593
 10
667.6578
 20
-56.8888
 10
667.6138
 20
-56.2499
 10
667.5404
 20
-55.6425
 10
667.4377
 20
-55.0667
 10
667.3056
 20
-54.5224
 10
667.1442
 20
-54.0097
 10
666.9534
 20
-53.5285
 10
666.7333
 20
-53.0789
 10
666.6103
 20
-52.8638
 10
666.4798
 20
-52.6597
 10
666.3416
 20
-52.4665
 10
666.1959
 20
-52.2843
 10
666.0425
 20
-52.113
 10
665.8814
 20
-51.9526
 10
665.7128
 20
-51.8031
 10
665.5364
 20
-51.6645
 10
665.349
 20
-51.54
 10
665.1472
 20
-51.432
 10
664.9309
 20
-51.3406
 10
664.7001
 20
-51.2658
 10
664.4548
 20
-51.2076
 10
664.1951
 20
-51.166
 10
663.9209
 20
-51.141
 10
663.6321
 20
-51.1327
 10
663.3409
 20
-51.147
 10
663.0589
 20
-51.19
 10
662.7861
 20
-51.2616
 10
662.5226
 20
-51.362
 10
662.2683
 20
-51.491
 10
662.0233
 20
-51.6488
 10
661.7875
 20
-51.8354
 10
661.5609
 20
-52.0507
 10
661.3642
 20
-52.2651
 10
661.1763
 20
-52.4955
 10
660.9973
 20
-52.7418
 10
660.8273
 20
-53.0037
 10
660.666
 20
-53.2811
 10
660.5137
 20
-53.5739
 10
660.3702
 20
-53.8818
 10
660.2355
 20
-54.2047
 10
660.1308
 20
-53.9065
 10
660.0166
 20
-53.6187
 10
659.8927
 20
-53.3425
 10
659.7591
 20
-53.0789
 10
659.6363
 20
-52.8638
 10
659.5059
 20
-52.6597
 10
659.3679
 20
-52.4665
 10
659.2222
 20
-52.2843
 10
659.0689
 20
-52.113
 10
658.9079
 20
-51.9526
 10
658.7392
 20
-51.8031
 10
658.5629
 20
-51.6645
 10
658.3755
 20
-51.54
 10
658.1736
 20
-51.432
 10
657.9572
 20
-51.3406
 10
657.7264
 20
-51.2658
 10
657.4811
 20
-51.2076
 10
657.2213
 20
-51.166
 10
656.9471
 20
-51.141
 10
656.6585
 20
-51.1327
 10
656.3671
 20
-51.147
 10
656.085
 20
-51.19
 10
655.8122
 20
-51.2616
 10
655.5486
 20
-51.362
 10
655.2942
 20
-51.491
 10
655.0492
 20
-51.6488
 10
654.8133
 20
-51.8354
 10
654.5867
 20
-52.0507
 10
654.3995
 20
-52.2549
 10
654.2203
 20
-52.4729
 10
654.0491
 20
-52.705
 10
653.8859
 20
-52.9511
 10
653.7307
 20
-53.2113
 10
653.5836
 20
-53.4856
 10
653.4444
 20
-53.7741
 10
653.3133
 20
-54.0768
 10
653.3133
 20
-51.4996
 10
651.5121
 20
-51.4996
 10
651.5121
 20
-67.6585
 10
653.3133
 20
-67.6585
 10
653.3133
 20
-59.3893
 10
653.3551
 20
-58.9075
 10
653.4098
 20
-58.4445
 10
653.4773
 20
-58.0001
 10
653.5577
 20
-57.5743
 10
653.651
 20
-57.1668
 10
653.7571
 20
-56.7775
 10
653.876
 20
-56.4064
 10
654.0078
 20
-56.0532
 10
654.1152
 20
-55.802
 10
654.2314
 20
-55.5623
 10
654.3565
 20
-55.3339
 10
654.4903
 20
-55.117
 10
654.6331
 20
-54.9114
 10
654.7846
 20
-54.7174
 10
654.9451
 20
-54.5348
 10
655.1144
 20
-54.3637
 10
655.2898
 20
-54.209
 10
655.4684
 20
-54.0748
 10
655.6502
 20
-53.9613
 10
655.8352
 20
-53.8684
 10
656.0234
 20
-53.7961
 10
656.2148
 20
-53.7445
 10
656.4094
 20
-53.7135
 10
656.6072
 20
-53.7032
 10
656.8002
 20
-53.7086
 10
656.9803
 20
-53.725
 10
657.1475
 20
-53.7522
 10
657.3019
 20
-53.7903
 10
657.4434
 20
-53.8393
 10
657.572
 20
-53.8991
 10
657.6877
 20
-53.9699
 10
657.7905
 20
-54.0515
 10
658.05
 20
-54.3252
 10
658.2749
 20
-54.6461
 10
658.4651
 20
-55.014
 10
658.6207
 20
-55.429
 10
658.7417
 20
-55.891
 10
658.8281
 20
-56.4001
 10
658.8799
 20
-56.9562
 10
658.8972
 20
-57.5593
 10
658.8972
 20
-67.6585
 10
660.6989
 20
-67.6585
 10
660.6989
 20
-57.5593
 10
660.686
 20
-56.9409
 10
660.7525
 20
-56.7068
 10
660.824
 20
-56.4813
 10
660.9004
 20
-56.2636
 10
660.9819
 20
-56.0532
 10
661.0892
 20
-55.802
 10
661.2053
 20
-55.5623
 10
661.3303
 20
-55.3339
 10
661.4642
 20
-55.117
 10
661.6069
 20
-54.9114
 10
661.7585
 20
-54.7174
 10
661.9188
 20
-54.5348
 10
662.088
 20
-54.3637
 10
662.2634
 20
-54.209
 10
662.442
 20
-54.0748
 10
662.6238
 20
-53.9613
 10
662.8088
 20
-53.8684
 10
662.997
 20
-53.7961
 10
663.1884
 20
-53.7445
 10
663.383
 20
-53.7135
 10
663.5808
 20
-53.7032
 10
663.7738
 20
-53.7086
 10
663.9539
 20
-53.725
 10
664.1211
 20
-53.7522
 10
664.2755
 20
-53.7903
 10
664.4171
 20
-53.8393
 10
664.5458
 20
-53.8991
 10
664.6617
 20
-53.9699
 10
664.7647
 20
-54.0515
 10
665.024
 20
-54.3252
 10
665.2487
 20
-54.6461
 10
665.4389
 20
-55.014
 10
665.5946
 20
-55.429
 10
665.7156
 20
-55.891
 10
665.8021
 20
-56.4001
 10
665.854
 20
-56.9562
 10
665.8713
 20
-57.5593
 10
665.8713
 20
-67.6585
  0
LWPOLYLINE
  5
6C
330
1F
100
AcDbEntity
  8
Layer 1
 62
     7
100
AcDbPolyline
 90
      162
 70
     1
 43
0.0
 10
685.5061
 20
-67.6585
 10
687.3073
 20
-67.6585
 10
687.3073
 20
-57.5593
 10
687.2926
 20
-56.8888
 10
687.2486
 20
-56.2499
 10
687.1752
 20
-55.6425
 10
687.0725
 20
-55.0667
 10
686.9404
 20
-54.5224
 10
686.779
 20
-54.0097
 10
686.5882
 20
-53.5285
 10
686.3681
 20
-53.0789
 10
686.2451
 20
-52.8638
 10
686.1146
 20
-52.6597
 10
685.9765
 20
-52.4665
 10
685.8307
 20
-52.2843
 10
685.6773
 20
-52.113
 10
685.5163
 20
-51.9526
 10
685.3476
 20
-51.8031
 10
685.1712
 20
-51.6645
 10
684.9838
 20
-51.54
 10
684.782
 20
-51.432
 10
684.5657
 20
-51.3406
 10
684.3349
 20
-51.2658
 10
684.0896
 20
-51.2076
 10
683.8299
 20
-51.166
 10
683.5557
 20
-51.141
 10
683.2669
 20
-51.1327
 10
682.9757
 20
-51.147
 10
682.6937
 20
-51.19
 10
682.4209
 20
-51.2616
 10
682.1574
 20
-51.362
 10
681.9031
 20
-51.491
 10
681.6581
 20
-51.6488
 10
681.4223
 20
-51.8354
 10
681.1957
 20
-52.0507
 10
680.999
 20
-52.2651
 10
680.8111
 20
-52.4955
 10
680.6321
 20
-52.7418
 10
680.4621
 20
-53.0037
 10
680.3008
 20
-53.2811
 10
680.1485
 20
-53.5739
 10
680.005
 20
-53.8818
 10
679.8703
 20
-54.2047
 10
679.7656
 20
-53.9065
 10
679.6514
 20
-53.6187
 10
679.5275
 20
-53.3425
 10
679.3939
 20
-53.0789
 10
679.2711
 20
-52.8638
 10
679.1407
 20
-52.6597
 10
679.0027
 20
-52.4665
 10
678.857
 20
-52.2843
 10
678.7037
 20
-52.113
 10
678.5427
 20
-51.9526
 10
678.374
 20
-51.8031
 10
678.1977
 20
-51.6645
 10
678.0103
 20
-51.54
 10
677.8084
 20
-51.432
 10
677.592
 20
-51.3406
 10
677.3612
 20
-51.2658
 10
677.1159
 20
-51.2076
 10
676.8561
 20
-51.166
 10
676.5819
 20
-51.141
 10
676.2933
 20
-51.1327
 10
676.0019
 20
-51.147
 10
675.7198
 20
-51.19
 10
675.447
 20
-51.2616
 10
675.1834
 20
-51.362
 10
674.9291
 20
-51.491
 10
674.684
 20
-51.6488
 10
674.4482
 20
-51.8354
 10
674.2216
 20
-52.0507
 10
674.0344
 20
-52.2549
 10
673.8551
 20
-52.4729
 10
673.6839
 20
-52.705
 10
673.5207
 20
-52.9511
 10
673.3655
 20
-53.2113
 10
673.2184
 20
-53.4856
 10
673.0792
 20
-53.7741
 10
672.9481
 20
-54.0768
 10
672.9481
 20
-51.4996
 10
671.1469
 20
-51.4996
 10
671.1469
 20
-67.6585
 10
672.9481
 20
-67.6585
 10
672.9481
 20
-59.3893
 10
672.9899
 20
-58.9075
 10
673.0446
 20
-58.4445
 10
673.1121
 20
-58.0001
 10
673.1925
 20
-57.5743
 10
673.2858
 20
-57.1668
 10
673.3919
 20
-56.7775
 10
673.5108
 20
-56.4064
 10
673.6426
 20
-56.0532
 10
673.75
 20
-55.802
 10
673.8662
 20
-55.5623
 10
673.9913
 20
-55.3339
 10
674.1251
 20
-55.117
 10
674.2679
 20
-54.9114
 10
674.4194
 20
-54.7174
 10
674.5799
 20
-54.5348
 10
674.7492
 20
-54.3637
 10
674.9246
 20
-54.209
 10
675.1032
 20
-54.0748
 10
675.285
 20
-53.9613
 10
675.47
 20
-53.8684
 10
675.6582
 20
-53.7961
 10
675.8496
 20
-53.7445
 10
676.0442
 20
-53.7135
 10
676.242
 20
-53.7032
 10
676.435
 20
-53.7086
 10
676.6151
 20
-53.725
 10
676.7823
 20
-53.7522
 10
676.9367
 20
-53.7903
 10
677.0782
 20
-53.8393
 10
677.2068
 20
-53.8991
 10
677.3225
 20
-53.9699
 10
677.4253
 20
-54.0515
 10
677.6848
 20
-54.3252
 10
677.9097
 20
-54.6461
 10
678.0999
 20
-55.014
 10
678.2555
 20
-55.429
 10
678.3765
 20
-55.891
 10
678.4629
 20
-56.4001
 10
678.5147
 20
-56.9562
 10
678.532
 20
-57.5593
 10
678.532
 20
-67.6585
 10
680.3337
 20
-67.6585
 10
680.3337
 20
-57.5593
 10
680.3208
 20
-56.9409
 10
680.6167
 20
-56.0532
 10
680.724
 20
-55.802
 10
680.8401
 20
-55.5623
 10
680.9651
 20
-55.3339
 10
681.099
 20
-55.117
 10
681.2417
 20
-54.9114
 10
681.3933
 20
-54.7174
 10
681.5536
 20
-54.5348
 10
681.7228
 20
-54.3637
 10
681.8982
 20
-54.209
 10
682.0768
 20
-54.0748
 10
682.2586
 20
-53.9613
 10
682.4436
 20
-53.8684
 10
682.6318
 20
-53.7961
 10
682.8232
 20
-53.7445
 10
683.0178
 20
-53.7135
 10
683.2156
 20
-53.7032
 10
683.4086
 20
-53.7086
 10
683.5887
 20
-53.725
 10
683.7559
 20
-53.7522
 10
683.9103
 20
-53.7903
 10
684.0519
 20
-53.8393
 10
684.1806
 20
-53.8991
 10
684.2965
 20
-53.9699
 10
684.3995
 20
-54.0515
 10
684.6588
 20
-54.3252
 10
684.8835
 20
-54.6461
 10
685.0737
 20
-55.014
 10
685.2294
 20
-55.429
 10
685.3504
 20
-55.891
 10
685.4369
 20
-56.4001
 10
685.4888
 20
-56.9562
 10
685.5061
 20
-57.5593
 10
685.5061
 20
-67.6585
  0
LWPOLYLINE
  5
6D
330
1F
100
AcDbEntity
  8
Layer 1
 62
     7
370
    18
100
AcDbPolyline
 90
        2
 70
     0
 43
0.0
 10
658.2781
 20
263.1731
 10
643.2644
 20
263.1731
  0
LWPOLYLINE
  5
6E
330
1F
100
AcDbEntity
  8
Layer 1
 62
     7
370
    18
100
AcDbPolyline
 90
        2
 70
     0
 43
0.0
 10
650.771
 20
263.1783
 10
650.771
 20
-24.7912
  0
LWPOLYLINE
  5
6F
330
1F
100
AcDbEntity
  8
Layer 1
 62
     7
370
    18
100
AcDbPolyline
 90
        2
 70
     0
 43
0.0
 10
658.2781
 20
-440.5184
 10
643.2644
 20
-440.5184
  0
LWPOLYLINE
  5
70
330
1F
100
AcDbEntity
  8
Layer 1
 62
     7
370
    18
100
AcDbPolyline
 90
        2
 70
     0
 43
0.0
 10
650.771
 20
-440.5264
 10
650.771
 20
-99.316
  0
LWPOLYLINE
  5
71
330
1F
100
AcDbEntity
  8
Layer 1
 62
     7
100
AcDbPolyline
 90
        4
 70
     1
 43
0.0
 10
415.9999
 20
351.0089
 10
415.9999
 20
337.0106
 10
409.5104
 20
337.0106
 10
415.9999
 20
351.0089
  0
LWPOLYLINE
  5
72
330
1F
100
AcDbEntity
  8
Layer 1
 62
     7
100
AcDbPolyline
 90
       11
 70
     1
 43
0.0
 10
417.8217
 20
334.4461
 10
419.9684
 20
334.4461
 10
419.9684
 20
337.0106
 10
417.8217
 20
337.0106
 10
417.797
 20
353.7157
 10
415.3508
 20
353.7157
 10
406.4157
 20
334.4461
 10
415.9999
 20
334.4461
 10
415.9999
 20
329.4953
 10
417.8217
 20
329.4953
 10
417.8217
 20
334.4461
  0
LWPOLYLINE
  5
73
330
1F
100
AcDbEntity
  8
Layer 1
 62
     7
100
AcDbPolyline
 90
        7
 70
     1
 43
0.0
 10
424.8348
 20
329.4953
 10
426.5823
 20
329.4953
 10
426.5823
 20
354.0009
 10
422.3892
 20
353.3598
 10
422.3892
 20
351.1873
 10
424.8348
 20
351.1873
 10
424.8348
 20
329.4953
  0
LWPOLYLINE
  5
74
330
1F
100
AcDbEntity
  8
Layer 1
 62
     7
100
AcDbPolyline
 90
      129
 70
     1
 43
0.0
 10
436.6529
 20
350.902
 10
436.9412
 20
350.6227
 10
437.21
 20
350.3056
 10
437.4592
 20
349.9505
 10
437.689
 20
349.5575
 10
437.8992
 20
349.1266
 10
438.0899
 20
348.6579
 10
438.2611
 20
348.1514
 10
438.4128
 20
347.6071
 10
438.5824
 20
346.885
 10
438.7294
 20
346.1524
 10
438.8538
 20
345.4092
 10
438.9557
 20
344.6555
 10
439.0349
 20
343.8912
 10
439.0915
 20
343.1164
 10
439.1255
 20
342.3309
 10
439.1368
 20
341.5348
 10
439.1356
 20
341.3435
 10
439.1321
 20
341.1439
 10
439.1262
 20
340.9359
 10
439.118
 20
340.7196
 10
439.1074
 20
340.495
 10
439.0946
 20
340.262
 10
439.0794
 20
340.0207
 10
439.062
 20
339.7712
 10
438.9753
 20
338.8138
 10
438.8622
 20
337.9092
 10
438.7226
 20
337.0574
 10
438.5564
 20
336.2584
 10
438.3637
 20
335.5123
 10
438.1445
 20
334.819
 10
437.8987
 20
334.1787
 10
437.6263
 20
333.5912
 10
437.378
 20
333.149
 10
437.1164
 20
332.7656
 10
436.8415
 20
332.4413
 10
436.5533
 20
332.1759
 10
436.2518
 20
331.9694
 10
435.9371
 20
331.822
 10
435.6092
 20
331.7335
 10
435.268
 20
331.704
 10
434.8872
 20
331.7332
 10
434.5247
 20
331.8208
 10
434.1805
 20
331.9667
 10
433.8547
 20
332.1712
 10
433.5472
 20
332.434
 10
433.258
 20
332.7554
 10
432.9872
 20
333.1352
 10
432.7346
 20
333.5735
 10
432.6277
 20
333.7861
 10
432.5255
 20
334.0053
 10
432.428
 20
334.2313
 10
432.3352
 20
334.4639
 10
432.2471
 20
334.7033
 10
432.1636
 20
334.9493
 10
432.0848
 20
335.2021
 10
432.0106
 20
335.4616
 10
431.9411
 20
335.725
 10
431.8759
 20
335.9901
 10
431.8149
 20
336.2569
 10
431.7582
 20
336.5255
 10
431.7058
 20
336.7957
 10
431.6576
 20
337.0676
 10
431.6138
 20
337.3412
 10
431.5743
 20
337.6164
 10
431.5381
 20
337.8914
 10
431.5047
 20
338.1641
 10
431.474
 20
338.4345
 10
431.4461
 20
338.7027
 10
431.4209
 20
338.9687
 10
431.3985
 20
339.2325
 10
431.3789
 20
339.4941
 10
431.362
 20
339.7536
 10
431.3473
 20
340.0167
 10
431.3346
 20
340.2898
 10
431.3239
 20
340.5729
 10
431.3151
 20
340.8658
 10
431.3083
 20
341.1684
 10
431.3035
 20
341.4807
 10
431.3006
 20
341.8026
 10
431.2996
 20
342.1339
 10
431.3039
 20
342.4802
 10
431.3167
 20
342.8466
 10
431.3382
 20
343.2331
 10
431.3682
 20
343.6398
 10
431.4068
 20
344.0667
 10
431.454
 20
344.514
 10
431.5098
 20
344.9818
 10
431.5743
 20
345.47
 10
431.6136
 20
345.7414
 10
431.6568
 20
346.0122
 10
431.704
 20
346.2825
 10
431.7551
 20
346.5521
 10
431.81
 20
346.8212
 10
431.8689
 20
347.0897
 10
431.9316
 20
347.3576
 10
431.9982
 20
347.6248
 10
432.0695
 20
347.8887
 10
432.1458
 20
348.1459
 10
432.2272
 20
348.3964
 10
432.3136
 20
348.6402
 10
432.405
 20
348.8772
 10
432.5016
 20
349.1076
 10
432.6031
 20
349.3312
 10
432.7098
 20
349.5482
 10
432.8217
 20
349.7568
 10
432.9391
 20
349.9548
 10
433.0619
 20
350.1421
 10
433.1902
 20
350.3189
 10
433.3239
 20
350.485
 10
433.4631
 20
350.6405
 10
433.6079
 20
350.7854
 10
433.7581
 20
350.9197
 10
433.9144
 20
351.041
 10
434.0778
 20
351.146
 10
434.2482
 20
351.2348
 10
434.4257
 20
351.3074
 10
434.6101
 20
351.3638
 10
434.8016
 20
351.4041
 10
435.0001
 20
351.4283
 10
435.2055
 20
351.4363
 10
435.4111
 20
351.4279
 10
435.6097
 20
351.4029
 10
435.8012
 20
351.3611
 10
435.9856
 20
351.3027
 10
436.163
 20
351.2275
 10
436.3333
 20
351.1357
 10
436.4966
 20
351.0272
 10
436.6529
 20
350.902
  0
LWPOLYLINE
  5
75
330
1F
100
AcDbEntity
  8
Layer 1
 62
     7
100
AcDbPolyline
 90
       65
 70
     1
 43
0.0
 10
435.2928
 20
329.1747
 10
436.0215
 20
329.2406
 10
436.7038
 20
329.4385
 10
437.3397
 20
329.7682
 10
437.9292
 20
330.2298
 10
438.4722
 20
330.8233
 10
438.9689
 20
331.5487
 10
439.4192
 20
332.406
 10
439.8231
 20
333.3952
 10
440.1067
 20
334.2584
 10
440.3525
 20
335.1695
 10
440.5605
 20
336.1285
 10
440.7308
 20
337.1354
 10
440.8632
 20
338.1901
 10
440.9578
 20
339.2928
 10
441.0146
 20
340.4433
 10
441.0335
 20
341.6417
 10
441.0146
 20
342.8398
 10
440.9578
 20
343.9901
 10
440.8632
 20
345.0926
 10
440.7308
 20
346.1472
 10
440.5605
 20
347.154
 10
440.3525
 20
348.113
 10
440.1067
 20
349.0241
 10
439.8231
 20
349.8873
 10
439.4192
 20
350.8765
 10
438.9689
 20
351.7337
 10
438.4722
 20
352.4591
 10
437.9292
 20
353.0527
 10
437.3397
 20
353.5143
 10
436.7038
 20
353.844
 10
436.0215
 20
354.0419
 10
435.2928
 20
354.1078
 10
434.5641
 20
354.0419
 10
433.8818
 20
353.844
 10
433.2459
 20
353.5143
 10
432.6565
 20
353.0527
 10
432.1135
 20
352.4591
 10
431.6169
 20
351.7337
 10
431.1667
 20
350.8765
 10
430.763
 20
349.8873
 10
430.4793
 20
349.0241
 10
430.2334
 20
348.113
 10
430.0253
 20
347.154
 10
429.8551
 20
346.1472
 10
429.7228
 20
345.0926
 10
429.6282
 20
343.9901
 10
429.5715
 20
342.8398
 10
429.5526
 20
341.6417
 10
429.5715
 20
340.4433
 10
429.6282
 20
339.2928
 10
429.7228
 20
338.1901
 10
429.8551
 20
337.1354
 10
430.0253
 20
336.1285
 10
430.2334
 20
335.1695
 10
430.4793
 20
334.2584
 10
430.763
 20
333.3952
 10
431.1667
 20
332.406
 10
431.6169
 20
331.5487
 10
432.1135
 20
330.8233
 10
432.6565
 20
330.2298
 10
433.2459
 20
329.7682
 10
433.8818
 20
329.4385
 10
434.5641
 20
329.2406
 10
435.2928
 20
329.1747
  0
LWPOLYLINE
  5
76
330
1F
100
AcDbEntity
  8
Layer 1
 62
     7
100
AcDbPolyline
 90
      162
 70
     1
 43
0.0
 10
458.0801
 20
329.5668
 10
459.827
 20
329.5668
 10
459.827
 20
339.3615
 10
459.8128
 20
340.0119
 10
459.7701
 20
340.6316
 10
459.6989
 20
341.2208
 10
459.5993
 20
341.7792
 10
459.4712
 20
342.3071
 10
459.3146
 20
342.8044
 10
459.1296
 20
343.2711
 10
458.9161
 20
343.7073
 10
458.797
 20
343.9156
 10
458.6704
 20
344.1134
 10
458.5365
 20
344.3006
 10
458.3951
 20
344.4773
 10
458.2463
 20
344.6434
 10
458.0901
 20
344.7991
 10
457.9264
 20
344.9442
 10
457.7552
 20
345.0788
 10
457.5735
 20
345.1998
 10
457.3778
 20
345.3047
 10
457.168
 20
345.3935
 10
456.9442
 20
345.4661
 10
456.7064
 20
345.5227
 10
456.4545
 20
345.5631
 10
456.1886
 20
345.5873
 10
455.9086
 20
345.5954
 10
455.6261
 20
345.5815
 10
455.3526
 20
345.5397
 10
455.088
 20
345.4701
 10
454.8324
 20
345.3726
 10
454.5857
 20
345.2473
 10
454.348
 20
345.0942
 10
454.1192
 20
344.9132
 10
453.8994
 20
344.7043
 10
453.7087
 20
344.4962
 10
453.5265
 20
344.2727
 10
453.3529
 20
344.0339
 10
453.1879
 20
343.78
 10
453.0316
 20
343.511
 10
452.8838
 20
343.2271
 10
452.7446
 20
342.9285
 10
452.6141
 20
342.6152
 10
452.5126
 20
342.9041
 10
452.4019
 20
343.1833
 10
452.2818
 20
343.4514
 10
452.1524
 20
343.7073
 10
452.0333
 20
343.9156
 10
451.9067
 20
344.1134
 10
451.7727
 20
344.3006
 10
451.6312
 20
344.4773
 10
451.4824
 20
344.6434
 10
451.3261
 20
344.7991
 10
451.1625
 20
344.9442
 10
450.9915
 20
345.0788
 10
450.8098
 20
345.1998
 10
450.6141
 20
345.3047
 10
450.4044
 20
345.3935
 10
450.1806
 20
345.4661
 10
449.9428
 20
345.5227
 10
449.6909
 20
345.5631
 10
449.425
 20
345.5873
 10
449.145
 20
345.5954
 10
448.8623
 20
345.5815
 10
448.5886
 20
345.5397
 10
448.3239
 20
345.4701
 10
448.0683
 20
345.3726
 10
447.8216
 20
345.2473
 10
447.584
 20
345.0942
 10
447.3553
 20
344.9132
 10
447.1357
 20
344.7043
 10
446.9539
 20
344.5061
 10
446.7799
 20
344.2945
 10
446.6138
 20
344.0695
 10
446.4554
 20
343.8309
 10
446.3049
 20
343.5787
 10
446.1621
 20
343.3128
 10
446.0271
 20
343.0331
 10
445.8999
 20
342.7397
 10
445.8999
 20
345.2386
 10
444.153
 20
345.2386
 10
444.153
 20
329.5668
 10
445.8999
 20
329.5668
 10
445.8999
 20
337.587
 10
445.9406
 20
338.0543
 10
445.9938
 20
338.5033
 10
446.0593
 20
338.9342
 10
446.1374
 20
339.3472
 10
446.2278
 20
339.7423
 10
446.3307
 20
340.1198
 10
446.446
 20
340.4796
 10
446.5738
 20
340.8221
 10
446.678
 20
341.0658
 10
446.7908
 20
341.2984
 10
446.9122
 20
341.5198
 10
447.0421
 20
341.7302
 10
447.1806
 20
341.9294
 10
447.3276
 20
342.1175
 10
447.4832
 20
342.2945
 10
447.6474
 20
342.4603
 10
447.8174
 20
342.6106
 10
447.9906
 20
342.7408
 10
448.1668
 20
342.851
 10
448.3462
 20
342.9412
 10
448.5287
 20
343.0113
 10
448.7143
 20
343.0614
 10
448.903
 20
343.0915
 10
449.0949
 20
343.1015
 10
449.2821
 20
343.0962
 10
449.4568
 20
343.0804
 10
449.619
 20
343.0539
 10
449.7688
 20
343.0169
 10
449.906
 20
342.9693
 10
450.0308
 20
342.9112
 10
450.143
 20
342.8425
 10
450.2428
 20
342.7632
 10
450.4944
 20
342.4977
 10
450.7125
 20
342.1866
 10
450.897
 20
341.8298
 10
451.048
 20
341.4274
 10
451.1654
 20
340.9794
 10
451.2493
 20
340.4857
 10
451.2996
 20
339.9464
 10
451.3164
 20
339.3615
 10
451.3164
 20
329.5668
 10
453.0633
 20
329.5668
 10
453.0633
 20
339.3615
 10
453.051
 20
339.9614
 10
453.3381
 20
340.8221
 10
453.4421
 20
341.0658
 10
453.5548
 20
341.2984
 10
453.676
 20
341.5198
 10
453.8059
 20
341.7302
 10
453.9443
 20
341.9294
 10
454.0913
 20
342.1175
 10
454.2469
 20
342.2945
 10
454.4111
 20
342.4603
 10
454.5811
 20
342.6106
 10
454.7543
 20
342.7408
 10
454.9305
 20
342.851
 10
455.1099
 20
342.9412
 10
455.2923
 20
343.0113
 10
455.4779
 20
343.0614
 10
455.6666
 20
343.0915
 10
455.8585
 20
343.1015
 10
456.0457
 20
343.0962
 10
456.2204
 20
343.0804
 10
456.3827
 20
343.0539
 10
456.5324
 20
343.0169
 10
456.6697
 20
342.9693
 10
456.7944
 20
342.9112
 10
456.9067
 20
342.8425
 10
457.0064
 20
342.7632
 10
457.258
 20
342.4977
 10
457.4761
 20
342.1866
 10
457.6607
 20
341.8298
 10
457.8117
 20
341.4274
 10
457.9291
 20
340.9794
 10
458.013
 20
340.4857
 10
458.0633
 20
339.9464
 10
458.0801
 20
339.3615
 10
458.0801
 20
329.5668
  0
LWPOLYLINE
  5
77
330
1F
100
AcDbEntity
  8
Layer 1
 62
     7
100
AcDbPolyline
 90
      162
 70
     1
 43
0.0
 10
477.1235
 20
329.5668
 10
478.8705
 20
329.5668
 10
478.8705
 20
339.3615
 10
478.8563
 20
340.0119
 10
478.8136
 20
340.6316
 10
478.7424
 20
341.2208
 10
478.6428
 20
341.7792
 10
478.5147
 20
342.3071
 10
478.3581
 20
342.8044
 10
478.1731
 20
343.2711
 10
477.9596
 20
343.7073
 10
477.8405
 20
343.9156
 10
477.7139
 20
344.1134
 10
477.58
 20
344.3006
 10
477.4386
 20
344.4773
 10
477.2898
 20
344.6434
 10
477.1335
 20
344.7991
 10
476.9698
 20
344.9442
 10
476.7987
 20
345.0788
 10
476.617
 20
345.1998
 10
476.4213
 20
345.3047
 10
476.2115
 20
345.3935
 10
475.9877
 20
345.4661
 10
475.7499
 20
345.5227
 10
475.498
 20
345.5631
 10
475.2321
 20
345.5873
 10
474.9521
 20
345.5954
 10
474.6696
 20
345.5815
 10
474.396
 20
345.5397
 10
474.1315
 20
345.4701
 10
473.8758
 20
345.3726
 10
473.6291
 20
345.2473
 10
473.3914
 20
345.0942
 10
473.1626
 20
344.9132
 10
472.9428
 20
344.7043
 10
472.7521
 20
344.4962
 10
472.5699
 20
344.2727
 10
472.3964
 20
344.0339
 10
472.2314
 20
343.78
 10
472.075
 20
343.511
 10
471.9272
 20
343.2271
 10
471.7881
 20
342.9285
 10
471.6575
 20
342.6152
 10
471.556
 20
342.9041
 10
471.4453
 20
343.1833
 10
471.3252
 20
343.4514
 10
471.1959
 20
343.7073
 10
471.0768
 20
343.9156
 10
470.9502
 20
344.1134
 10
470.8161
 20
344.3006
 10
470.6747
 20
344.4773
 10
470.5259
 20
344.6434
 10
470.3696
 20
344.7991
 10
470.206
 20
344.9442
 10
470.035
 20
345.0788
 10
469.8533
 20
345.1998
 10
469.6576
 20
345.3047
 10
469.4478
 20
345.3935
 10
469.224
 20
345.4661
 10
468.9862
 20
345.5227
 10
468.7343
 20
345.5631
 10
468.4684
 20
345.5873
 10
468.1884
 20
345.5954
 10
467.9057
 20
345.5815
 10
467.6321
 20
345.5397
 10
467.3674
 20
345.4701
 10
467.1117
 20
345.3726
 10
466.865
 20
345.2473
 10
466.6274
 20
345.0942
 10
466.3987
 20
344.9132
 10
466.1791
 20
344.7043
 10
465.9973
 20
344.5061
 10
465.8234
 20
344.2945
 10
465.6572
 20
344.0695
 10
465.4989
 20
343.8309
 10
465.3484
 20
343.5787
 10
465.2056
 20
343.3128
 10
465.0706
 20
343.0331
 10
464.9434
 20
342.7397
 10
464.9434
 20
345.2386
 10
463.1965
 20
345.2386
 10
463.1965
 20
329.5668
 10
464.9434
 20
329.5668
 10
464.9434
 20
337.587
 10
464.9841
 20
338.0543
 10
465.0373
 20
338.5033
 10
465.1028
 20
338.9342
 10
465.1809
 20
339.3472
 10
465.2713
 20
339.7423
 10
465.3742
 20
340.1198
 10
465.4895
 20
340.4796
 10
465.6173
 20
340.8221
 10
465.7215
 20
341.0658
 10
465.8343
 20
341.2984
 10
465.9556
 20
341.5198
 10
466.0856
 20
341.7302
 10
466.224
 20
341.9294
 10
466.3711
 20
342.1175
 10
466.5267
 20
342.2945
 10
466.6909
 20
342.4603
 10
466.8609
 20
342.6106
 10
467.0341
 20
342.7408
 10
467.2103
 20
342.851
 10
467.3896
 20
342.9412
 10
467.5721
 20
343.0113
 10
467.7577
 20
343.0614
 10
467.9464
 20
343.0915
 10
468.1383
 20
343.1015
 10
468.3255
 20
343.0962
 10
468.5002
 20
343.0804
 10
468.6625
 20
343.0539
 10
468.8122
 20
343.0169
 10
468.9494
 20
342.9693
 10
469.0742
 20
342.9112
 10
469.1864
 20
342.8425
 10
469.2862
 20
342.7632
 10
469.5378
 20
342.4977
 10
469.7559
 20
342.1866
 10
469.9405
 20
341.8298
 10
470.0915
 20
341.4274
 10
470.2089
 20
340.9794
 10
470.2928
 20
340.4857
 10
470.3431
 20
339.9464
 10
470.3599
 20
339.3615
 10
470.3599
 20
329.5668
 10
472.1068
 20
329.5668
 10
472.1068
 20
339.3615
 10
472.0944
 20
339.9614
 10
472.3815
 20
340.8221
 10
472.4855
 20
341.0658
 10
472.5982
 20
341.2984
 10
472.7194
 20
341.5198
 10
472.8493
 20
341.7302
 10
472.9877
 20
341.9294
 10
473.1348
 20
342.1175
 10
473.2904
 20
342.2945
 10
473.4546
 20
342.4603
 10
473.6246
 20
342.6106
 10
473.7977
 20
342.7408
 10
473.9739
 20
342.851
 10
474.1533
 20
342.9412
 10
474.3358
 20
343.0113
 10
474.5214
 20
343.0614
 10
474.7101
 20
343.0915
 10
474.902
 20
343.1015
 10
475.0892
 20
343.0962
 10
475.2639
 20
343.0804
 10
475.4262
 20
343.0539
 10
475.5759
 20
343.0169
 10
475.7131
 20
342.9693
 10
475.8379
 20
342.9112
 10
475.9501
 20
342.8425
 10
476.0499
 20
342.7632
 10
476.3015
 20
342.4977
 10
476.5196
 20
342.1866
 10
476.7042
 20
341.8298
 10
476.8551
 20
341.4274
 10
476.9725
 20
340.9794
 10
477.0564
 20
340.4857
 10
477.1067
 20
339.9464
 10
477.1235
 20
339.3615
 10
477.1235
 20
329.5668
  0
LWPOLYLINE
  5
78
330
1F
100
AcDbEntity
  8
Layer 1
 62
     7
370
    18
100
AcDbPolyline
 90
       33
 70
     1
 43
0.0
 10
371.9146
 20
354.1078
 10
373.7375
 20
353.8455
 10
375.4354
 20
353.0933
 10
376.9719
 20
351.9031
 10
378.3106
 20
350.3269
 10
379.4152
 20
348.4164
 10
380.2491
 20
346.2237
 10
380.7762
 20
343.8006
 10
380.96
 20
341.1991
 10
380.7762
 20
338.5976
 10
380.2491
 20
336.1745
 10
379.4152
 20
333.9818
 10
378.3106
 20
332.0713
 10
376.9719
 20
330.4951
 10
375.4354
 20
329.3049
 10
373.7375
 20
328.5527
 10
371.9146
 20
328.2904
 10
370.0917
 20
328.5527
 10
368.3938
 20
329.3049
 10
366.8573
 20
330.4951
 10
365.5186
 20
332.0713
 10
364.4141
 20
333.9818
 10
363.5801
 20
336.1745
 10
363.0531
 20
338.5976
 10
362.8693
 20
341.1991
 10
363.0531
 20
343.8006
 10
363.5801
 20
346.2237
 10
364.4141
 20
348.4164
 10
365.5186
 20
350.3269
 10
366.8573
 20
351.9031
 10
368.3938
 20
353.0933
 10
370.0917
 20
353.8455
 10
371.9146
 20
354.1078
  0
LWPOLYLINE
  5
79
330
1F
100
AcDbEntity
  8
Layer 1
 62
     7
370
    18
100
AcDbPolyline
 90
        9
 70
     0
 43
0.0
 10
376.4108
 20
362.8776
 10
373.5259
 20
348.4945
 10
371.3345
 20
337.6188
 10
369.7414
 20
329.7605
 10
368.6513
 20
324.4298
 10
367.9692
 20
321.1366
 10
367.5998
 20
319.391
 10
367.448
 20
318.7029
 10
367.4185
 20
318.5824
  0
ENDSEC
  0
SECTION
  2
OBJECTS
  0
DICTIONARY
  5
C
330
0
100
AcDbDictionary
281
     1
  3
ACAD_DETAILVIEWSTYLE
350
81
  3
ACAD_GROUP
350
D
  3
ACAD_LAYOUT
350
1A
  3
ACAD_MATERIAL
350
43
  3
ACAD_MLEADERSTYLE
350
5B
  3
ACAD_MLINESTYLE
350
17
  3
ACAD_PLOTSETTINGS
350
19
  3
ACAD_PLOTSTYLENAME
350
E
  3
ACAD_SCALELIST
350
47
  3
ACAD_SECTIONVIEWSTYLE
350
82
  3
ACAD_TABLESTYLE
350
59
  3
ACAD_VISUALSTYLE
350
2A
  3
ACDB_RECOMPOSE_DATA
350
7E
  3
AcDbVariableDictionary
350
7A
  0
SUN
  5
5D
330
29
100
AcDbSun
 90
        1
290
     0
 63
     7
421
 16777215
 40
1.0
291
     1
 91
  2455826
 92
 54000000
292
     0
 70
     2
 71
   256
280
     1
  0
DICTIONARY
  5
81
102
{ACAD_REACTORS
330
C
102
}
330
C
100
AcDbDictionary
281
     1
  0
DICTIONARY
  5
D
102
{ACAD_REACTORS
330
C
102
}
330
C
100
AcDbDictionary
281
     1
  0
DICTIONARY
  5
1A
102
{ACAD_REACTORS
330
C
102
}
330
C
100
AcDbDictionary
281
     1
  3
Layout1
350
1E
  3
Layout2
350
26
  3
Model
350
22
  0
DICTIONARY
  5
43
102
{ACAD_REACTORS
330
C
102
}
330
C
100
AcDbDictionary
281
     1
  3
ByBlock
350
45
  3
ByLayer
350
44
  3
Global
350
46
  0
DICTIONARY
  5
5B
102
{ACAD_REACTORS
330
C
102
}
330
C
100
AcDbDictionary
281
     1
  3
Standard
350
5C
  0
DICTIONARY
  5
17
102
{ACAD_REACTORS
330
C
102
}
330
C
100
AcDbDictionary
281
     1
  3
Standard
350
18
  0
DICTIONARY
  5
19
102
{ACAD_REACTORS
330
C
102
}
330
C
100
AcDbDictionary
281
     1
  0
ACDBDICTIONARYWDFLT
  5
E
102
{ACAD_REACTORS
330
C
102
}
330
C
100
AcDbDictionary
281
     1
  3
Normal
350
F
100
AcDbDictionaryWithDefault
340
F
  0
DICTIONARY
  5
47
102
{ACAD_REACTORS
330
C
102
}
330
C
100
AcDbDictionary
281
     1
  3
A0
350
48
  3
A1
350
49
  3
A2
350
4A
  3
A3
350
4B
  3
A4
350
4C
  3
A5
350
4D
  3
A6
350
4E
  3
A7
350
4F
  3
A8
350
50
  3
A9
350
51
  3
B1
350
52
  3
B2
350
53
  3
B3
350
54
  3
B4
350
55
  3
B5
350
56
  3
B6
350
57
  3
B7
350
58
  0
DICTIONARY
  5
82
102
{ACAD_REACTORS
330
C
102
}
330
C
100
AcDbDictionary
281
     1
  0
DICTIONARY
  5
59
102
{ACAD_REACTORS
330
C
102
}
330
C
100
AcDbDictionary
281
     1
  3
Standard
350
5A
  0
DICTIONARY
  5
2A
102
{ACAD_REACTORS
330
C
102
}
330
C
100
AcDbDictionary
281
     1
  3
2dWireframe
350
2F
  3
Basic
350
32
  3
Brighten
350
36
  3
ColorChange
350
3A
  3
Conceptual
350
34
  3
Dim
350
35
  3
EdgeColorOff
350
3D
  3
Facepattern
350
39
  3
Flat
350
2B
  3
FlatWithEdges
350
2C
  3
Gouraud
350
2D
  3
GouraudWithEdges
350
2E
  3
Hidden
350
31
  3
JitterOff
350
3B
  3
Linepattern
350
38
  3
OverhangOff
350
3C
  3
Realistic
350
33
  3
Shaded
350
42
  3
Shaded with edges
350
41
  3
Shades of Gray
350
3E
  3
Sketchy
350
3F
  3
Thicken
350
37
  3
Wireframe
350
30
  3
X-Ray
350
40
  0
XRECORD
  5
7E
102
{ACAD_REACTORS
330
C
102
}
330
C
100
AcDbXrecord
280
     1
 90
        1
330
5A
  0
DICTIONARY
  5
7A
102
{ACAD_REACTORS
330
C
102
}
330
C
100
AcDbDictionary
281
     1
  3
CANNOSCALE
350
7B
  3
CMLEADERSTYLE
350
80
  3
CTABLESTYLE
350
7F
  0
LAYOUT
  5
1E
102
{ACAD_REACTORS
330
1A
102
}
330
1A
100
AcDbPlotSettings
  1

  2
none_device
  4

  6

 40
0.0
 41
0.0
 42
0.0
 43
0.0
 44
0.0
 45
0.0
 46
0.0
 47
0.0
 48
0.0
 49
0.0
140
0.0
141
0.0
142
1.0
143
1.0
 70
   688
 72
     0
 73
     0
 74
     5
  7

 75
    16
 76
     0
 77
     2
 78
   300
147
1.0
148
0.0
149
0.0
100
AcDbLayout
  1
Layout1
 70
     1
 71
     1
 10
0.0
 20
0.0
 11
12.0
 21
9.0
 12
0.0
 22
0.0
 32
0.0
 14
1.000000000000000E+20
 24
1.000000000000000E+20
 34
1.000000000000000E+20
 15
-1.000000000000000E+20
 25
-1.000000000000000E+20
 35
-1.000000000000000E+20
146
0.0
 13
0.0
 23
0.0
 33
0.0
 16
1.0
 26
0.0
 36
0.0
 17
0.0
 27
1.0
 37
0.0
 76
     0
330
1B
  0
LAYOUT
  5
26
102
{ACAD_REACTORS
330
1A
102
}
330
1A
100
AcDbPlotSettings
  1

  2
none_device
  4

  6

 40
0.0
 41
0.0
 42
0.0
 43
0.0
 44
0.0
 45
0.0
 46
0.0
 47
0.0
 48
0.0
 49
0.0
140
0.0
141
0.0
142
1.0
143
1.0
 70
   688
 72
     0
 73
     0
 74
     5
  7

 75
    16
 76
     0
 77
     2
 78
   300
147
1.0
148
0.0
149
0.0
100
AcDbLayout
  1
Layout2
 70
     1
 71
     2
 10
0.0
 20
0.0
 11
0.0
 21
0.0
 12
0.0
 22
0.0
 32
0.0
 14
0.0
 24
0.0
 34
0.0
 15
0.0
 25
0.0
 35
0.0
146
0.0
 13
0.0
 23
0.0
 33
0.0
 16
1.0
 26
0.0
 36
0.0
 17
0.0
 27
1.0
 37
0.0
 76
     0
330
23
  0
LAYOUT
  5
22
102
{ACAD_REACTORS
330
1A
102
}
330
1A
100
AcDbPlotSettings
  1

  2
none_device
  4
Letter_(8.50_x_11.00_Inches)
  6

 40
6.35
 41
6.35
 42
6.35000508
 43
6.35000508
 44
215.9
 45
279.4
 46
0.0
 47
0.0
 48
0.0
 49
0.0
140
0.0
141
0.0
142
1.0
143
1.0
 70
  1712
 72
     0
 73
     0
 74
     0
  7

 75
     0
 76
     0
 77
     2
 78
   300
147
1.0
148
0.0
149
0.0
100
AcDbLayout
  1
Model
 70
     1
 71
     0
 10
0.0
 20
0.0
 11
12.0
 21
9.0
 12
0.0
 22
0.0
 32
0.0
 14
211.1154
 24
-508.6673
 34
0.0
 15
722.9714
 25
374.7019
 35
0.0
146
0.0
 13
0.0
 23
0.0
 33
0.0
 16
1.0
 26
0.0
 36
0.0
 17
0.0
 27
1.0
 37
0.0
 76
     0
330
1F
331
29
  0
MATERIAL
  5
45
102
{ACAD_REACTORS
330
43
102
}
330
43
100
AcDbMaterial
  1
ByBlock
 72
     1
 94
      127
  0
MATERIAL
  5
44
102
{ACAD_REACTORS
330
43
102
}
330
43
100
AcDbMaterial
  1
ByLayer
 72
     1
 94
      127
  0
MATERIAL
  5
46
102
{ACAD_REACTORS
330
43
102
}
330
43
100
AcDbMaterial
  1
Global
 72
     1
 94
      127
  0
MLEADERSTYLE
  5
5C
102
{ACAD_REACTORS
330
5B
102
}
330
5B
100
AcDbMLeaderStyle
179
     2
170
     2
171
     1
172
     0
 90
        2
 40
0.0
 41
0.0
173
     1
 91
-1056964608
340
14
 92
       -2
290
     1
 42
0.09
291
     1
 43
0.36
  3
Standard
341
0
 44
0.18
300

342
11
174
     1
178
     6
175
     1
176
     0
 93
-1056964608
 45
0.18
292
     0
297
     0
 46
0.18
343
0
 94
-1056964608
 47
1.0
 49
1.0
140
1.0
293
     1
141
0.0
294
     1
177
     0
142
1.0
295
     0
296
     0
143
0.125
271
     0
272
     9
273
     9
298
     0
  0
MLINESTYLE
  5
18
102
{ACAD_REACTORS
330
17
102
}
330
17
100
AcDbMlineStyle
  2
Standard
 70
     0
  3

 62
   256
 51
90.0
 52
90.0
 71
     2
 49
0.5
 62
   256
  6
BYLAYER
 49
-0.5
 62
   256
  6
BYLAYER
  0
ACDBPLACEHOLDER
  5
F
102
{ACAD_REACTORS
330
E
102
}
330
E
  0
SCALE
  5
48
102
{ACAD_REACTORS
330
47
102
}
330
47
100
AcDbScale
 70
     0
300
1:1
140
1.0
141
1.0
290
     1
  0
SCALE
  5
49
102
{ACAD_REACTORS
330
47
102
}
330
47
100
AcDbScale
 70
     0
300
1/128" = 1'-0"
140
0.0078125
141
12.0
290
     0
  0
SCALE
  5
4A
102
{ACAD_REACTORS
330
47
102
}
330
47
100
AcDbScale
 70
     0
300
1/64" = 1'-0"
140
0.015625
141
12.0
290
     0
  0
SCALE
  5
4B
102
{ACAD_REACTORS
330
47
102
}
330
47
100
AcDbScale
 70
     0
300
1/32" = 1'-0"
140
0.03125
141
12.0
290
     0
  0
SCALE
  5
4C
102
{ACAD_REACTORS
330
47
102
}
330
47
100
AcDbScale
 70
     0
300
1/16" = 1'-0"
140
0.0625
141
12.0
290
     0
  0
SCALE
  5
4D
102
{ACAD_REACTORS
330
47
102
}
330
47
100
AcDbScale
 70
     0
300
3/32" = 1'-0"
140
0.09375
141
12.0
290
     0
  0
SCALE
  5
4E
102
{ACAD_REACTORS
330
47
102
}
330
47
100
AcDbScale
 70
     0
300
1/8" = 1'-0"
140
0.125
141
12.0
290
     0
  0
SCALE
  5
4F
102
{ACAD_REACTORS
330
47
102
}
330
47
100
AcDbScale
 70
     0
300
3/16" = 1'-0"
140
0.1875
141
12.0
290
     0
  0
SCALE
  5
50
102
{ACAD_REACTORS
330
47
102
}
330
47
100
AcDbScale
 70
     0
300
1/4" = 1'-0"
140
0.25
141
12.0
290
     0
  0
SCALE
  5
51
102
{ACAD_REACTORS
330
47
102
}
330
47
100
AcDbScale
 70
     0
300
3/8" = 1'-0"
140
0.375
141
12.0
290
     0
  0
SCALE
  5
52
102
{ACAD_REACTORS
330
47
102
}
330
47
100
AcDbScale
 70
     0
300
1/2" = 1'-0"
140
0.5
141
12.0
290
     0
  0
SCALE
  5
53
102
{ACAD_REACTORS
330
47
102
}
330
47
100
AcDbScale
 70
     0
300
3/4" = 1'-0"
140
0.75
141
12.0
290
     0
  0
SCALE
  5
54
102
{ACAD_REACTORS
330
47
102
}
330
47
100
AcDbScale
 70
     0
300
1" = 1'-0"
140
1.0
141
12.0
290
     0
  0
SCALE
  5
55
102
{ACAD_REACTORS
330
47
102
}
330
47
100
AcDbScale
 70
     0
300
1-1/2" = 1'-0"
140
1.5
141
12.0
290
     0
  0
SCALE
  5
56
102
{ACAD_REACTORS
330
47
102
}
330
47
100
AcDbScale
 70
     0
300
3" = 1'-0"
140
3.0
141
12.0
290
     0
  0
SCALE
  5
57
102
{ACAD_REACTORS
330
47
102
}
330
47
100
AcDbScale
 70
     0
300
6" = 1'-0"
140
6.0
141
12.0
290
     0
  0
SCALE
  5
58
102
{ACAD_REACTORS
330
47
102
}
330
47
100
AcDbScale
 70
     0
300
1'-0" = 1'-0"
140
12.0
141
12.0
290
     0
  0
TABLESTYLE
  5
5A
102
{ACAD_REACTORS
330
59
102
}
102
{ACAD_XDICTIONARY
360
7C
102
}
330
59
100
AcDbTableStyle
  3
Standard
 70
     0
 71
     0
 40
0.06
 41
0.06
280
     0
281
     0
  7
Standard
140
0.18
170
     2
 62
     0
 63
   257
283
     0
 90
        4
 91
        0
  1

274
    -2
284
     1
 64
     0
275
    -2
285
     1
 65
     0
276
    -2
286
     1
 66
     0
277
    -2
287
     1
 67
     0
278
    -2
288
     1
 68
     0
279
    -2
289
     1
 69
     0
  7
Standard
140
0.25
170
     5
 62
     0
 63
   257
283
     0
 90
        4
 91
        0
  1

274
    -2
284
     1
 64
     0
275
    -2
285
     1
 65
     0
276
    -2
286
     1
 66
     0
277
    -2
287
     1
 67
     0
278
    -2
288
     1
 68
     0
279
    -2
289
     1
 69
     0
  7
Standard
140
0.18
170
     5
 62
     0
 63
   257
283
     0
 90
        4
 91
        0
  1

274
    -2
284
     1
 64
     0
275
    -2
285
     1
 65
     0
276
    -2
286
     1
 66
     0
277
    -2
287
     1
 67
     0
278
    -2
288
     1
 68
     0
279
    -2
289
     1
 69
     0
  0
VISUALSTYLE
  5
2F
102
{ACAD_REACTORS
330
2A
102
}
330
2A
100
AcDbVisualStyle
  2
2dWireframe
 70
     4
177
     3
291
     0
 70
    58
 90
        0
176
     1
 90
        2
176
     1
 90
        0
176
     1
 90
        0
176
     1
 40
0.6
176
     1
 40
30.0
176
     1
 62
     7
420
 16777215
176
     1
 90
        1
176
     1
 90
        4
176
     1
 62
     7
176
     1
 62
   257
176
     1
 90
        1
176
     1
 90
        1
176
     1
 40
1.0
176
     1
 90
        0
176
     1
 62
   257
176
     1
 40
1.0
176
     1
 90
        1
176
     1
 90
        6
176
     1
 90
        2
176
     1
 62
     7
176
     1
 90
        5
176
     1
 90
        0
176
     1
 90
        0
176
     1
290
     0
176
     1
 90
        1
176
     1
 40
0.0
176
     1
 90
        0
176
     1
290
     1
176
     1
290
     1
176
     1
290
     0
176
     1
290
     0
176
     1
290
     0
176
     1
290
     0
176
     1
290
     0
176
     1
290
     0
176
     1
290
     0
176
     1
 90
       50
176
     1
 40
0.0
176
     1
 40
1.0
176
     1
 90
        0
176
     1
 62
    18
420
        0
176
     1
 90
       50
176
     1
 90
        3
176
     1
 62
     5
420
      255
176
     1
290
     0
176
     1
 90
       50
176
     1
 90
       50
176
     1
 90
       50
176
     1
290
     0
176
     1
 90
       50
176
     1
 62
   256
176
     0
 40
1.0
176
     0
 90
        2
176
     1
  1
strokes_ogs.tif
176
     1
290
     0
176
     1
 40
1.0
176
     1
 40
1.0
176
     1
  0
VISUALSTYLE
  5
32
102
{ACAD_REACTORS
330
2A
102
}
330
2A
100
AcDbVisualStyle
  2
Basic
 70
     7
177
     3
291
     1
 70
    58
 90
        1
176
     1
 90
        0
176
     1
 90
        1
176
     1
 90
        0
176
     1
 40
0.6
176
     1
 40
30.0
176
     1
 62
     7
420
 16777215
176
     1
 90
        0
176
     1
 90
        4
176
     1
 62
     7
176
     1
 62
   257
176
     1
 90
        1
176
     1
 90
        1
176
     1
 40
1.0
176
     1
 90
        8
176
     1
 62
     7
176
     1
 40
1.0
176
     1
 90
        1
176
     1
 90
        6
176
     1
 90
        2
176
     1
 62
     7
176
     1
 90
        5
176
     1
 90
        0
176
     1
 90
        0
176
     1
290
     0
176
     1
 90
        1
176
     1
 40
0.0
176
     1
 90
        0
176
     1
290
     0
176
     1
290
     1
176
     1
290
     1
176
     1
290
     0
176
     1
290
     0
176
     1
290
     0
176
     1
290
     0
176
     1
290
     0
176
     1
290
     0
176
     1
 90
       50
176
     1
 40
0.0
176
     1
 40
1.0
176
     1
 90
        0
176
     1
 62
    18
420
        0
176
     1
 90
       50
176
     1
 90
        3
176
     1
 62
     5
420
      255
176
     1
290
     0
176
     1
 90
       50
176
     1
 90
       50
176
     1
 90
       50
176
     1
290
     0
176
     1
 90
       50
176
     1
 62
   256
176
     0
 40
1.0
176
     0
 90
        2
176
     1
  1
strokes_ogs.tif
176
     1
290
     0
176
     1
 40
1.0
176
     1
 40
1.0
176
     1
  0
VISUALSTYLE
  5
36
102
{ACAD_REACTORS
330
2A
102
}
330
2A
100
AcDbVisualStyle
  2
Brighten
 70
    12
177
     3
291
     1
 70
    58
 90
        2
176
     1
 90
        2
176
     1
 90
        0
176
     1
 90
        0
176
     1
 40
0.6
176
     1
 40
30.0
176
     1
 62
     7
420
 16777215
176
     1
 90
        1
176
     1
 90
        4
176
     1
 62
     7
176
     1
 62
   257
176
     1
 90
        1
176
     1
 90
        1
176
     1
 40
1.0
176
     1
 90
        8
176
     1
 62
     7
176
     1
 40
1.0
176
     1
 90
        1
176
     1
 90
        6
176
     1
 90
        2
176
     1
 62
     7
176
     1
 90
        5
176
     1
 90
        0
176
     1
 90
        0
176
     1
290
     0
176
     1
 90
        1
176
     1
 40
50.0
176
     1
 90
        0
176
     1
290
     0
176
     1
290
     1
176
     1
290
     1
176
     1
290
     0
176
     1
290
     0
176
     1
290
     0
176
     1
290
     0
176
     1
290
     0
176
     1
290
     0
176
     1
 90
       50
176
     1
 40
0.0
176
     1
 40
1.0
176
     1
 90
        0
176
     1
 62
    18
420
        0
176
     1
 90
       50
176
     1
 90
        3
176
     1
 62
     5
420
      255
176
     1
290
     0
176
     1
 90
       50
176
     1
 90
       50
176
     1
 90
       50
176
     1
290
     0
176
     1
 90
       50
176
     1
 62
   256
176
     0
 40
1.0
176
     0
 90
        2
176
     1
  1
strokes_ogs.tif
176
     1
290
     0
176
     1
 40
1.0
176
     1
 40
1.0
176
     1
  0
VISUALSTYLE
  5
3A
102
{ACAD_REACTORS
330
2A
102
}
330
2A
100
AcDbVisualStyle
  2
ColorChange
 70
    16
177
     3
291
     1
 70
    58
 90
        2
176
     1
 90
        2
176
     1
 90
        3
176
     1
 90
        0
176
     1
 40
0.6
176
     1
 40
30.0
176
     1
 62
     8
420
  8421504
176
     1
 90
        1
176
     1
 90
        4
176
     1
 62
     7
176
     1
 62
   257
176
     1
 90
        1
176
     1
 90
        1
176
     1
 40
1.0
176
     1
 90
        8
176
     1
 62
     8
420
  8421504
176
     1
 40
1.0
176
     1
 90
        1
176
     1
 90
        6
176
     1
 90
        2
176
     1
 62
     7
176
     1
 90
        5
176
     1
 90
        0
176
     1
 90
        0
176
     1
290
     0
176
     1
 90
        1
176
     1
 40
0.0
176
     1
 90
        0
176
     1
290
     0
176
     1
290
     1
176
     1
290
     1
176
     1
290
     0
176
     1
290
     0
176
     1
290
     0
176
     1
290
     0
176
     1
290
     0
176
     1
290
     0
176
     1
 90
       50
176
     1
 40
0.0
176
     1
 40
1.0
176
     1
 90
        0
176
     1
 62
    18
420
        0
176
     1
 90
       50
176
     1
 90
        3
176
     1
 62
     5
420
      255
176
     1
290
     0
176
     1
 90
       50
176
     1
 90
       50
176
     1
 90
       50
176
     1
290
     0
176
     1
 90
       50
176
     1
 62
   256
176
     0
 40
1.0
176
     0
 90
        2
176
     1
  1
strokes_ogs.tif
176
     1
290
     0
176
     1
 40
1.0
176
     1
 40
1.0
176
     1
  0
VISUALSTYLE
  5
34
102
{ACAD_REACTORS
330
2A
102
}
330
2A
100
AcDbVisualStyle
  2
Conceptual
 70
     9
177
     3
291
     0
 70
    58
 90
        3
176
     1
 90
        2
176
     1
 90
        0
176
     1
 90
        0
176
     1
 40
0.6
176
     1
 40
30.0
176
     1
 62
     7
420
 16777215
176
     1
 90
        2
176
     1
 90
        2
176
     1
 62
     7
176
     1
 62
   257
176
     1
 90
        1
176
     1
 90
        1
176
     1
 40
179.0
176
     1
 90
        8
176
     1
 62
     7
176
     1
 40
1.0
176
     1
 90
        1
176
     1
 90
        6
176
     1
 90
        2
176
     1
 62
     7
176
     1
 90
        3
176
     1
 90
        0
176
     1
 90
        0
176
     1
290
     0
176
     1
 90
        1
176
     1
 40
0.0
176
     1
 90
        0
176
     1
290
     0
176
     1
290
     1
176
     1
290
     1
176
     1
290
     0
176
     1
290
     0
176
     1
290
     0
176
     1
290
     0
176
     1
290
     0
176
     1
290
     0
176
     1
 90
       50
176
     1
 40
0.0
176
     1
 40
1.0
176
     1
 90
        0
176
     1
 62
    18
420
        0
176
     1
 90
       50
176
     1
 90
        3
176
     1
 62
     5
420
      255
176
     1
290
     0
176
     1
 90
       50
176
     1
 90
       50
176
     1
 90
       50
176
     1
290
     0
176
     1
 90
       50
176
     1
 62
   256
176
     0
 40
1.0
176
     0
 90
        2
176
     1
  1
strokes_ogs.tif
176
     1
290
     0
176
     1
 40
1.0
176
     1
 40
1.0
176
     1
  0
VISUALSTYLE
  5
35
102
{ACAD_REACTORS
330
2A
102
}
330
2A
100
AcDbVisualStyle
  2
Dim
 70
    11
177
     3
291
     1
 70
    58
 90
        2
176
     1
 90
        2
176
     1
 90
        0
176
     1
 90
        0
176
     1
 40
0.6
176
     1
 40
30.0
176
     1
 62
     7
420
 16777215
176
     1
 90
        1
176
     1
 90
        4
176
     1
 62
     7
176
     1
 62
   257
176
     1
 90
        1
176
     1
 90
        1
176
     1
 40
1.0
176
     1
 90
        8
176
     1
 62
     7
176
     1
 40
1.0
176
     1
 90
        1
176
     1
 90
        6
176
     1
 90
        2
176
     1
 62
     7
176
     1
 90
        5
176
     1
 90
        0
176
     1
 90
        0
176
     1
290
     0
176
     1
 90
        1
176
     1
 40
-50.0
176
     1
 90
        0
176
     1
290
     0
176
     1
290
     1
176
     1
290
     1
176
     1
290
     0
176
     1
290
     0
176
     1
290
     0
176
     1
290
     0
176
     1
290
     0
176
     1
290
     0
176
     1
 90
       50
176
     1
 40
0.0
176
     1
 40
1.0
176
     1
 90
        0
176
     1
 62
    18
420
        0
176
     1
 90
       50
176
     1
 90
        3
176
     1
 62
     5
420
      255
176
     1
290
     0
176
     1
 90
       50
176
     1
 90
       50
176
     1
 90
       50
176
     1
290
     0
176
     1
 90
       50
176
     1
 62
   256
176
     0
 40
1.0
176
     0
 90
        2
176
     1
  1
strokes_ogs.tif
176
     1
290
     0
176
     1
 40
1.0
176
     1
 40
1.0
176
     1
  0
VISUALSTYLE
  5
3D
102
{ACAD_REACTORS
330
2A
102
}
330
2A
100
AcDbVisualStyle
  2
EdgeColorOff
 70
    22
177
     3
291
     1
 70
    58
 90
        2
176
     0
 90
        2
176
     0
 90
        0
176
     0
 90
        0
176
     0
 40
0.6
176
     0
 40
30.0
176
     0
 62
     7
420
 16777215
176
     0
 90
        1
176
     0
 90
        4
176
     0
 62
     7
176
     0
 62
   257
176
     0
 90
        1
176
     0
 90
        1
176
     0
 40
1.0
176
     0
 90
        8
176
     2
 62
     7
176
     0
 40
1.0
176
     0
 90
        1
176
     0
 90
        6
176
     0
 90
        2
176
     0
 62
     7
176
     0
 90
        5
176
     0
 90
        0
176
     0
 90
        0
176
     0
290
     0
176
     0
 90
        1
176
     0
 40
0.0
176
     0
 90
        0
176
     0
290
     0
176
     0
290
     1
176
     0
290
     1
176
     0
290
     0
176
     0
290
     0
176
     0
290
     0
176
     0
290
     0
176
     0
290
     0
176
     0
290
     0
176
     0
 90
       50
176
     0
 40
0.0
176
     0
 40
1.0
176
     0
 90
        0
176
     0
 62
    18
420
        0
176
     0
 90
       50
176
     0
 90
        3
176
     0
 62
     5
420
      255
176
     0
290
     0
176
     0
 90
       50
176
     0
 90
       50
176
     0
 90
       50
176
     0
290
     0
176
     0
 90
       50
176
     0
 62
   256
176
     0
 40
1.0
176
     0
 90
        2
176
     0
  1
strokes_ogs.tif
176
     0
290
     0
176
     0
 40
1.0
176
     0
 40
1.0
176
     0
  0
VISUALSTYLE
  5
39
102
{ACAD_REACTORS
330
2A
102
}
330
2A
100
AcDbVisualStyle
  2
Facepattern
 70
    15
177
     3
291
     1
 70
    58
 90
        2
176
     1
 90
        2
176
     1
 90
        0
176
     1
 90
        0
176
     1
 40
0.6
176
     1
 40
30.0
176
     1
 62
     7
420
 16777215
176
     1
 90
        1
176
     1
 90
        4
176
     1
 62
     7
176
     1
 62
   257
176
     1
 90
        1
176
     1
 90
        1
176
     1
 40
1.0
176
     1
 90
        8
176
     1
 62
     7
176
     1
 40
1.0
176
     1
 90
        1
176
     1
 90
        6
176
     1
 90
        2
176
     1
 62
     7
176
     1
 90
        5
176
     1
 90
        0
176
     1
 90
        0
176
     1
290
     0
176
     1
 90
        1
176
     1
 40
0.0
176
     1
 90
        0
176
     1
290
     0
176
     1
290
     1
176
     1
290
     1
176
     1
290
     0
176
     1
290
     0
176
     1
290
     0
176
     1
290
     0
176
     1
290
     0
176
     1
290
     0
176
     1
 90
       50
176
     1
 40
0.0
176
     1
 40
1.0
176
     1
 90
        0
176
     1
 62
    18
420
        0
176
     1
 90
       50
176
     1
 90
        3
176
     1
 62
     5
420
      255
176
     1
290
     0
176
     1
 90
       50
176
     1
 90
       50
176
     1
 90
       50
176
     1
290
     0
176
     1
 90
       50
176
     1
 62
   256
176
     0
 40
1.0
176
     0
 90
        2
176
     1
  1
strokes_ogs.tif
176
     1
290
     0
176
     1
 40
1.0
176
     1
 40
1.0
176
     1
  0
VISUALSTYLE
  5
2B
102
{ACAD_REACTORS
330
2A
102
}
330
2A
100
AcDbVisualStyle
  2
Flat
 70
     0
177
     3
291
     1
 70
    58
 90
        2
176
     1
 90
        1
176
     1
 90
        1
176
     1
 90
        2
176
     1
 40
0.6
176
     1
 40
30.0
176
     1
 62
     7
420
 16777215
176
     1
 90
        0
176
     1
 90
        0
176
     1
 62
     7
176
     1
 62
   257
176
     1
 90
        1
176
     1
 90
        1
176
     1
 40
1.0
176
     1
 90
        8
176
     1
 62
     7
176
     1
 40
1.0
176
     1
 90
        1
176
     1
 90
        6
176
     1
 90
        2
176
     1
 62
     7
176
     1
 90
        5
176
     1
 90
        0
176
     1
 90
        0
176
     1
290
     0
176
     1
 90
       13
176
     1
 40
0.0
176
     1
 90
        0
176
     1
290
     0
176
     1
290
     1
176
     1
290
     1
176
     1
290
     0
176
     1
290
     0
176
     1
290
     0
176
     1
290
     0
176
     1
290
     0
176
     1
290
     0
176
     1
 90
       50
176
     1
 40
0.0
176
     1
 40
1.0
176
     1
 90
        0
176
     1
 62
    18
420
        0
176
     1
 90
       50
176
     1
 90
        3
176
     1
 62
     5
420
      255
176
     1
290
     0
176
     1
 90
       50
176
     1
 90
       50
176
     1
 90
       50
176
     1
290
     0
176
     1
 90
       50
176
     1
 62
   256
176
     0
 40
1.0
176
     0
 90
        2
176
     1
  1
strokes_ogs.tif
176
     1
290
     0
176
     1
 40
1.0
176
     1
 40
1.0
176
     1
  0
VISUALSTYLE
  5
2C
102
{ACAD_REACTORS
330
2A
102
}
330
2A
100
AcDbVisualStyle
  2
FlatWithEdges
 70
     1
177
     3
291
     1
 70
    58
 90
        2
176
     1
 90
        1
176
     1
 90
        1
176
     1
 90
        2
176
     1
 40
0.6
176
     1
 40
30.0
176
     1
 62
     7
420
 16777215
176
     1
 90
        1
176
     1
 90
        0
176
     1
 62
     7
176
     1
 62
   257
176
     1
 90
        1
176
     1
 90
        1
176
     1
 40
1.0
176
     1
 90
        0
176
     1
 62
   257
176
     1
 40
1.0
176
     1
 90
        1
176
     1
 90
        6
176
     1
 90
        2
176
     1
 62
     7
176
     1
 90
        5
176
     1
 90
        0
176
     1
 90
        0
176
     1
290
     0
176
     1
 90
       13
176
     1
 40
0.0
176
     1
 90
        0
176
     1
290
     0
176
     1
290
     1
176
     1
290
     1
176
     1
290
     0
176
     1
290
     0
176
     1
290
     0
176
     1
290
     0
176
     1
290
     0
176
     1
290
     0
176
     1
 90
       50
176
     1
 40
0.0
176
     1
 40
1.0
176
     1
 90
        0
176
     1
 62
    18
420
        0
176
     1
 90
       50
176
     1
 90
        3
176
     1
 62
     5
420
      255
176
     1
290
     0
176
     1
 90
       50
176
     1
 90
       50
176
     1
 90
       50
176
     1
290
     0
176
     1
 90
       50
176
     1
 62
   256
176
     0
 40
1.0
176
     0
 90
        2
176
     1
  1
strokes_ogs.tif
176
     1
290
     0
176
     1
 40
1.0
176
     1
 40
1.0
176
     1
  0
VISUALSTYLE
  5
2D
102
{ACAD_REACTORS
330
2A
102
}
330
2A
100
AcDbVisualStyle
  2
Gouraud
 70
     2
177
     3
291
     1
 70
    58
 90
        2
176
     1
 90
        2
176
     1
 90
        1
176
     1
 90
        2
176
     1
 40
0.6
176
     1
 40
30.0
176
     1
 62
     7
420
 16777215
176
     1
 90
        0
176
     1
 90
        0
176
     1
 62
     7
176
     1
 62
   257
176
     1
 90
        1
176
     1
 90
        1
176
     1
 40
1.0
176
     1
 90
        0
176
     1
 62
     7
176
     1
 40
1.0
176
     1
 90
        1
176
     1
 90
        6
176
     1
 90
        2
176
     1
 62
     7
176
     1
 90
        5
176
     1
 90
        0
176
     1
 90
        0
176
     1
290
     0
176
     1
 90
       13
176
     1
 40
0.0
176
     1
 90
        0
176
     1
290
     0
176
     1
290
     1
176
     1
290
     1
176
     1
290
     0
176
     1
290
     0
176
     1
290
     0
176
     1
290
     0
176
     1
290
     0
176
     1
290
     0
176
     1
 90
       50
176
     1
 40
0.0
176
     1
 40
1.0
176
     1
 90
        0
176
     1
 62
    18
420
        0
176
     1
 90
       50
176
     1
 90
        3
176
     1
 62
     5
420
      255
176
     1
290
     0
176
     1
 90
       50
176
     1
 90
       50
176
     1
 90
       50
176
     1
290
     0
176
     1
 90
       50
176
     1
 62
   256
176
     0
 40
1.0
176
     0
 90
        2
176
     1
  1
strokes_ogs.tif
176
     1
290
     0
176
     1
 40
1.0
176
     1
 40
1.0
176
     1
  0
VISUALSTYLE
  5
2E
102
{ACAD_REACTORS
330
2A
102
}
330
2A
100
AcDbVisualStyle
  2
GouraudWithEdges
 70
     3
177
     3
291
     1
 70
    58
 90
        2
176
     1
 90
        2
176
     1
 90
        1
176
     1
 90
        2
176
     1
 40
0.6
176
     1
 40
30.0
176
     1
 62
     7
420
 16777215
176
     1
 90
        1
176
     1
 90
        0
176
     1
 62
     7
176
     1
 62
   257
176
     1
 90
        1
176
     1
 90
        1
176
     1
 40
1.0
176
     1
 90
        0
176
     1
 62
   257
176
     1
 40
1.0
176
     1
 90
        1
176
     1
 90
        6
176
     1
 90
        2
176
     1
 62
     7
176
     1
 90
        5
176
     1
 90
        0
176
     1
 90
        0
176
     1
290
     0
176
     1
 90
       13
176
     1
 40
0.0
176
     1
 90
        0
176
     1
290
     0
176
     1
290
     1
176
     1
290
     1
176
     1
290
     0
176
     1
290
     0
176
     1
290
     0
176
     1
290
     0
176
     1
290
     0
176
     1
290
     0
176
     1
 90
       50
176
     1
 40
0.0
176
     1
 40
1.0
176
     1
 90
        0
176
     1
 62
    18
420
        0
176
     1
 90
       50
176
     1
 90
        3
176
     1
 62
     5
420
      255
176
     1
290
     0
176
     1
 90
       50
176
     1
 90
       50
176
     1
 90
       50
176
     1
290
     0
176
     1
 90
       50
176
     1
 62
   256
176
     0
 40
1.0
176
     0
 90
        2
176
     1
  1
strokes_ogs.tif
176
     1
290
     0
176
     1
 40
1.0
176
     1
 40
1.0
176
     1
  0
VISUALSTYLE
  5
31
102
{ACAD_REACTORS
330
2A
102
}
330
2A
100
AcDbVisualStyle
  2
Hidden
 70
     6
177
     3
291
     0
 70
    58
 90
        1
176
     1
 90
        2
176
     1
 90
        2
176
     1
 90
        0
176
     1
 40
0.6
176
     1
 40
30.0
176
     1
 62
     7
420
 16777215
176
     1
 90
        2
176
     1
 90
        2
176
     1
 62
     7
176
     1
 62
   257
176
     1
 90
        2
176
     1
 90
        1
176
     1
 40
40.0
176
     1
 90
        0
176
     1
 62
   257
176
     1
 40
1.0
176
     1
 90
        1
176
     1
 90
        6
176
     1
 90
        2
176
     1
 62
     7
176
     1
 90
        3
176
     1
 90
        0
176
     1
 90
        0
176
     1
290
     0
176
     1
 90
        1
176
     1
 40
0.0
176
     1
 90
        0
176
     1
290
     0
176
     1
290
     1
176
     1
290
     1
176
     1
290
     0
176
     1
290
     0
176
     1
290
     0
176
     1
290
     0
176
     1
290
     0
176
     1
290
     0
176
     1
 90
       50
176
     1
 40
0.0
176
     1
 40
1.0
176
     1
 90
        0
176
     1
 62
    18
420
        0
176
     1
 90
       50
176
     1
 90
        3
176
     1
 62
     5
420
      255
176
     1
290
     0
176
     1
 90
       50
176
     1
 90
       50
176
     1
 90
       50
176
     1
290
     0
176
     1
 90
       50
176
     1
 62
   256
176
     0
 40
1.0
176
     0
 90
        2
176
     1
  1
strokes_ogs.tif
176
     1
290
     0
176
     1
 40
1.0
176
     1
 40
1.0
176
     1
  0
VISUALSTYLE
  5
3B
102
{ACAD_REACTORS
330
2A
102
}
330
2A
100
AcDbVisualStyle
  2
JitterOff
 70
    20
177
     3
291
     1
 70
    58
 90
        2
176
     0
 90
        2
176
     0
 90
        0
176
     0
 90
        0
176
     0
 40
0.6
176
     0
 40
30.0
176
     0
 62
     7
420
 16777215
176
     0
 90
        1
176
     0
 90
        4
176
     0
 62
     7
176
     0
 62
   257
176
     0
 90
        1
176
     0
 90
        1
176
     0
 40
1.0
176
     0
 90
       10
176
     2
 62
     7
176
     0
 40
1.0
176
     0
 90
        1
176
     0
 90
        6
176
     0
 90
        2
176
     0
 62
     7
176
     0
 90
        5
176
     0
 90
        0
176
     0
 90
        0
176
     0
290
     0
176
     0
 90
        1
176
     0
 40
0.0
176
     0
 90
        0
176
     0
290
     0
176
     0
290
     1
176
     0
290
     1
176
     0
290
     0
176
     0
290
     0
176
     0
290
     0
176
     0
290
     0
176
     0
290
     0
176
     0
290
     0
176
     0
 90
       50
176
     0
 40
0.0
176
     0
 40
1.0
176
     0
 90
        0
176
     0
 62
    18
420
        0
176
     0
 90
       50
176
     0
 90
        3
176
     0
 62
     5
420
      255
176
     0
290
     0
176
     0
 90
       50
176
     0
 90
       50
176
     0
 90
       50
176
     0
290
     0
176
     0
 90
       50
176
     0
 62
   256
176
     0
 40
1.0
176
     0
 90
        2
176
     0
  1
strokes_ogs.tif
176
     0
290
     0
176
     0
 40
1.0
176
     0
 40
1.0
176
     0
  0
VISUALSTYLE
  5
38
102
{ACAD_REACTORS
330
2A
102
}
330
2A
100
AcDbVisualStyle
  2
Linepattern
 70
    14
177
     3
291
     1
 70
    58
 90
        2
176
     1
 90
        2
176
     1
 90
        0
176
     1
 90
        0
176
     1
 40
0.6
176
     1
 40
30.0
176
     1
 62
     7
420
 16777215
176
     1
 90
        1
176
     1
 90
        4
176
     1
 62
     7
176
     1
 62
   257
176
     1
 90
        7
176
     1
 90
        7
176
     1
 40
1.0
176
     1
 90
        8
176
     1
 62
     7
176
     1
 40
1.0
176
     1
 90
        1
176
     1
 90
        6
176
     1
 90
        2
176
     1
 62
     7
176
     1
 90
        5
176
     1
 90
        0
176
     1
 90
        0
176
     1
290
     0
176
     1
 90
        1
176
     1
 40
0.0
176
     1
 90
        0
176
     1
290
     0
176
     1
290
     1
176
     1
290
     1
176
     1
290
     0
176
     1
290
     0
176
     1
290
     0
176
     1
290
     0
176
     1
290
     0
176
     1
290
     0
176
     1
 90
       50
176
     1
 40
0.0
176
     1
 40
1.0
176
     1
 90
        0
176
     1
 62
    18
420
        0
176
     1
 90
       50
176
     1
 90
        3
176
     1
 62
     5
420
      255
176
     1
290
     0
176
     1
 90
       50
176
     1
 90
       50
176
     1
 90
       50
176
     1
290
     0
176
     1
 90
       50
176
     1
 62
   256
176
     0
 40
1.0
176
     0
 90
        2
176
     1
  1
strokes_ogs.tif
176
     1
290
     0
176
     1
 40
1.0
176
     1
 40
1.0
176
     1
  0
VISUALSTYLE
  5
3C
102
{ACAD_REACTORS
330
2A
102
}
330
2A
100
AcDbVisualStyle
  2
OverhangOff
 70
    21
177
     3
291
     1
 70
    58
 90
        2
176
     0
 90
        2
176
     0
 90
        0
176
     0
 90
        0
176
     0
 40
0.6
176
     0
 40
30.0
176
     0
 62
     7
420
 16777215
176
     0
 90
        1
176
     0
 90
        4
176
     0
 62
     7
176
     0
 62
   257
176
     0
 90
        1
176
     0
 90
        1
176
     0
 40
1.0
176
     0
 90
        9
176
     2
 62
     7
176
     0
 40
1.0
176
     0
 90
        1
176
     0
 90
        6
176
     0
 90
        2
176
     0
 62
     7
176
     0
 90
        5
176
     0
 90
        0
176
     0
 90
        0
176
     0
290
     0
176
     0
 90
        1
176
     0
 40
0.0
176
     0
 90
        0
176
     0
290
     0
176
     0
290
     1
176
     0
290
     1
176
     0
290
     0
176
     0
290
     0
176
     0
290
     0
176
     0
290
     0
176
     0
290
     0
176
     0
290
     0
176
     0
 90
       50
176
     0
 40
0.0
176
     0
 40
1.0
176
     0
 90
        0
176
     0
 62
    18
420
        0
176
     0
 90
       50
176
     0
 90
        3
176
     0
 62
     5
420
      255
176
     0
290
     0
176
     0
 90
       50
176
     0
 90
       50
176
     0
 90
       50
176
     0
290
     0
176
     0
 90
       50
176
     0
 62
   256
176
     0
 40
1.0
176
     0
 90
        2
176
     0
  1
strokes_ogs.tif
176
     0
290
     0
176
     0
 40
1.0
176
     0
 40
1.0
176
     0
  0
VISUALSTYLE
  5
33
102
{ACAD_REACTORS
330
2A
102
}
330
2A
100
AcDbVisualStyle
  2
Realistic
 70
     8
177
     3
291
     0
 70
    58
 90
        2
176
     1
 90
        3
176
     1
 90
        0
176
     1
 90
        2
176
     1
 40
0.6
176
     1
 40
30.0
176
     1
 62
     7
420
 16777215
176
     1
 90
        0
176
     1
 90
        0
176
     1
 62
     7
176
     1
 62
   257
176
     1
 90
        1
176
     1
 90
        1
176
     1
 40
1.0
176
     1
 90
        8
176
     1
 62
   257
176
     1
 40
1.0
176
     1
 90
        1
176
     1
 90
        6
176
     1
 90
        2
176
     1
 62
     7
176
     1
 90
        3
176
     1
 90
        0
176
     1
 90
        0
176
     1
290
     0
176
     1
 90
       13
176
     1
 40
0.0
176
     1
 90
        0
176
     1
290
     0
176
     1
290
     1
176
     1
290
     1
176
     1
290
     0
176
     1
290
     0
176
     1
290
     0
176
     1
290
     0
176
     1
290
     0
176
     1
290
     0
176
     1
 90
       50
176
     1
 40
0.0
176
     1
 40
1.0
176
     1
 90
        0
176
     1
 62
    18
420
        0
176
     1
 90
       50
176
     1
 90
        3
176
     1
 62
     5
420
      255
176
     1
290
     0
176
     1
 90
       50
176
     1
 90
       50
176
     1
 90
       50
176
     1
290
     0
176
     1
 90
       50
176
     1
 62
   256
176
     0
 40
1.0
176
     0
 90
        2
176
     1
  1
strokes_ogs.tif
176
     1
290
     0
176
     1
 40
1.0
176
     1
 40
1.0
176
     1
  0
VISUALSTYLE
  5
42
102
{ACAD_REACTORS
330
2A
102
}
330
2A
100
AcDbVisualStyle
  2
Shaded
 70
    27
177
     3
291
     0
 70
    58
 90
        2
176
     1
 90
        2
176
     1
 90
        1
176
     1
 90
        2
176
     1
 40
0.6
176
     1
 40
30.0
176
     1
 62
     7
420
 16777215
176
     1
 90
        0
176
     1
 90
        4
176
     1
 62
     7
176
     1
 62
   257
176
     1
 90
        1
176
     1
 90
        1
176
     1
 40
1.0
176
     1
 90
        8
176
     1
 62
   257
176
     1
 40
1.0
176
     1
 90
        1
176
     1
 90
        6
176
     1
 90
        2
176
     1
 62
     8
420
  7895160
176
     1
 90
        3
176
     1
 90
        0
176
     1
 90
        0
176
     1
290
     0
176
     1
 90
        5
176
     1
 40
0.0
176
     1
 90
        0
176
     1
290
     0
176
     1
290
     1
176
     1
290
     1
176
     1
290
     0
176
     1
290
     0
176
     1
290
     0
176
     1
290
     0
176
     1
290
     0
176
     1
290
     0
176
     1
 90
       50
176
     1
 40
0.0
176
     1
 40
1.0
176
     1
 90
        0
176
     1
 62
    18
420
        0
176
     1
 90
       50
176
     1
 90
        3
176
     1
 62
     5
420
      255
176
     1
290
     0
176
     1
 90
       50
176
     1
 90
       50
176
     1
 90
       50
176
     1
290
     0
176
     1
 90
       50
176
     1
 62
   256
176
     0
 40
1.0
176
     0
 90
        2
176
     1
  1
strokes_ogs.tif
176
     1
290
     0
176
     1
 40
1.0
176
     1
 40
1.0
176
     1
  0
VISUALSTYLE
  5
41
102
{ACAD_REACTORS
330
2A
102
}
330
2A
100
AcDbVisualStyle
  2
Shaded with edges
 70
    26
177
     3
291
     0
 70
    58
 90
        2
176
     1
 90
        2
176
     1
 90
        1
176
     1
 90
        2
176
     1
 40
0.6
176
     1
 40
30.0
176
     1
 62
     7
420
 16777215
176
     1
 90
        1
176
     1
 90
       10
176
     1
 62
     7
176
     1
 62
   257
176
     1
 90
        2
176
     1
 90
        1
176
     1
 40
1.0
176
     1
 90
        8
176
     1
 62
   257
176
     1
 40
1.0
176
     1
 90
        1
176
     1
 90
        6
176
     1
 90
        2
176
     1
 62
     7
176
     1
 90
        3
176
     1
 90
        0
176
     1
 90
        0
176
     1
290
     0
176
     1
 90
        5
176
     1
 40
0.0
176
     1
 90
        0
176
     1
290
     0
176
     1
290
     1
176
     1
290
     1
176
     1
290
     0
176
     1
290
     0
176
     1
290
     0
176
     1
290
     0
176
     1
290
     0
176
     1
290
     0
176
     1
 90
       50
176
     1
 40
0.0
176
     1
 40
1.0
176
     1
 90
        0
176
     1
 62
    18
420
        0
176
     1
 90
       50
176
     1
 90
        3
176
     1
 62
     5
420
      255
176
     1
290
     0
176
     1
 90
       50
176
     1
 90
       50
176
     1
 90
       50
176
     1
290
     0
176
     1
 90
       50
176
     1
 62
   256
176
     0
 40
1.0
176
     0
 90
        2
176
     1
  1
strokes_ogs.tif
176
     1
290
     0
176
     1
 40
1.0
176
     1
 40
1.0
176
     1
  0
VISUALSTYLE
  5
3E
102
{ACAD_REACTORS
330
2A
102
}
330
2A
100
AcDbVisualStyle
  2
Shades of Gray
 70
    23
177
     3
291
     0
 70
    58
 90
        2
176
     1
 90
        2
176
     1
 90
        3
176
     1
 90
        0
176
     1
 40
0.6
176
     1
 40
30.0
176
     1
 62
     7
420
 16777215
176
     1
 90
        2
176
     1
 90
        2
176
     1
 62
     7
176
     1
 62
     7
176
     1
 90
        1
176
     1
 90
        1
176
     1
 40
40.0
176
     1
 90
        8
176
     1
 62
     7
176
     1
 40
1.0
176
     1
 90
        1
176
     1
 90
        6
176
     1
 90
        2
176
     1
 62
     7
176
     1
 90
        3
176
     1
 90
        0
176
     1
 90
        0
176
     1
290
     0
176
     1
 90
        1
176
     1
 40
0.0
176
     1
 90
        0
176
     1
290
     0
176
     1
290
     1
176
     1
290
     1
176
     1
290
     0
176
     1
290
     0
176
     1
290
     0
176
     1
290
     0
176
     1
290
     0
176
     1
290
     0
176
     1
 90
       50
176
     1
 40
0.0
176
     1
 40
1.0
176
     1
 90
        0
176
     1
 62
    18
420
        0
176
     1
 90
       50
176
     1
 90
        3
176
     1
 62
     5
420
      255
176
     1
290
     0
176
     1
 90
       50
176
     1
 90
       50
176
     1
 90
       50
176
     1
290
     0
176
     1
 90
       50
176
     1
 62
   256
176
     0
 40
1.0
176
     0
 90
        2
176
     1
  1
strokes_ogs.tif
176
     1
290
     0
176
     1
 40
1.0
176
     1
 40
1.0
176
     1
  0
VISUALSTYLE
  5
3F
102
{ACAD_REACTORS
330
2A
102
}
330
2A
100
AcDbVisualStyle
  2
Sketchy
 70
    24
177
     3
291
     0
 70
    58
 90
        1
176
     1
 90
        2
176
     1
 90
        2
176
     1
 90
        0
176
     1
 40
0.6
176
     1
 40
30.0
176
     1
 62
     7
420
 16777215
176
     1
 90
        2
176
     1
 90
        2
176
     1
 62
     7
176
     1
 62
     7
176
     1
 90
        1
176
     1
 90
        1
176
     1
 40
40.0
176
     1
 90
       11
176
     1
 62
     7
176
     1
 40
1.0
176
     1
 90
        1
176
     1
 90
        6
176
     1
 90
        2
176
     1
 62
     7
176
     1
 90
        6
176
     1
 90
        0
176
     1
 90
        0
176
     1
290
     0
176
     1
 90
        1
176
     1
 40
0.0
176
     1
 90
        0
176
     1
290
     0
176
     1
290
     1
176
     1
290
     1
176
     1
290
     0
176
     1
290
     0
176
     1
290
     0
176
     1
290
     0
176
     1
290
     0
176
     1
290
     0
176
     1
 90
       50
176
     1
 40
0.0
176
     1
 40
1.0
176
     1
 90
        0
176
     1
 62
    18
420
        0
176
     1
 90
       50
176
     1
 90
        3
176
     1
 62
     5
420
      255
176
     1
290
     0
176
     1
 90
       50
176
     1
 90
       50
176
     1
 90
       50
176
     1
290
     0
176
     1
 90
       50
176
     1
 62
   256
176
     0
 40
1.0
176
     0
 90
        2
176
     1
  1
strokes_ogs.tif
176
     1
290
     0
176
     1
 40
1.0
176
     1
 40
1.0
176
     1
  0
VISUALSTYLE
  5
37
102
{ACAD_REACTORS
330
2A
102
}
330
2A
100
AcDbVisualStyle
  2
Thicken
 70
    13
177
     3
291
     1
 70
    58
 90
        2
176
     1
 90
        2
176
     1
 90
        0
176
     1
 90
        0
176
     1
 40
0.6
176
     1
 40
30.0
176
     1
 62
     7
420
 16777215
176
     1
 90
        1
176
     1
 90
        4
176
     1
 62
     7
176
     1
 62
   257
176
     1
 90
        1
176
     1
 90
        1
176
     1
 40
1.0
176
     1
 90
       12
176
     1
 62
     7
176
     1
 40
1.0
176
     1
 90
        1
176
     1
 90
        6
176
     1
 90
        2
176
     1
 62
     7
176
     1
 90
        5
176
     1
 90
        0
176
     1
 90
        0
176
     1
290
     0
176
     1
 90
        1
176
     1
 40
0.0
176
     1
 90
        0
176
     1
290
     0
176
     1
290
     1
176
     1
290
     1
176
     1
290
     0
176
     1
290
     0
176
     1
290
     0
176
     1
290
     0
176
     1
290
     0
176
     1
290
     0
176
     1
 90
       50
176
     1
 40
0.0
176
     1
 40
1.0
176
     1
 90
        0
176
     1
 62
    18
420
        0
176
     1
 90
       50
176
     1
 90
        3
176
     1
 62
     5
420
      255
176
     1
290
     0
176
     1
 90
       50
176
     1
 90
       50
176
     1
 90
       50
176
     1
290
     0
176
     1
 90
       50
176
     1
 62
   256
176
     0
 40
1.0
176
     0
 90
        2
176
     1
  1
strokes_ogs.tif
176
     1
290
     0
176
     1
 40
1.0
176
     1
 40
1.0
176
     1
  0
VISUALSTYLE
  5
30
102
{ACAD_REACTORS
330
2A
102
}
330
2A
100
AcDbVisualStyle
  2
Wireframe
 70
     5
177
     3
291
     0
 70
    58
 90
        0
176
     1
 90
        2
176
     1
 90
        0
176
     1
 90
        0
176
     1
 40
0.6
176
     1
 40
30.0
176
     1
 62
     7
420
 16777215
176
     1
 90
        1
176
     1
 90
        4
176
     1
 62
     7
176
     1
 62
   257
176
     1
 90
        1
176
     1
 90
        1
176
     1
 40
1.0
176
     1
 90
        0
176
     1
 62
   257
176
     1
 40
1.0
176
     1
 90
        1
176
     1
 90
        6
176
     1
 90
        2
176
     1
 62
     7
176
     1
 90
        3
176
     1
 90
        0
176
     1
 90
        0
176
     1
290
     0
176
     1
 90
        1
176
     1
 40
0.0
176
     1
 90
        0
176
     1
290
     0
176
     1
290
     1
176
     1
290
     1
176
     1
290
     0
176
     1
290
     0
176
     1
290
     0
176
     1
290
     0
176
     1
290
     0
176
     1
290
     0
176
     1
 90
       50
176
     1
 40
0.0
176
     1
 40
1.0
176
     1
 90
        0
176
     1
 62
    18
420
        0
176
     1
 90
       50
176
     1
 90
        3
176
     1
 62
     5
420
      255
176
     1
290
     0
176
     1
 90
       50
176
     1
 90
       50
176
     1
 90
       50
176
     1
290
     0
176
     1
 90
       50
176
     1
 62
   256
176
     0
 40
1.0
176
     0
 90
        2
176
     1
  1
strokes_ogs.tif
176
     1
290
     0
176
     1
 40
1.0
176
     1
 40
1.0
176
     1
  0
VISUALSTYLE
  5
40
102
{ACAD_REACTORS
330
2A
102
}
330
2A
100
AcDbVisualStyle
  2
X-Ray
 70
    25
177
     3
291
     0
 70
    58
 90
        2
176
     1
 90
        2
176
     1
 90
        1
176
     1
 90
        1
176
     1
 40
0.5
176
     1
 40
30.0
176
     1
 62
     7
420
 16777215
176
     1
 90
        1
176
     1
 90
        0
176
     1
 62
     7
176
     1
 62
   257
176
     1
 90
        1
176
     1
 90
        1
176
     1
 40
1.0
176
     1
 90
        8
176
     1
 62
     7
176
     1
 40
1.0
176
     1
 90
        1
176
     1
 90
        6
176
     1
 90
        2
176
     1
 62
     7
176
     1
 90
        3
176
     1
 90
        0
176
     1
 90
        0
176
     1
290
     0
176
     1
 90
       13
176
     1
 40
0.0
176
     1
 90
        0
176
     1
290
     0
176
     1
290
     1
176
     1
290
     1
176
     1
290
     0
176
     1
290
     0
176
     1
290
     0
176
     1
290
     0
176
     1
290
     0
176
     1
290
     0
176
     1
 90
       50
176
     1
 40
0.0
176
     1
 40
1.0
176
     1
 90
        0
176
     1
 62
    18
420
        0
176
     1
 90
       50
176
     1
 90
        3
176
     1
 62
     5
420
      255
176
     1
290
     0
176
     1
 90
       50
176
     1
 90
       50
176
     1
 90
       50
176
     1
290
     0
176
     1
 90
       50
176
     1
 62
   256
176
     0
 40
1.0
176
     0
 90
        2
176
     1
  1
strokes_ogs.tif
176
     1
290
     0
176
     1
 40
1.0
176
     1
 40
1.0
176
     1
  0
DICTIONARYVAR
  5
7B
102
{ACAD_REACTORS
330
7A
102
}
330
7A
100
DictionaryVariables
280
     0
  1
1:1
  0
DICTIONARYVAR
  5
80
102
{ACAD_REACTORS
330
7A
102
}
330
7A
100
DictionaryVariables
280
     0
  1
Standard
  0
DICTIONARYVAR
  5
7F
102
{ACAD_REACTORS
330
7A
102
}
330
7A
100
DictionaryVariables
280
     0
  1
Standard
  0
DICTIONARY
  5
7C
330
5A
100
AcDbDictionary
280
     1
281
     1
  3
ACAD_ROUNDTRIP_2008_TABLESTYLE_CELLSTYLEMAP
360
7D
  0
CELLSTYLEMAP
  5
7D
102
{ACAD_REACTORS
330
7C
102
}
330
7C
100
AcDbCellStyleMap
 90
        3
300
CELLSTYLE
  1
TABLEFORMAT_BEGIN
 90
        5
170
     1
 91
        0
 92
    32768
 62
   257
 93
        1
300
CONTENTFORMAT
  1
CONTENTFORMAT_BEGIN
 90
        0
 91
        0
 92
        4
 93
        0
300

 40
0.0
140
1.0
 94
        5
 62
     0
340
11
144
0.25
309
CONTENTFORMAT_END
171
     1
301
MARGIN
  1
CELLMARGIN_BEGIN
 40
0.06
 40
0.06
 40
0.06
 40
0.06
 40
0.06
 40
0.06
309
CELLMARGIN_END
 94
        6
 95
        1
302
GRIDFORMAT
  1
GRIDFORMAT_BEGIN
 90
        0
 91
        1
 62
     0
 92
       -2
340
14
 93
        0
 40
0.045
309
GRIDFORMAT_END
 95
        2
302
GRIDFORMAT
  1
GRIDFORMAT_BEGIN
 90
        0
 91
        1
 62
     0
 92
       -2
340
14
 93
        0
 40
0.045
309
GRIDFORMAT_END
 95
        4
302
GRIDFORMAT
  1
GRIDFORMAT_BEGIN
 90
        0
 91
        1
 62
     0
 92
       -2
340
14
 93
        0
 40
0.045
309
GRIDFORMAT_END
 95
        8
302
GRIDFORMAT
  1
GRIDFORMAT_BEGIN
 90
        0
 91
        1
 62
     0
 92
       -2
340
14
 93
        0
 40
0.045
309
GRIDFORMAT_END
 95
       16
302
GRIDFORMAT
  1
GRIDFORMAT_BEGIN
 90
        0
 91
        1
 62
     0
 92
       -2
340
14
 93
        0
 40
0.045
309
GRIDFORMAT_END
 95
       32
302
GRIDFORMAT
  1
GRIDFORMAT_BEGIN
 90
        0
 91
        1
 62
     0
 92
       -2
340
14
 93
        0
 40
0.045
309
GRIDFORMAT_END
309
TABLEFORMAT_END
  1
CELLSTYLE_BEGIN
 90
        1
 91
        1
300
_TITLE
309
CELLSTYLE_END
300
CELLSTYLE
  1
TABLEFORMAT_BEGIN
 90
        5
170
     1
 91
        0
 92
        0
 62
   257
 93
        1
300
CONTENTFORMAT
  1
CONTENTFORMAT_BEGIN
 90
        0
 91
        0
 92
        4
 93
        0
300

 40
0.0
140
1.0
 94
        5
 62
     0
340
11
144
0.18
309
CONTENTFORMAT_END
171
     1
301
MARGIN
  1
CELLMARGIN_BEGIN
 40
0.06
 40
0.06
 40
0.06
 40
0.06
 40
0.06
 40
0.06
309
CELLMARGIN_END
 94
        6
 95
        1
302
GRIDFORMAT
  1
GRIDFORMAT_BEGIN
 90
        0
 91
        1
 62
     0
 92
       -2
340
14
 93
        0
 40
0.045
309
GRIDFORMAT_END
 95
        2
302
GRIDFORMAT
  1
GRIDFORMAT_BEGIN
 90
        0
 91
        1
 62
     0
 92
       -2
340
14
 93
        0
 40
0.045
309
GRIDFORMAT_END
 95
        4
302
GRIDFORMAT
  1
GRIDFORMAT_BEGIN
 90
        0
 91
        1
 62
     0
 92
       -2
340
14
 93
        0
 40
0.045
309
GRIDFORMAT_END
 95
        8
302
GRIDFORMAT
  1
GRIDFORMAT_BEGIN
 90
        0
 91
        1
 62
     0
 92
       -2
340
14
 93
        0
 40
0.045
309
GRIDFORMAT_END
 95
       16
302
GRIDFORMAT
  1
GRIDFORMAT_BEGIN
 90
        0
 91
        1
 62
     0
 92
       -2
340
14
 93
        0
 40
0.045
309
GRIDFORMAT_END
 95
       32
302
GRIDFORMAT
  1
GRIDFORMAT_BEGIN
 90
        0
 91
        1
 62
     0
 92
       -2
340
14
 93
        0
 40
0.045
309
GRIDFORMAT_END
309
TABLEFORMAT_END
  1
CELLSTYLE_BEGIN
 90
        2
 91
        1
300
_HEADER
309
CELLSTYLE_END
300
CELLSTYLE
  1
TABLEFORMAT_BEGIN
 90
        5
170
     1
 91
        0
 92
        0
 62
   257
 93
        1
300
CONTENTFORMAT
  1
CONTENTFORMAT_BEGIN
 90
        0
 91
        0
 92
        4
 93
        0
300

 40
0.0
140
1.0
 94
        2
 62
     0
340
11
144
0.18
309
CONTENTFORMAT_END
171
     1
301
MARGIN
  1
CELLMARGIN_BEGIN
 40
0.06
 40
0.06
 40
0.06
 40
0.06
 40
0.06
 40
0.06
309
CELLMARGIN_END
 94
        6
 95
        1
302
GRIDFORMAT
  1
GRIDFORMAT_BEGIN
 90
        0
 91
        1
 62
     0
 92
       -2
340
14
 93
        0
 40
0.045
309
GRIDFORMAT_END
 95
        2
302
GRIDFORMAT
  1
GRIDFORMAT_BEGIN
 90
        0
 91
        1
 62
     0
 92
       -2
340
14
 93
        0
 40
0.045
309
GRIDFORMAT_END
 95
        4
302
GRIDFORMAT
  1
GRIDFORMAT_BEGIN
 90
        0
 91
        1
 62
     0
 92
       -2
340
14
 93
        0
 40
0.045
309
GRIDFORMAT_END
 95
        8
302
GRIDFORMAT
  1
GRIDFORMAT_BEGIN
 90
        0
 91
        1
 62
     0
 92
       -2
340
14
 93
        0
 40
0.045
309
GRIDFORMAT_END
 95
       16
302
GRIDFORMAT
  1
GRIDFORMAT_BEGIN
 90
        0
 91
        1
 62
     0
 92
       -2
340
14
 93
        0
 40
0.045
309
GRIDFORMAT_END
 95
       32
302
GRIDFORMAT
  1
GRIDFORMAT_BEGIN
 90
        0
 91
        1
 62
     0
 92
       -2
340
14
 93
        0
 40
0.045
309
GRIDFORMAT_END
309
TABLEFORMAT_END
  1
CELLSTYLE_BEGIN
 90
        3
 91
        2
300
_DATA
309
CELLSTYLE_END
  0
ENDSEC
  0
EOF
