  0
SECTION
  2
HEADER
  9
$ACADVER
  1
AC1027
  9
$ACADMAINTVER
 70
   105
  9
$DWGCODEPAGE
  3
ANSI_1252
  9
$LASTSAVEDBY
  1
Office Desk
  9
$REQUIREDVERSIONS
160
                 0
  9
$INSBASE
 10
0.0
 20
0.0
 30
0.0
  9
$EXTMIN
 10
171.0169
 20
-430.974
 30
0.0
  9
$EXTMAX
 10
704.4755
 20
452.3952
 30
0.0
  9
$LIMMIN
 10
0.0
 20
0.0
  9
$LIMMAX
 10
12.0
 20
9.0
  9
$ORTHOMODE
 70
     0
  9
$REGENMODE
 70
     1
  9
$FILLMODE
 70
     1
  9
$QTEXTMODE
 70
     0
  9
$MIRRTEXT
 70
     1
  9
$LTSCALE
 40
1.0
  9
$ATTMODE
 70
     1
  9
$TEXTSIZE
 40
0.2
  9
$TRACEWID
 40
0.05
  9
$TEXTSTYLE
  7
Standard
  9
$CLAYER
  8
0
  9
$CELTYPE
  6
ByLayer
  9
$CECOLOR
 62
   256
  9
$CELTSCALE
 40
1.0
  9
$DISPSILH
 70
     0
  9
$DIMSCALE
 40
1.0
  9
$DIMASZ
 40
0.18
  9
$DIMEXO
 40
0.0625
  9
$DIMDLI
 40
0.38
  9
$DIMRND
 40
0.0
  9
$DIMDLE
 40
0.0
  9
$DIMEXE
 40
0.18
  9
$DIMTP
 40
0.0
  9
$DIMTM
 40
0.0
  9
$DIMTXT
 40
0.18
  9
$DIMCEN
 40
0.09
  9
$DIMTSZ
 40
0.0
  9
$DIMTOL
 70
     0
  9
$DIMLIM
 70
     0
  9
$DIMTIH
 70
     1
  9
$DIMTOH
 70
     1
  9
$DIMSE1
 70
     0
  9
$DIMSE2
 70
     0
  9
$DIMTAD
 70
     0
  9
$DIMZIN
 70
     0
  9
$DIMBLK
  1

  9
$DIMASO
 70
     1
  9
$DIMSHO
 70
     1
  9
$DIMPOST
  1

  9
$DIMAPOST
  1

  9
$DIMALT
 70
     0
  9
$DIMALTD
 70
     2
  9
$DIMALTF
 40
25.4
  9
$DIMLFAC
 40
1.0
  9
$DIMTOFL
 70
     0
  9
$DIMTVP
 40
0.0
  9
$DIMTIX
 70
     0
  9
$DIMSOXD
 70
     0
  9
$DIMSAH
 70
     0
  9
$DIMBLK1
  1

  9
$DIMBLK2
  1

  9
$DIMSTYLE
  2
Standard
  9
$DIMCLRD
 70
     0
  9
$DIMCLRE
 70
     0
  9
$DIMCLRT
 70
     0
  9
$DIMTFAC
 40
1.0
  9
$DIMGAP
 40
0.09
  9
$DIMJUST
 70
     0
  9
$DIMSD1
 70
     0
  9
$DIMSD2
 70
     0
  9
$DIMTOLJ
 70
     1
  9
$DIMTZIN
 70
     0
  9
$DIMALTZ
 70
     0
  9
$DIMALTTZ
 70
     0
  9
$DIMUPT
 70
     0
  9
$DIMDEC
 70
     4
  9
$DIMTDEC
 70
     4
  9
$DIMALTU
 70
     2
  9
$DIMALTTD
 70
     2
  9
$DIMTXSTY
  7
Standard
  9
$DIMAUNIT
 70
     0
  9
$DIMADEC
 70
     0
  9
$DIMALTRND
 40
0.0
  9
$DIMAZIN
 70
     0
  9
$DIMDSEP
 70
    46
  9
$DIMATFIT
 70
     3
  9
$DIMFRAC
 70
     0
  9
$DIMLDRBLK
  1

  9
$DIMLUNIT
 70
     2
  9
$DIMLWD
 70
    -2
  9
$DIMLWE
 70
    -2
  9
$DIMTMOVE
 70
     0
  9
$DIMFXL
 40
1.0
  9
$DIMFXLON
 70
     0
  9
$DIMJOGANG
 40
0.7853981633974483
  9
$DIMTFILL
 70
     0
  9
$DIMTFILLCLR
 70
     0
  9
$DIMARCSYM
 70
     0
  9
$DIMLTYPE
  6

  9
$DIMLTEX1
  6

  9
$DIMLTEX2
  6

  9
$DIMTXTDIRECTION
 70
     0
  9
$LUNITS
 70
     2
  9
$LUPREC
 70
     4
  9
$SKETCHINC
 40
0.1
  9
$FILLETRAD
 40
0.0
  9
$AUNITS
 70
     0
  9
$AUPREC
 70
     0
  9
$MENU
  1
.
  9
$ELEVATION
 40
0.0
  9
$PELEVATION
 40
0.0
  9
$THICKNESS
 40
0.0
  9
$LIMCHECK
 70
     0
  9
$CHAMFERA
 40
0.0
  9
$CHAMFERB
 40
0.0
  9
$CHAMFERC
 40
0.0
  9
$CHAMFERD
 40
0.0
  9
$SKPOLY
 70
     0
  9
$TDCREATE
 40
2461006.694202674
  9
$TDUCREATE
 40
2461006.465036007
  9
$TDUPDATE
 40
2461006.69420272
  9
$TDUUPDATE
 40
2461006.465036053
  9
$TDINDWG
 40
0.0000000116
  9
$TDUSRTIMER
 40
0.0000000116
  9
$USRTIMER
 70
     1
  9
$ANGBASE
 50
0.0
  9
$ANGDIR
 70
     0
  9
$PDMODE
 70
     0
  9
$PDSIZE
 40
0.0
  9
$PLINEWID
 40
0.0
  9
$SPLFRAME
 70
     0
  9
$SPLINETYPE
 70
     6
  9
$SPLINESEGS
 70
     8
  9
$HANDSEED
  5
98
  9
$SURFTAB1
 70
     6
  9
$SURFTAB2
 70
     6
  9
$SURFTYPE
 70
     6
  9
$SURFU
 70
     6
  9
$SURFV
 70
     6
  9
$UCSBASE
  2

  9
$UCSNAME
  2

  9
$UCSORG
 10
0.0
 20
0.0
 30
0.0
  9
$UCSXDIR
 10
1.0
 20
0.0
 30
0.0
  9
$UCSYDIR
 10
0.0
 20
1.0
 30
0.0
  9
$UCSORTHOREF
  2

  9
$UCSORTHOVIEW
 70
     0
  9
$UCSORGTOP
 10
0.0
 20
0.0
 30
0.0
  9
$UCSORGBOTTOM
 10
0.0
 20
0.0
 30
0.0
  9
$UCSORGLEFT
 10
0.0
 20
0.0
 30
0.0
  9
$UCSORGRIGHT
 10
0.0
 20
0.0
 30
0.0
  9
$UCSORGFRONT
 10
0.0
 20
0.0
 30
0.0
  9
$UCSORGBACK
 10
0.0
 20
0.0
 30
0.0
  9
$PUCSBASE
  2

  9
$PUCSNAME
  2

  9
$PUCSORG
 10
0.0
 20
0.0
 30
0.0
  9
$PUCSXDIR
 10
1.0
 20
0.0
 30
0.0
  9
$PUCSYDIR
 10
0.0
 20
1.0
 30
0.0
  9
$PUCSORTHOREF
  2

  9
$PUCSORTHOVIEW
 70
     0
  9
$PUCSORGTOP
 10
0.0
 20
0.0
 30
0.0
  9
$PUCSORGBOTTOM
 10
0.0
 20
0.0
 30
0.0
  9
$PUCSORGLEFT
 10
0.0
 20
0.0
 30
0.0
  9
$PUCSORGRIGHT
 10
0.0
 20
0.0
 30
0.0
  9
$PUCSORGFRONT
 10
0.0
 20
0.0
 30
0.0
  9
$PUCSORGBACK
 10
0.0
 20
0.0
 30
0.0
  9
$USERI1
 70
     0
  9
$USERI2
 70
     0
  9
$USERI3
 70
     0
  9
$USERI4
 70
     0
  9
$USERI5
 70
     0
  9
$USERR1
 40
0.0
  9
$USERR2
 40
0.0
  9
$USERR3
 40
0.0
  9
$USERR4
 40
0.0
  9
$USERR5
 40
0.0
  9
$WORLDVIEW
 70
     1
  9
$SHADEDGE
 70
     3
  9
$SHADEDIF
 70
    70
  9
$TILEMODE
 70
     1
  9
$MAXACTVP
 70
    64
  9
$PINSBASE
 10
0.0
 20
0.0
 30
0.0
  9
$PLIMCHECK
 70
     0
  9
$PEXTMIN
 10
1.000000000000000E+20
 20
1.000000000000000E+20
 30
1.000000000000000E+20
  9
$PEXTMAX
 10
-1.000000000000000E+20
 20
-1.000000000000000E+20
 30
-1.000000000000000E+20
  9
$PLIMMIN
 10
0.0
 20
0.0
  9
$PLIMMAX
 10
12.0
 20
9.0
  9
$UNITMODE
 70
     0
  9
$VISRETAIN
 70
     1
  9
$PLINEGEN
 70
     0
  9
$PSLTSCALE
 70
     1
  9
$TREEDEPTH
 70
  3020
  9
$CMLSTYLE
  2
Standard
  9
$CMLJUST
 70
     0
  9
$CMLSCALE
 40
1.0
  9
$PROXYGRAPHICS
 70
     1
  9
$MEASUREMENT
 70
     0
  9
$CELWEIGHT
370
    -1
  9
$ENDCAPS
280
     0
  9
$JOINSTYLE
280
     0
  9
$LWDISPLAY
290
     0
  9
$INSUNITS
 70
     4
  9
$HYPERLINKBASE
  1

  9
$STYLESHEET
  1

  9
$XEDIT
290
     1
  9
$CEPSNTYPE
380
     0
  9
$PSTYLEMODE
290
     1
  9
$FINGERPRINTGUID
  2
{6152aa42-f8d9-45d5-9bbb-1e933af62807}
  9
$VERSIONGUID
  2
{FAEB1C32-E019-11D5-929B-00C0DF256EC4}
  9
$EXTNAMES
290
     1
  9
$PSVPSCALE
 40
0.0
  9
$OLESTARTUP
290
     0
  9
$SORTENTS
280
   127
  9
$INDEXCTL
280
     0
  9
$HIDETEXT
280
     1
  9
$XCLIPFRAME
280
     2
  9
$HALOGAP
280
     0
  9
$OBSCOLOR
 70
   257
  9
$OBSLTYPE
280
     0
  9
$INTERSECTIONDISPLAY
280
     0
  9
$INTERSECTIONCOLOR
 70
   257
  9
$DIMASSOC
280
     2
  9
$PROJECTNAME
  1

  9
$CAMERADISPLAY
290
     0
  9
$LENSLENGTH
 40
50.0
  9
$CAMERAHEIGHT
 40
0.0
  9
$STEPSPERSEC
 40
2.0
  9
$STEPSIZE
 40
6.0
  9
$3DDWFPREC
 40
2.0
  9
$PSOLWIDTH
 40
0.25
  9
$PSOLHEIGHT
 40
4.0
  9
$LOFTANG1
 40
1.570796326794897
  9
$LOFTANG2
 40
1.570796326794897
  9
$LOFTMAG1
 40
0.0
  9
$LOFTMAG2
 40
0.0
  9
$LOFTPARAM
 70
     7
  9
$LOFTNORMALS
280
     1
  9
$LATITUDE
 40
37.795
  9
$LONGITUDE
 40
-122.394
  9
$NORTHDIRECTION
 40
0.0
  9
$TIMEZONE
 70
 -8000
  9
$LIGHTGLYPHDISPLAY
280
     1
  9
$TILEMODELIGHTSYNCH
280
     1
  9
$CMATERIAL
347
44
  9
$SOLIDHIST
280
     0
  9
$SHOWHIST
280
     1
  9
$DWFFRAME
280
     2
  9
$DGNFRAME
280
     2
  9
$REALWORLDSCALE
290
     1
  9
$INTERFERECOLOR
 62
   256
  9
$CSHADOW
280
     0
  9
$SHADOWPLANELOCATION
 40
0.0
  0
ENDSEC
  0
SECTION
  2
CLASSES
  0
CLASS
  1
ACDBDICTIONARYWDFLT
  2
AcDbDictionaryWithDefault
  3
ObjectDBX Classes
 90
        0
 91
        3
280
     0
281
     0
  0
CLASS
  1
VISUALSTYLE
  2
AcDbVisualStyle
  3
ObjectDBX Classes
 90
     4095
 91
        3
280
     0
281
     0
  0
CLASS
  1
MATERIAL
  2
AcDbMaterial
  3
ObjectDBX Classes
 90
     1153
 91
        3
280
     0
281
     0
  0
CLASS
  1
SCALE
  2
AcDbScale
  3
ObjectDBX Classes
 90
     1153
 91
        3
280
     0
281
     0
  0
CLASS
  1
TABLESTYLE
  2
AcDbTableStyle
  3
ObjectDBX Classes
 90
     4095
 91
        3
280
     0
281
     0
  0
CLASS
  1
MLEADERSTYLE
  2
AcDbMLeaderStyle
  3
ACDB_MLEADERSTYLE_CLASS
 90
     4095
 91
        3
280
     0
281
     0
  0
CLASS
  1
SUN
  2
AcDbSun
  3
SCENEOE
 90
     1153
 91
        3
280
     0
281
     0
  0
CLASS
  1
DICTIONARYVAR
  2
AcDbDictionaryVar
  3
ObjectDBX Classes
 90
        0
 91
        3
280
     0
281
     0
  0
CLASS
  1
CELLSTYLEMAP
  2
AcDbCellStyleMap
  3
ObjectDBX Classes
 90
     1152
 91
        3
280
     0
281
     0
  0
ENDSEC
  0
SECTION
  2
TABLES
  0
TABLE
  2
VPORT
  5
8
330
0
100
AcDbSymbolTable
 70
     1
  0
VPORT
  5
29
330
8
100
AcDbSymbolTableRecord
100
AcDbViewportTableRecord
  2
*Active
 70
     0
 10
0.0
 20
0.0
 11
1.0
 21
1.0
 12
10.42990654205607
 22
4.5
 13
0.0
 23
0.0
 14
0.5
 24
0.5
 15
0.5
 25
0.5
 16
0.0
 26
0.0
 36
1.0
 17
0.0
 27
0.0
 37
0.0
 40
9.0
 41
1.972972972850329
 42
50.0
 43
0.0
 44
0.0
 50
0.0
 51
0.0
 71
     0
 72
   100
 73
     1
 74
     3
 75
     0
 76
     0
 77
     0
 78
     0
281
     0
 65
     1
110
0.0
120
0.0
130
0.0
111
1.0
121
0.0
131
0.0
112
0.0
122
1.0
132
0.0
 79
     0
146
0.0
348
2F
 60
     3
 61
     5
292
     1
282
     1
141
0.0
142
0.0
 63
   250
361
5D
  0
ENDTAB
  0
TABLE
  2
LTYPE
  5
5
330
0
100
AcDbSymbolTable
 70
     1
  0
LTYPE
  5
14
330
5
100
AcDbSymbolTableRecord
100
AcDbLinetypeTableRecord
  2
ByBlock
 70
     0
  3

 72
    65
 73
     0
 40
0.0
  0
LTYPE
  5
15
330
5
100
AcDbSymbolTableRecord
100
AcDbLinetypeTableRecord
  2
ByLayer
 70
     0
  3

 72
    65
 73
     0
 40
0.0
  0
LTYPE
  5
16
330
5
100
AcDbSymbolTableRecord
100
AcDbLinetypeTableRecord
  2
Continuous
 70
     0
  3
Solid line
 72
    65
 73
     0
 40
0.0
  0
ENDTAB
  0
TABLE
  2
LAYER
  5
2
330
0
100
AcDbSymbolTable
 70
     2
  0
LAYER
  5
10
330
2
100
AcDbSymbolTableRecord
100
AcDbLayerTableRecord
  2
0
 70
     0
 62
     7
  6
Continuous
370
    -3
390
F
347
46
348
0
  0
LAYER
  5
5F
330
2
100
AcDbSymbolTableRecord
100
AcDbLayerTableRecord
  2
Layer 1
 70
     0
 62
     7
  6
Continuous
370
    -3
390
F
347
46
348
0
  0
ENDTAB
  0
TABLE
  2
STYLE
  5
3
330
0
100
AcDbSymbolTable
 70
     1
  0
STYLE
  5
11
330
3
100
AcDbSymbolTableRecord
100
AcDbTextStyleTableRecord
  2
Standard
 70
     0
 40
0.0
 41
1.0
 50
0.0
 71
     0
 42
0.2
  3
txt
  4

  0
ENDTAB
  0
TABLE
  2
VIEW
  5
6
330
0
100
AcDbSymbolTable
 70
     0
  0
ENDTAB
  0
TABLE
  2
UCS
  5
7
330
0
100
AcDbSymbolTable
 70
     0
  0
ENDTAB
  0
TABLE
  2
APPID
  5
9
330
0
100
AcDbSymbolTable
 70
     2
  0
APPID
  5
12
330
9
100
AcDbSymbolTableRecord
100
AcDbRegAppTableRecord
  2
ACAD
 70
     0
  0
APPID
  5
5E
330
9
100
AcDbSymbolTableRecord
100
AcDbRegAppTableRecord
  2
ODA
 70
     0
  0
ENDTAB
  0
TABLE
  2
DIMSTYLE
  5
A
330
0
100
AcDbSymbolTable
 70
     1
100
AcDbDimStyleTable
  0
DIMSTYLE
105
27
330
A
100
AcDbSymbolTableRecord
100
AcDbDimStyleTableRecord
  2
Standard
 70
     0
178
     0
340
11
  0
ENDTAB
  0
TABLE
  2
BLOCK_RECORD
  5
1
330
0
100
AcDbSymbolTable
 70
     1
  0
BLOCK_RECORD
  5
1F
330
1
100
AcDbSymbolTableRecord
100
AcDbBlockTableRecord
  2
*Model_Space
340
22
 70
     0
280
     1
281
     0
  0
BLOCK_RECORD
  5
1B
330
1
100
AcDbSymbolTableRecord
100
AcDbBlockTableRecord
  2
*Paper_Space
340
1E
 70
     0
280
     1
281
     0
  0
BLOCK_RECORD
  5
23
330
1
100
AcDbSymbolTableRecord
100
AcDbBlockTableRecord
  2
*Paper_Space0
340
26
 70
     0
280
     1
281
     0
  0
ENDTAB
  0
ENDSEC
  0
SECTION
  2
BLOCKS
  0
BLOCK
  5
20
330
1F
100
AcDbEntity
  8
0
100
AcDbBlockBegin
  2
*Model_Space
 70
     0
 10
0.0
 20
0.0
 30
0.0
  3
*Model_Space
  1

  0
ENDBLK
  5
21
330
1F
100
AcDbEntity
  8
0
100
AcDbBlockEnd
  0
BLOCK
  5
1C
330
1B
100
AcDbEntity
 67
     1
  8
0
100
AcDbBlockBegin
  2
*Paper_Space
 70
     0
 10
0.0
 20
0.0
 30
0.0
  3
*Paper_Space
  1

  0
ENDBLK
  5
1D
330
1B
100
AcDbEntity
 67
     1
  8
0
100
AcDbBlockEnd
  0
BLOCK
  5
24
330
23
100
AcDbEntity
  8
0
100
AcDbBlockBegin
  2
*Paper_Space0
 70
     0
 10
0.0
 20
0.0
 30
0.0
  3
*Paper_Space0
  1

  0
ENDBLK
  5
25
330
23
100
AcDbEntity
  8
0
100
AcDbBlockEnd
  0
ENDSEC
  0
SECTION
  2
ENTITIES
  0
LWPOLYLINE
  5
60
330
1F
100
AcDbEntity
  8
Layer 1
 62
   250
370
    18
100
AcDbPolyline
 90
        5
 70
     1
 43
0.0
 10
171.1051
 20
-430.8858
 10
704.3873
 20
-430.8858
 10
704.3873
 20
452.307
 10
171.1051
 20
452.307
 10
171.1051
 20
-430.8858
  0
LWPOLYLINE
  5
61
330
1F
100
AcDbEntity
  8
Layer 1
 62
     7
100
AcDbPolyline
 90
      136
 70
     1
 43
0.0
 10
432.7551
 20
424.2569
 10
433.8845
 20
431.2273
 10
439.9231
 20
431.2273
 10
439.9231
 20
433.9079
 10
432.5831
 20
433.9079
 10
430.6686
 20
422.2274
 10
432.5341
 20
420.9253
 10
432.8047
 20
421.2125
 10
433.0887
 20
421.4613
 10
433.3861
 20
421.6719
 10
433.697
 20
421.8441
 10
434.0213
 20
421.978
 10
434.3589
 20
422.0737
 10
434.71
 20
422.1311
 10
435.0745
 20
422.1502
 10
435.4413
 20
422.1221
 10
435.7957
 20
422.0378
 10
436.1379
 20
421.8973
 10
436.4678
 20
421.7005
 10
436.7854
 20
421.4475
 10
437.0907
 20
421.1381
 10
437.3837
 20
420.7725
 10
437.6645
 20
420.3505
 10
437.9292
 20
419.8799
 10
438.1586
 20
419.3919
 10
438.3527
 20
418.8865
 10
438.5115
 20
418.3638
 10
438.635
 20
417.8237
 10
438.7232
 20
417.2662
 10
438.7762
 20
416.6914
 10
438.7938
 20
416.0993
 10
438.7758
 20
415.4868
 10
438.7217
 20
414.8988
 10
438.6315
 20
414.3354
 10
438.5054
 20
413.7966
 10
438.3431
 20
413.2823
 10
438.1449
 20
412.7926
 10
437.9106
 20
412.3274
 10
437.6403
 20
411.8867
 10
437.5027
 20
411.6907
 10
437.3601
 20
411.5049
 10
437.2126
 20
411.3292
 10
437.0601
 20
411.1637
 10
436.9027
 20
411.0084
 10
436.7402
 20
410.8633
 10
436.5727
 20
410.7285
 10
436.4002
 20
410.6039
 10
436.2204
 20
410.4916
 10
436.0306
 20
410.3943
 10
435.8308
 20
410.3119
 10
435.621
 20
410.2446
 10
435.4013
 20
410.1922
 10
435.1715
 20
410.1547
 10
434.9318
 20
410.1323
 10
434.682
 20
410.1248
 10
434.4276
 20
410.1416
 10
434.1735
 20
410.1919
 10
433.9198
 20
410.2757
 10
433.6664
 20
410.3931
 10
433.4134
 20
410.5439
 10
433.1608
 20
410.7282
 10
432.9085
 20
410.9459
 10
432.6567
 20
411.1971
 10
432.4143
 20
411.4754
 10
432.1903
 20
411.7741
 10
431.9847
 20
412.0931
 10
431.7976
 20
412.4324
 10
431.6289
 20
412.7921
 10
431.4786
 20
413.1722
 10
431.3467
 20
413.5726
 10
431.2333
 20
413.9935
 10
429.564
 20
413.1502
 10
429.728
 20
412.5198
 10
429.9192
 20
411.9212
 10
430.1376
 20
411.3543
 10
430.3832
 20
410.8192
 10
430.6561
 20
410.3157
 10
430.9562
 20
409.844
 10
431.2836
 20
409.404
 10
431.6382
 20
408.9956
 10
432.0153
 20
408.6229
 10
432.4007
 20
408.3
 10
432.7946
 20
408.0267
 10
433.1969
 20
407.8031
 10
433.6076
 20
407.6292
 10
434.0268
 20
407.505
 10
434.4545
 20
407.4304
 10
434.8906
 20
407.4056
 10
435.4717
 20
407.4466
 10
436.0306
 20
407.5696
 10
436.5672
 20
407.7746
 10
437.0815
 20
408.0616
 10
437.5736
 20
408.4306
 10
438.0435
 20
408.8815
 10
438.4911
 20
409.4144
 10
438.9164
 20
410.0292
 10
439.302
 20
410.6968
 10
439.6361
 20
411.3972
 10
439.9189
 20
412.1305
 10
440.1502
 20
412.8967
 10
440.3301
 20
413.6957
 10
440.4587
 20
414.5277
 10
440.5358
 20
415.3927
 10
440.5615
 20
416.2906
 10
440.5362
 20
417.1838
 10
440.4602
 20
418.0393
 10
440.3335
 20
418.8571
 10
440.1563
 20
419.6371
 10
439.9284
 20
420.3794
 10
439.6499
 20
421.084
 10
439.3208
 20
421.7509
 10
438.9411
 20
422.3801
 10
438.747
 20
422.6599
 10
438.5452
 20
422.9247
 10
438.3358
 20
423.1745
 10
438.1187
 20
423.4093
 10
437.8938
 20
423.6292
 10
437.6614
 20
423.8341
 10
437.4213
 20
424.024
 10
437.1735
 20
424.199
 10
436.9208
 20
424.3563
 10
436.6658
 20
424.4925
 10
436.4086
 20
424.6078
 10
436.1493
 20
424.702
 10
435.8879
 20
424.7753
 10
435.6244
 20
424.8276
 10
435.3589
 20
424.8589
 10
435.0914
 20
424.8694
 10
434.8186
 20
424.8598
 10
434.5404
 20
424.8311
 10
434.2567
 20
424.7832
 10
433.9676
 20
424.7162
 10
433.6729
 20
424.63
 10
433.3726
 20
424.5247
 10
433.0667
 20
424.4004
 10
432.7551
 20
424.2569
  0
LWPOLYLINE
  5
62
330
1F
100
AcDbEntity
  8
Layer 1
 62
     7
100
AcDbPolyline
 90
      129
 70
     1
 43
0.0
 10
450.0736
 20
430.8825
 10
450.357
 20
430.5821
 10
450.6212
 20
430.241
 10
450.8663
 20
429.8592
 10
451.0922
 20
429.4367
 10
451.2989
 20
428.9734
 10
451.4865
 20
428.4695
 10
451.6549
 20
427.9248
 10
451.8041
 20
427.3394
 10
451.971
 20
426.5631
 10
452.1156
 20
425.7754
 10
452.238
 20
424.9764
 10
452.3381
 20
424.166
 10
452.416
 20
423.3442
 10
452.4716
 20
422.511
 10
452.505
 20
421.6663
 10
452.5161
 20
420.8103
 10
452.5149
 20
420.6047
 10
452.5115
 20
420.3902
 10
452.5057
 20
420.1666
 10
452.4976
 20
419.934
 10
452.4873
 20
419.6924
 10
452.4746
 20
419.4419
 10
452.4597
 20
419.1825
 10
452.4425
 20
418.9142
 10
452.3573
 20
417.8847
 10
452.246
 20
416.9121
 10
452.1087
 20
415.9963
 10
451.9452
 20
415.1373
 10
451.7557
 20
414.3351
 10
451.5401
 20
413.5897
 10
451.2985
 20
412.9011
 10
451.0308
 20
412.2693
 10
450.7866
 20
411.7936
 10
450.5293
 20
411.3814
 10
450.2589
 20
411.0326
 10
449.9755
 20
410.7472
 10
449.679
 20
410.5252
 10
449.3695
 20
410.3666
 10
449.047
 20
410.2715
 10
448.7114
 20
410.2398
 10
448.3368
 20
410.2712
 10
447.9802
 20
410.3655
 10
447.6417
 20
410.5226
 10
447.3211
 20
410.7426
 10
447.0186
 20
411.0254
 10
446.7342
 20
411.371
 10
446.4677
 20
411.7795
 10
446.2193
 20
412.2509
 10
446.1143
 20
412.4793
 10
446.0138
 20
412.7149
 10
445.918
 20
412.9577
 10
445.8267
 20
413.2078
 10
445.7401
 20
413.4651
 10
445.658
 20
413.7296
 10
445.5806
 20
414.0014
 10
445.5079
 20
414.2804
 10
445.4394
 20
414.5636
 10
445.375
 20
414.8486
 10
445.315
 20
415.1355
 10
445.2591
 20
415.4242
 10
445.2075
 20
415.7148
 10
445.1601
 20
416.0072
 10
445.117
 20
416.3015
 10
445.0782
 20
416.5977
 10
445.0427
 20
416.8933
 10
445.0099
 20
417.1864
 10
444.9798
 20
417.4771
 10
444.9524
 20
417.7654
 10
444.9277
 20
418.0513
 10
444.9057
 20
418.3348
 10
444.8863
 20
418.616
 10
444.8696
 20
418.8949
 10
444.8552
 20
419.178
 10
444.8427
 20
419.4717
 10
444.8321
 20
419.7761
 10
444.8235
 20
420.091
 10
444.8168
 20
420.4164
 10
444.812
 20
420.7521
 10
444.8092
 20
421.0982
 10
444.8082
 20
421.4544
 10
444.8124
 20
421.8268
 10
444.8251
 20
422.2207
 10
444.8462
 20
422.6363
 10
444.8757
 20
423.0736
 10
444.9137
 20
423.5328
 10
444.9601
 20
424.0138
 10
445.0149
 20
424.517
 10
445.0782
 20
425.0422
 10
445.1169
 20
425.3338
 10
445.1594
 20
425.6248
 10
445.2058
 20
425.9152
 10
445.2561
 20
426.205
 10
445.3102
 20
426.4943
 10
445.3681
 20
426.783
 10
445.4299
 20
427.0711
 10
445.4955
 20
427.3587
 10
445.5655
 20
427.6424
 10
445.6404
 20
427.9189
 10
445.7203
 20
428.1882
 10
445.8053
 20
428.4503
 10
445.8952
 20
428.7052
 10
445.9901
 20
428.953
 10
446.0901
 20
429.1935
 10
446.1952
 20
429.4268
 10
446.3052
 20
429.6511
 10
446.4206
 20
429.8639
 10
446.5414
 20
430.0654
 10
446.6676
 20
430.2554
 10
446.7992
 20
430.4341
 10
446.9361
 20
430.6014
 10
447.0784
 20
430.7573
 10
447.2261
 20
430.9018
 10
447.3799
 20
431.032
 10
447.5406
 20
431.1448
 10
447.7083
 20
431.2402
 10
447.8828
 20
431.3183
 10
448.0641
 20
431.3791
 10
448.2524
 20
431.4225
 10
448.4475
 20
431.4485
 10
448.6495
 20
431.4572
 10
448.8517
 20
431.4482
 10
449.047
 20
431.4212
 10
449.2354
 20
431.3762
 10
449.4168
 20
431.3133
 10
449.5914
 20
431.2324
 10
449.759
 20
431.1337
 10
449.9198
 20
431.017
 10
450.0736
 20
430.8825
  0
LWPOLYLINE
  5
63
330
1F
100
AcDbEntity
  8
Layer 1
 62
     7
100
AcDbPolyline
 90
       65
 70
     1
 43
0.0
 10
448.7356
 20
407.5206
 10
449.4522
 20
407.5915
 10
450.1232
 20
407.8042
 10
450.7486
 20
408.1588
 10
451.3284
 20
408.6551
 10
451.8625
 20
409.2933
 10
452.351
 20
410.0733
 10
452.7938
 20
410.9951
 10
453.191
 20
412.0587
 10
453.47
 20
412.987
 10
453.7118
 20
413.9667
 10
453.9165
 20
414.9978
 10
454.084
 20
416.0804
 10
454.2142
 20
417.2144
 10
454.3073
 20
418.3999
 10
454.3631
 20
419.6369
 10
454.3817
 20
420.9253
 10
454.3631
 20
422.2134
 10
454.3073
 20
423.4502
 10
454.2142
 20
424.6355
 10
454.084
 20
425.7694
 10
453.9165
 20
426.8519
 10
453.7118
 20
427.883
 10
453.47
 20
428.8626
 10
453.191
 20
429.7909
 10
452.7938
 20
430.8545
 10
452.351
 20
431.7763
 10
451.8625
 20
432.5563
 10
451.3284
 20
433.1945
 10
450.7486
 20
433.6908
 10
450.1232
 20
434.0454
 10
449.4522
 20
434.2581
 10
448.7356
 20
434.329
 10
448.019
 20
434.2581
 10
447.348
 20
434.0454
 10
446.7226
 20
433.6908
 10
446.1428
 20
433.1945
 10
445.6086
 20
432.5563
 10
445.1201
 20
431.7763
 10
444.6773
 20
430.8545
 10
444.2801
 20
429.7909
 10
444.0011
 20
428.8626
 10
443.7593
 20
427.883
 10
443.5547
 20
426.8519
 10
443.3872
 20
425.7694
 10
443.257
 20
424.6355
 10
443.1639
 20
423.4502
 10
443.1081
 20
422.2134
 10
443.0895
 20
420.9253
 10
443.1081
 20
419.6369
 10
443.1639
 20
418.3999
 10
443.257
 20
417.2144
 10
443.3872
 20
416.0804
 10
443.5547
 20
414.9978
 10
443.7593
 20
413.9667
 10
444.0011
 20
412.987
 10
444.2801
 20
412.0587
 10
444.6773
 20
410.9951
 10
445.1201
 20
410.0733
 10
445.6086
 20
409.2933
 10
446.1428
 20
408.6551
 10
446.7226
 20
408.1588
 10
447.348
 20
407.8042
 10
448.019
 20
407.5915
 10
448.7356
 20
407.5206
  0
LWPOLYLINE
  5
64
330
1F
100
AcDbEntity
  8
Layer 1
 62
     7
100
AcDbPolyline
 90
      129
 70
     1
 43
0.0
 10
463.8201
 20
430.8825
 10
464.1035
 20
430.5821
 10
464.3677
 20
430.241
 10
464.6128
 20
429.8592
 10
464.8387
 20
429.4367
 10
465.0454
 20
428.9734
 10
465.233
 20
428.4695
 10
465.4014
 20
427.9248
 10
465.5506
 20
427.3394
 10
465.7175
 20
426.5631
 10
465.8621
 20
425.7754
 10
465.9845
 20
424.9764
 10
466.0847
 20
424.166
 10
466.1626
 20
423.3442
 10
466.2182
 20
422.511
 10
466.2516
 20
421.6663
 10
466.2627
 20
420.8103
 10
466.2615
 20
420.6047
 10
466.2581
 20
420.3902
 10
466.2523
 20
420.1666
 10
466.2442
 20
419.934
 10
466.2338
 20
419.6924
 10
466.2211
 20
419.4419
 10
466.2062
 20
419.1825
 10
466.189
 20
418.9142
 10
466.1038
 20
417.8847
 10
465.9925
 20
416.9121
 10
465.8552
 20
415.9963
 10
465.6917
 20
415.1373
 10
465.5022
 20
414.3351
 10
465.2866
 20
413.5897
 10
465.045
 20
412.9011
 10
464.7773
 20
412.2693
 10
464.5331
 20
411.7936
 10
464.2758
 20
411.3814
 10
464.0054
 20
411.0326
 10
463.722
 20
410.7472
 10
463.4256
 20
410.5252
 10
463.1161
 20
410.3666
 10
462.7935
 20
410.2715
 10
462.4579
 20
410.2398
 10
462.0833
 20
410.2712
 10
461.7267
 20
410.3655
 10
461.3882
 20
410.5226
 10
461.0676
 20
410.7426
 10
460.7652
 20
411.0254
 10
460.4807
 20
411.371
 10
460.2143
 20
411.7795
 10
459.9659
 20
412.2509
 10
459.8608
 20
412.4793
 10
459.7604
 20
412.7149
 10
459.6645
 20
412.9577
 10
459.5733
 20
413.2078
 10
459.4866
 20
413.4651
 10
459.4046
 20
413.7296
 10
459.3272
 20
414.0014
 10
459.2544
 20
414.2804
 10
459.1859
 20
414.5636
 10
459.1215
 20
414.8486
 10
459.0615
 20
415.1355
 10
459.0056
 20
415.4242
 10
458.954
 20
415.7148
 10
458.9066
 20
416.0072
 10
458.8635
 20
416.3015
 10
458.8247
 20
416.5977
 10
458.7892
 20
416.8933
 10
458.7564
 20
417.1864
 10
458.7263
 20
417.4771
 10
458.6989
 20
417.7654
 10
458.6742
 20
418.0513
 10
458.6522
 20
418.3348
 10
458.6328
 20
418.616
 10
458.6161
 20
418.8949
 10
458.6017
 20
419.178
 10
458.5892
 20
419.4717
 10
458.5786
 20
419.7761
 10
458.57
 20
420.091
 10
458.5634
 20
420.4164
 10
458.5586
 20
420.7521
 10
458.5557
 20
421.0982
 10
458.5548
 20
421.4544
 10
458.559
 20
421.8268
 10
458.5717
 20
422.2207
 10
458.5928
 20
422.6363
 10
458.6223
 20
423.0736
 10
458.6602
 20
423.5328
 10
458.7066
 20
424.0138
 10
458.7615
 20
424.517
 10
458.8247
 20
425.0422
 10
458.8634
 20
425.3338
 10
458.9059
 20
425.6248
 10
458.9523
 20
425.9152
 10
459.0026
 20
426.205
 10
459.0567
 20
426.4943
 10
459.1147
 20
426.783
 10
459.1764
 20
427.0711
 10
459.242
 20
427.3587
 10
459.312
 20
427.6424
 10
459.3869
 20
427.9189
 10
459.4669
 20
428.1882
 10
459.5518
 20
428.4503
 10
459.6417
 20
428.7052
 10
459.7367
 20
428.953
 10
459.8367
 20
429.1935
 10
459.9417
 20
429.4268
 10
460.0517
 20
429.6511
 10
460.1672
 20
429.8639
 10
460.288
 20
430.0654
 10
460.4141
 20
430.2554
 10
460.5457
 20
430.4341
 10
460.6826
 20
430.6014
 10
460.8249
 20
430.7573
 10
460.9726
 20
430.9018
 10
461.1264
 20
431.032
 10
461.2872
 20
431.1448
 10
461.4548
 20
431.2402
 10
461.6293
 20
431.3183
 10
461.8107
 20
431.3791
 10
461.999
 20
431.4225
 10
462.1941
 20
431.4485
 10
462.3961
 20
431.4572
 10
462.5983
 20
431.4482
 10
462.7935
 20
431.4212
 10
462.9819
 20
431.3762
 10
463.1633
 20
431.3133
 10
463.3379
 20
431.2324
 10
463.5055
 20
431.1337
 10
463.6663
 20
431.017
 10
463.8201
 20
430.8825
  0
LWPOLYLINE
  5
65
330
1F
100
AcDbEntity
  8
Layer 1
 62
     7
100
AcDbPolyline
 90
       65
 70
     1
 43
0.0
 10
462.4821
 20
407.5206
 10
463.1987
 20
407.5915
 10
463.8697
 20
407.8042
 10
464.4951
 20
408.1588
 10
465.0749
 20
408.6551
 10
465.6091
 20
409.2933
 10
466.0976
 20
410.0733
 10
466.5404
 20
410.9951
 10
466.9376
 20
412.0587
 10
467.2166
 20
412.987
 10
467.4584
 20
413.9667
 10
467.663
 20
414.9978
 10
467.8305
 20
416.0804
 10
467.9607
 20
417.2144
 10
468.0538
 20
418.3999
 10
468.1096
 20
419.6369
 10
468.1282
 20
420.9253
 10
468.1096
 20
422.2134
 10
468.0538
 20
423.4502
 10
467.9607
 20
424.6355
 10
467.8305
 20
425.7694
 10
467.663
 20
426.8519
 10
467.4584
 20
427.883
 10
467.2166
 20
428.8626
 10
466.9376
 20
429.7909
 10
466.5404
 20
430.8545
 10
466.0976
 20
431.7763
 10
465.6091
 20
432.5563
 10
465.0749
 20
433.1945
 10
464.4951
 20
433.6908
 10
463.8697
 20
434.0454
 10
463.1987
 20
434.2581
 10
462.4821
 20
434.329
 10
461.7655
 20
434.2581
 10
461.0945
 20
434.0454
 10
460.4691
 20
433.6908
 10
459.8893
 20
433.1945
 10
459.3552
 20
432.5563
 10
458.8667
 20
431.7763
 10
458.4239
 20
430.8545
 10
458.0267
 20
429.7909
 10
457.7477
 20
428.8626
 10
457.5059
 20
427.883
 10
457.3012
 20
426.8519
 10
457.1338
 20
425.7694
 10
457.0035
 20
424.6355
 10
456.9104
 20
423.4502
 10
456.8546
 20
422.2134
 10
456.836
 20
420.9253
 10
456.8546
 20
419.6369
 10
456.9104
 20
418.3999
 10
457.0035
 20
417.2144
 10
457.1338
 20
416.0804
 10
457.3012
 20
414.9978
 10
457.5059
 20
413.9667
 10
457.7477
 20
412.987
 10
458.0267
 20
412.0587
 10
458.4239
 20
410.9951
 10
458.8667
 20
410.0733
 10
459.3552
 20
409.2933
 10
459.8893
 20
408.6551
 10
460.4691
 20
408.1588
 10
461.0945
 20
407.8042
 10
461.7655
 20
407.5915
 10
462.4821
 20
407.5206
  0
LWPOLYLINE
  5
66
330
1F
100
AcDbEntity
  8
Layer 1
 62
     7
100
AcDbPolyline
 90
      162
 70
     1
 43
0.0
 10
484.8943
 20
407.9418
 10
486.6125
 20
407.9418
 10
486.6125
 20
418.4737
 10
486.5985
 20
419.1729
 10
486.5565
 20
419.8392
 10
486.4865
 20
420.4726
 10
486.3885
 20
421.0731
 10
486.2626
 20
421.6407
 10
486.1086
 20
422.1754
 10
485.9266
 20
422.6772
 10
485.7166
 20
423.1461
 10
485.5993
 20
423.3704
 10
485.4747
 20
423.5832
 10
485.343
 20
423.7847
 10
485.2039
 20
423.9747
 10
485.0576
 20
424.1534
 10
484.904
 20
424.3206
 10
484.7431
 20
424.4765
 10
484.5749
 20
424.621
 10
484.3961
 20
424.7509
 10
484.2036
 20
424.8635
 10
483.9972
 20
424.9588
 10
483.7771
 20
425.0368
 10
483.5431
 20
425.0975
 10
483.2954
 20
425.1409
 10
483.0337
 20
425.1669
 10
482.7583
 20
425.1756
 10
482.4805
 20
425.1607
 10
482.2115
 20
425.1159
 10
481.9514
 20
425.0411
 10
481.7
 20
424.9365
 10
481.4574
 20
424.8019
 10
481.2236
 20
424.6374
 10
480.9987
 20
424.4428
 10
480.7825
 20
424.2183
 10
480.5948
 20
423.9947
 10
480.4156
 20
423.7544
 10
480.2449
 20
423.4976
 10
480.0827
 20
423.2245
 10
479.9289
 20
422.9351
 10
479.7835
 20
422.6299
 10
479.6467
 20
422.3087
 10
479.5182
 20
421.972
 10
479.4183
 20
422.2829
 10
479.3093
 20
422.5831
 10
479.1912
 20
422.8712
 10
479.0638
 20
423.1461
 10
478.9467
 20
423.3704
 10
478.8223
 20
423.5832
 10
478.6906
 20
423.7847
 10
478.5516
 20
423.9747
 10
478.4053
 20
424.1534
 10
478.2517
 20
424.3206
 10
478.0908
 20
424.4765
 10
477.9226
 20
424.621
 10
477.7438
 20
424.7509
 10
477.5512
 20
424.8635
 10
477.3448
 20
424.9588
 10
477.1246
 20
425.0368
 10
476.8906
 20
425.0975
 10
476.6429
 20
425.1409
 10
476.3813
 20
425.1669
 10
476.106
 20
425.1756
 10
475.828
 20
425.1607
 10
475.5589
 20
425.1159
 10
475.2987
 20
425.0411
 10
475.0472
 20
424.9365
 10
474.8046
 20
424.8019
 10
474.5708
 20
424.6374
 10
474.3459
 20
424.4428
 10
474.1297
 20
424.2183
 10
473.9511
 20
424.0054
 10
473.7801
 20
423.778
 10
473.6168
 20
423.536
 10
473.4611
 20
423.2793
 10
473.3131
 20
423.008
 10
473.1727
 20
422.722
 10
473.04
 20
422.4211
 10
472.9149
 20
422.1054
 10
472.9149
 20
424.793
 10
471.1967
 20
424.793
 10
471.1967
 20
407.9418
 10
472.9149
 20
407.9418
 10
472.9149
 20
416.5652
 10
472.9548
 20
417.0677
 10
473.007
 20
417.5506
 10
473.0714
 20
418.014
 10
473.1481
 20
418.4581
 10
473.237
 20
418.883
 10
473.3383
 20
419.289
 10
473.4517
 20
419.676
 10
473.5774
 20
420.0443
 10
473.6799
 20
420.3062
 10
473.7908
 20
420.5562
 10
473.91
 20
420.7944
 10
474.0378
 20
421.0207
 10
474.1739
 20
421.235
 10
474.3185
 20
421.4374
 10
474.4716
 20
421.6278
 10
474.6331
 20
421.8062
 10
474.8004
 20
421.9676
 10
474.9707
 20
422.1074
 10
475.1441
 20
422.2258
 10
475.3206
 20
422.3227
 10
475.5001
 20
422.3981
 10
475.6827
 20
422.4519
 10
475.8684
 20
422.4842
 10
476.0571
 20
422.495
 10
476.2412
 20
422.4893
 10
476.413
 20
422.4723
 10
476.5725
 20
422.4439
 10
476.7198
 20
422.4042
 10
476.8547
 20
422.3531
 10
476.9774
 20
422.2906
 10
477.0878
 20
422.2168
 10
477.1859
 20
422.1317
 10
477.4334
 20
421.8462
 10
477.6479
 20
421.5117
 10
477.8293
 20
421.128
 10
477.9777
 20
420.6953
 10
478.0932
 20
420.2134
 10
478.1756
 20
419.6826
 10
478.225
 20
419.1027
 10
478.2415
 20
418.4737
 10
478.2415
 20
407.9418
 10
479.9603
 20
407.9418
 10
479.9603
 20
418.4737
 10
479.9479
 20
419.1186
 10
480.2302
 20
420.0443
 10
480.3325
 20
420.3062
 10
480.4433
 20
420.5562
 10
480.5625
 20
420.7944
 10
480.6903
 20
421.0207
 10
480.8264
 20
421.235
 10
480.971
 20
421.4374
 10
481.1239
 20
421.6278
 10
481.2853
 20
421.8062
 10
481.4526
 20
421.9676
 10
481.623
 20
422.1074
 10
481.7964
 20
422.2258
 10
481.9729
 20
422.3227
 10
482.1524
 20
422.3981
 10
482.335
 20
422.4519
 10
482.5206
 20
422.4842
 10
482.7093
 20
422.495
 10
482.8934
 20
422.4893
 10
483.0652
 20
422.4723
 10
483.2248
 20
422.4439
 10
483.3721
 20
422.4042
 10
483.5071
 20
422.3531
 10
483.6299
 20
422.2906
 10
483.7404
 20
422.2168
 10
483.8387
 20
422.1317
 10
484.086
 20
421.8462
 10
484.3004
 20
421.5117
 10
484.4819
 20
421.128
 10
484.6303
 20
420.6953
 10
484.7458
 20
420.2134
 10
484.8283
 20
419.6826
 10
484.8778
 20
419.1027
 10
484.8943
 20
418.4737
 10
484.8943
 20
407.9418
  0
LWPOLYLINE
  5
67
330
1F
100
AcDbEntity
  8
Layer 1
 62
     7
100
AcDbPolyline
 90
      162
 70
     1
 43
0.0
 10
503.6244
 20
407.9418
 10
505.3426
 20
407.9418
 10
505.3426
 20
418.4737
 10
505.3286
 20
419.1729
 10
505.2866
 20
419.8392
 10
505.2166
 20
420.4726
 10
505.1186
 20
421.0731
 10
504.9926
 20
421.6407
 10
504.8386
 20
422.1754
 10
504.6566
 20
422.6772
 10
504.4466
 20
423.1461
 10
504.3293
 20
423.3704
 10
504.2048
 20
423.5832
 10
504.073
 20
423.7847
 10
503.934
 20
423.9747
 10
503.7877
 20
424.1534
 10
503.6341
 20
424.3206
 10
503.4731
 20
424.4765
 10
503.3049
 20
424.621
 10
503.1261
 20
424.7509
 10
502.9336
 20
424.8635
 10
502.7273
 20
424.9588
 10
502.5072
 20
425.0368
 10
502.2732
 20
425.0975
 10
502.0255
 20
425.1409
 10
501.7638
 20
425.1669
 10
501.4884
 20
425.1756
 10
501.2106
 20
425.1607
 10
500.9416
 20
425.1159
 10
500.6814
 20
425.0411
 10
500.43
 20
424.9365
 10
500.1875
 20
424.8019
 10
499.9537
 20
424.6374
 10
499.7288
 20
424.4428
 10
499.5126
 20
424.2183
 10
499.3249
 20
423.9947
 10
499.1457
 20
423.7544
 10
498.975
 20
423.4976
 10
498.8127
 20
423.2245
 10
498.6589
 20
422.9351
 10
498.5136
 20
422.6299
 10
498.3767
 20
422.3087
 10
498.2483
 20
421.972
 10
498.1484
 20
422.2829
 10
498.0394
 20
422.5831
 10
497.9213
 20
422.8712
 10
497.7939
 20
423.1461
 10
497.6768
 20
423.3704
 10
497.5524
 20
423.5832
 10
497.4207
 20
423.7847
 10
497.2817
 20
423.9747
 10
497.1354
 20
424.1534
 10
496.9818
 20
424.3206
 10
496.8209
 20
424.4765
 10
496.6527
 20
424.621
 10
496.4739
 20
424.7509
 10
496.2813
 20
424.8635
 10
496.0749
 20
424.9588
 10
495.8547
 20
425.0368
 10
495.6207
 20
425.0975
 10
495.3729
 20
425.1409
 10
495.1114
 20
425.1669
 10
494.8361
 20
425.1756
 10
494.5581
 20
425.1607
 10
494.289
 20
425.1159
 10
494.0287
 20
425.0411
 10
493.7773
 20
424.9365
 10
493.5347
 20
424.8019
 10
493.3009
 20
424.6374
 10
493.076
 20
424.4428
 10
492.8598
 20
424.2183
 10
492.6812
 20
424.0054
 10
492.5102
 20
423.778
 10
492.3469
 20
423.536
 10
492.1912
 20
423.2793
 10
492.0432
 20
423.008
 10
491.9028
 20
422.722
 10
491.7701
 20
422.4211
 10
491.645
 20
422.1054
 10
491.645
 20
424.793
 10
489.9268
 20
424.793
 10
489.9268
 20
407.9418
 10
491.645
 20
407.9418
 10
491.645
 20
416.5652
 10
491.6849
 20
417.0677
 10
491.7371
 20
417.5506
 10
491.8015
 20
418.014
 10
491.8782
 20
418.4581
 10
491.9671
 20
418.883
 10
492.0684
 20
419.289
 10
492.1818
 20
419.676
 10
492.3075
 20
420.0443
 10
492.41
 20
420.3062
 10
492.5209
 20
420.5562
 10
492.6401
 20
420.7944
 10
492.7679
 20
421.0207
 10
492.904
 20
421.235
 10
493.0486
 20
421.4374
 10
493.2017
 20
421.6278
 10
493.3632
 20
421.8062
 10
493.5305
 20
421.9676
 10
493.7008
 20
422.1074
 10
493.8742
 20
422.2258
 10
494.0507
 20
422.3227
 10
494.2302
 20
422.3981
 10
494.4128
 20
422.4519
 10
494.5985
 20
422.4842
 10
494.7872
 20
422.495
 10
494.9713
 20
422.4893
 10
495.1431
 20
422.4723
 10
495.3026
 20
422.4439
 10
495.4499
 20
422.4042
 10
495.5848
 20
422.3531
 10
495.7075
 20
422.2906
 10
495.8179
 20
422.2168
 10
495.916
 20
422.1317
 10
496.1635
 20
421.8462
 10
496.378
 20
421.5117
 10
496.5594
 20
421.128
 10
496.7078
 20
420.6953
 10
496.8233
 20
420.2134
 10
496.9057
 20
419.6826
 10
496.9551
 20
419.1027
 10
496.9716
 20
418.4737
 10
496.9716
 20
407.9418
 10
498.6903
 20
407.9418
 10
498.6903
 20
418.4737
 10
498.678
 20
419.1186
 10
498.9603
 20
420.0443
 10
499.0626
 20
420.3062
 10
499.1734
 20
420.5562
 10
499.2926
 20
420.7944
 10
499.4204
 20
421.0207
 10
499.5565
 20
421.235
 10
499.7011
 20
421.4374
 10
499.854
 20
421.6278
 10
500.0154
 20
421.8062
 10
500.1827
 20
421.9676
 10
500.353
 20
422.1074
 10
500.5264
 20
422.2258
 10
500.7029
 20
422.3227
 10
500.8824
 20
422.3981
 10
501.065
 20
422.4519
 10
501.2507
 20
422.4842
 10
501.4394
 20
422.495
 10
501.6235
 20
422.4893
 10
501.7953
 20
422.4723
 10
501.9549
 20
422.4439
 10
502.1022
 20
422.4042
 10
502.2372
 20
422.3531
 10
502.3599
 20
422.2906
 10
502.4704
 20
422.2168
 10
502.5687
 20
422.1317
 10
502.8161
 20
421.8462
 10
503.0305
 20
421.5117
 10
503.2119
 20
421.128
 10
503.3604
 20
420.6953
 10
503.4759
 20
420.2134
 10
503.5584
 20
419.6826
 10
503.6079
 20
419.1027
 10
503.6244
 20
418.4737
 10
503.6244
 20
407.9418
  0
LWPOLYLINE
  5
68
330
1F
100
AcDbEntity
  8
Layer 1
 62
     7
100
AcDbPolyline
 90
        7
 70
     1
 43
0.0
 10
184.1591
 20
312.1971
 10
185.8773
 20
312.1971
 10
185.8773
 20
338.5458
 10
181.7531
 20
337.8561
 10
181.7531
 20
335.5204
 10
184.1591
 20
335.5204
 10
184.1591
 20
312.1971
  0
LWPOLYLINE
  5
69
330
1F
100
AcDbEntity
  8
Layer 1
 62
     7
100
AcDbPolyline
 90
      129
 70
     1
 43
0.0
 10
195.7825
 20
335.2141
 10
196.0659
 20
334.9137
 10
196.3301
 20
334.5726
 10
196.5752
 20
334.1908
 10
196.8011
 20
333.7683
 10
197.0078
 20
333.3051
 10
197.1954
 20
332.8011
 10
197.3638
 20
332.2564
 10
197.513
 20
331.671
 10
197.6799
 20
330.8947
 10
197.8245
 20
330.1071
 10
197.9469
 20
329.3081
 10
198.0471
 20
328.4977
 10
198.125
 20
327.6759
 10
198.1806
 20
326.8427
 10
198.214
 20
325.998
 10
198.2251
 20
325.142
 10
198.2239
 20
324.9364
 10
198.2205
 20
324.7218
 10
198.2147
 20
324.4982
 10
198.2066
 20
324.2656
 10
198.1962
 20
324.0241
 10
198.1835
 20
323.7736
 10
198.1686
 20
323.5141
 10
198.1514
 20
323.2458
 10
198.0662
 20
322.2164
 10
197.9549
 20
321.2438
 10
197.8176
 20
320.328
 10
197.6541
 20
319.469
 10
197.4646
 20
318.6668
 10
197.249
 20
317.9214
 10
197.0074
 20
317.2328
 10
196.7397
 20
316.601
 10
196.4955
 20
316.1253
 10
196.2382
 20
315.7131
 10
195.9678
 20
315.3643
 10
195.6844
 20
315.0789
 10
195.388
 20
314.8569
 10
195.0785
 20
314.6983
 10
194.7559
 20
314.6032
 10
194.4203
 20
314.5715
 10
194.0457
 20
314.6029
 10
193.6891
 20
314.6972
 10
193.3506
 20
314.8543
 10
193.03
 20
315.0742
 10
192.7276
 20
315.357
 10
192.4431
 20
315.7027
 10
192.1767
 20
316.1112
 10
191.9283
 20
316.5825
 10
191.8232
 20
316.8109
 10
191.7228
 20
317.0465
 10
191.6269
 20
317.2893
 10
191.5357
 20
317.5394
 10
191.449
 20
317.7967
 10
191.367
 20
318.0612
 10
191.2896
 20
318.333
 10
191.2168
 20
318.6121
 10
191.1483
 20
318.8953
 10
191.0839
 20
319.1803
 10
191.0239
 20
319.4672
 10
190.968
 20
319.7559
 10
190.9164
 20
320.0465
 10
190.869
 20
320.3389
 10
190.8259
 20
320.6332
 10
190.7871
 20
320.9294
 10
190.7516
 20
321.2249
 10
190.7188
 20
321.5181
 10
190.6887
 20
321.8088
 10
190.6613
 20
322.097
 10
190.6366
 20
322.3829
 10
190.6146
 20
322.6665
 10
190.5952
 20
322.9477
 10
190.5785
 20
323.2265
 10
190.5641
 20
323.5096
 10
190.5516
 20
323.8034
 10
190.541
 20
324.1078
 10
190.5324
 20
324.4227
 10
190.5258
 20
324.7481
 10
190.521
 20
325.0838
 10
190.5181
 20
325.4298
 10
190.5172
 20
325.786
 10
190.5214
 20
326.1584
 10
190.5341
 20
326.5523
 10
190.5552
 20
326.9679
 10
190.5847
 20
327.4052
 10
190.6226
 20
327.8644
 10
190.669
 20
328.3455
 10
190.7239
 20
328.8487
 10
190.7871
 20
329.3739
 10
190.8258
 20
329.6655
 10
190.8683
 20
329.9565
 10
190.9147
 20
330.2469
 10
190.965
 20
330.5367
 10
191.0191
 20
330.826
 10
191.0771
 20
331.1147
 10
191.1388
 20
331.4028
 10
191.2044
 20
331.6903
 10
191.2744
 20
331.974
 10
191.3493
 20
332.2505
 10
191.4293
 20
332.5198
 10
191.5142
 20
332.782
 10
191.6041
 20
333.0369
 10
191.6991
 20
333.2847
 10
191.7991
 20
333.5252
 10
191.9041
 20
333.7585
 10
192.0141
 20
333.9828
 10
192.1296
 20
334.1956
 10
192.2504
 20
334.3971
 10
192.3765
 20
334.5871
 10
192.5081
 20
334.7658
 10
192.645
 20
334.933
 10
192.7873
 20
335.0889
 10
192.935
 20
335.2334
 10
193.0888
 20
335.3636
 10
193.2496
 20
335.4764
 10
193.4172
 20
335.5719
 10
193.5917
 20
335.65
 10
193.7731
 20
335.7108
 10
193.9614
 20
335.7542
 10
194.1565
 20
335.7802
 10
194.3585
 20
335.7889
 10
194.5607
 20
335.7799
 10
194.7559
 20
335.7529
 10
194.9443
 20
335.7079
 10
195.1257
 20
335.645
 10
195.3003
 20
335.5641
 10
195.4679
 20
335.4653
 10
195.6287
 20
335.3486
 10
195.7825
 20
335.2141
  0
LWPOLYLINE
  5
6A
330
1F
100
AcDbEntity
  8
Layer 1
 62
     7
100
AcDbPolyline
 90
       65
 70
     1
 43
0.0
 10
194.4445
 20
311.8523
 10
195.1611
 20
311.9232
 10
195.8321
 20
312.1359
 10
196.4575
 20
312.4905
 10
197.0373
 20
312.9868
 10
197.5715
 20
313.625
 10
198.06
 20
314.405
 10
198.5028
 20
315.3268
 10
198.9
 20
316.3904
 10
199.179
 20
317.3187
 10
199.4208
 20
318.2983
 10
199.6254
 20
319.3295
 10
199.7929
 20
320.412
 10
199.9231
 20
321.546
 10
200.0162
 20
322.7315
 10
200.072
 20
323.9685
 10
200.0906
 20
325.2569
 10
200.072
 20
326.5451
 10
200.0162
 20
327.7818
 10
199.9231
 20
328.9672
 10
199.7929
 20
330.1011
 10
199.6254
 20
331.1836
 10
199.4208
 20
332.2147
 10
199.179
 20
333.1943
 10
198.9
 20
334.1226
 10
198.5028
 20
335.1862
 10
198.06
 20
336.108
 10
197.5715
 20
336.888
 10
197.0373
 20
337.5262
 10
196.4575
 20
338.0225
 10
195.8321
 20
338.3771
 10
195.1611
 20
338.5898
 10
194.4445
 20
338.6607
 10
193.7279
 20
338.5898
 10
193.0569
 20
338.3771
 10
192.4315
 20
338.0225
 10
191.8517
 20
337.5262
 10
191.3176
 20
336.888
 10
190.8291
 20
336.108
 10
190.3863
 20
335.1862
 10
189.9891
 20
334.1226
 10
189.7101
 20
333.1943
 10
189.4683
 20
332.2147
 10
189.2636
 20
331.1836
 10
189.0962
 20
330.1011
 10
188.9659
 20
328.9672
 10
188.8728
 20
327.7818
 10
188.817
 20
326.5451
 10
188.7984
 20
325.2569
 10
188.817
 20
323.9685
 10
188.8728
 20
322.7315
 10
188.9659
 20
321.546
 10
189.0962
 20
320.412
 10
189.2636
 20
319.3295
 10
189.4683
 20
318.2983
 10
189.7101
 20
317.3187
 10
189.9891
 20
316.3904
 10
190.3863
 20
315.3268
 10
190.8291
 20
314.405
 10
191.3176
 20
313.625
 10
191.8517
 20
312.9868
 10
192.4315
 20
312.4905
 10
193.0569
 20
312.1359
 10
193.7279
 20
311.9232
 10
194.4445
 20
311.8523
  0
LWPOLYLINE
  5
6B
330
1F
100
AcDbEntity
  8
Layer 1
 62
     7
100
AcDbPolyline
 90
      129
 70
     1
 43
0.0
 10
209.529
 20
335.2141
 10
209.8124
 20
334.9137
 10
210.0766
 20
334.5726
 10
210.3217
 20
334.1908
 10
210.5476
 20
333.7683
 10
210.7544
 20
333.3051
 10
210.9419
 20
332.8011
 10
211.1104
 20
332.2564
 10
211.2596
 20
331.671
 10
211.4265
 20
330.8947
 10
211.5711
 20
330.1071
 10
211.6934
 20
329.3081
 10
211.7936
 20
328.4977
 10
211.8715
 20
327.6759
 10
211.9271
 20
326.8427
 10
211.9605
 20
325.998
 10
211.9716
 20
325.142
 10
211.9704
 20
324.9364
 10
211.967
 20
324.7218
 10
211.9612
 20
324.4982
 10
211.9531
 20
324.2656
 10
211.9427
 20
324.0241
 10
211.93
 20
323.7736
 10
211.9151
 20
323.5141
 10
211.8979
 20
323.2458
 10
211.8127
 20
322.2164
 10
211.7015
 20
321.2438
 10
211.5641
 20
320.328
 10
211.4007
 20
319.469
 10
211.2111
 20
318.6668
 10
210.9956
 20
317.9214
 10
210.7539
 20
317.2328
 10
210.4862
 20
316.601
 10
210.242
 20
316.1253
 10
209.9847
 20
315.7131
 10
209.7144
 20
315.3643
 10
209.431
 20
315.0789
 10
209.1345
 20
314.8569
 10
208.825
 20
314.6983
 10
208.5025
 20
314.6032
 10
208.1669
 20
314.5715
 10
207.7923
 20
314.6029
 10
207.4357
 20
314.6972
 10
207.0971
 20
314.8543
 10
206.7766
 20
315.0742
 10
206.4741
 20
315.357
 10
206.1896
 20
315.7027
 10
205.9232
 20
316.1112
 10
205.6748
 20
316.5825
 10
205.5697
 20
316.8109
 10
205.4693
 20
317.0465
 10
205.3734
 20
317.2893
 10
205.2822
 20
317.5394
 10
205.1955
 20
317.7967
 10
205.1135
 20
318.0612
 10
205.0361
 20
318.333
 10
204.9633
 20
318.6121
 10
204.8948
 20
318.8953
 10
204.8304
 20
319.1803
 10
204.7704
 20
319.4672
 10
204.7145
 20
319.7559
 10
204.6629
 20
320.0465
 10
204.6156
 20
320.3389
 10
204.5725
 20
320.6332
 10
204.5337
 20
320.9294
 10
204.4981
 20
321.2249
 10
204.4653
 20
321.5181
 10
204.4352
 20
321.8088
 10
204.4078
 20
322.097
 10
204.3831
 20
322.3829
 10
204.3611
 20
322.6665
 10
204.3417
 20
322.9477
 10
204.325
 20
323.2265
 10
204.3106
 20
323.5096
 10
204.2981
 20
323.8034
 10
204.2875
 20
324.1078
 10
204.2789
 20
324.4227
 10
204.2723
 20
324.7481
 10
204.2675
 20
325.0838
 10
204.2646
 20
325.4298
 10
204.2637
 20
325.786
 10
204.2679
 20
326.1584
 10
204.2806
 20
326.5523
 10
204.3017
 20
326.9679
 10
204.3312
 20
327.4052
 10
204.3692
 20
327.8644
 10
204.4156
 20
328.3455
 10
204.4704
 20
328.8487
 10
204.5337
 20
329.3739
 10
204.5723
 20
329.6655
 10
204.6149
 20
329.9565
 10
204.6613
 20
330.2469
 10
204.7115
 20
330.5367
 10
204.7656
 20
330.826
 10
204.8236
 20
331.1147
 10
204.8854
 20
331.4028
 10
204.951
 20
331.6903
 10
205.0209
 20
331.974
 10
205.0959
 20
332.2505
 10
205.1758
 20
332.5198
 10
205.2607
 20
332.782
 10
205.3506
 20
333.0369
 10
205.4456
 20
333.2847
 10
205.5456
 20
333.5252
 10
205.6506
 20
333.7585
 10
205.7606
 20
333.9828
 10
205.8761
 20
334.1956
 10
205.9969
 20
334.3971
 10
206.123
 20
334.5871
 10
206.2546
 20
334.7658
 10
206.3915
 20
334.933
 10
206.5338
 20
335.0889
 10
206.6815
 20
335.2334
 10
206.8353
 20
335.3636
 10
206.9961
 20
335.4764
 10
207.1637
 20
335.5719
 10
207.3382
 20
335.65
 10
207.5196
 20
335.7108
 10
207.7079
 20
335.7542
 10
207.903
 20
335.7802
 10
208.105
 20
335.7889
 10
208.3072
 20
335.7799
 10
208.5024
 20
335.7529
 10
208.6908
 20
335.7079
 10
208.8722
 20
335.645
 10
209.0468
 20
335.5641
 10
209.2144
 20
335.4653
 10
209.3752
 20
335.3486
 10
209.529
 20
335.2141
  0
LWPOLYLINE
  5
6C
330
1F
100
AcDbEntity
  8
Layer 1
 62
     7
100
AcDbPolyline
 90
       65
 70
     1
 43
0.0
 10
208.191
 20
311.8523
 10
208.9077
 20
311.9232
 10
209.5787
 20
312.1359
 10
210.2041
 20
312.4905
 10
210.7839
 20
312.9868
 10
211.318
 20
313.625
 10
211.8065
 20
314.405
 10
212.2493
 20
315.3268
 10
212.6465
 20
316.3904
 10
212.9255
 20
317.3187
 10
213.1673
 20
318.2983
 10
213.3719
 20
319.3295
 10
213.5394
 20
320.412
 10
213.6696
 20
321.546
 10
213.7627
 20
322.7315
 10
213.8185
 20
323.9685
 10
213.8371
 20
325.2569
 10
213.8185
 20
326.5451
 10
213.7627
 20
327.7818
 10
213.6696
 20
328.9672
 10
213.5394
 20
330.1011
 10
213.3719
 20
331.1836
 10
213.1673
 20
332.2147
 10
212.9255
 20
333.1943
 10
212.6465
 20
334.1226
 10
212.2493
 20
335.1862
 10
211.8065
 20
336.108
 10
211.318
 20
336.888
 10
210.7839
 20
337.5262
 10
210.2041
 20
338.0225
 10
209.5787
 20
338.3771
 10
208.9077
 20
338.5898
 10
208.191
 20
338.6607
 10
207.4744
 20
338.5898
 10
206.8034
 20
338.3771
 10
206.178
 20
338.0225
 10
205.5982
 20
337.5262
 10
205.0641
 20
336.888
 10
204.5756
 20
336.108
 10
204.1328
 20
335.1862
 10
203.7356
 20
334.1226
 10
203.4566
 20
333.1943
 10
203.2148
 20
332.2147
 10
203.0101
 20
331.1836
 10
202.8427
 20
330.1011
 10
202.7125
 20
328.9672
 10
202.6194
 20
327.7818
 10
202.5636
 20
326.5451
 10
202.545
 20
325.2569
 10
202.5636
 20
323.9685
 10
202.6194
 20
322.7315
 10
202.7125
 20
321.546
 10
202.8427
 20
320.412
 10
203.0101
 20
319.3295
 10
203.2148
 20
318.2983
 10
203.4566
 20
317.3187
 10
203.7356
 20
316.3904
 10
204.1328
 20
315.3268
 10
204.5756
 20
314.405
 10
205.0641
 20
313.625
 10
205.5982
 20
312.9868
 10
206.178
 20
312.4905
 10
206.8034
 20
312.1359
 10
207.4744
 20
311.9232
 10
208.191
 20
311.8523
  0
LWPOLYLINE
  5
6D
330
1F
100
AcDbEntity
  8
Layer 1
 62
     7
100
AcDbPolyline
 90
      162
 70
     1
 43
0.0
 10
230.6032
 20
312.2734
 10
232.3214
 20
312.2734
 10
232.3214
 20
322.8054
 10
232.3074
 20
323.5046
 10
232.2654
 20
324.1709
 10
232.1954
 20
324.8043
 10
232.0974
 20
325.4048
 10
231.9715
 20
325.9724
 10
231.8175
 20
326.5071
 10
231.6355
 20
327.0088
 10
231.4255
 20
327.4777
 10
231.3082
 20
327.702
 10
231.1837
 20
327.9149
 10
231.0519
 20
328.1163
 10
230.9129
 20
328.3064
 10
230.7665
 20
328.485
 10
230.6129
 20
328.6523
 10
230.452
 20
328.8082
 10
230.2838
 20
328.9527
 10
230.105
 20
329.0826
 10
229.9125
 20
329.1952
 10
229.7061
 20
329.2905
 10
229.486
 20
329.3685
 10
229.2521
 20
329.4292
 10
229.0043
 20
329.4726
 10
228.7427
 20
329.4986
 10
228.4672
 20
329.5073
 10
228.1894
 20
329.4924
 10
227.9204
 20
329.4475
 10
227.6603
 20
329.3728
 10
227.4089
 20
329.2682
 10
227.1663
 20
329.1336
 10
226.9325
 20
328.969
 10
226.7076
 20
328.7745
 10
226.4914
 20
328.55
 10
226.3037
 20
328.3264
 10
226.1245
 20
328.0861
 10
225.9538
 20
327.8293
 10
225.7916
 20
327.5562
 10
225.6378
 20
327.2668
 10
225.4924
 20
326.9616
 10
225.3556
 20
326.6404
 10
225.2271
 20
326.3037
 10
225.1272
 20
326.6146
 10
225.0182
 20
326.9147
 10
224.9001
 20
327.2028
 10
224.7727
 20
327.4777
 10
224.6556
 20
327.702
 10
224.5312
 20
327.9149
 10
224.3995
 20
328.1163
 10
224.2605
 20
328.3064
 10
224.1143
 20
328.485
 10
223.9607
 20
328.6523
 10
223.7998
 20
328.8082
 10
223.6316
 20
328.9527
 10
223.4528
 20
329.0826
 10
223.2602
 20
329.1952
 10
223.0538
 20
329.2905
 10
222.8336
 20
329.3685
 10
222.5996
 20
329.4292
 10
222.3518
 20
329.4726
 10
222.0903
 20
329.4986
 10
221.815
 20
329.5073
 10
221.537
 20
329.4924
 10
221.2679
 20
329.4475
 10
221.0076
 20
329.3728
 10
220.7562
 20
329.2682
 10
220.5135
 20
329.1336
 10
220.2797
 20
328.969
 10
220.0548
 20
328.7745
 10
219.8386
 20
328.55
 10
219.66
 20
328.3371
 10
219.489
 20
328.1097
 10
219.3257
 20
327.8676
 10
219.17
 20
327.611
 10
219.022
 20
327.3397
 10
218.8816
 20
327.0536
 10
218.7489
 20
326.7528
 10
218.6238
 20
326.4371
 10
218.6238
 20
329.1247
 10
216.9056
 20
329.1247
 10
216.9056
 20
312.2734
 10
218.6238
 20
312.2734
 10
218.6238
 20
320.8969
 10
218.6637
 20
321.3994
 10
218.7159
 20
321.8823
 10
218.7803
 20
322.3457
 10
218.857
 20
322.7898
 10
218.9459
 20
323.2147
 10
219.0472
 20
323.6207
 10
219.1606
 20
324.0077
 10
219.2863
 20
324.376
 10
219.3888
 20
324.6379
 10
219.4997
 20
324.8879
 10
219.6189
 20
325.1261
 10
219.7467
 20
325.3524
 10
219.8828
 20
325.5667
 10
220.0274
 20
325.7691
 10
220.1805
 20
325.9595
 10
220.342
 20
326.1379
 10
220.5093
 20
326.2993
 10
220.6797
 20
326.4391
 10
220.8531
 20
326.5575
 10
221.0296
 20
326.6544
 10
221.2091
 20
326.7298
 10
221.3917
 20
326.7836
 10
221.5773
 20
326.8159
 10
221.766
 20
326.8267
 10
221.9501
 20
326.821
 10
222.1219
 20
326.804
 10
222.2814
 20
326.7756
 10
222.4287
 20
326.7359
 10
222.5636
 20
326.6848
 10
222.6863
 20
326.6223
 10
222.7967
 20
326.5485
 10
222.8948
 20
326.4634
 10
223.1423
 20
326.1779
 10
223.3568
 20
325.8434
 10
223.5382
 20
325.4597
 10
223.6866
 20
325.027
 10
223.8021
 20
324.5451
 10
223.8845
 20
324.0143
 10
223.9339
 20
323.4344
 10
223.9504
 20
322.8054
 10
223.9504
 20
312.2734
 10
225.6692
 20
312.2734
 10
225.6692
 20
322.8054
 10
225.6568
 20
323.4503
 10
225.9391
 20
324.376
 10
226.0414
 20
324.6379
 10
226.1522
 20
324.8879
 10
226.2715
 20
325.1261
 10
226.3992
 20
325.3524
 10
226.5353
 20
325.5667
 10
226.6799
 20
325.7691
 10
226.8328
 20
325.9595
 10
226.9942
 20
326.1379
 10
227.1615
 20
326.2993
 10
227.3319
 20
326.4391
 10
227.5053
 20
326.5575
 10
227.6818
 20
326.6544
 10
227.8613
 20
326.7298
 10
228.0439
 20
326.7836
 10
228.2296
 20
326.8159
 10
228.4183
 20
326.8267
 10
228.6024
 20
326.821
 10
228.7742
 20
326.804
 10
228.9337
 20
326.7756
 10
229.081
 20
326.7359
 10
229.216
 20
326.6848
 10
229.3388
 20
326.6223
 10
229.4493
 20
326.5485
 10
229.5476
 20
326.4634
 10
229.795
 20
326.1779
 10
230.0094
 20
325.8434
 10
230.1908
 20
325.4597
 10
230.3393
 20
325.027
 10
230.4547
 20
324.5451
 10
230.5372
 20
324.0143
 10
230.5867
 20
323.4344
 10
230.6032
 20
322.8054
 10
230.6032
 20
312.2734
  0
LWPOLYLINE
  5
6E
330
1F
100
AcDbEntity
  8
Layer 1
 62
     7
100
AcDbPolyline
 90
      162
 70
     1
 43
0.0
 10
249.3333
 20
312.2734
 10
251.0515
 20
312.2734
 10
251.0515
 20
322.8054
 10
251.0375
 20
323.5046
 10
250.9955
 20
324.1709
 10
250.9255
 20
324.8043
 10
250.8275
 20
325.4048
 10
250.7016
 20
325.9724
 10
250.5476
 20
326.5071
 10
250.3656
 20
327.0088
 10
250.1556
 20
327.4777
 10
250.0383
 20
327.702
 10
249.9137
 20
327.9149
 10
249.782
 20
328.1163
 10
249.6429
 20
328.3064
 10
249.4966
 20
328.485
 10
249.343
 20
328.6523
 10
249.1821
 20
328.8082
 10
249.0139
 20
328.9527
 10
248.8351
 20
329.0826
 10
248.6426
 20
329.1952
 10
248.4362
 20
329.2905
 10
248.2161
 20
329.3685
 10
247.9821
 20
329.4292
 10
247.7344
 20
329.4726
 10
247.4727
 20
329.4986
 10
247.1973
 20
329.5073
 10
246.9195
 20
329.4924
 10
246.6505
 20
329.4475
 10
246.3904
 20
329.3728
 10
246.139
 20
329.2682
 10
245.8964
 20
329.1336
 10
245.6626
 20
328.969
 10
245.4377
 20
328.7745
 10
245.2215
 20
328.55
 10
245.0338
 20
328.3264
 10
244.8546
 20
328.0861
 10
244.6839
 20
327.8293
 10
244.5217
 20
327.5562
 10
244.3679
 20
327.2668
 10
244.2225
 20
326.9616
 10
244.0857
 20
326.6404
 10
243.9572
 20
326.3037
 10
243.8573
 20
326.6146
 10
243.7483
 20
326.9147
 10
243.6302
 20
327.2028
 10
243.5028
 20
327.4777
 10
243.3857
 20
327.702
 10
243.2613
 20
327.9149
 10
243.1296
 20
328.1163
 10
242.9906
 20
328.3064
 10
242.8443
 20
328.485
 10
242.6907
 20
328.6523
 10
242.5298
 20
328.8082
 10
242.3616
 20
328.9527
 10
242.1828
 20
329.0826
 10
241.9902
 20
329.1952
 10
241.7838
 20
329.2905
 10
241.5636
 20
329.3685
 10
241.3296
 20
329.4292
 10
241.0819
 20
329.4726
 10
240.8203
 20
329.4986
 10
240.545
 20
329.5073
 10
240.267
 20
329.4924
 10
239.9979
 20
329.4475
 10
239.7377
 20
329.3728
 10
239.4862
 20
329.2682
 10
239.2436
 20
329.1336
 10
239.0098
 20
328.969
 10
238.7849
 20
328.7745
 10
238.5687
 20
328.55
 10
238.3901
 20
328.3371
 10
238.2191
 20
328.1097
 10
238.0558
 20
327.8676
 10
237.9001
 20
327.611
 10
237.7521
 20
327.3397
 10
237.6117
 20
327.0536
 10
237.479
 20
326.7528
 10
237.3539
 20
326.4371
 10
237.3539
 20
329.1247
 10
235.6357
 20
329.1247
 10
235.6357
 20
312.2734
 10
237.3539
 20
312.2734
 10
237.3539
 20
320.8969
 10
237.3938
 20
321.3994
 10
237.446
 20
321.8823
 10
237.5104
 20
322.3457
 10
237.5871
 20
322.7898
 10
237.676
 20
323.2147
 10
237.7773
 20
323.6207
 10
237.8907
 20
324.0077
 10
238.0164
 20
324.376
 10
238.1189
 20
324.6379
 10
238.2298
 20
324.8879
 10
238.349
 20
325.1261
 10
238.4768
 20
325.3524
 10
238.6129
 20
325.5667
 10
238.7575
 20
325.7691
 10
238.9106
 20
325.9595
 10
239.0721
 20
326.1379
 10
239.2394
 20
326.2993
 10
239.4097
 20
326.4391
 10
239.5831
 20
326.5575
 10
239.7596
 20
326.6544
 10
239.9391
 20
326.7298
 10
240.1217
 20
326.7836
 10
240.3074
 20
326.8159
 10
240.4961
 20
326.8267
 10
240.6802
 20
326.821
 10
240.852
 20
326.804
 10
241.0115
 20
326.7756
 10
241.1588
 20
326.7359
 10
241.2937
 20
326.6848
 10
241.4164
 20
326.6223
 10
241.5268
 20
326.5485
 10
241.6249
 20
326.4634
 10
241.8724
 20
326.1779
 10
242.0869
 20
325.8434
 10
242.2683
 20
325.4597
 10
242.4167
 20
325.027
 10
242.5322
 20
324.5451
 10
242.6146
 20
324.0143
 10
242.664
 20
323.4344
 10
242.6805
 20
322.8054
 10
242.6805
 20
312.2734
 10
244.3993
 20
312.2734
 10
244.3993
 20
322.8054
 10
244.3869
 20
323.4503
 10
244.6692
 20
324.376
 10
244.7715
 20
324.6379
 10
244.8823
 20
324.8879
 10
245.0015
 20
325.1261
 10
245.1293
 20
325.3524
 10
245.2654
 20
325.5667
 10
245.41
 20
325.7691
 10
245.5629
 20
325.9595
 10
245.7243
 20
326.1379
 10
245.8916
 20
326.2993
 10
246.062
 20
326.4391
 10
246.2354
 20
326.5575
 10
246.4119
 20
326.6544
 10
246.5914
 20
326.7298
 10
246.774
 20
326.7836
 10
246.9596
 20
326.8159
 10
247.1483
 20
326.8267
 10
247.3324
 20
326.821
 10
247.5042
 20
326.804
 10
247.6638
 20
326.7756
 10
247.8111
 20
326.7359
 10
247.9461
 20
326.6848
 10
248.0689
 20
326.6223
 10
248.1794
 20
326.5485
 10
248.2777
 20
326.4634
 10
248.525
 20
326.1779
 10
248.7394
 20
325.8434
 10
248.9209
 20
325.4597
 10
249.0693
 20
325.027
 10
249.1848
 20
324.5451
 10
249.2673
 20
324.0143
 10
249.3168
 20
323.4344
 10
249.3333
 20
322.8054
 10
249.3333
 20
312.2734
  0
LWPOLYLINE
  5
6F
330
1F
100
AcDbEntity
  8
Layer 1
 62
     7
100
AcDbPolyline
 90
       65
 70
     1
 43
0.0
 10
612.0624
 20
-28.1168
 10
612.4267
 20
-28.1414
 10
612.7767
 20
-28.215
 10
613.1126
 20
-28.3377
 10
613.4342
 20
-28.5096
 10
613.7416
 20
-28.7304
 10
614.0348
 20
-29.0004
 10
614.3138
 20
-29.3194
 10
614.5786
 20
-29.6874
 10
614.8174
 20
-30.0864
 10
615.0244
 20
-30.5082
 10
615.1994
 20
-30.9528
 10
615.3426
 20
-31.4201
 10
615.454
 20
-31.9101
 10
615.5335
 20
-32.4229
 10
615.5812
 20
-32.9584
 10
615.5971
 20
-33.5166
 10
615.5814
 20
-34.07
 10
615.5342
 20
-34.6047
 10
615.4557
 20
-35.1209
 10
615.3456
 20
-35.6185
 10
615.2042
 20
-36.0975
 10
615.0312
 20
-36.5579
 10
614.8269
 20
-36.9997
 10
614.591
 20
-37.423
 10
614.3326
 20
-37.8092
 10
614.0578
 20
-38.1438
 10
613.7665
 20
-38.4268
 10
613.4587
 20
-38.6584
 10
613.1344
 20
-38.8385
 10
612.7936
 20
-38.967
 10
612.4363
 20
-39.0442
 10
612.0624
 20
-39.0699
 10
611.6887
 20
-39.0442
 10
611.3314
 20
-38.967
 10
610.9906
 20
-38.8385
 10
610.6663
 20
-38.6584
 10
610.3585
 20
-38.4268
 10
610.0673
 20
-38.1438
 10
609.7925
 20
-37.8092
 10
609.5343
 20
-37.423
 10
609.2984
 20
-36.9997
 10
609.0939
 20
-36.5579
 10
608.9209
 20
-36.0975
 10
608.7793
 20
-35.6185
 10
608.6692
 20
-35.1209
 10
608.5905
 20
-34.6047
 10
608.5433
 20
-34.07
 10
608.5276
 20
-33.5166
 10
608.5435
 20
-32.9584
 10
608.5913
 20
-32.4229
 10
608.6709
 20
-31.9101
 10
608.7823
 20
-31.4201
 10
608.9255
 20
-30.9528
 10
609.1006
 20
-30.5082
 10
609.3074
 20
-30.0864
 10
609.5461
 20
-29.6874
 10
609.811
 20
-29.3194
 10
610.09
 20
-29.0004
 10
610.3833
 20
-28.7304
 10
610.6908
 20
-28.5096
 10
611.0124
 20
-28.3377
 10
611.3483
 20
-28.215
 10
611.6983
 20
-28.1414
 10
612.0624
 20
-28.1168
  0
LWPOLYLINE
  5
70
330
1F
100
AcDbEntity
  8
Layer 1
 62
     7
100
AcDbPolyline
 90
       65
 70
     1
 43
0.0
 10
612.0624
 20
-17.5472
 10
612.3561
 20
-17.5663
 10
612.6386
 20
-17.6237
 10
612.91
 20
-17.7194
 10
613.1702
 20
-17.8533
 10
613.4193
 20
-18.0255
 10
613.6573
 20
-18.2361
 10
613.8842
 20
-18.4849
 10
614.1
 20
-18.7721
 10
614.3013
 20
-19.095
 10
614.4758
 20
-19.4364
 10
614.6235
 20
-19.7964
 10
614.7444
 20
-20.175
 10
614.8384
 20
-20.5721
 10
614.9056
 20
-20.9878
 10
614.946
 20
-21.422
 10
614.9594
 20
-21.8747
 10
614.946
 20
-22.3174
 10
614.9056
 20
-22.7457
 10
614.8384
 20
-23.1597
 10
614.7444
 20
-23.5594
 10
614.6235
 20
-23.9448
 10
614.4758
 20
-24.3159
 10
614.3013
 20
-24.6726
 10
614.1
 20
-25.0151
 10
613.8857
 20
-25.3202
 10
613.6598
 20
-25.5847
 10
613.4223
 20
-25.8085
 10
613.1734
 20
-25.9916
 10
612.9129
 20
-26.134
 10
612.6409
 20
-26.2358
 10
612.3574
 20
-26.2968
 10
612.0624
 20
-26.3172
 10
611.7674
 20
-26.2968
 10
611.484
 20
-26.2358
 10
611.212
 20
-26.134
 10
610.9516
 20
-25.9916
 10
610.7027
 20
-25.8085
 10
610.4652
 20
-25.5847
 10
610.2392
 20
-25.3202
 10
610.0247
 20
-25.0151
 10
609.8234
 20
-24.6726
 10
609.649
 20
-24.3159
 10
609.5014
 20
-23.9448
 10
609.3806
 20
-23.5594
 10
609.2867
 20
-23.1597
 10
609.2196
 20
-22.7457
 10
609.1793
 20
-22.3174
 10
609.1659
 20
-21.8747
 10
609.1793
 20
-21.422
 10
609.2196
 20
-20.9878
 10
609.2867
 20
-20.5721
 10
609.3806
 20
-20.175
 10
609.5014
 20
-19.7964
 10
609.649
 20
-19.4364
 10
609.8234
 20
-19.095
 10
610.0247
 20
-18.7721
 10
610.2406
 20
-18.4849
 10
610.4675
 20
-18.2361
 10
610.7056
 20
-18.0255
 10
610.9548
 20
-17.8533
 10
611.2151
 20
-17.7194
 10
611.4864
 20
-17.6237
 10
611.7689
 20
-17.5663
 10
612.0624
 20
-17.5472
  0
LWPOLYLINE
  5
71
330
1F
100
AcDbEntity
  8
Layer 1
 62
     7
100
AcDbPolyline
 90
      121
 70
     1
 43
0.0
 10
612.0624
 20
-41.7505
 10
612.6249
 20
-41.7173
 10
613.1648
 20
-41.6177
 10
613.682
 20
-41.4517
 10
614.1766
 20
-41.2193
 10
614.6486
 20
-40.9205
 10
615.098
 20
-40.5552
 10
615.5248
 20
-40.1235
 10
615.929
 20
-39.6253
 10
616.1111
 20
-39.365
 10
616.2832
 20
-39.0916
 10
616.4454
 20
-38.805
 10
616.5976
 20
-38.5053
 10
616.7399
 20
-38.1923
 10
616.8723
 20
-37.8663
 10
616.9947
 20
-37.527
 10
617.1072
 20
-37.1746
 10
617.2078
 20
-36.8088
 10
617.295
 20
-36.4298
 10
617.3688
 20
-36.0378
 10
617.4291
 20
-35.6327
 10
617.476
 20
-35.2144
 10
617.5095
 20
-34.783
 10
617.5296
 20
-34.3384
 10
617.5363
 20
-33.8807
 10
617.525
 20
-33.417
 10
617.4911
 20
-32.9545
 10
617.4345
 20
-32.4931
 10
617.3554
 20
-32.033
 10
617.2536
 20
-31.574
 10
617.1292
 20
-31.1162
 10
616.9822
 20
-30.6596
 10
616.8125
 20
-30.2042
 10
616.6216
 20
-29.7599
 10
616.4111
 20
-29.3366
 10
616.1812
 20
-28.9341
 10
615.9317
 20
-28.5526
 10
615.6627
 20
-28.192
 10
615.3741
 20
-27.8523
 10
615.066
 20
-27.5336
 10
614.7383
 20
-27.2359
 10
615.2043
 20
-26.5877
 10
615.6082
 20
-25.9256
 10
615.9499
 20
-25.2498
 10
616.2295
 20
-24.5602
 10
616.4469
 20
-23.8568
 10
616.6023
 20
-23.1397
 10
616.6954
 20
-22.4088
 10
616.7265
 20
-21.6641
 10
616.7052
 20
-20.9294
 10
616.6414
 20
-20.2288
 10
616.535
 20
-19.5624
 10
616.386
 20
-18.9302
 10
616.1945
 20
-18.3321
 10
615.9603
 20
-17.7682
 10
615.6836
 20
-17.2383
 10
615.3643
 20
-16.7425
 10
615.0266
 20
-16.3116
 10
614.6675
 20
-15.9382
 10
614.287
 20
-15.6222
 10
613.885
 20
-15.3638
 10
613.4615
 20
-15.1627
 10
613.0166
 20
-15.0192
 10
612.5502
 20
-14.933
 10
612.0624
 20
-14.9043
 10
611.5745
 20
-14.933
 10
611.1081
 20
-15.0192
 10
610.6632
 20
-15.1627
 10
610.2398
 20
-15.3638
 10
609.8379
 20
-15.6222
 10
609.4574
 20
-15.9382
 10
609.0985
 20
-16.3116
 10
608.761
 20
-16.7425
 10
608.4417
 20
-17.238
 10
608.1649
 20
-17.767
 10
607.9307
 20
-18.3295
 10
607.739
 20
-18.9255
 10
607.59
 20
-19.555
 10
607.4835
 20
-20.2181
 10
607.4196
 20
-20.9147
 10
607.3983
 20
-21.6448
 10
607.4294
 20
-22.3941
 10
607.5226
 20
-23.1289
 10
607.678
 20
-23.8494
 10
607.8955
 20
-24.5555
 10
608.1752
 20
-25.2472
 10
608.517
 20
-25.9245
 10
608.9209
 20
-26.5874
 10
609.387
 20
-27.2359
 10
609.0591
 20
-27.5336
 10
608.7509
 20
-27.8523
 10
608.4622
 20
-28.192
 10
608.1931
 20
-28.5526
 10
607.9435
 20
-28.9341
 10
607.7136
 20
-29.3366
 10
607.5031
 20
-29.7599
 10
607.3122
 20
-30.2042
 10
607.1426
 20
-30.6605
 10
606.9956
 20
-31.1198
 10
606.8711
 20
-31.5821
 10
606.7694
 20
-32.0473
 10
606.6902
 20
-32.5156
 10
606.6336
 20
-32.9867
 10
606.5997
 20
-33.4608
 10
606.5884
 20
-33.9378
 10
606.6135
 20
-34.7933
 10
606.6889
 20
-35.6075
 10
606.8145
 20
-36.3804
 10
606.9904
 20
-37.1119
 10
607.2165
 20
-37.8022
 10
607.4929
 20
-38.4511
 10
607.8195
 20
-39.0588
 10
608.1963
 20
-39.6253
 10
608.6003
 20
-40.1235
 10
609.027
 20
-40.5552
 10
609.4762
 20
-40.9205
 10
609.9482
 20
-41.2193
 10
610.4427
 20
-41.4517
 10
610.9599
 20
-41.6177
 10
611.4998
 20
-41.7173
 10
612.0624
 20
-41.7505
  0
LWPOLYLINE
  5
72
330
1F
100
AcDbEntity
  8
Layer 1
 62
     7
100
AcDbPolyline
 90
      136
 70
     1
 43
0.0
 10
622.9125
 20
-24.9765
 10
624.0418
 20
-18.0061
 10
630.0804
 20
-18.0061
 10
630.0804
 20
-15.3255
 10
622.7404
 20
-15.3255
 10
620.8259
 20
-27.006
 10
622.6914
 20
-28.3081
 10
622.962
 20
-28.0209
 10
623.246
 20
-27.7721
 10
623.5434
 20
-27.5615
 10
623.8543
 20
-27.3893
 10
624.1786
 20
-27.2554
 10
624.5162
 20
-27.1597
 10
624.8673
 20
-27.1023
 10
625.2318
 20
-27.0832
 10
625.5986
 20
-27.1113
 10
625.953
 20
-27.1956
 10
626.2952
 20
-27.3361
 10
626.6251
 20
-27.5329
 10
626.9427
 20
-27.7859
 10
627.248
 20
-28.0952
 10
627.541
 20
-28.4609
 10
627.8218
 20
-28.8828
 10
628.0865
 20
-29.3535
 10
628.3159
 20
-29.8415
 10
628.51
 20
-30.3469
 10
628.6688
 20
-30.8696
 10
628.7923
 20
-31.4096
 10
628.8805
 20
-31.9671
 10
628.9335
 20
-32.5419
 10
628.9511
 20
-33.134
 10
628.9331
 20
-33.7466
 10
628.879
 20
-34.3345
 10
628.7888
 20
-34.8979
 10
628.6627
 20
-35.4368
 10
628.5004
 20
-35.951
 10
628.3022
 20
-36.4408
 10
628.0679
 20
-36.9059
 10
627.7976
 20
-37.3466
 10
627.66
 20
-37.5426
 10
627.5174
 20
-37.7284
 10
627.3699
 20
-37.9041
 10
627.2174
 20
-38.0696
 10
627.06
 20
-38.2249
 10
626.8975
 20
-38.37
 10
626.73
 20
-38.5048
 10
626.5575
 20
-38.6294
 10
626.3777
 20
-38.7417
 10
626.1879
 20
-38.839
 10
625.9881
 20
-38.9214
 10
625.7783
 20
-38.9887
 10
625.5586
 20
-39.0411
 10
625.3288
 20
-39.0786
 10
625.0891
 20
-39.101
 10
624.8393
 20
-39.1085
 10
624.5849
 20
-39.0917
 10
624.3308
 20
-39.0414
 10
624.0771
 20
-38.9576
 10
623.8237
 20
-38.8402
 10
623.5707
 20
-38.6894
 10
623.3181
 20
-38.5051
 10
623.0658
 20
-38.2874
 10
622.814
 20
-38.0363
 10
622.5716
 20
-37.758
 10
622.3476
 20
-37.4593
 10
622.142
 20
-37.1403
 10
621.9549
 20
-36.801
 10
621.7862
 20
-36.4413
 10
621.6359
 20
-36.0612
 10
621.504
 20
-35.6607
 10
621.3906
 20
-35.2399
 10
619.7213
 20
-36.0831
 10
619.8853
 20
-36.7135
 10
620.0765
 20
-37.3121
 10
620.2949
 20
-37.879
 10
620.5405
 20
-38.4141
 10
620.8134
 20
-38.9176
 10
621.1135
 20
-39.3893
 10
621.4409
 20
-39.8294
 10
621.7955
 20
-40.2378
 10
622.1726
 20
-40.6104
 10
622.558
 20
-40.9334
 10
622.9519
 20
-41.2066
 10
623.3542
 20
-41.4302
 10
623.7649
 20
-41.6041
 10
624.1841
 20
-41.7283
 10
624.6118
 20
-41.8029
 10
625.0479
 20
-41.8277
 10
625.629
 20
-41.7867
 10
626.1879
 20
-41.6637
 10
626.7245
 20
-41.4587
 10
627.2388
 20
-41.1717
 10
627.7309
 20
-40.8028
 10
628.2008
 20
-40.3519
 10
628.6484
 20
-39.819
 10
629.0737
 20
-39.2042
 10
629.4593
 20
-38.5366
 10
629.7934
 20
-37.8362
 10
630.0762
 20
-37.1029
 10
630.3075
 20
-36.3367
 10
630.4874
 20
-35.5376
 10
630.616
 20
-34.7056
 10
630.6931
 20
-33.8406
 10
630.7188
 20
-32.9427
 10
630.6935
 20
-32.0495
 10
630.6175
 20
-31.194
 10
630.4908
 20
-30.3763
 10
630.3136
 20
-29.5963
 10
630.0857
 20
-28.854
 10
629.8072
 20
-28.1494
 10
629.4781
 20
-27.4825
 10
629.0984
 20
-26.8533
 10
628.9043
 20
-26.5735
 10
628.7025
 20
-26.3087
 10
628.4931
 20
-26.0589
 10
628.276
 20
-25.8241
 10
628.0511
 20
-25.6042
 10
627.8187
 20
-25.3993
 10
627.5786
 20
-25.2094
 10
627.3308
 20
-25.0344
 10
627.0781
 20
-24.8771
 10
626.8231
 20
-24.7409
 10
626.5659
 20
-24.6256
 10
626.3066
 20
-24.5314
 10
626.0452
 20
-24.4581
 10
625.7817
 20
-24.4058
 10
625.5162
 20
-24.3745
 10
625.2487
 20
-24.364
 10
624.9759
 20
-24.3736
 10
624.6977
 20
-24.4023
 10
624.414
 20
-24.4502
 10
624.1249
 20
-24.5172
 10
623.8302
 20
-24.6034
 10
623.53
 20
-24.7086
 10
623.2241
 20
-24.833
 10
622.9125
 20
-24.9765
  0
LWPOLYLINE
  5
73
330
1F
100
AcDbEntity
  8
Layer 1
 62
     7
100
AcDbPolyline
 90
      129
 70
     1
 43
0.0
 10
640.2309
 20
-18.3509
 10
640.5143
 20
-18.6513
 10
640.7785
 20
-18.9924
 10
641.0236
 20
-19.3742
 10
641.2495
 20
-19.7967
 10
641.4562
 20
-20.2599
 10
641.6438
 20
-20.7639
 10
641.8122
 20
-21.3086
 10
641.9614
 20
-21.894
 10
642.1283
 20
-22.6703
 10
642.2729
 20
-23.458
 10
642.3953
 20
-24.257
 10
642.4954
 20
-25.0674
 10
642.5733
 20
-25.8892
 10
642.6289
 20
-26.7224
 10
642.6623
 20
-27.567
 10
642.6734
 20
-28.423
 10
642.6722
 20
-28.6286
 10
642.6688
 20
-28.8432
 10
642.663
 20
-29.0668
 10
642.6549
 20
-29.2994
 10
642.6446
 20
-29.541
 10
642.6319
 20
-29.7915
 10
642.617
 20
-30.0509
 10
642.5998
 20
-30.3192
 10
642.5146
 20
-31.3487
 10
642.4033
 20
-32.3213
 10
642.266
 20
-33.2371
 10
642.1025
 20
-34.096
 10
641.913
 20
-34.8982
 10
641.6974
 20
-35.6436
 10
641.4558
 20
-36.3322
 10
641.1881
 20
-36.9641
 10
640.9439
 20
-37.4398
 10
640.6866
 20
-37.852
 10
640.4162
 20
-38.2008
 10
640.1328
 20
-38.4862
 10
639.8363
 20
-38.7082
 10
639.5268
 20
-38.8668
 10
639.2043
 20
-38.9619
 10
638.8687
 20
-38.9936
 10
638.4941
 20
-38.9622
 10
638.1375
 20
-38.8679
 10
637.799
 20
-38.7108
 10
637.4784
 20
-38.4908
 10
637.1759
 20
-38.208
 10
636.8915
 20
-37.8623
 10
636.625
 20
-37.4538
 10
636.3766
 20
-36.9825
 10
636.2716
 20
-36.7541
 10
636.1711
 20
-36.5186
 10
636.0753
 20
-36.2757
 10
635.984
 20
-36.0257
 10
635.8974
 20
-35.7683
 10
635.8153
 20
-35.5038
 10
635.7379
 20
-35.232
 10
635.6652
 20
-34.953
 10
635.5967
 20
-34.6698
 10
635.5323
 20
-34.3847
 10
635.4723
 20
-34.0978
 10
635.4164
 20
-33.8091
 10
635.3648
 20
-33.5185
 10
635.3174
 20
-33.2261
 10
635.2743
 20
-32.9318
 10
635.2355
 20
-32.6356
 10
635.2
 20
-32.3401
 10
635.1672
 20
-32.047
 10
635.1371
 20
-31.7563
 10
635.1097
 20
-31.468
 10
635.085
 20
-31.1821
 10
635.063
 20
-30.8986
 10
635.0436
 20
-30.6174
 10
635.0269
 20
-30.3385
 10
635.0125
 20
-30.0554
 10
635.0
 20
-29.7616
 10
634.9894
 20
-29.4572
 10
634.9808
 20
-29.1423
 10
634.9741
 20
-28.8169
 10
634.9693
 20
-28.4812
 10
634.9665
 20
-28.1352
 10
634.9655
 20
-27.779
 10
634.9697
 20
-27.4066
 10
634.9824
 20
-27.0127
 10
635.0035
 20
-26.5971
 10
635.033
 20
-26.1598
 10
635.071
 20
-25.7006
 10
635.1174
 20
-25.2195
 10
635.1722
 20
-24.7164
 10
635.2355
 20
-24.1911
 10
635.2742
 20
-23.8996
 10
635.3167
 20
-23.6086
 10
635.3631
 20
-23.3182
 10
635.4134
 20
-23.0283
 10
635.4675
 20
-22.7391
 10
635.5254
 20
-22.4504
 10
635.5872
 20
-22.1622
 10
635.6528
 20
-21.8747
 10
635.7228
 20
-21.591
 10
635.7977
 20
-21.3145
 10
635.8776
 20
-21.0452
 10
635.9626
 20
-20.7831
 10
636.0525
 20
-20.5281
 10
636.1474
 20
-20.2804
 10
636.2474
 20
-20.0399
 10
636.3525
 20
-19.8066
 10
636.4625
 20
-19.5823
 10
636.5779
 20
-19.3694
 10
636.6987
 20
-19.168
 10
636.8249
 20
-18.9779
 10
636.9565
 20
-18.7993
 10
637.0934
 20
-18.632
 10
637.2357
 20
-18.4761
 10
637.3834
 20
-18.3316
 10
637.5372
 20
-18.2014
 10
637.6979
 20
-18.0886
 10
637.8656
 20
-17.9931
 10
638.0401
 20
-17.915
 10
638.2214
 20
-17.8543
 10
638.4097
 20
-17.8109
 10
638.6048
 20
-17.7849
 10
638.8068
 20
-17.7762
 10
639.009
 20
-17.7852
 10
639.2043
 20
-17.8122
 10
639.3927
 20
-17.8572
 10
639.5741
 20
-17.9201
 10
639.7487
 20
-18.0009
 10
639.9163
 20
-18.0997
 10
640.0771
 20
-18.2164
 10
640.2309
 20
-18.3509
  0
LWPOLYLINE
  5
74
330
1F
100
AcDbEntity
  8
Layer 1
 62
     7
100
AcDbPolyline
 90
       65
 70
     1
 43
0.0
 10
638.8929
 20
-41.7128
 10
639.6095
 20
-41.6419
 10
640.2805
 20
-41.4292
 10
640.9059
 20
-41.0746
 10
641.4857
 20
-40.5783
 10
642.0198
 20
-39.9401
 10
642.5083
 20
-39.1601
 10
642.9511
 20
-38.2383
 10
643.3483
 20
-37.1746
 10
643.6273
 20
-36.2463
 10
643.8691
 20
-35.2667
 10
644.0738
 20
-34.2355
 10
644.2413
 20
-33.153
 10
644.3715
 20
-32.019
 10
644.4646
 20
-30.8335
 10
644.5204
 20
-29.5965
 10
644.539
 20
-28.3081
 10
644.5204
 20
-27.02
 10
644.4646
 20
-25.7832
 10
644.3715
 20
-24.5979
 10
644.2413
 20
-23.464
 10
644.0738
 20
-22.3815
 10
643.8691
 20
-21.3504
 10
643.6273
 20
-20.3707
 10
643.3483
 20
-19.4424
 10
642.9511
 20
-18.3788
 10
642.5083
 20
-17.457
 10
642.0198
 20
-16.677
 10
641.4857
 20
-16.0388
 10
640.9059
 20
-15.5425
 10
640.2805
 20
-15.1879
 10
639.6095
 20
-14.9752
 10
638.8929
 20
-14.9043
 10
638.1763
 20
-14.9752
 10
637.5053
 20
-15.1879
 10
636.8799
 20
-15.5425
 10
636.3001
 20
-16.0388
 10
635.7659
 20
-16.677
 10
635.2774
 20
-17.457
 10
634.8346
 20
-18.3788
 10
634.4374
 20
-19.4424
 10
634.1584
 20
-20.3707
 10
633.9166
 20
-21.3504
 10
633.712
 20
-22.3815
 10
633.5445
 20
-23.464
 10
633.4143
 20
-24.5979
 10
633.3212
 20
-25.7832
 10
633.2654
 20
-27.02
 10
633.2468
 20
-28.3081
 10
633.2654
 20
-29.5965
 10
633.3212
 20
-30.8335
 10
633.4143
 20
-32.019
 10
633.5445
 20
-33.153
 10
633.712
 20
-34.2355
 10
633.9166
 20
-35.2667
 10
634.1584
 20
-36.2463
 10
634.4374
 20
-37.1746
 10
634.8346
 20
-38.2383
 10
635.2774
 20
-39.1601
 10
635.7659
 20
-39.9401
 10
636.3001
 20
-40.5783
 10
636.8799
 20
-41.0746
 10
637.5053
 20
-41.4292
 10
638.1763
 20
-41.6419
 10
638.8929
 20
-41.7128
  0
LWPOLYLINE
  5
75
330
1F
100
AcDbEntity
  8
Layer 1
 62
     7
100
AcDbPolyline
 90
      162
 70
     1
 43
0.0
 10
661.3051
 20
-41.2916
 10
663.0233
 20
-41.2916
 10
663.0233
 20
-30.7597
 10
663.0093
 20
-30.0605
 10
662.9673
 20
-29.3942
 10
662.8973
 20
-28.7607
 10
662.7993
 20
-28.1603
 10
662.6733
 20
-27.5927
 10
662.5193
 20
-27.058
 10
662.3373
 20
-26.5562
 10
662.1273
 20
-26.0873
 10
662.01
 20
-25.863
 10
661.8855
 20
-25.6502
 10
661.7537
 20
-25.4487
 10
661.6147
 20
-25.2587
 10
661.4684
 20
-25.08
 10
661.3148
 20
-24.9127
 10
661.1538
 20
-24.7568
 10
660.9856
 20
-24.6123
 10
660.8068
 20
-24.4824
 10
660.6143
 20
-24.3698
 10
660.408
 20
-24.2745
 10
660.1879
 20
-24.1965
 10
659.9539
 20
-24.1358
 10
659.7061
 20
-24.0925
 10
659.4445
 20
-24.0665
 10
659.169
 20
-24.0578
 10
658.8912
 20
-24.0727
 10
658.6222
 20
-24.1175
 10
658.3621
 20
-24.1923
 10
658.1107
 20
-24.2969
 10
657.8681
 20
-24.4315
 10
657.6344
 20
-24.596
 10
657.4094
 20
-24.7906
 10
657.1933
 20
-25.0151
 10
657.0056
 20
-25.2387
 10
656.8264
 20
-25.4789
 10
656.6557
 20
-25.7357
 10
656.4934
 20
-26.0089
 10
656.3396
 20
-26.2982
 10
656.1943
 20
-26.6034
 10
656.0574
 20
-26.9246
 10
655.929
 20
-27.2613
 10
655.8291
 20
-26.9504
 10
655.7201
 20
-26.6503
 10
655.6019
 20
-26.3622
 10
655.4745
 20
-26.0873
 10
655.3574
 20
-25.863
 10
655.233
 20
-25.6502
 10
655.1014
 20
-25.4487
 10
654.9624
 20
-25.2587
 10
654.8161
 20
-25.08
 10
654.6625
 20
-24.9127
 10
654.5016
 20
-24.7568
 10
654.3334
 20
-24.6123
 10
654.1546
 20
-24.4824
 10
653.962
 20
-24.3698
 10
653.7556
 20
-24.2745
 10
653.5354
 20
-24.1965
 10
653.3014
 20
-24.1358
 10
653.0536
 20
-24.0925
 10
652.7921
 20
-24.0665
 10
652.5168
 20
-24.0578
 10
652.2388
 20
-24.0727
 10
651.9697
 20
-24.1175
 10
651.7094
 20
-24.1923
 10
651.458
 20
-24.2969
 10
651.2154
 20
-24.4315
 10
650.9816
 20
-24.596
 10
650.7566
 20
-24.7906
 10
650.5405
 20
-25.0151
 10
650.3619
 20
-25.228
 10
650.1909
 20
-25.4554
 10
650.0276
 20
-25.6974
 10
649.8719
 20
-25.9541
 10
649.7239
 20
-26.2254
 10
649.5835
 20
-26.5114
 10
649.4508
 20
-26.8122
 10
649.3257
 20
-27.1279
 10
649.3257
 20
-24.4403
 10
647.6075
 20
-24.4403
 10
647.6075
 20
-41.2916
 10
649.3257
 20
-41.2916
 10
649.3257
 20
-32.6681
 10
649.3656
 20
-32.1656
 10
649.4178
 20
-31.6827
 10
649.4822
 20
-31.2193
 10
649.5589
 20
-30.7752
 10
649.6478
 20
-30.3503
 10
649.7491
 20
-29.9443
 10
649.8625
 20
-29.5573
 10
649.9882
 20
-29.189
 10
650.0907
 20
-28.9271
 10
650.2016
 20
-28.6771
 10
650.3208
 20
-28.4389
 10
650.4485
 20
-28.2127
 10
650.5847
 20
-27.9983
 10
650.7293
 20
-27.7959
 10
650.8823
 20
-27.6055
 10
651.0438
 20
-27.4271
 10
651.2111
 20
-27.2658
 10
651.3815
 20
-27.1259
 10
651.5549
 20
-27.0075
 10
651.7314
 20
-26.9107
 10
651.9109
 20
-26.8353
 10
652.0935
 20
-26.7815
 10
652.2792
 20
-26.7492
 10
652.4679
 20
-26.7384
 10
652.652
 20
-26.7441
 10
652.8238
 20
-26.7611
 10
652.9833
 20
-26.7895
 10
653.1305
 20
-26.8292
 10
653.2655
 20
-26.8802
 10
653.3881
 20
-26.9427
 10
653.4985
 20
-27.0165
 10
653.5966
 20
-27.1016
 10
653.8441
 20
-27.3871
 10
654.0586
 20
-27.7217
 10
654.2401
 20
-28.1053
 10
654.3885
 20
-28.5381
 10
654.5039
 20
-29.0199
 10
654.5864
 20
-29.5508
 10
654.6358
 20
-30.1307
 10
654.6523
 20
-30.7597
 10
654.6523
 20
-41.2916
 10
656.371
 20
-41.2916
 10
656.371
 20
-30.7597
 10
656.3587
 20
-30.1148
 10
656.641
 20
-29.189
 10
656.7433
 20
-28.9271
 10
656.8541
 20
-28.6771
 10
656.9733
 20
-28.4389
 10
657.1011
 20
-28.2127
 10
657.2372
 20
-27.9983
 10
657.3818
 20
-27.7959
 10
657.5347
 20
-27.6055
 10
657.6961
 20
-27.4271
 10
657.8634
 20
-27.2658
 10
658.0337
 20
-27.1259
 10
658.2071
 20
-27.0075
 10
658.3836
 20
-26.9107
 10
658.5631
 20
-26.8353
 10
658.7457
 20
-26.7815
 10
658.9314
 20
-26.7492
 10
659.1201
 20
-26.7384
 10
659.3042
 20
-26.7441
 10
659.476
 20
-26.7611
 10
659.6356
 20
-26.7895
 10
659.7829
 20
-26.8292
 10
659.9179
 20
-26.8802
 10
660.0406
 20
-26.9427
 10
660.1511
 20
-27.0165
 10
660.2494
 20
-27.1016
 10
660.4968
 20
-27.3871
 10
660.7112
 20
-27.7217
 10
660.8926
 20
-28.1053
 10
661.0411
 20
-28.5381
 10
661.1566
 20
-29.0199
 10
661.2391
 20
-29.5508
 10
661.2886
 20
-30.1307
 10
661.3051
 20
-30.7597
 10
661.3051
 20
-41.2916
  0
LWPOLYLINE
  5
76
330
1F
100
AcDbEntity
  8
Layer 1
 62
     7
100
AcDbPolyline
 90
      162
 70
     1
 43
0.0
 10
680.0352
 20
-41.2916
 10
681.7533
 20
-41.2916
 10
681.7533
 20
-30.7597
 10
681.7393
 20
-30.0605
 10
681.6973
 20
-29.3942
 10
681.6273
 20
-28.7607
 10
681.5293
 20
-28.1603
 10
681.4034
 20
-27.5927
 10
681.2494
 20
-27.058
 10
681.0674
 20
-26.5562
 10
680.8574
 20
-26.0873
 10
680.7401
 20
-25.863
 10
680.6156
 20
-25.6502
 10
680.4838
 20
-25.4487
 10
680.3448
 20
-25.2587
 10
680.1985
 20
-25.08
 10
680.0449
 20
-24.9127
 10
679.8839
 20
-24.7568
 10
679.7157
 20
-24.6123
 10
679.5369
 20
-24.4824
 10
679.3444
 20
-24.3698
 10
679.1381
 20
-24.2745
 10
678.918
 20
-24.1965
 10
678.684
 20
-24.1358
 10
678.4362
 20
-24.0925
 10
678.1746
 20
-24.0665
 10
677.8991
 20
-24.0578
 10
677.6213
 20
-24.0727
 10
677.3523
 20
-24.1175
 10
677.0922
 20
-24.1923
 10
676.8408
 20
-24.2969
 10
676.5982
 20
-24.4315
 10
676.3645
 20
-24.596
 10
676.1395
 20
-24.7906
 10
675.9234
 20
-25.0151
 10
675.7357
 20
-25.2387
 10
675.5565
 20
-25.4789
 10
675.3858
 20
-25.7357
 10
675.2235
 20
-26.0089
 10
675.0697
 20
-26.2982
 10
674.9244
 20
-26.6034
 10
674.7875
 20
-26.9246
 10
674.6591
 20
-27.2613
 10
674.5592
 20
-26.9504
 10
674.4502
 20
-26.6503
 10
674.332
 20
-26.3622
 10
674.2046
 20
-26.0873
 10
674.0875
 20
-25.863
 10
673.9631
 20
-25.6502
 10
673.8314
 20
-25.4487
 10
673.6925
 20
-25.2587
 10
673.5462
 20
-25.08
 10
673.3926
 20
-24.9127
 10
673.2317
 20
-24.7568
 10
673.0635
 20
-24.6123
 10
672.8847
 20
-24.4824
 10
672.6921
 20
-24.3698
 10
672.4857
 20
-24.2745
 10
672.2655
 20
-24.1965
 10
672.0315
 20
-24.1358
 10
671.7837
 20
-24.0925
 10
671.5222
 20
-24.0665
 10
671.2469
 20
-24.0578
 10
670.9689
 20
-24.0727
 10
670.6998
 20
-24.1175
 10
670.4395
 20
-24.1923
 10
670.1881
 20
-24.2969
 10
669.9455
 20
-24.4315
 10
669.7117
 20
-24.596
 10
669.4867
 20
-24.7906
 10
669.2706
 20
-25.0151
 10
669.092
 20
-25.228
 10
668.921
 20
-25.4554
 10
668.7577
 20
-25.6974
 10
668.602
 20
-25.9541
 10
668.454
 20
-26.2254
 10
668.3136
 20
-26.5114
 10
668.1809
 20
-26.8122
 10
668.0558
 20
-27.1279
 10
668.0558
 20
-24.4403
 10
666.3376
 20
-24.4403
 10
666.3376
 20
-41.2916
 10
668.0558
 20
-41.2916
 10
668.0558
 20
-32.6681
 10
668.0957
 20
-32.1656
 10
668.1478
 20
-31.6827
 10
668.2122
 20
-31.2193
 10
668.289
 20
-30.7752
 10
668.3779
 20
-30.3503
 10
668.4791
 20
-29.9443
 10
668.5926
 20
-29.5573
 10
668.7183
 20
-29.189
 10
668.8208
 20
-28.9271
 10
668.9317
 20
-28.6771
 10
669.0509
 20
-28.4389
 10
669.1786
 20
-28.2127
 10
669.3148
 20
-27.9983
 10
669.4594
 20
-27.7959
 10
669.6124
 20
-27.6055
 10
669.7739
 20
-27.4271
 10
669.9412
 20
-27.2658
 10
670.1116
 20
-27.1259
 10
670.285
 20
-27.0075
 10
670.4615
 20
-26.9107
 10
670.641
 20
-26.8353
 10
670.8236
 20
-26.7815
 10
671.0093
 20
-26.7492
 10
671.198
 20
-26.7384
 10
671.3821
 20
-26.7441
 10
671.5539
 20
-26.7611
 10
671.7134
 20
-26.7895
 10
671.8606
 20
-26.8292
 10
671.9956
 20
-26.8802
 10
672.1182
 20
-26.9427
 10
672.2286
 20
-27.0165
 10
672.3267
 20
-27.1016
 10
672.5742
 20
-27.3871
 10
672.7887
 20
-27.7217
 10
672.9702
 20
-28.1053
 10
673.1186
 20
-28.5381
 10
673.234
 20
-29.0199
 10
673.3165
 20
-29.5508
 10
673.3659
 20
-30.1307
 10
673.3824
 20
-30.7597
 10
673.3824
 20
-41.2916
 10
675.1011
 20
-41.2916
 10
675.1011
 20
-30.7597
 10
675.0887
 20
-30.1148
 10
675.3711
 20
-29.189
 10
675.4734
 20
-28.9271
 10
675.5842
 20
-28.6771
 10
675.7034
 20
-28.4389
 10
675.8312
 20
-28.2127
 10
675.9673
 20
-27.9983
 10
676.1119
 20
-27.7959
 10
676.2648
 20
-27.6055
 10
676.4262
 20
-27.4271
 10
676.5935
 20
-27.2658
 10
676.7638
 20
-27.1259
 10
676.9372
 20
-27.0075
 10
677.1137
 20
-26.9107
 10
677.2932
 20
-26.8353
 10
677.4758
 20
-26.7815
 10
677.6615
 20
-26.7492
 10
677.8502
 20
-26.7384
 10
678.0343
 20
-26.7441
 10
678.2061
 20
-26.7611
 10
678.3656
 20
-26.7895
 10
678.5129
 20
-26.8292
 10
678.6479
 20
-26.8802
 10
678.7707
 20
-26.9427
 10
678.8812
 20
-27.0165
 10
678.9795
 20
-27.1016
 10
679.2269
 20
-27.3871
 10
679.4413
 20
-27.7217
 10
679.6227
 20
-28.1053
 10
679.7712
 20
-28.5381
 10
679.8867
 20
-29.0199
 10
679.9692
 20
-29.5508
 10
680.0187
 20
-30.1307
 10
680.0352
 20
-30.7597
 10
680.0352
 20
-41.2916
  0
LWPOLYLINE
  5
77
330
1F
100
AcDbEntity
  8
Layer 1
 62
     7
370
    18
100
AcDbPolyline
 90
        2
 70
     0
 43
0.0
 10
666.2411
 20
360.2799
 10
651.9194
 20
360.2799
  0
LWPOLYLINE
  5
78
330
1F
100
AcDbEntity
  8
Layer 1
 62
     7
370
    18
100
AcDbPolyline
 90
        2
 70
     0
 43
0.0
 10
659.0803
 20
360.2862
 10
659.0803
 20
18.9987
  0
LWPOLYLINE
  5
79
330
1F
100
AcDbEntity
  8
Layer 1
 62
     7
370
    18
100
AcDbPolyline
 90
        2
 70
     0
 43
0.0
 10
666.2411
 20
-339.2583
 10
651.9194
 20
-339.2583
  0
LWPOLYLINE
  5
7A
330
1F
100
AcDbEntity
  8
Layer 1
 62
     7
370
    18
100
AcDbPolyline
 90
        2
 70
     0
 43
0.0
 10
659.0803
 20
-339.2645
 10
659.0803
 20
-75.6541
  0
LWPOLYLINE
  5
7B
330
1F
100
AcDbEntity
  8
Layer 1
 62
     7
370
    18
100
AcDbPolyline
 90
        2
 70
     0
 43
0.0
 10
229.4772
 20
356.667
 10
215.1555
 20
356.667
  0
LWPOLYLINE
  5
7C
330
1F
100
AcDbEntity
  8
Layer 1
 62
     7
370
    18
100
AcDbPolyline
 90
        2
 70
     0
 43
0.0
 10
222.3164
 20
356.6674
 10
222.3164
 20
338.6591
  0
LWPOLYLINE
  5
7D
330
1F
100
AcDbEntity
  8
Layer 1
 62
     7
370
    18
100
AcDbPolyline
 90
        2
 70
     0
 43
0.0
 10
229.4761
 20
281.1785
 10
215.1544
 20
281.1785
  0
LWPOLYLINE
  5
7E
330
1F
100
AcDbEntity
  8
Layer 1
 62
     7
370
    18
100
AcDbPolyline
 90
        2
 70
     0
 43
0.0
 10
222.3152
 20
281.1782
 10
222.3152
 20
300.3425
  0
LWPOLYLINE
  5
7F
330
1F
100
AcDbEntity
  8
Layer 1
 62
     7
370
    18
100
AcDbPolyline
 90
       33
 70
     1
 43
0.0
 10
410.5792
 20
434.8187
 10
412.3181
 20
434.5452
 10
413.9378
 20
433.7608
 10
415.4034
 20
432.5196
 10
416.6804
 20
430.8758
 10
417.7341
 20
428.8835
 10
418.5296
 20
426.5968
 10
419.0324
 20
424.0699
 10
419.2077
 20
421.357
 10
419.0324
 20
418.644
 10
418.5296
 20
416.1171
 10
417.7341
 20
413.8304
 10
416.6804
 20
411.8381
 10
415.4034
 20
410.1943
 10
413.9378
 20
408.9531
 10
412.3181
 20
408.1687
 10
410.5792
 20
407.8952
 10
408.8402
 20
408.1687
 10
407.2206
 20
408.9531
 10
405.7549
 20
410.1943
 10
404.4779
 20
411.8381
 10
403.4242
 20
413.8304
 10
402.6287
 20
416.1171
 10
402.1259
 20
418.644
 10
401.9506
 20
421.357
 10
402.1259
 20
424.0699
 10
402.6287
 20
426.5968
 10
403.4242
 20
428.8835
 10
404.4779
 20
430.8758
 10
405.7549
 20
432.5196
 10
407.2206
 20
433.7608
 10
408.8402
 20
434.5452
 10
410.5792
 20
434.8187
  0
LWPOLYLINE
  5
80
330
1F
100
AcDbEntity
  8
Layer 1
 62
     7
370
    18
100
AcDbPolyline
 90
        9
 70
     0
 43
0.0
 10
414.8681
 20
443.9642
 10
412.1162
 20
428.9648
 10
410.0257
 20
417.6232
 10
408.506
 20
409.4283
 10
407.4662
 20
403.8692
 10
406.8155
 20
400.4349
 10
406.4631
 20
398.6145
 10
406.3183
 20
397.8969
 10
406.2902
 20
397.7713
  0
LWPOLYLINE
  5
81
330
1F
100
AcDbEntity
  8
Layer 1
 62
     7
100
AcDbPolyline
 90
      137
 70
     1
 43
0.0
 10
482.2864
 20
-401.7314
 10
482.5373
 20
-401.5559
 10
482.7806
 20
-401.3648
 10
483.0161
 20
-401.1583
 10
483.2439
 20
-400.9363
 10
483.4641
 20
-400.6988
 10
483.6765
 20
-400.4458
 10
483.8813
 20
-400.1772
 10
484.0783
 20
-399.8931
 10
484.4668
 20
-399.2503
 10
484.8035
 20
-398.5717
 10
485.0884
 20
-397.8572
 10
485.3214
 20
-397.1067
 10
485.5027
 20
-396.3204
 10
485.6321
 20
-395.4981
 10
485.7098
 20
-394.6399
 10
485.7357
 20
-393.7458
 10
485.7094
 20
-392.8513
 10
485.6306
 20
-391.9915
 10
485.4992
 20
-391.1664
 10
485.3152
 20
-390.3759
 10
485.0788
 20
-389.62
 10
484.7897
 20
-388.8989
 10
484.4482
 20
-388.2124
 10
484.0541
 20
-387.5607
 10
483.6467
 20
-386.9983
 10
483.2132
 20
-386.5029
 10
482.7537
 20
-386.0744
 10
482.2681
 20
-385.713
 10
481.7564
 20
-385.4185
 10
481.2187
 20
-385.191
 10
480.6548
 20
-385.0306
 10
480.0649
 20
-384.9372
 10
479.3287
 20
-385.6268
 10
484.5574
 20
-375.9758
 10
475.5729
 20
-375.9758
 10
475.5729
 20
-378.6564
 10
481.0716
 20
-378.6564
 10
476.0144
 20
-387.8485
 10
477.3158
 20
-389.4946
 10
477.6171
 20
-389.0639
 10
477.9324
 20
-388.6906
 10
478.2614
 20
-388.3747
 10
478.6043
 20
-388.1161
 10
478.961
 20
-387.915
 10
479.3315
 20
-387.7713
 10
479.7158
 20
-387.685
 10
480.1138
 20
-387.6563
 10
480.5115
 20
-387.6841
 10
480.8942
 20
-387.7677
 10
481.2619
 20
-387.9069
 10
481.6146
 20
-388.1018
 10
481.9524
 20
-388.3523
 10
482.2752
 20
-388.6584
 10
482.583
 20
-389.0202
 10
482.8758
 20
-389.4376
 10
483.1433
 20
-389.8938
 10
483.3752
 20
-390.3722
 10
483.5713
 20
-390.8727
 10
483.7318
 20
-391.3954
 10
483.8566
 20
-391.9403
 10
483.9457
 20
-392.5074
 10
483.9992
 20
-393.0966
 10
484.017
 20
-393.7081
 10
483.9988
 20
-394.3057
 10
483.9441
 20
-394.8831
 10
483.853
 20
-395.4401
 10
483.7255
 20
-395.9769
 10
483.5615
 20
-396.4934
 10
483.3612
 20
-396.9895
 10
483.1243
 20
-397.4653
 10
482.8511
 20
-397.9207
 10
482.7162
 20
-398.1166
 10
482.5756
 20
-398.3024
 10
482.4293
 20
-398.478
 10
482.2773
 20
-398.6434
 10
482.1195
 20
-398.7986
 10
481.9559
 20
-398.9437
 10
481.7866
 20
-399.0787
 10
481.6115
 20
-399.2035
 10
481.4289
 20
-399.3158
 10
481.2371
 20
-399.4131
 10
481.0362
 20
-399.4955
 10
480.826
 20
-399.5628
 10
480.6067
 20
-399.6152
 10
480.3781
 20
-399.6527
 10
480.1403
 20
-399.6751
 10
479.8933
 20
-399.6826
 10
479.6417
 20
-399.6661
 10
479.3901
 20
-399.6166
 10
479.1385
 20
-399.5342
 10
478.8869
 20
-399.4189
 10
478.6353
 20
-399.2707
 10
478.3837
 20
-399.0896
 10
478.1321
 20
-398.8756
 10
477.8805
 20
-398.6288
 10
477.6381
 20
-398.3539
 10
477.4141
 20
-398.0556
 10
477.2084
 20
-397.734
 10
477.0212
 20
-397.3891
 10
476.8524
 20
-397.0208
 10
476.702
 20
-396.6292
 10
476.57
 20
-396.2144
 10
476.4564
 20
-395.7762
 10
474.7872
 20
-396.6563
 10
474.9458
 20
-397.2806
 10
475.1332
 20
-397.8749
 10
475.3493
 20
-398.4392
 10
475.5942
 20
-398.9736
 10
475.8678
 20
-399.478
 10
476.1702
 20
-399.9525
 10
476.5014
 20
-400.3971
 10
476.8614
 20
-400.8118
 10
477.0384
 20
-400.9936
 10
477.2196
 20
-401.1651
 10
477.405
 20
-401.3263
 10
477.5948
 20
-401.4774
 10
477.7887
 20
-401.6182
 10
477.9868
 20
-401.7488
 10
478.1891
 20
-401.8693
 10
478.3956
 20
-401.9797
 10
478.6071
 20
-402.0784
 10
478.8244
 20
-402.164
 10
479.0474
 20
-402.2364
 10
479.2762
 20
-402.2956
 10
479.5108
 20
-402.3417
 10
479.7511
 20
-402.3746
 10
479.9971
 20
-402.3943
 10
480.2488
 20
-402.4009
 10
480.5036
 20
-402.3905
 10
480.7583
 20
-402.3591
 10
481.0131
 20
-402.3068
 10
481.2678
 20
-402.2336
 10
481.5225
 20
-402.1395
 10
481.7772
 20
-402.0244
 10
482.0318
 20
-401.8884
 10
482.2864
 20
-401.7314
  0
LWPOLYLINE
  5
82
330
1F
100
AcDbEntity
  8
Layer 1
 62
     7
100
AcDbPolyline
 90
      129
 70
     1
 43
0.0
 10
494.511
 20
-379.0013
 10
494.7944
 20
-379.3017
 10
495.0586
 20
-379.6428
 10
495.3037
 20
-380.0246
 10
495.5296
 20
-380.4471
 10
495.7364
 20
-380.9103
 10
495.924
 20
-381.4143
 10
496.0924
 20
-381.959
 10
496.2416
 20
-382.5444
 10
496.4085
 20
-383.3207
 10
496.5531
 20
-384.1083
 10
496.6755
 20
-384.9073
 10
496.7756
 20
-385.7177
 10
496.8535
 20
-386.5395
 10
496.9091
 20
-387.3727
 10
496.9425
 20
-388.2174
 10
496.9536
 20
-389.0734
 10
496.9524
 20
-389.279
 10
496.949
 20
-389.4936
 10
496.9432
 20
-389.7172
 10
496.9351
 20
-389.9498
 10
496.9248
 20
-390.1913
 10
496.9121
 20
-390.4418
 10
496.8971
 20
-390.7013
 10
496.8799
 20
-390.9696
 10
496.7947
 20
-391.999
 10
496.6835
 20
-392.9716
 10
496.5461
 20
-393.8874
 10
496.3827
 20
-394.7464
 10
496.1932
 20
-395.5486
 10
495.9776
 20
-396.294
 10
495.736
 20
-396.9826
 10
495.4683
 20
-397.6144
 10
495.2241
 20
-398.0901
 10
494.9667
 20
-398.5023
 10
494.6964
 20
-398.8512
 10
494.413
 20
-399.1366
 10
494.1165
 20
-399.3586
 10
493.807
 20
-399.5171
 10
493.4845
 20
-399.6123
 10
493.1489
 20
-399.644
 10
492.7743
 20
-399.6126
 10
492.4177
 20
-399.5183
 10
492.0791
 20
-399.3612
 10
491.7586
 20
-399.1412
 10
491.4561
 20
-398.8584
 10
491.1716
 20
-398.5127
 10
490.9052
 20
-398.1042
 10
490.6568
 20
-397.6329
 10
490.5517
 20
-397.4045
 10
490.4513
 20
-397.1689
 10
490.3554
 20
-396.9261
 10
490.2642
 20
-396.676
 10
490.1775
 20
-396.4187
 10
490.0955
 20
-396.1542
 10
490.0181
 20
-395.8824
 10
489.9454
 20
-395.6033
 10
489.8769
 20
-395.3201
 10
489.8125
 20
-395.0351
 10
489.7524
 20
-394.7482
 10
489.6966
 20
-394.4595
 10
489.645
 20
-394.1689
 10
489.5976
 20
-393.8765
 10
489.5545
 20
-393.5822
 10
489.5157
 20
-393.286
 10
489.4802
 20
-392.9905
 10
489.4474
 20
-392.6973
 10
489.4173
 20
-392.4066
 10
489.3899
 20
-392.1184
 10
489.3652
 20
-391.8325
 10
489.3431
 20
-391.5489
 10
489.3237
 20
-391.2677
 10
489.307
 20
-390.9889
 10
489.2926
 20
-390.7058
 10
489.2801
 20
-390.412
 10
489.2696
 20
-390.1076
 10
489.261
 20
-389.7927
 10
489.2543
 20
-389.4673
 10
489.2495
 20
-389.1316
 10
489.2467
 20
-388.7856
 10
489.2457
 20
-388.4294
 10
489.2499
 20
-388.057
 10
489.2626
 20
-387.6631
 10
489.2837
 20
-387.2475
 10
489.3132
 20
-386.8102
 10
489.3512
 20
-386.351
 10
489.3976
 20
-385.8699
 10
489.4524
 20
-385.3667
 10
489.5157
 20
-384.8415
 10
489.5543
 20
-384.5499
 10
489.5969
 20
-384.2589
 10
489.6433
 20
-383.9685
 10
489.6935
 20
-383.6787
 10
489.7476
 20
-383.3894
 10
489.8056
 20
-383.1007
 10
489.8674
 20
-382.8126
 10
489.933
 20
-382.5251
 10
490.003
 20
-382.2414
 10
490.0779
 20
-381.9649
 10
490.1578
 20
-381.6956
 10
490.2428
 20
-381.4334
 10
490.3327
 20
-381.1785
 10
490.4276
 20
-380.9307
 10
490.5276
 20
-380.6902
 10
490.6326
 20
-380.4569
 10
490.7426
 20
-380.2326
 10
490.8581
 20
-380.0198
 10
490.9789
 20
-379.8183
 10
491.105
 20
-379.6283
 10
491.2366
 20
-379.4496
 10
491.3735
 20
-379.2824
 10
491.5158
 20
-379.1265
 10
491.6635
 20
-378.982
 10
491.8173
 20
-378.8518
 10
491.9781
 20
-378.739
 10
492.1457
 20
-378.6435
 10
492.3202
 20
-378.5654
 10
492.5016
 20
-378.5046
 10
492.6899
 20
-378.4612
 10
492.885
 20
-378.4352
 10
493.087
 20
-378.4265
 10
493.2892
 20
-378.4355
 10
493.4845
 20
-378.4625
 10
493.6728
 20
-378.5075
 10
493.8543
 20
-378.5704
 10
494.0288
 20
-378.6513
 10
494.1964
 20
-378.7501
 10
494.3572
 20
-378.8668
 10
494.511
 20
-379.0013
  0
LWPOLYLINE
  5
83
330
1F
100
AcDbEntity
  8
Layer 1
 62
     7
100
AcDbPolyline
 90
       65
 70
     1
 43
0.0
 10
493.1731
 20
-402.3631
 10
493.8897
 20
-402.2922
 10
494.5607
 20
-402.0795
 10
495.1861
 20
-401.7249
 10
495.7659
 20
-401.2286
 10
496.3
 20
-400.5904
 10
496.7885
 20
-399.8104
 10
497.2313
 20
-398.8886
 10
497.6285
 20
-397.825
 10
497.9075
 20
-396.8967
 10
498.1493
 20
-395.9171
 10
498.354
 20
-394.8859
 10
498.5214
 20
-393.8034
 10
498.6516
 20
-392.6694
 10
498.7447
 20
-391.4839
 10
498.8005
 20
-390.2469
 10
498.8191
 20
-388.9585
 10
498.8005
 20
-387.6703
 10
498.7447
 20
-386.4336
 10
498.6516
 20
-385.2482
 10
498.5214
 20
-384.1143
 10
498.354
 20
-383.0318
 10
498.1493
 20
-382.0007
 10
497.9075
 20
-381.0211
 10
497.6285
 20
-380.0928
 10
497.2313
 20
-379.0292
 10
496.7885
 20
-378.1074
 10
496.3
 20
-377.3274
 10
495.7659
 20
-376.6892
 10
495.1861
 20
-376.1929
 10
494.5607
 20
-375.8383
 10
493.8897
 20
-375.6256
 10
493.1731
 20
-375.5547
 10
492.4564
 20
-375.6256
 10
491.7854
 20
-375.8383
 10
491.16
 20
-376.1929
 10
490.5803
 20
-376.6892
 10
490.0461
 20
-377.3274
 10
489.5576
 20
-378.1074
 10
489.1148
 20
-379.0292
 10
488.7176
 20
-380.0928
 10
488.4386
 20
-381.0211
 10
488.1968
 20
-382.0007
 10
487.9921
 20
-383.0318
 10
487.8247
 20
-384.1143
 10
487.6945
 20
-385.2482
 10
487.6014
 20
-386.4336
 10
487.5456
 20
-387.6703
 10
487.527
 20
-388.9585
 10
487.5456
 20
-390.2469
 10
487.6014
 20
-391.4839
 10
487.6945
 20
-392.6694
 10
487.8247
 20
-393.8034
 10
487.9921
 20
-394.8859
 10
488.1968
 20
-395.9171
 10
488.4386
 20
-396.8967
 10
488.7176
 20
-397.825
 10
489.1148
 20
-398.8886
 10
489.5576
 20
-399.8104
 10
490.0461
 20
-400.5904
 10
490.5803
 20
-401.2286
 10
491.16
 20
-401.7249
 10
491.7854
 20
-402.0795
 10
492.4564
 20
-402.2922
 10
493.1731
 20
-402.3631
  0
LWPOLYLINE
  5
84
330
1F
100
AcDbEntity
  8
Layer 1
 62
     7
100
AcDbPolyline
 90
      129
 70
     1
 43
0.0
 10
508.2576
 20
-379.0013
 10
508.541
 20
-379.3017
 10
508.8052
 20
-379.6428
 10
509.0503
 20
-380.0246
 10
509.2762
 20
-380.4471
 10
509.4829
 20
-380.9103
 10
509.6705
 20
-381.4143
 10
509.8389
 20
-381.959
 10
509.9881
 20
-382.5444
 10
510.155
 20
-383.3207
 10
510.2996
 20
-384.1083
 10
510.422
 20
-384.9073
 10
510.5221
 20
-385.7177
 10
510.6
 20
-386.5395
 10
510.6556
 20
-387.3727
 10
510.689
 20
-388.2174
 10
510.7001
 20
-389.0734
 10
510.6989
 20
-389.279
 10
510.6955
 20
-389.4936
 10
510.6897
 20
-389.7172
 10
510.6816
 20
-389.9498
 10
510.6713
 20
-390.1913
 10
510.6586
 20
-390.4418
 10
510.6437
 20
-390.7013
 10
510.6265
 20
-390.9696
 10
510.5413
 20
-391.999
 10
510.43
 20
-392.9716
 10
510.2927
 20
-393.8874
 10
510.1292
 20
-394.7464
 10
509.9397
 20
-395.5486
 10
509.7241
 20
-396.294
 10
509.4825
 20
-396.9826
 10
509.2148
 20
-397.6144
 10
508.9706
 20
-398.0901
 10
508.7133
 20
-398.5023
 10
508.4429
 20
-398.8512
 10
508.1595
 20
-399.1366
 10
507.863
 20
-399.3586
 10
507.5535
 20
-399.5171
 10
507.231
 20
-399.6123
 10
506.8954
 20
-399.644
 10
506.5208
 20
-399.6126
 10
506.1642
 20
-399.5183
 10
505.8257
 20
-399.3612
 10
505.5051
 20
-399.1412
 10
505.2026
 20
-398.8584
 10
504.9182
 20
-398.5127
 10
504.6517
 20
-398.1042
 10
504.4033
 20
-397.6329
 10
504.2983
 20
-397.4045
 10
504.1978
 20
-397.1689
 10
504.102
 20
-396.9261
 10
504.0107
 20
-396.676
 10
503.9241
 20
-396.4187
 10
503.842
 20
-396.1542
 10
503.7646
 20
-395.8824
 10
503.6919
 20
-395.6033
 10
503.6234
 20
-395.3201
 10
503.559
 20
-395.0351
 10
503.499
 20
-394.7482
 10
503.4431
 20
-394.4595
 10
503.3915
 20
-394.1689
 10
503.3441
 20
-393.8765
 10
503.301
 20
-393.5822
 10
503.2622
 20
-393.286
 10
503.2267
 20
-392.9905
 10
503.1939
 20
-392.6973
 10
503.1638
 20
-392.4066
 10
503.1364
 20
-392.1184
 10
503.1117
 20
-391.8325
 10
503.0896
 20
-391.5489
 10
503.0702
 20
-391.2677
 10
503.0535
 20
-390.9889
 10
503.0391
 20
-390.7058
 10
503.0266
 20
-390.412
 10
503.0161
 20
-390.1076
 10
503.0075
 20
-389.7927
 10
503.0008
 20
-389.4673
 10
502.996
 20
-389.1316
 10
502.9932
 20
-388.7856
 10
502.9922
 20
-388.4294
 10
502.9964
 20
-388.057
 10
503.0091
 20
-387.6631
 10
503.0302
 20
-387.2475
 10
503.0597
 20
-386.8102
 10
503.0977
 20
-386.351
 10
503.1441
 20
-385.8699
 10
503.1989
 20
-385.3667
 10
503.2622
 20
-384.8415
 10
503.3009
 20
-384.5499
 10
503.3434
 20
-384.2589
 10
503.3898
 20
-383.9685
 10
503.4401
 20
-383.6787
 10
503.4942
 20
-383.3894
 10
503.5521
 20
-383.1007
 10
503.6139
 20
-382.8126
 10
503.6795
 20
-382.5251
 10
503.7495
 20
-382.2414
 10
503.8244
 20
-381.9649
 10
503.9043
 20
-381.6956
 10
503.9893
 20
-381.4334
 10
504.0792
 20
-381.1785
 10
504.1741
 20
-380.9307
 10
504.2741
 20
-380.6902
 10
504.3792
 20
-380.4569
 10
504.4892
 20
-380.2326
 10
504.6046
 20
-380.0198
 10
504.7254
 20
-379.8183
 10
504.8516
 20
-379.6283
 10
504.9832
 20
-379.4496
 10
505.1201
 20
-379.2824
 10
505.2624
 20
-379.1265
 10
505.4101
 20
-378.982
 10
505.5639
 20
-378.8518
 10
505.7246
 20
-378.739
 10
505.8923
 20
-378.6435
 10
506.0668
 20
-378.5654
 10
506.2481
 20
-378.5046
 10
506.4364
 20
-378.4612
 10
506.6315
 20
-378.4352
 10
506.8335
 20
-378.4265
 10
507.0357
 20
-378.4355
 10
507.231
 20
-378.4625
 10
507.4194
 20
-378.5075
 10
507.6008
 20
-378.5704
 10
507.7754
 20
-378.6513
 10
507.943
 20
-378.7501
 10
508.1038
 20
-378.8668
 10
508.2576
 20
-379.0013
  0
LWPOLYLINE
  5
85
330
1F
100
AcDbEntity
  8
Layer 1
 62
     7
100
AcDbPolyline
 90
       65
 70
     1
 43
0.0
 10
506.9196
 20
-402.3631
 10
507.6362
 20
-402.2922
 10
508.3072
 20
-402.0795
 10
508.9326
 20
-401.7249
 10
509.5124
 20
-401.2286
 10
510.0465
 20
-400.5904
 10
510.535
 20
-399.8104
 10
510.9778
 20
-398.8886
 10
511.375
 20
-397.825
 10
511.654
 20
-396.8967
 10
511.8958
 20
-395.9171
 10
512.1005
 20
-394.8859
 10
512.268
 20
-393.8034
 10
512.3982
 20
-392.6694
 10
512.4913
 20
-391.4839
 10
512.5471
 20
-390.2469
 10
512.5657
 20
-388.9585
 10
512.5471
 20
-387.6703
 10
512.4913
 20
-386.4336
 10
512.3982
 20
-385.2482
 10
512.268
 20
-384.1143
 10
512.1005
 20
-383.0318
 10
511.8958
 20
-382.0007
 10
511.654
 20
-381.0211
 10
511.375
 20
-380.0928
 10
510.9778
 20
-379.0292
 10
510.535
 20
-378.1074
 10
510.0465
 20
-377.3274
 10
509.5124
 20
-376.6892
 10
508.9326
 20
-376.1929
 10
508.3072
 20
-375.8383
 10
507.6362
 20
-375.6256
 10
506.9196
 20
-375.5547
 10
506.203
 20
-375.6256
 10
505.532
 20
-375.8383
 10
504.9066
 20
-376.1929
 10
504.3268
 20
-376.6892
 10
503.7926
 20
-377.3274
 10
503.3041
 20
-378.1074
 10
502.8613
 20
-379.0292
 10
502.4641
 20
-380.0928
 10
502.1851
 20
-381.0211
 10
501.9433
 20
-382.0007
 10
501.7387
 20
-383.0318
 10
501.5712
 20
-384.1143
 10
501.441
 20
-385.2482
 10
501.3479
 20
-386.4336
 10
501.2921
 20
-387.6703
 10
501.2735
 20
-388.9585
 10
501.2921
 20
-390.2469
 10
501.3479
 20
-391.4839
 10
501.441
 20
-392.6694
 10
501.5712
 20
-393.8034
 10
501.7387
 20
-394.8859
 10
501.9433
 20
-395.9171
 10
502.1851
 20
-396.8967
 10
502.4641
 20
-397.825
 10
502.8613
 20
-398.8886
 10
503.3041
 20
-399.8104
 10
503.7926
 20
-400.5904
 10
504.3268
 20
-401.2286
 10
504.9066
 20
-401.7249
 10
505.532
 20
-402.0795
 10
506.203
 20
-402.2922
 10
506.9196
 20
-402.3631
  0
LWPOLYLINE
  5
86
330
1F
100
AcDbEntity
  8
Layer 1
 62
     7
100
AcDbPolyline
 90
      162
 70
     1
 43
0.0
 10
529.3318
 20
-401.942
 10
531.05
 20
-401.942
 10
531.05
 20
-391.41
 10
531.036
 20
-390.7108
 10
530.994
 20
-390.0445
 10
530.924
 20
-389.4111
 10
530.826
 20
-388.8106
 10
530.7
 20
-388.243
 10
530.546
 20
-387.7083
 10
530.364
 20
-387.2066
 10
530.154
 20
-386.7377
 10
530.0367
 20
-386.5134
 10
529.9122
 20
-386.3005
 10
529.7804
 20
-386.0991
 10
529.6414
 20
-385.909
 10
529.4951
 20
-385.7304
 10
529.3415
 20
-385.5631
 10
529.1805
 20
-385.4072
 10
529.0123
 20
-385.2627
 10
528.8335
 20
-385.1328
 10
528.641
 20
-385.0202
 10
528.4347
 20
-384.9249
 10
528.2146
 20
-384.8469
 10
527.9806
 20
-384.7862
 10
527.7328
 20
-384.7428
 10
527.4712
 20
-384.7168
 10
527.1957
 20
-384.7081
 10
526.9179
 20
-384.723
 10
526.6489
 20
-384.7679
 10
526.3888
 20
-384.8426
 10
526.1374
 20
-384.9472
 10
525.8948
 20
-385.0818
 10
525.6611
 20
-385.2464
 10
525.4361
 20
-385.4409
 10
525.22
 20
-385.6654
 10
525.0323
 20
-385.889
 10
524.8531
 20
-386.1293
 10
524.6824
 20
-386.3861
 10
524.5201
 20
-386.6593
 10
524.3663
 20
-386.9486
 10
524.221
 20
-387.2538
 10
524.0841
 20
-387.575
 10
523.9557
 20
-387.9117
 10
523.8558
 20
-387.6008
 10
523.7468
 20
-387.3007
 10
523.6286
 20
-387.0126
 10
523.5012
 20
-386.7377
 10
523.3841
 20
-386.5134
 10
523.2597
 20
-386.3005
 10
523.1281
 20
-386.0991
 10
522.9891
 20
-385.909
 10
522.8428
 20
-385.7304
 10
522.6892
 20
-385.5631
 10
522.5283
 20
-385.4072
 10
522.3601
 20
-385.2627
 10
522.1813
 20
-385.1328
 10
521.9887
 20
-385.0202
 10
521.7823
 20
-384.9249
 10
521.5621
 20
-384.8469
 10
521.3281
 20
-384.7862
 10
521.0803
 20
-384.7428
 10
520.8188
 20
-384.7168
 10
520.5435
 20
-384.7081
 10
520.2655
 20
-384.723
 10
519.9964
 20
-384.7679
 10
519.7361
 20
-384.8426
 10
519.4847
 20
-384.9472
 10
519.2421
 20
-385.0818
 10
519.0083
 20
-385.2464
 10
518.7833
 20
-385.4409
 10
518.5672
 20
-385.6654
 10
518.3886
 20
-385.8783
 10
518.2176
 20
-386.1057
 10
518.0543
 20
-386.3478
 10
517.8986
 20
-386.6044
 10
517.7506
 20
-386.8757
 10
517.6102
 20
-387.1618
 10
517.4775
 20
-387.4626
 10
517.3524
 20
-387.7783
 10
517.3524
 20
-385.0907
 10
515.6342
 20
-385.0907
 10
515.6342
 20
-401.942
 10
517.3524
 20
-401.942
 10
517.3524
 20
-393.3185
 10
517.3923
 20
-392.816
 10
517.4445
 20
-392.3331
 10
517.5089
 20
-391.8697
 10
517.5856
 20
-391.4256
 10
517.6745
 20
-391.0007
 10
517.7758
 20
-390.5947
 10
517.8892
 20
-390.2077
 10
518.0149
 20
-389.8394
 10
518.1174
 20
-389.5775
 10
518.2283
 20
-389.3275
 10
518.3475
 20
-389.0893
 10
518.4752
 20
-388.8631
 10
518.6114
 20
-388.6487
 10
518.756
 20
-388.4463
 10
518.909
 20
-388.2559
 10
519.0705
 20
-388.0775
 10
519.2378
 20
-387.9161
 10
519.4082
 20
-387.7763
 10
519.5816
 20
-387.6579
 10
519.7581
 20
-387.561
 10
519.9376
 20
-387.4856
 10
520.1202
 20
-387.4318
 10
520.3059
 20
-387.3995
 10
520.4946
 20
-387.3887
 10
520.6787
 20
-387.3944
 10
520.8505
 20
-387.4114
 10
521.01
 20
-387.4398
 10
521.1572
 20
-387.4795
 10
521.2922
 20
-387.5306
 10
521.4148
 20
-387.5931
 10
521.5252
 20
-387.6669
 10
521.6233
 20
-387.752
 10
521.8708
 20
-388.0375
 10
522.0853
 20
-388.3721
 10
522.2668
 20
-388.7557
 10
522.4152
 20
-389.1885
 10
522.5306
 20
-389.6703
 10
522.6131
 20
-390.2011
 10
522.6625
 20
-390.781
 10
522.679
 20
-391.41
 10
522.679
 20
-401.942
 10
524.3977
 20
-401.942
 10
524.3977
 20
-391.41
 10
524.3854
 20
-390.7651
 10
524.6677
 20
-389.8394
 10
524.77
 20
-389.5775
 10
524.8808
 20
-389.3275
 10
525.0
 20
-389.0893
 10
525.1278
 20
-388.8631
 10
525.2639
 20
-388.6487
 10
525.4085
 20
-388.4463
 10
525.5614
 20
-388.2559
 10
525.7228
 20
-388.0775
 10
525.8901
 20
-387.9161
 10
526.0604
 20
-387.7763
 10
526.2338
 20
-387.6579
 10
526.4103
 20
-387.561
 10
526.5898
 20
-387.4856
 10
526.7724
 20
-387.4318
 10
526.9581
 20
-387.3995
 10
527.1468
 20
-387.3887
 10
527.3309
 20
-387.3944
 10
527.5027
 20
-387.4114
 10
527.6623
 20
-387.4398
 10
527.8096
 20
-387.4795
 10
527.9446
 20
-387.5306
 10
528.0673
 20
-387.5931
 10
528.1778
 20
-387.6669
 10
528.2761
 20
-387.752
 10
528.5235
 20
-388.0375
 10
528.7379
 20
-388.3721
 10
528.9193
 20
-388.7557
 10
529.0678
 20
-389.1885
 10
529.1833
 20
-389.6703
 10
529.2658
 20
-390.2011
 10
529.3153
 20
-390.781
 10
529.3318
 20
-391.41
 10
529.3318
 20
-401.942
  0
LWPOLYLINE
  5
87
330
1F
100
AcDbEntity
  8
Layer 1
 62
     7
100
AcDbPolyline
 90
      162
 70
     1
 43
0.0
 10
548.0619
 20
-401.942
 10
549.78
 20
-401.942
 10
549.78
 20
-391.41
 10
549.766
 20
-390.7108
 10
549.724
 20
-390.0445
 10
549.654
 20
-389.4111
 10
549.556
 20
-388.8106
 10
549.4301
 20
-388.243
 10
549.2761
 20
-387.7083
 10
549.0941
 20
-387.2066
 10
548.8841
 20
-386.7377
 10
548.7668
 20
-386.5134
 10
548.6423
 20
-386.3005
 10
548.5105
 20
-386.0991
 10
548.3715
 20
-385.909
 10
548.2252
 20
-385.7304
 10
548.0716
 20
-385.5631
 10
547.9106
 20
-385.4072
 10
547.7424
 20
-385.2627
 10
547.5636
 20
-385.1328
 10
547.3711
 20
-385.0202
 10
547.1648
 20
-384.9249
 10
546.9447
 20
-384.8469
 10
546.7107
 20
-384.7862
 10
546.4629
 20
-384.7428
 10
546.2013
 20
-384.7168
 10
545.9258
 20
-384.7081
 10
545.648
 20
-384.723
 10
545.379
 20
-384.7679
 10
545.1189
 20
-384.8426
 10
544.8675
 20
-384.9472
 10
544.6249
 20
-385.0818
 10
544.3912
 20
-385.2464
 10
544.1662
 20
-385.4409
 10
543.9501
 20
-385.6654
 10
543.7624
 20
-385.889
 10
543.5832
 20
-386.1293
 10
543.4125
 20
-386.3861
 10
543.2502
 20
-386.6593
 10
543.0964
 20
-386.9486
 10
542.9511
 20
-387.2538
 10
542.8142
 20
-387.575
 10
542.6858
 20
-387.9117
 10
542.5859
 20
-387.6008
 10
542.4769
 20
-387.3007
 10
542.3587
 20
-387.0126
 10
542.2313
 20
-386.7377
 10
542.1142
 20
-386.5134
 10
541.9898
 20
-386.3005
 10
541.8581
 20
-386.0991
 10
541.7192
 20
-385.909
 10
541.5729
 20
-385.7304
 10
541.4193
 20
-385.5631
 10
541.2584
 20
-385.4072
 10
541.0902
 20
-385.2627
 10
540.9114
 20
-385.1328
 10
540.7188
 20
-385.0202
 10
540.5124
 20
-384.9249
 10
540.2922
 20
-384.8469
 10
540.0582
 20
-384.7862
 10
539.8104
 20
-384.7428
 10
539.5489
 20
-384.7168
 10
539.2736
 20
-384.7081
 10
538.9956
 20
-384.723
 10
538.7265
 20
-384.7679
 10
538.4662
 20
-384.8426
 10
538.2148
 20
-384.9472
 10
537.9722
 20
-385.0818
 10
537.7384
 20
-385.2464
 10
537.5134
 20
-385.4409
 10
537.2973
 20
-385.6654
 10
537.1187
 20
-385.8783
 10
536.9477
 20
-386.1057
 10
536.7844
 20
-386.3478
 10
536.6287
 20
-386.6044
 10
536.4806
 20
-386.8757
 10
536.3402
 20
-387.1618
 10
536.2075
 20
-387.4626
 10
536.0824
 20
-387.7783
 10
536.0824
 20
-385.0907
 10
534.3643
 20
-385.0907
 10
534.3643
 20
-401.942
 10
536.0824
 20
-401.942
 10
536.0824
 20
-393.3185
 10
536.1223
 20
-392.816
 10
536.1745
 20
-392.3331
 10
536.2389
 20
-391.8697
 10
536.3156
 20
-391.4256
 10
536.4046
 20
-391.0007
 10
536.5058
 20
-390.5947
 10
536.6193
 20
-390.2077
 10
536.745
 20
-389.8394
 10
536.8475
 20
-389.5775
 10
536.9584
 20
-389.3275
 10
537.0776
 20
-389.0893
 10
537.2053
 20
-388.8631
 10
537.3415
 20
-388.6487
 10
537.4861
 20
-388.4463
 10
537.6391
 20
-388.2559
 10
537.8006
 20
-388.0775
 10
537.9679
 20
-387.9161
 10
538.1383
 20
-387.7763
 10
538.3117
 20
-387.6579
 10
538.4882
 20
-387.561
 10
538.6677
 20
-387.4856
 10
538.8503
 20
-387.4318
 10
539.036
 20
-387.3995
 10
539.2247
 20
-387.3887
 10
539.4088
 20
-387.3944
 10
539.5806
 20
-387.4114
 10
539.7401
 20
-387.4398
 10
539.8873
 20
-387.4795
 10
540.0223
 20
-387.5306
 10
540.1449
 20
-387.5931
 10
540.2553
 20
-387.6669
 10
540.3534
 20
-387.752
 10
540.6009
 20
-388.0375
 10
540.8154
 20
-388.3721
 10
540.9969
 20
-388.7557
 10
541.1453
 20
-389.1885
 10
541.2607
 20
-389.6703
 10
541.3432
 20
-390.2011
 10
541.3926
 20
-390.781
 10
541.4091
 20
-391.41
 10
541.4091
 20
-401.942
 10
543.1278
 20
-401.942
 10
543.1278
 20
-391.41
 10
543.1154
 20
-390.7651
 10
543.3978
 20
-389.8394
 10
543.5001
 20
-389.5775
 10
543.6109
 20
-389.3275
 10
543.7301
 20
-389.0893
 10
543.8579
 20
-388.8631
 10
543.994
 20
-388.6487
 10
544.1386
 20
-388.4463
 10
544.2915
 20
-388.2559
 10
544.4529
 20
-388.0775
 10
544.6202
 20
-387.9161
 10
544.7905
 20
-387.7763
 10
544.9639
 20
-387.6579
 10
545.1404
 20
-387.561
 10
545.3199
 20
-387.4856
 10
545.5025
 20
-387.4318
 10
545.6882
 20
-387.3995
 10
545.8769
 20
-387.3887
 10
546.061
 20
-387.3944
 10
546.2328
 20
-387.4114
 10
546.3923
 20
-387.4398
 10
546.5396
 20
-387.4795
 10
546.6746
 20
-387.5306
 10
546.7974
 20
-387.5931
 10
546.9079
 20
-387.6669
 10
547.0062
 20
-387.752
 10
547.2536
 20
-388.0375
 10
547.468
 20
-388.3721
 10
547.6494
 20
-388.7557
 10
547.7979
 20
-389.1885
 10
547.9134
 20
-389.6703
 10
547.9959
 20
-390.2011
 10
548.0454
 20
-390.781
 10
548.0619
 20
-391.41
 10
548.0619
 20
-401.942
  0
LWPOLYLINE
  5
88
330
1F
100
AcDbEntity
  8
Layer 1
 62
     7
370
    18
100
AcDbPolyline
 90
       33
 70
     1
 43
0.0
 10
456.11
 20
-368.9888
 10
457.8489
 20
-369.2623
 10
459.4686
 20
-370.0467
 10
460.9342
 20
-371.2879
 10
462.2112
 20
-372.9317
 10
463.2649
 20
-374.924
 10
464.0604
 20
-377.2106
 10
464.5632
 20
-379.7375
 10
464.7385
 20
-382.4505
 10
464.5632
 20
-385.1634
 10
464.0604
 20
-387.6903
 10
463.2649
 20
-389.977
 10
462.2112
 20
-391.9693
 10
460.9342
 20
-393.6131
 10
459.4686
 20
-394.8543
 10
457.8489
 20
-395.6387
 10
456.11
 20
-395.9122
 10
454.371
 20
-395.6387
 10
452.7514
 20
-394.8543
 10
451.2857
 20
-393.6131
 10
450.0087
 20
-391.9693
 10
448.955
 20
-389.977
 10
448.1595
 20
-387.6903
 10
447.6567
 20
-385.1634
 10
447.4814
 20
-382.4505
 10
447.6567
 20
-379.7375
 10
448.1595
 20
-377.2106
 10
448.955
 20
-374.924
 10
450.0087
 20
-372.9317
 10
451.2857
 20
-371.2879
 10
452.7514
 20
-370.0467
 10
454.371
 20
-369.2623
 10
456.11
 20
-368.9888
  0
LWPOLYLINE
  5
89
330
1F
100
AcDbEntity
  8
Layer 1
 62
     7
370
    18
100
AcDbPolyline
 90
        9
 70
     0
 43
0.0
 10
460.3989
 20
-359.8432
 10
457.647
 20
-374.8426
 10
455.5565
 20
-386.1842
 10
454.0368
 20
-394.3791
 10
452.997
 20
-399.9382
 10
452.3463
 20
-403.3725
 10
451.9939
 20
-405.1929
 10
451.8491
 20
-405.9105
 10
451.821
 20
-406.0361
  0
LWPOLYLINE
  5
8A
330
1F
100
AcDbEntity
  8
Layer 1
 62
     7
370
    18
100
AcDbPolyline
 90
       33
 70
     1
 43
0.0
 10
392.841
 20
360.2862
 10
418.253
 20
360.1904
 10
441.9218
 20
359.9156
 10
463.3404
 20
359.4807
 10
482.0017
 20
358.9049
 10
497.3987
 20
358.2069
 10
509.0243
 20
357.4059
 10
516.3716
 20
356.5208
 10
518.9333
 20
355.5706
 10
516.3716
 20
354.6199
 10
509.0243
 20
353.7345
 10
497.3987
 20
352.9332
 10
482.0017
 20
352.2352
 10
463.3404
 20
351.6592
 10
441.9218
 20
351.2243
 10
418.253
 20
350.9495
 10
392.841
 20
350.8537
 10
367.4293
 20
350.9495
 10
343.7606
 20
351.2243
 10
322.3422
 20
351.6592
 10
303.681
 20
352.2352
 10
288.284
 20
352.9332
 10
276.6584
 20
353.7345
 10
269.3112
 20
354.6199
 10
266.7495
 20
355.5706
 10
269.3112
 20
356.5208
 10
276.6584
 20
357.4059
 10
288.284
 20
358.2069
 10
303.681
 20
358.9049
 10
322.3422
 20
359.4807
 10
343.7606
 20
359.9156
 10
367.4293
 20
360.1904
 10
392.841
 20
360.2862
  0
LWPOLYLINE
  5
8B
330
1F
100
AcDbEntity
  8
Layer 1
 62
     7
370
    18
100
AcDbPolyline
 90
       63
 70
     1
 43
0.0
 10
569.4084
 20
-330.4714
 10
568.1654
 20
-332.481
 10
564.5868
 20
-334.913
 10
558.898
 20
-337.5547
 10
551.3246
 20
-340.1932
 10
542.0921
 20
-342.6157
 10
531.4261
 20
-344.6096
 10
519.552
 20
-345.9619
 10
506.6953
 20
-346.46
 10
493.814
 20
-345.8057
 10
481.8748
 20
-344.0417
 10
471.1167
 20
-341.4659
 10
461.7788
 20
-338.3767
 10
454.0999
 20
-335.072
 10
448.3191
 20
-331.8501
 10
444.6754
 20
-329.009
 10
443.4077
 20
-326.8469
 10
443.3855
 20
-252.7436
 10
443.3246
 20
-178.6373
 10
443.2332
 20
-104.5288
 10
443.1195
 20
-30.4191
 10
442.992
 20
43.691
 10
442.8588
 20
117.8006
 10
442.7283
 20
191.9088
 10
442.6087
 20
266.0147
 10
442.6224
 20
266.1577
 10
442.6638
 20
266.4808
 10
442.698
 20
266.6602
 10
442.7428
 20
266.8251
 10
442.7995
 20
266.9557
 10
442.8694
 20
267.032
 10
444.824
 20
267.7062
 10
448.1101
 20
268.3403
 10
452.6166
 20
268.9263
 10
458.2325
 20
269.4562
 10
464.8467
 20
269.9223
 10
472.3481
 20
270.3165
 10
480.6256
 20
270.631
 10
489.5682
 20
270.8578
 10
491.0041
 20
270.8951
 10
491.5987
 20
270.9278
 10
491.8709
 20
270.9558
 10
492.3397
 20
270.9788
 10
493.5239
 20
270.997
 10
495.9426
 20
271.01
 10
500.1146
 20
271.0179
 10
506.559
 20
271.0206
 10
515.216
 20
270.914
 10
525.1753
 20
270.6211
 10
535.6796
 20
270.1822
 10
545.9719
 20
269.6377
 10
555.295
 20
269.0279
 10
562.8918
 20
268.3932
 10
568.0051
 20
267.7741
 10
569.8778
 20
267.2107
 10
569.8576
 20
192.6065
 10
569.8045
 20
117.941
 10
569.7293
 20
43.2298
 10
569.6431
 20
-31.5118
 10
569.5569
 20
-106.2681
 10
569.4817
 20
-181.0239
 10
569.4286
 20
-255.7634
 10
569.4084
 20
-330.4714
  0
LWPOLYLINE
  5
8C
330
1F
100
AcDbEntity
  8
Layer 1
 62
     7
370
    18
100
AcDbPolyline
 90
       19
 70
     0
 43
0.0
 10
266.7495
 20
355.5706
 10
266.7495
 20
306.0243
 10
266.7866
 20
305.0624
 10
267.0535
 20
302.4954
 10
267.7835
 20
298.8009
 10
269.2098
 20
294.4567
 10
271.5657
 20
289.9407
 10
275.0845
 20
285.7305
 10
279.9995
 20
282.3039
 10
286.544
 20
280.1388
 10
305.2665
 20
276.9409
 10
324.393
 20
274.1864
 10
343.8384
 20
271.8764
 10
363.5175
 20
270.0121
 10
383.3452
 20
268.5944
 10
403.2363
 20
267.6244
 10
423.1057
 20
267.1033
 10
442.8681
 20
267.032
 10
442.8694
 20
267.032
  0
LWPOLYLINE
  5
8D
330
1F
100
AcDbEntity
  8
Layer 1
 62
     7
370
    18
100
AcDbPolyline
 90
       25
 70
     0
 43
0.0
 10
489.5682
 20
270.8578
 10
490.0741
 20
270.874
 10
490.5796
 20
270.8883
 10
491.0847
 20
270.9004
 10
491.5893
 20
270.9104
 10
492.0936
 20
270.9182
 10
492.5973
 20
270.9237
 10
493.1007
 20
270.9269
 10
493.6035
 20
270.9276
 10
494.6317
 20
271.4266
 10
497.3486
 20
272.9509
 10
501.2028
 20
275.5413
 10
505.6429
 20
279.2386
 10
510.1175
 20
284.0835
 10
514.0752
 20
290.117
 10
516.9645
 20
297.3797
 10
518.234
 20
305.9126
 10
518.4752
 20
315.076
 10
518.6535
 20
324.0009
 10
518.7783
 20
332.3844
 10
518.8592
 20
339.9232
 10
518.9056
 20
346.3143
 10
518.927
 20
351.2546
 10
518.9329
 20
354.4411
 10
518.9328
 20
355.5706
  0
LWPOLYLINE
  5
8E
330
1F
100
AcDbEntity
  8
Layer 1
 62
     7
370
    18
100
AcDbPolyline
 90
        9
 70
     0
 43
0.0
 10
458.4395
 20
263.6812
 10
461.6817
 20
263.5364
 10
470.3907
 20
263.1849
 10
483.0402
 20
262.7505
 10
498.1038
 20
262.3576
 10
514.0551
 20
262.1301
 10
529.3678
 20
262.1922
 10
542.5154
 20
262.6678
 10
551.9717
 20
263.6812
  0
ENDSEC
  0
SECTION
  2
OBJECTS
  0
DICTIONARY
  5
C
330
0
100
AcDbDictionary
281
     1
  3
ACAD_DETAILVIEWSTYLE
350
96
  3
ACAD_GROUP
350
D
  3
ACAD_LAYOUT
350
1A
  3
ACAD_MATERIAL
350
43
  3
ACAD_MLEADERSTYLE
350
5B
  3
ACAD_MLINESTYLE
350
17
  3
ACAD_PLOTSETTINGS
350
19
  3
ACAD_PLOTSTYLENAME
350
E
  3
ACAD_SCALELIST
350
47
  3
ACAD_SECTIONVIEWSTYLE
350
97
  3
ACAD_TABLESTYLE
350
59
  3
ACAD_VISUALSTYLE
350
2A
  3
ACDB_RECOMPOSE_DATA
350
93
  3
AcDbVariableDictionary
350
8F
  0
SUN
  5
5D
330
29
100
AcDbSun
 90
        1
290
     0
 63
     7
421
 16777215
 40
1.0
291
     1
 91
  2455826
 92
 54000000
292
     0
 70
     2
 71
   256
280
     1
  0
DICTIONARY
  5
96
102
{ACAD_REACTORS
330
C
102
}
330
C
100
AcDbDictionary
281
     1
  0
DICTIONARY
  5
D
102
{ACAD_REACTORS
330
C
102
}
330
C
100
AcDbDictionary
281
     1
  0
DICTIONARY
  5
1A
102
{ACAD_REACTORS
330
C
102
}
330
C
100
AcDbDictionary
281
     1
  3
Layout1
350
1E
  3
Layout2
350
26
  3
Model
350
22
  0
DICTIONARY
  5
43
102
{ACAD_REACTORS
330
C
102
}
330
C
100
AcDbDictionary
281
     1
  3
ByBlock
350
45
  3
ByLayer
350
44
  3
Global
350
46
  0
DICTIONARY
  5
5B
102
{ACAD_REACTORS
330
C
102
}
330
C
100
AcDbDictionary
281
     1
  3
Standard
350
5C
  0
DICTIONARY
  5
17
102
{ACAD_REACTORS
330
C
102
}
330
C
100
AcDbDictionary
281
     1
  3
Standard
350
18
  0
DICTIONARY
  5
19
102
{ACAD_REACTORS
330
C
102
}
330
C
100
AcDbDictionary
281
     1
  0
ACDBDICTIONARYWDFLT
  5
E
102
{ACAD_REACTORS
330
C
102
}
330
C
100
AcDbDictionary
281
     1
  3
Normal
350
F
100
AcDbDictionaryWithDefault
340
F
  0
DICTIONARY
  5
47
102
{ACAD_REACTORS
330
C
102
}
330
C
100
AcDbDictionary
281
     1
  3
A0
350
48
  3
A1
350
49
  3
A2
350
4A
  3
A3
350
4B
  3
A4
350
4C
  3
A5
350
4D
  3
A6
350
4E
  3
A7
350
4F
  3
A8
350
50
  3
A9
350
51
  3
B1
350
52
  3
B2
350
53
  3
B3
350
54
  3
B4
350
55
  3
B5
350
56
  3
B6
350
57
  3
B7
350
58
  0
DICTIONARY
  5
97
102
{ACAD_REACTORS
330
C
102
}
330
C
100
AcDbDictionary
281
     1
  0
DICTIONARY
  5
59
102
{ACAD_REACTORS
330
C
102
}
330
C
100
AcDbDictionary
281
     1
  3
Standard
350
5A
  0
DICTIONARY
  5
2A
102
{ACAD_REACTORS
330
C
102
}
330
C
100
AcDbDictionary
281
     1
  3
2dWireframe
350
2F
  3
Basic
350
32
  3
Brighten
350
36
  3
ColorChange
350
3A
  3
Conceptual
350
34
  3
Dim
350
35
  3
EdgeColorOff
350
3D
  3
Facepattern
350
39
  3
Flat
350
2B
  3
FlatWithEdges
350
2C
  3
Gouraud
350
2D
  3
GouraudWithEdges
350
2E
  3
Hidden
350
31
  3
JitterOff
350
3B
  3
Linepattern
350
38
  3
OverhangOff
350
3C
  3
Realistic
350
33
  3
Shaded
350
42
  3
Shaded with edges
350
41
  3
Shades of Gray
350
3E
  3
Sketchy
350
3F
  3
Thicken
350
37
  3
Wireframe
350
30
  3
X-Ray
350
40
  0
XRECORD
  5
93
102
{ACAD_REACTORS
330
C
102
}
330
C
100
AcDbXrecord
280
     1
 90
        1
330
5A
  0
DICTIONARY
  5
8F
102
{ACAD_REACTORS
330
C
102
}
330
C
100
AcDbDictionary
281
     1
  3
CANNOSCALE
350
90
  3
CMLEADERSTYLE
350
95
  3
CTABLESTYLE
350
94
  0
LAYOUT
  5
1E
102
{ACAD_REACTORS
330
1A
102
}
330
1A
100
AcDbPlotSettings
  1

  2
none_device
  4

  6

 40
0.0
 41
0.0
 42
0.0
 43
0.0
 44
0.0
 45
0.0
 46
0.0
 47
0.0
 48
0.0
 49
0.0
140
0.0
141
0.0
142
1.0
143
1.0
 70
   688
 72
     0
 73
     0
 74
     5
  7

 75
    16
 76
     0
 77
     2
 78
   300
147
1.0
148
0.0
149
0.0
100
AcDbLayout
  1
Layout1
 70
     1
 71
     1
 10
0.0
 20
0.0
 11
12.0
 21
9.0
 12
0.0
 22
0.0
 32
0.0
 14
1.000000000000000E+20
 24
1.000000000000000E+20
 34
1.000000000000000E+20
 15
-1.000000000000000E+20
 25
-1.000000000000000E+20
 35
-1.000000000000000E+20
146
0.0
 13
0.0
 23
0.0
 33
0.0
 16
1.0
 26
0.0
 36
0.0
 17
0.0
 27
1.0
 37
0.0
 76
     0
330
1B
  0
LAYOUT
  5
26
102
{ACAD_REACTORS
330
1A
102
}
330
1A
100
AcDbPlotSettings
  1

  2
none_device
  4

  6

 40
0.0
 41
0.0
 42
0.0
 43
0.0
 44
0.0
 45
0.0
 46
0.0
 47
0.0
 48
0.0
 49
0.0
140
0.0
141
0.0
142
1.0
143
1.0
 70
   688
 72
     0
 73
     0
 74
     5
  7

 75
    16
 76
     0
 77
     2
 78
   300
147
1.0
148
0.0
149
0.0
100
AcDbLayout
  1
Layout2
 70
     1
 71
     2
 10
0.0
 20
0.0
 11
0.0
 21
0.0
 12
0.0
 22
0.0
 32
0.0
 14
0.0
 24
0.0
 34
0.0
 15
0.0
 25
0.0
 35
0.0
146
0.0
 13
0.0
 23
0.0
 33
0.0
 16
1.0
 26
0.0
 36
0.0
 17
0.0
 27
1.0
 37
0.0
 76
     0
330
23
  0
LAYOUT
  5
22
102
{ACAD_REACTORS
330
1A
102
}
330
1A
100
AcDbPlotSettings
  1

  2
none_device
  4
Letter_(8.50_x_11.00_Inches)
  6

 40
6.35
 41
6.35
 42
6.35000508
 43
6.35000508
 44
215.9
 45
279.4
 46
0.0
 47
0.0
 48
0.0
 49
0.0
140
0.0
141
0.0
142
1.0
143
1.0
 70
  1712
 72
     0
 73
     0
 74
     0
  7

 75
     0
 76
     0
 77
     2
 78
   300
147
1.0
148
0.0
149
0.0
100
AcDbLayout
  1
Model
 70
     1
 71
     0
 10
0.0
 20
0.0
 11
12.0
 21
9.0
 12
0.0
 22
0.0
 32
0.0
 14
171.0169
 24
-430.974
 34
0.0
 15
704.4755
 25
452.3952
 35
0.0
146
0.0
 13
0.0
 23
0.0
 33
0.0
 16
1.0
 26
0.0
 36
0.0
 17
0.0
 27
1.0
 37
0.0
 76
     0
330
1F
331
29
  0
MATERIAL
  5
45
102
{ACAD_REACTORS
330
43
102
}
330
43
100
AcDbMaterial
  1
ByBlock
 72
     1
 94
      127
  0
MATERIAL
  5
44
102
{ACAD_REACTORS
330
43
102
}
330
43
100
AcDbMaterial
  1
ByLayer
 72
     1
 94
      127
  0
MATERIAL
  5
46
102
{ACAD_REACTORS
330
43
102
}
330
43
100
AcDbMaterial
  1
Global
 72
     1
 94
      127
  0
MLEADERSTYLE
  5
5C
102
{ACAD_REACTORS
330
5B
102
}
330
5B
100
AcDbMLeaderStyle
179
     2
170
     2
171
     1
172
     0
 90
        2
 40
0.0
 41
0.0
173
     1
 91
-1056964608
340
14
 92
       -2
290
     1
 42
0.09
291
     1
 43
0.36
  3
Standard
341
0
 44
0.18
300

342
11
174
     1
178
     6
175
     1
176
     0
 93
-1056964608
 45
0.18
292
     0
297
     0
 46
0.18
343
0
 94
-1056964608
 47
1.0
 49
1.0
140
1.0
293
     1
141
0.0
294
     1
177
     0
142
1.0
295
     0
296
     0
143
0.125
271
     0
272
     9
273
     9
298
     0
  0
MLINESTYLE
  5
18
102
{ACAD_REACTORS
330
17
102
}
330
17
100
AcDbMlineStyle
  2
Standard
 70
     0
  3

 62
   256
 51
90.0
 52
90.0
 71
     2
 49
0.5
 62
   256
  6
BYLAYER
 49
-0.5
 62
   256
  6
BYLAYER
  0
ACDBPLACEHOLDER
  5
F
102
{ACAD_REACTORS
330
E
102
}
330
E
  0
SCALE
  5
48
102
{ACAD_REACTORS
330
47
102
}
330
47
100
AcDbScale
 70
     0
300
1:1
140
1.0
141
1.0
290
     1
  0
SCALE
  5
49
102
{ACAD_REACTORS
330
47
102
}
330
47
100
AcDbScale
 70
     0
300
1/128" = 1'-0"
140
0.0078125
141
12.0
290
     0
  0
SCALE
  5
4A
102
{ACAD_REACTORS
330
47
102
}
330
47
100
AcDbScale
 70
     0
300
1/64" = 1'-0"
140
0.015625
141
12.0
290
     0
  0
SCALE
  5
4B
102
{ACAD_REACTORS
330
47
102
}
330
47
100
AcDbScale
 70
     0
300
1/32" = 1'-0"
140
0.03125
141
12.0
290
     0
  0
SCALE
  5
4C
102
{ACAD_REACTORS
330
47
102
}
330
47
100
AcDbScale
 70
     0
300
1/16" = 1'-0"
140
0.0625
141
12.0
290
     0
  0
SCALE
  5
4D
102
{ACAD_REACTORS
330
47
102
}
330
47
100
AcDbScale
 70
     0
300
3/32" = 1'-0"
140
0.09375
141
12.0
290
     0
  0
SCALE
  5
4E
102
{ACAD_REACTORS
330
47
102
}
330
47
100
AcDbScale
 70
     0
300
1/8" = 1'-0"
140
0.125
141
12.0
290
     0
  0
SCALE
  5
4F
102
{ACAD_REACTORS
330
47
102
}
330
47
100
AcDbScale
 70
     0
300
3/16" = 1'-0"
140
0.1875
141
12.0
290
     0
  0
SCALE
  5
50
102
{ACAD_REACTORS
330
47
102
}
330
47
100
AcDbScale
 70
     0
300
1/4" = 1'-0"
140
0.25
141
12.0
290
     0
  0
SCALE
  5
51
102
{ACAD_REACTORS
330
47
102
}
330
47
100
AcDbScale
 70
     0
300
3/8" = 1'-0"
140
0.375
141
12.0
290
     0
  0
SCALE
  5
52
102
{ACAD_REACTORS
330
47
102
}
330
47
100
AcDbScale
 70
     0
300
1/2" = 1'-0"
140
0.5
141
12.0
290
     0
  0
SCALE
  5
53
102
{ACAD_REACTORS
330
47
102
}
330
47
100
AcDbScale
 70
     0
300
3/4" = 1'-0"
140
0.75
141
12.0
290
     0
  0
SCALE
  5
54
102
{ACAD_REACTORS
330
47
102
}
330
47
100
AcDbScale
 70
     0
300
1" = 1'-0"
140
1.0
141
12.0
290
     0
  0
SCALE
  5
55
102
{ACAD_REACTORS
330
47
102
}
330
47
100
AcDbScale
 70
     0
300
1-1/2" = 1'-0"
140
1.5
141
12.0
290
     0
  0
SCALE
  5
56
102
{ACAD_REACTORS
330
47
102
}
330
47
100
AcDbScale
 70
     0
300
3" = 1'-0"
140
3.0
141
12.0
290
     0
  0
SCALE
  5
57
102
{ACAD_REACTORS
330
47
102
}
330
47
100
AcDbScale
 70
     0
300
6" = 1'-0"
140
6.0
141
12.0
290
     0
  0
SCALE
  5
58
102
{ACAD_REACTORS
330
47
102
}
330
47
100
AcDbScale
 70
     0
300
1'-0" = 1'-0"
140
12.0
141
12.0
290
     0
  0
TABLESTYLE
  5
5A
102
{ACAD_REACTORS
330
59
102
}
102
{ACAD_XDICTIONARY
360
91
102
}
330
59
100
AcDbTableStyle
  3
Standard
 70
     0
 71
     0
 40
0.06
 41
0.06
280
     0
281
     0
  7
Standard
140
0.18
170
     2
 62
     0
 63
   257
283
     0
 90
        4
 91
        0
  1

274
    -2
284
     1
 64
     0
275
    -2
285
     1
 65
     0
276
    -2
286
     1
 66
     0
277
    -2
287
     1
 67
     0
278
    -2
288
     1
 68
     0
279
    -2
289
     1
 69
     0
  7
Standard
140
0.25
170
     5
 62
     0
 63
   257
283
     0
 90
        4
 91
        0
  1

274
    -2
284
     1
 64
     0
275
    -2
285
     1
 65
     0
276
    -2
286
     1
 66
     0
277
    -2
287
     1
 67
     0
278
    -2
288
     1
 68
     0
279
    -2
289
     1
 69
     0
  7
Standard
140
0.18
170
     5
 62
     0
 63
   257
283
     0
 90
        4
 91
        0
  1

274
    -2
284
     1
 64
     0
275
    -2
285
     1
 65
     0
276
    -2
286
     1
 66
     0
277
    -2
287
     1
 67
     0
278
    -2
288
     1
 68
     0
279
    -2
289
     1
 69
     0
  0
VISUALSTYLE
  5
2F
102
{ACAD_REACTORS
330
2A
102
}
330
2A
100
AcDbVisualStyle
  2
2dWireframe
 70
     4
177
     3
291
     0
 70
    58
 90
        0
176
     1
 90
        2
176
     1
 90
        0
176
     1
 90
        0
176
     1
 40
0.6
176
     1
 40
30.0
176
     1
 62
     7
420
 16777215
176
     1
 90
        1
176
     1
 90
        4
176
     1
 62
     7
176
     1
 62
   257
176
     1
 90
        1
176
     1
 90
        1
176
     1
 40
1.0
176
     1
 90
        0
176
     1
 62
   257
176
     1
 40
1.0
176
     1
 90
        1
176
     1
 90
        6
176
     1
 90
        2
176
     1
 62
     7
176
     1
 90
        5
176
     1
 90
        0
176
     1
 90
        0
176
     1
290
     0
176
     1
 90
        1
176
     1
 40
0.0
176
     1
 90
        0
176
     1
290
     1
176
     1
290
     1
176
     1
290
     0
176
     1
290
     0
176
     1
290
     0
176
     1
290
     0
176
     1
290
     0
176
     1
290
     0
176
     1
290
     0
176
     1
 90
       50
176
     1
 40
0.0
176
     1
 40
1.0
176
     1
 90
        0
176
     1
 62
    18
420
        0
176
     1
 90
       50
176
     1
 90
        3
176
     1
 62
     5
420
      255
176
     1
290
     0
176
     1
 90
       50
176
     1
 90
       50
176
     1
 90
       50
176
     1
290
     0
176
     1
 90
       50
176
     1
 62
   256
176
     0
 40
1.0
176
     0
 90
        2
176
     1
  1
strokes_ogs.tif
176
     1
290
     0
176
     1
 40
1.0
176
     1
 40
1.0
176
     1
  0
VISUALSTYLE
  5
32
102
{ACAD_REACTORS
330
2A
102
}
330
2A
100
AcDbVisualStyle
  2
Basic
 70
     7
177
     3
291
     1
 70
    58
 90
        1
176
     1
 90
        0
176
     1
 90
        1
176
     1
 90
        0
176
     1
 40
0.6
176
     1
 40
30.0
176
     1
 62
     7
420
 16777215
176
     1
 90
        0
176
     1
 90
        4
176
     1
 62
     7
176
     1
 62
   257
176
     1
 90
        1
176
     1
 90
        1
176
     1
 40
1.0
176
     1
 90
        8
176
     1
 62
     7
176
     1
 40
1.0
176
     1
 90
        1
176
     1
 90
        6
176
     1
 90
        2
176
     1
 62
     7
176
     1
 90
        5
176
     1
 90
        0
176
     1
 90
        0
176
     1
290
     0
176
     1
 90
        1
176
     1
 40
0.0
176
     1
 90
        0
176
     1
290
     0
176
     1
290
     1
176
     1
290
     1
176
     1
290
     0
176
     1
290
     0
176
     1
290
     0
176
     1
290
     0
176
     1
290
     0
176
     1
290
     0
176
     1
 90
       50
176
     1
 40
0.0
176
     1
 40
1.0
176
     1
 90
        0
176
     1
 62
    18
420
        0
176
     1
 90
       50
176
     1
 90
        3
176
     1
 62
     5
420
      255
176
     1
290
     0
176
     1
 90
       50
176
     1
 90
       50
176
     1
 90
       50
176
     1
290
     0
176
     1
 90
       50
176
     1
 62
   256
176
     0
 40
1.0
176
     0
 90
        2
176
     1
  1
strokes_ogs.tif
176
     1
290
     0
176
     1
 40
1.0
176
     1
 40
1.0
176
     1
  0
VISUALSTYLE
  5
36
102
{ACAD_REACTORS
330
2A
102
}
330
2A
100
AcDbVisualStyle
  2
Brighten
 70
    12
177
     3
291
     1
 70
    58
 90
        2
176
     1
 90
        2
176
     1
 90
        0
176
     1
 90
        0
176
     1
 40
0.6
176
     1
 40
30.0
176
     1
 62
     7
420
 16777215
176
     1
 90
        1
176
     1
 90
        4
176
     1
 62
     7
176
     1
 62
   257
176
     1
 90
        1
176
     1
 90
        1
176
     1
 40
1.0
176
     1
 90
        8
176
     1
 62
     7
176
     1
 40
1.0
176
     1
 90
        1
176
     1
 90
        6
176
     1
 90
        2
176
     1
 62
     7
176
     1
 90
        5
176
     1
 90
        0
176
     1
 90
        0
176
     1
290
     0
176
     1
 90
        1
176
     1
 40
50.0
176
     1
 90
        0
176
     1
290
     0
176
     1
290
     1
176
     1
290
     1
176
     1
290
     0
176
     1
290
     0
176
     1
290
     0
176
     1
290
     0
176
     1
290
     0
176
     1
290
     0
176
     1
 90
       50
176
     1
 40
0.0
176
     1
 40
1.0
176
     1
 90
        0
176
     1
 62
    18
420
        0
176
     1
 90
       50
176
     1
 90
        3
176
     1
 62
     5
420
      255
176
     1
290
     0
176
     1
 90
       50
176
     1
 90
       50
176
     1
 90
       50
176
     1
290
     0
176
     1
 90
       50
176
     1
 62
   256
176
     0
 40
1.0
176
     0
 90
        2
176
     1
  1
strokes_ogs.tif
176
     1
290
     0
176
     1
 40
1.0
176
     1
 40
1.0
176
     1
  0
VISUALSTYLE
  5
3A
102
{ACAD_REACTORS
330
2A
102
}
330
2A
100
AcDbVisualStyle
  2
ColorChange
 70
    16
177
     3
291
     1
 70
    58
 90
        2
176
     1
 90
        2
176
     1
 90
        3
176
     1
 90
        0
176
     1
 40
0.6
176
     1
 40
30.0
176
     1
 62
     8
420
  8421504
176
     1
 90
        1
176
     1
 90
        4
176
     1
 62
     7
176
     1
 62
   257
176
     1
 90
        1
176
     1
 90
        1
176
     1
 40
1.0
176
     1
 90
        8
176
     1
 62
     8
420
  8421504
176
     1
 40
1.0
176
     1
 90
        1
176
     1
 90
        6
176
     1
 90
        2
176
     1
 62
     7
176
     1
 90
        5
176
     1
 90
        0
176
     1
 90
        0
176
     1
290
     0
176
     1
 90
        1
176
     1
 40
0.0
176
     1
 90
        0
176
     1
290
     0
176
     1
290
     1
176
     1
290
     1
176
     1
290
     0
176
     1
290
     0
176
     1
290
     0
176
     1
290
     0
176
     1
290
     0
176
     1
290
     0
176
     1
 90
       50
176
     1
 40
0.0
176
     1
 40
1.0
176
     1
 90
        0
176
     1
 62
    18
420
        0
176
     1
 90
       50
176
     1
 90
        3
176
     1
 62
     5
420
      255
176
     1
290
     0
176
     1
 90
       50
176
     1
 90
       50
176
     1
 90
       50
176
     1
290
     0
176
     1
 90
       50
176
     1
 62
   256
176
     0
 40
1.0
176
     0
 90
        2
176
     1
  1
strokes_ogs.tif
176
     1
290
     0
176
     1
 40
1.0
176
     1
 40
1.0
176
     1
  0
VISUALSTYLE
  5
34
102
{ACAD_REACTORS
330
2A
102
}
330
2A
100
AcDbVisualStyle
  2
Conceptual
 70
     9
177
     3
291
     0
 70
    58
 90
        3
176
     1
 90
        2
176
     1
 90
        0
176
     1
 90
        0
176
     1
 40
0.6
176
     1
 40
30.0
176
     1
 62
     7
420
 16777215
176
     1
 90
        2
176
     1
 90
        2
176
     1
 62
     7
176
     1
 62
   257
176
     1
 90
        1
176
     1
 90
        1
176
     1
 40
179.0
176
     1
 90
        8
176
     1
 62
     7
176
     1
 40
1.0
176
     1
 90
        1
176
     1
 90
        6
176
     1
 90
        2
176
     1
 62
     7
176
     1
 90
        3
176
     1
 90
        0
176
     1
 90
        0
176
     1
290
     0
176
     1
 90
        1
176
     1
 40
0.0
176
     1
 90
        0
176
     1
290
     0
176
     1
290
     1
176
     1
290
     1
176
     1
290
     0
176
     1
290
     0
176
     1
290
     0
176
     1
290
     0
176
     1
290
     0
176
     1
290
     0
176
     1
 90
       50
176
     1
 40
0.0
176
     1
 40
1.0
176
     1
 90
        0
176
     1
 62
    18
420
        0
176
     1
 90
       50
176
     1
 90
        3
176
     1
 62
     5
420
      255
176
     1
290
     0
176
     1
 90
       50
176
     1
 90
       50
176
     1
 90
       50
176
     1
290
     0
176
     1
 90
       50
176
     1
 62
   256
176
     0
 40
1.0
176
     0
 90
        2
176
     1
  1
strokes_ogs.tif
176
     1
290
     0
176
     1
 40
1.0
176
     1
 40
1.0
176
     1
  0
VISUALSTYLE
  5
35
102
{ACAD_REACTORS
330
2A
102
}
330
2A
100
AcDbVisualStyle
  2
Dim
 70
    11
177
     3
291
     1
 70
    58
 90
        2
176
     1
 90
        2
176
     1
 90
        0
176
     1
 90
        0
176
     1
 40
0.6
176
     1
 40
30.0
176
     1
 62
     7
420
 16777215
176
     1
 90
        1
176
     1
 90
        4
176
     1
 62
     7
176
     1
 62
   257
176
     1
 90
        1
176
     1
 90
        1
176
     1
 40
1.0
176
     1
 90
        8
176
     1
 62
     7
176
     1
 40
1.0
176
     1
 90
        1
176
     1
 90
        6
176
     1
 90
        2
176
     1
 62
     7
176
     1
 90
        5
176
     1
 90
        0
176
     1
 90
        0
176
     1
290
     0
176
     1
 90
        1
176
     1
 40
-50.0
176
     1
 90
        0
176
     1
290
     0
176
     1
290
     1
176
     1
290
     1
176
     1
290
     0
176
     1
290
     0
176
     1
290
     0
176
     1
290
     0
176
     1
290
     0
176
     1
290
     0
176
     1
 90
       50
176
     1
 40
0.0
176
     1
 40
1.0
176
     1
 90
        0
176
     1
 62
    18
420
        0
176
     1
 90
       50
176
     1
 90
        3
176
     1
 62
     5
420
      255
176
     1
290
     0
176
     1
 90
       50
176
     1
 90
       50
176
     1
 90
       50
176
     1
290
     0
176
     1
 90
       50
176
     1
 62
   256
176
     0
 40
1.0
176
     0
 90
        2
176
     1
  1
strokes_ogs.tif
176
     1
290
     0
176
     1
 40
1.0
176
     1
 40
1.0
176
     1
  0
VISUALSTYLE
  5
3D
102
{ACAD_REACTORS
330
2A
102
}
330
2A
100
AcDbVisualStyle
  2
EdgeColorOff
 70
    22
177
     3
291
     1
 70
    58
 90
        2
176
     0
 90
        2
176
     0
 90
        0
176
     0
 90
        0
176
     0
 40
0.6
176
     0
 40
30.0
176
     0
 62
     7
420
 16777215
176
     0
 90
        1
176
     0
 90
        4
176
     0
 62
     7
176
     0
 62
   257
176
     0
 90
        1
176
     0
 90
        1
176
     0
 40
1.0
176
     0
 90
        8
176
     2
 62
     7
176
     0
 40
1.0
176
     0
 90
        1
176
     0
 90
        6
176
     0
 90
        2
176
     0
 62
     7
176
     0
 90
        5
176
     0
 90
        0
176
     0
 90
        0
176
     0
290
     0
176
     0
 90
        1
176
     0
 40
0.0
176
     0
 90
        0
176
     0
290
     0
176
     0
290
     1
176
     0
290
     1
176
     0
290
     0
176
     0
290
     0
176
     0
290
     0
176
     0
290
     0
176
     0
290
     0
176
     0
290
     0
176
     0
 90
       50
176
     0
 40
0.0
176
     0
 40
1.0
176
     0
 90
        0
176
     0
 62
    18
420
        0
176
     0
 90
       50
176
     0
 90
        3
176
     0
 62
     5
420
      255
176
     0
290
     0
176
     0
 90
       50
176
     0
 90
       50
176
     0
 90
       50
176
     0
290
     0
176
     0
 90
       50
176
     0
 62
   256
176
     0
 40
1.0
176
     0
 90
        2
176
     0
  1
strokes_ogs.tif
176
     0
290
     0
176
     0
 40
1.0
176
     0
 40
1.0
176
     0
  0
VISUALSTYLE
  5
39
102
{ACAD_REACTORS
330
2A
102
}
330
2A
100
AcDbVisualStyle
  2
Facepattern
 70
    15
177
     3
291
     1
 70
    58
 90
        2
176
     1
 90
        2
176
     1
 90
        0
176
     1
 90
        0
176
     1
 40
0.6
176
     1
 40
30.0
176
     1
 62
     7
420
 16777215
176
     1
 90
        1
176
     1
 90
        4
176
     1
 62
     7
176
     1
 62
   257
176
     1
 90
        1
176
     1
 90
        1
176
     1
 40
1.0
176
     1
 90
        8
176
     1
 62
     7
176
     1
 40
1.0
176
     1
 90
        1
176
     1
 90
        6
176
     1
 90
        2
176
     1
 62
     7
176
     1
 90
        5
176
     1
 90
        0
176
     1
 90
        0
176
     1
290
     0
176
     1
 90
        1
176
     1
 40
0.0
176
     1
 90
        0
176
     1
290
     0
176
     1
290
     1
176
     1
290
     1
176
     1
290
     0
176
     1
290
     0
176
     1
290
     0
176
     1
290
     0
176
     1
290
     0
176
     1
290
     0
176
     1
 90
       50
176
     1
 40
0.0
176
     1
 40
1.0
176
     1
 90
        0
176
     1
 62
    18
420
        0
176
     1
 90
       50
176
     1
 90
        3
176
     1
 62
     5
420
      255
176
     1
290
     0
176
     1
 90
       50
176
     1
 90
       50
176
     1
 90
       50
176
     1
290
     0
176
     1
 90
       50
176
     1
 62
   256
176
     0
 40
1.0
176
     0
 90
        2
176
     1
  1
strokes_ogs.tif
176
     1
290
     0
176
     1
 40
1.0
176
     1
 40
1.0
176
     1
  0
VISUALSTYLE
  5
2B
102
{ACAD_REACTORS
330
2A
102
}
330
2A
100
AcDbVisualStyle
  2
Flat
 70
     0
177
     3
291
     1
 70
    58
 90
        2
176
     1
 90
        1
176
     1
 90
        1
176
     1
 90
        2
176
     1
 40
0.6
176
     1
 40
30.0
176
     1
 62
     7
420
 16777215
176
     1
 90
        0
176
     1
 90
        0
176
     1
 62
     7
176
     1
 62
   257
176
     1
 90
        1
176
     1
 90
        1
176
     1
 40
1.0
176
     1
 90
        8
176
     1
 62
     7
176
     1
 40
1.0
176
     1
 90
        1
176
     1
 90
        6
176
     1
 90
        2
176
     1
 62
     7
176
     1
 90
        5
176
     1
 90
        0
176
     1
 90
        0
176
     1
290
     0
176
     1
 90
       13
176
     1
 40
0.0
176
     1
 90
        0
176
     1
290
     0
176
     1
290
     1
176
     1
290
     1
176
     1
290
     0
176
     1
290
     0
176
     1
290
     0
176
     1
290
     0
176
     1
290
     0
176
     1
290
     0
176
     1
 90
       50
176
     1
 40
0.0
176
     1
 40
1.0
176
     1
 90
        0
176
     1
 62
    18
420
        0
176
     1
 90
       50
176
     1
 90
        3
176
     1
 62
     5
420
      255
176
     1
290
     0
176
     1
 90
       50
176
     1
 90
       50
176
     1
 90
       50
176
     1
290
     0
176
     1
 90
       50
176
     1
 62
   256
176
     0
 40
1.0
176
     0
 90
        2
176
     1
  1
strokes_ogs.tif
176
     1
290
     0
176
     1
 40
1.0
176
     1
 40
1.0
176
     1
  0
VISUALSTYLE
  5
2C
102
{ACAD_REACTORS
330
2A
102
}
330
2A
100
AcDbVisualStyle
  2
FlatWithEdges
 70
     1
177
     3
291
     1
 70
    58
 90
        2
176
     1
 90
        1
176
     1
 90
        1
176
     1
 90
        2
176
     1
 40
0.6
176
     1
 40
30.0
176
     1
 62
     7
420
 16777215
176
     1
 90
        1
176
     1
 90
        0
176
     1
 62
     7
176
     1
 62
   257
176
     1
 90
        1
176
     1
 90
        1
176
     1
 40
1.0
176
     1
 90
        0
176
     1
 62
   257
176
     1
 40
1.0
176
     1
 90
        1
176
     1
 90
        6
176
     1
 90
        2
176
     1
 62
     7
176
     1
 90
        5
176
     1
 90
        0
176
     1
 90
        0
176
     1
290
     0
176
     1
 90
       13
176
     1
 40
0.0
176
     1
 90
        0
176
     1
290
     0
176
     1
290
     1
176
     1
290
     1
176
     1
290
     0
176
     1
290
     0
176
     1
290
     0
176
     1
290
     0
176
     1
290
     0
176
     1
290
     0
176
     1
 90
       50
176
     1
 40
0.0
176
     1
 40
1.0
176
     1
 90
        0
176
     1
 62
    18
420
        0
176
     1
 90
       50
176
     1
 90
        3
176
     1
 62
     5
420
      255
176
     1
290
     0
176
     1
 90
       50
176
     1
 90
       50
176
     1
 90
       50
176
     1
290
     0
176
     1
 90
       50
176
     1
 62
   256
176
     0
 40
1.0
176
     0
 90
        2
176
     1
  1
strokes_ogs.tif
176
     1
290
     0
176
     1
 40
1.0
176
     1
 40
1.0
176
     1
  0
VISUALSTYLE
  5
2D
102
{ACAD_REACTORS
330
2A
102
}
330
2A
100
AcDbVisualStyle
  2
Gouraud
 70
     2
177
     3
291
     1
 70
    58
 90
        2
176
     1
 90
        2
176
     1
 90
        1
176
     1
 90
        2
176
     1
 40
0.6
176
     1
 40
30.0
176
     1
 62
     7
420
 16777215
176
     1
 90
        0
176
     1
 90
        0
176
     1
 62
     7
176
     1
 62
   257
176
     1
 90
        1
176
     1
 90
        1
176
     1
 40
1.0
176
     1
 90
        0
176
     1
 62
     7
176
     1
 40
1.0
176
     1
 90
        1
176
     1
 90
        6
176
     1
 90
        2
176
     1
 62
     7
176
     1
 90
        5
176
     1
 90
        0
176
     1
 90
        0
176
     1
290
     0
176
     1
 90
       13
176
     1
 40
0.0
176
     1
 90
        0
176
     1
290
     0
176
     1
290
     1
176
     1
290
     1
176
     1
290
     0
176
     1
290
     0
176
     1
290
     0
176
     1
290
     0
176
     1
290
     0
176
     1
290
     0
176
     1
 90
       50
176
     1
 40
0.0
176
     1
 40
1.0
176
     1
 90
        0
176
     1
 62
    18
420
        0
176
     1
 90
       50
176
     1
 90
        3
176
     1
 62
     5
420
      255
176
     1
290
     0
176
     1
 90
       50
176
     1
 90
       50
176
     1
 90
       50
176
     1
290
     0
176
     1
 90
       50
176
     1
 62
   256
176
     0
 40
1.0
176
     0
 90
        2
176
     1
  1
strokes_ogs.tif
176
     1
290
     0
176
     1
 40
1.0
176
     1
 40
1.0
176
     1
  0
VISUALSTYLE
  5
2E
102
{ACAD_REACTORS
330
2A
102
}
330
2A
100
AcDbVisualStyle
  2
GouraudWithEdges
 70
     3
177
     3
291
     1
 70
    58
 90
        2
176
     1
 90
        2
176
     1
 90
        1
176
     1
 90
        2
176
     1
 40
0.6
176
     1
 40
30.0
176
     1
 62
     7
420
 16777215
176
     1
 90
        1
176
     1
 90
        0
176
     1
 62
     7
176
     1
 62
   257
176
     1
 90
        1
176
     1
 90
        1
176
     1
 40
1.0
176
     1
 90
        0
176
     1
 62
   257
176
     1
 40
1.0
176
     1
 90
        1
176
     1
 90
        6
176
     1
 90
        2
176
     1
 62
     7
176
     1
 90
        5
176
     1
 90
        0
176
     1
 90
        0
176
     1
290
     0
176
     1
 90
       13
176
     1
 40
0.0
176
     1
 90
        0
176
     1
290
     0
176
     1
290
     1
176
     1
290
     1
176
     1
290
     0
176
     1
290
     0
176
     1
290
     0
176
     1
290
     0
176
     1
290
     0
176
     1
290
     0
176
     1
 90
       50
176
     1
 40
0.0
176
     1
 40
1.0
176
     1
 90
        0
176
     1
 62
    18
420
        0
176
     1
 90
       50
176
     1
 90
        3
176
     1
 62
     5
420
      255
176
     1
290
     0
176
     1
 90
       50
176
     1
 90
       50
176
     1
 90
       50
176
     1
290
     0
176
     1
 90
       50
176
     1
 62
   256
176
     0
 40
1.0
176
     0
 90
        2
176
     1
  1
strokes_ogs.tif
176
     1
290
     0
176
     1
 40
1.0
176
     1
 40
1.0
176
     1
  0
VISUALSTYLE
  5
31
102
{ACAD_REACTORS
330
2A
102
}
330
2A
100
AcDbVisualStyle
  2
Hidden
 70
     6
177
     3
291
     0
 70
    58
 90
        1
176
     1
 90
        2
176
     1
 90
        2
176
     1
 90
        0
176
     1
 40
0.6
176
     1
 40
30.0
176
     1
 62
     7
420
 16777215
176
     1
 90
        2
176
     1
 90
        2
176
     1
 62
     7
176
     1
 62
   257
176
     1
 90
        2
176
     1
 90
        1
176
     1
 40
40.0
176
     1
 90
        0
176
     1
 62
   257
176
     1
 40
1.0
176
     1
 90
        1
176
     1
 90
        6
176
     1
 90
        2
176
     1
 62
     7
176
     1
 90
        3
176
     1
 90
        0
176
     1
 90
        0
176
     1
290
     0
176
     1
 90
        1
176
     1
 40
0.0
176
     1
 90
        0
176
     1
290
     0
176
     1
290
     1
176
     1
290
     1
176
     1
290
     0
176
     1
290
     0
176
     1
290
     0
176
     1
290
     0
176
     1
290
     0
176
     1
290
     0
176
     1
 90
       50
176
     1
 40
0.0
176
     1
 40
1.0
176
     1
 90
        0
176
     1
 62
    18
420
        0
176
     1
 90
       50
176
     1
 90
        3
176
     1
 62
     5
420
      255
176
     1
290
     0
176
     1
 90
       50
176
     1
 90
       50
176
     1
 90
       50
176
     1
290
     0
176
     1
 90
       50
176
     1
 62
   256
176
     0
 40
1.0
176
     0
 90
        2
176
     1
  1
strokes_ogs.tif
176
     1
290
     0
176
     1
 40
1.0
176
     1
 40
1.0
176
     1
  0
VISUALSTYLE
  5
3B
102
{ACAD_REACTORS
330
2A
102
}
330
2A
100
AcDbVisualStyle
  2
JitterOff
 70
    20
177
     3
291
     1
 70
    58
 90
        2
176
     0
 90
        2
176
     0
 90
        0
176
     0
 90
        0
176
     0
 40
0.6
176
     0
 40
30.0
176
     0
 62
     7
420
 16777215
176
     0
 90
        1
176
     0
 90
        4
176
     0
 62
     7
176
     0
 62
   257
176
     0
 90
        1
176
     0
 90
        1
176
     0
 40
1.0
176
     0
 90
       10
176
     2
 62
     7
176
     0
 40
1.0
176
     0
 90
        1
176
     0
 90
        6
176
     0
 90
        2
176
     0
 62
     7
176
     0
 90
        5
176
     0
 90
        0
176
     0
 90
        0
176
     0
290
     0
176
     0
 90
        1
176
     0
 40
0.0
176
     0
 90
        0
176
     0
290
     0
176
     0
290
     1
176
     0
290
     1
176
     0
290
     0
176
     0
290
     0
176
     0
290
     0
176
     0
290
     0
176
     0
290
     0
176
     0
290
     0
176
     0
 90
       50
176
     0
 40
0.0
176
     0
 40
1.0
176
     0
 90
        0
176
     0
 62
    18
420
        0
176
     0
 90
       50
176
     0
 90
        3
176
     0
 62
     5
420
      255
176
     0
290
     0
176
     0
 90
       50
176
     0
 90
       50
176
     0
 90
       50
176
     0
290
     0
176
     0
 90
       50
176
     0
 62
   256
176
     0
 40
1.0
176
     0
 90
        2
176
     0
  1
strokes_ogs.tif
176
     0
290
     0
176
     0
 40
1.0
176
     0
 40
1.0
176
     0
  0
VISUALSTYLE
  5
38
102
{ACAD_REACTORS
330
2A
102
}
330
2A
100
AcDbVisualStyle
  2
Linepattern
 70
    14
177
     3
291
     1
 70
    58
 90
        2
176
     1
 90
        2
176
     1
 90
        0
176
     1
 90
        0
176
     1
 40
0.6
176
     1
 40
30.0
176
     1
 62
     7
420
 16777215
176
     1
 90
        1
176
     1
 90
        4
176
     1
 62
     7
176
     1
 62
   257
176
     1
 90
        7
176
     1
 90
        7
176
     1
 40
1.0
176
     1
 90
        8
176
     1
 62
     7
176
     1
 40
1.0
176
     1
 90
        1
176
     1
 90
        6
176
     1
 90
        2
176
     1
 62
     7
176
     1
 90
        5
176
     1
 90
        0
176
     1
 90
        0
176
     1
290
     0
176
     1
 90
        1
176
     1
 40
0.0
176
     1
 90
        0
176
     1
290
     0
176
     1
290
     1
176
     1
290
     1
176
     1
290
     0
176
     1
290
     0
176
     1
290
     0
176
     1
290
     0
176
     1
290
     0
176
     1
290
     0
176
     1
 90
       50
176
     1
 40
0.0
176
     1
 40
1.0
176
     1
 90
        0
176
     1
 62
    18
420
        0
176
     1
 90
       50
176
     1
 90
        3
176
     1
 62
     5
420
      255
176
     1
290
     0
176
     1
 90
       50
176
     1
 90
       50
176
     1
 90
       50
176
     1
290
     0
176
     1
 90
       50
176
     1
 62
   256
176
     0
 40
1.0
176
     0
 90
        2
176
     1
  1
strokes_ogs.tif
176
     1
290
     0
176
     1
 40
1.0
176
     1
 40
1.0
176
     1
  0
VISUALSTYLE
  5
3C
102
{ACAD_REACTORS
330
2A
102
}
330
2A
100
AcDbVisualStyle
  2
OverhangOff
 70
    21
177
     3
291
     1
 70
    58
 90
        2
176
     0
 90
        2
176
     0
 90
        0
176
     0
 90
        0
176
     0
 40
0.6
176
     0
 40
30.0
176
     0
 62
     7
420
 16777215
176
     0
 90
        1
176
     0
 90
        4
176
     0
 62
     7
176
     0
 62
   257
176
     0
 90
        1
176
     0
 90
        1
176
     0
 40
1.0
176
     0
 90
        9
176
     2
 62
     7
176
     0
 40
1.0
176
     0
 90
        1
176
     0
 90
        6
176
     0
 90
        2
176
     0
 62
     7
176
     0
 90
        5
176
     0
 90
        0
176
     0
 90
        0
176
     0
290
     0
176
     0
 90
        1
176
     0
 40
0.0
176
     0
 90
        0
176
     0
290
     0
176
     0
290
     1
176
     0
290
     1
176
     0
290
     0
176
     0
290
     0
176
     0
290
     0
176
     0
290
     0
176
     0
290
     0
176
     0
290
     0
176
     0
 90
       50
176
     0
 40
0.0
176
     0
 40
1.0
176
     0
 90
        0
176
     0
 62
    18
420
        0
176
     0
 90
       50
176
     0
 90
        3
176
     0
 62
     5
420
      255
176
     0
290
     0
176
     0
 90
       50
176
     0
 90
       50
176
     0
 90
       50
176
     0
290
     0
176
     0
 90
       50
176
     0
 62
   256
176
     0
 40
1.0
176
     0
 90
        2
176
     0
  1
strokes_ogs.tif
176
     0
290
     0
176
     0
 40
1.0
176
     0
 40
1.0
176
     0
  0
VISUALSTYLE
  5
33
102
{ACAD_REACTORS
330
2A
102
}
330
2A
100
AcDbVisualStyle
  2
Realistic
 70
     8
177
     3
291
     0
 70
    58
 90
        2
176
     1
 90
        3
176
     1
 90
        0
176
     1
 90
        2
176
     1
 40
0.6
176
     1
 40
30.0
176
     1
 62
     7
420
 16777215
176
     1
 90
        0
176
     1
 90
        0
176
     1
 62
     7
176
     1
 62
   257
176
     1
 90
        1
176
     1
 90
        1
176
     1
 40
1.0
176
     1
 90
        8
176
     1
 62
   257
176
     1
 40
1.0
176
     1
 90
        1
176
     1
 90
        6
176
     1
 90
        2
176
     1
 62
     7
176
     1
 90
        3
176
     1
 90
        0
176
     1
 90
        0
176
     1
290
     0
176
     1
 90
       13
176
     1
 40
0.0
176
     1
 90
        0
176
     1
290
     0
176
     1
290
     1
176
     1
290
     1
176
     1
290
     0
176
     1
290
     0
176
     1
290
     0
176
     1
290
     0
176
     1
290
     0
176
     1
290
     0
176
     1
 90
       50
176
     1
 40
0.0
176
     1
 40
1.0
176
     1
 90
        0
176
     1
 62
    18
420
        0
176
     1
 90
       50
176
     1
 90
        3
176
     1
 62
     5
420
      255
176
     1
290
     0
176
     1
 90
       50
176
     1
 90
       50
176
     1
 90
       50
176
     1
290
     0
176
     1
 90
       50
176
     1
 62
   256
176
     0
 40
1.0
176
     0
 90
        2
176
     1
  1
strokes_ogs.tif
176
     1
290
     0
176
     1
 40
1.0
176
     1
 40
1.0
176
     1
  0
VISUALSTYLE
  5
42
102
{ACAD_REACTORS
330
2A
102
}
330
2A
100
AcDbVisualStyle
  2
Shaded
 70
    27
177
     3
291
     0
 70
    58
 90
        2
176
     1
 90
        2
176
     1
 90
        1
176
     1
 90
        2
176
     1
 40
0.6
176
     1
 40
30.0
176
     1
 62
     7
420
 16777215
176
     1
 90
        0
176
     1
 90
        4
176
     1
 62
     7
176
     1
 62
   257
176
     1
 90
        1
176
     1
 90
        1
176
     1
 40
1.0
176
     1
 90
        8
176
     1
 62
   257
176
     1
 40
1.0
176
     1
 90
        1
176
     1
 90
        6
176
     1
 90
        2
176
     1
 62
     8
420
  7895160
176
     1
 90
        3
176
     1
 90
        0
176
     1
 90
        0
176
     1
290
     0
176
     1
 90
        5
176
     1
 40
0.0
176
     1
 90
        0
176
     1
290
     0
176
     1
290
     1
176
     1
290
     1
176
     1
290
     0
176
     1
290
     0
176
     1
290
     0
176
     1
290
     0
176
     1
290
     0
176
     1
290
     0
176
     1
 90
       50
176
     1
 40
0.0
176
     1
 40
1.0
176
     1
 90
        0
176
     1
 62
    18
420
        0
176
     1
 90
       50
176
     1
 90
        3
176
     1
 62
     5
420
      255
176
     1
290
     0
176
     1
 90
       50
176
     1
 90
       50
176
     1
 90
       50
176
     1
290
     0
176
     1
 90
       50
176
     1
 62
   256
176
     0
 40
1.0
176
     0
 90
        2
176
     1
  1
strokes_ogs.tif
176
     1
290
     0
176
     1
 40
1.0
176
     1
 40
1.0
176
     1
  0
VISUALSTYLE
  5
41
102
{ACAD_REACTORS
330
2A
102
}
330
2A
100
AcDbVisualStyle
  2
Shaded with edges
 70
    26
177
     3
291
     0
 70
    58
 90
        2
176
     1
 90
        2
176
     1
 90
        1
176
     1
 90
        2
176
     1
 40
0.6
176
     1
 40
30.0
176
     1
 62
     7
420
 16777215
176
     1
 90
        1
176
     1
 90
       10
176
     1
 62
     7
176
     1
 62
   257
176
     1
 90
        2
176
     1
 90
        1
176
     1
 40
1.0
176
     1
 90
        8
176
     1
 62
   257
176
     1
 40
1.0
176
     1
 90
        1
176
     1
 90
        6
176
     1
 90
        2
176
     1
 62
     7
176
     1
 90
        3
176
     1
 90
        0
176
     1
 90
        0
176
     1
290
     0
176
     1
 90
        5
176
     1
 40
0.0
176
     1
 90
        0
176
     1
290
     0
176
     1
290
     1
176
     1
290
     1
176
     1
290
     0
176
     1
290
     0
176
     1
290
     0
176
     1
290
     0
176
     1
290
     0
176
     1
290
     0
176
     1
 90
       50
176
     1
 40
0.0
176
     1
 40
1.0
176
     1
 90
        0
176
     1
 62
    18
420
        0
176
     1
 90
       50
176
     1
 90
        3
176
     1
 62
     5
420
      255
176
     1
290
     0
176
     1
 90
       50
176
     1
 90
       50
176
     1
 90
       50
176
     1
290
     0
176
     1
 90
       50
176
     1
 62
   256
176
     0
 40
1.0
176
     0
 90
        2
176
     1
  1
strokes_ogs.tif
176
     1
290
     0
176
     1
 40
1.0
176
     1
 40
1.0
176
     1
  0
VISUALSTYLE
  5
3E
102
{ACAD_REACTORS
330
2A
102
}
330
2A
100
AcDbVisualStyle
  2
Shades of Gray
 70
    23
177
     3
291
     0
 70
    58
 90
        2
176
     1
 90
        2
176
     1
 90
        3
176
     1
 90
        0
176
     1
 40
0.6
176
     1
 40
30.0
176
     1
 62
     7
420
 16777215
176
     1
 90
        2
176
     1
 90
        2
176
     1
 62
     7
176
     1
 62
     7
176
     1
 90
        1
176
     1
 90
        1
176
     1
 40
40.0
176
     1
 90
        8
176
     1
 62
     7
176
     1
 40
1.0
176
     1
 90
        1
176
     1
 90
        6
176
     1
 90
        2
176
     1
 62
     7
176
     1
 90
        3
176
     1
 90
        0
176
     1
 90
        0
176
     1
290
     0
176
     1
 90
        1
176
     1
 40
0.0
176
     1
 90
        0
176
     1
290
     0
176
     1
290
     1
176
     1
290
     1
176
     1
290
     0
176
     1
290
     0
176
     1
290
     0
176
     1
290
     0
176
     1
290
     0
176
     1
290
     0
176
     1
 90
       50
176
     1
 40
0.0
176
     1
 40
1.0
176
     1
 90
        0
176
     1
 62
    18
420
        0
176
     1
 90
       50
176
     1
 90
        3
176
     1
 62
     5
420
      255
176
     1
290
     0
176
     1
 90
       50
176
     1
 90
       50
176
     1
 90
       50
176
     1
290
     0
176
     1
 90
       50
176
     1
 62
   256
176
     0
 40
1.0
176
     0
 90
        2
176
     1
  1
strokes_ogs.tif
176
     1
290
     0
176
     1
 40
1.0
176
     1
 40
1.0
176
     1
  0
VISUALSTYLE
  5
3F
102
{ACAD_REACTORS
330
2A
102
}
330
2A
100
AcDbVisualStyle
  2
Sketchy
 70
    24
177
     3
291
     0
 70
    58
 90
        1
176
     1
 90
        2
176
     1
 90
        2
176
     1
 90
        0
176
     1
 40
0.6
176
     1
 40
30.0
176
     1
 62
     7
420
 16777215
176
     1
 90
        2
176
     1
 90
        2
176
     1
 62
     7
176
     1
 62
     7
176
     1
 90
        1
176
     1
 90
        1
176
     1
 40
40.0
176
     1
 90
       11
176
     1
 62
     7
176
     1
 40
1.0
176
     1
 90
        1
176
     1
 90
        6
176
     1
 90
        2
176
     1
 62
     7
176
     1
 90
        6
176
     1
 90
        0
176
     1
 90
        0
176
     1
290
     0
176
     1
 90
        1
176
     1
 40
0.0
176
     1
 90
        0
176
     1
290
     0
176
     1
290
     1
176
     1
290
     1
176
     1
290
     0
176
     1
290
     0
176
     1
290
     0
176
     1
290
     0
176
     1
290
     0
176
     1
290
     0
176
     1
 90
       50
176
     1
 40
0.0
176
     1
 40
1.0
176
     1
 90
        0
176
     1
 62
    18
420
        0
176
     1
 90
       50
176
     1
 90
        3
176
     1
 62
     5
420
      255
176
     1
290
     0
176
     1
 90
       50
176
     1
 90
       50
176
     1
 90
       50
176
     1
290
     0
176
     1
 90
       50
176
     1
 62
   256
176
     0
 40
1.0
176
     0
 90
        2
176
     1
  1
strokes_ogs.tif
176
     1
290
     0
176
     1
 40
1.0
176
     1
 40
1.0
176
     1
  0
VISUALSTYLE
  5
37
102
{ACAD_REACTORS
330
2A
102
}
330
2A
100
AcDbVisualStyle
  2
Thicken
 70
    13
177
     3
291
     1
 70
    58
 90
        2
176
     1
 90
        2
176
     1
 90
        0
176
     1
 90
        0
176
     1
 40
0.6
176
     1
 40
30.0
176
     1
 62
     7
420
 16777215
176
     1
 90
        1
176
     1
 90
        4
176
     1
 62
     7
176
     1
 62
   257
176
     1
 90
        1
176
     1
 90
        1
176
     1
 40
1.0
176
     1
 90
       12
176
     1
 62
     7
176
     1
 40
1.0
176
     1
 90
        1
176
     1
 90
        6
176
     1
 90
        2
176
     1
 62
     7
176
     1
 90
        5
176
     1
 90
        0
176
     1
 90
        0
176
     1
290
     0
176
     1
 90
        1
176
     1
 40
0.0
176
     1
 90
        0
176
     1
290
     0
176
     1
290
     1
176
     1
290
     1
176
     1
290
     0
176
     1
290
     0
176
     1
290
     0
176
     1
290
     0
176
     1
290
     0
176
     1
290
     0
176
     1
 90
       50
176
     1
 40
0.0
176
     1
 40
1.0
176
     1
 90
        0
176
     1
 62
    18
420
        0
176
     1
 90
       50
176
     1
 90
        3
176
     1
 62
     5
420
      255
176
     1
290
     0
176
     1
 90
       50
176
     1
 90
       50
176
     1
 90
       50
176
     1
290
     0
176
     1
 90
       50
176
     1
 62
   256
176
     0
 40
1.0
176
     0
 90
        2
176
     1
  1
strokes_ogs.tif
176
     1
290
     0
176
     1
 40
1.0
176
     1
 40
1.0
176
     1
  0
VISUALSTYLE
  5
30
102
{ACAD_REACTORS
330
2A
102
}
330
2A
100
AcDbVisualStyle
  2
Wireframe
 70
     5
177
     3
291
     0
 70
    58
 90
        0
176
     1
 90
        2
176
     1
 90
        0
176
     1
 90
        0
176
     1
 40
0.6
176
     1
 40
30.0
176
     1
 62
     7
420
 16777215
176
     1
 90
        1
176
     1
 90
        4
176
     1
 62
     7
176
     1
 62
   257
176
     1
 90
        1
176
     1
 90
        1
176
     1
 40
1.0
176
     1
 90
        0
176
     1
 62
   257
176
     1
 40
1.0
176
     1
 90
        1
176
     1
 90
        6
176
     1
 90
        2
176
     1
 62
     7
176
     1
 90
        3
176
     1
 90
        0
176
     1
 90
        0
176
     1
290
     0
176
     1
 90
        1
176
     1
 40
0.0
176
     1
 90
        0
176
     1
290
     0
176
     1
290
     1
176
     1
290
     1
176
     1
290
     0
176
     1
290
     0
176
     1
290
     0
176
     1
290
     0
176
     1
290
     0
176
     1
290
     0
176
     1
 90
       50
176
     1
 40
0.0
176
     1
 40
1.0
176
     1
 90
        0
176
     1
 62
    18
420
        0
176
     1
 90
       50
176
     1
 90
        3
176
     1
 62
     5
420
      255
176
     1
290
     0
176
     1
 90
       50
176
     1
 90
       50
176
     1
 90
       50
176
     1
290
     0
176
     1
 90
       50
176
     1
 62
   256
176
     0
 40
1.0
176
     0
 90
        2
176
     1
  1
strokes_ogs.tif
176
     1
290
     0
176
     1
 40
1.0
176
     1
 40
1.0
176
     1
  0
VISUALSTYLE
  5
40
102
{ACAD_REACTORS
330
2A
102
}
330
2A
100
AcDbVisualStyle
  2
X-Ray
 70
    25
177
     3
291
     0
 70
    58
 90
        2
176
     1
 90
        2
176
     1
 90
        1
176
     1
 90
        1
176
     1
 40
0.5
176
     1
 40
30.0
176
     1
 62
     7
420
 16777215
176
     1
 90
        1
176
     1
 90
        0
176
     1
 62
     7
176
     1
 62
   257
176
     1
 90
        1
176
     1
 90
        1
176
     1
 40
1.0
176
     1
 90
        8
176
     1
 62
     7
176
     1
 40
1.0
176
     1
 90
        1
176
     1
 90
        6
176
     1
 90
        2
176
     1
 62
     7
176
     1
 90
        3
176
     1
 90
        0
176
     1
 90
        0
176
     1
290
     0
176
     1
 90
       13
176
     1
 40
0.0
176
     1
 90
        0
176
     1
290
     0
176
     1
290
     1
176
     1
290
     1
176
     1
290
     0
176
     1
290
     0
176
     1
290
     0
176
     1
290
     0
176
     1
290
     0
176
     1
290
     0
176
     1
 90
       50
176
     1
 40
0.0
176
     1
 40
1.0
176
     1
 90
        0
176
     1
 62
    18
420
        0
176
     1
 90
       50
176
     1
 90
        3
176
     1
 62
     5
420
      255
176
     1
290
     0
176
     1
 90
       50
176
     1
 90
       50
176
     1
 90
       50
176
     1
290
     0
176
     1
 90
       50
176
     1
 62
   256
176
     0
 40
1.0
176
     0
 90
        2
176
     1
  1
strokes_ogs.tif
176
     1
290
     0
176
     1
 40
1.0
176
     1
 40
1.0
176
     1
  0
DICTIONARYVAR
  5
90
102
{ACAD_REACTORS
330
8F
102
}
330
8F
100
DictionaryVariables
280
     0
  1
1:1
  0
DICTIONARYVAR
  5
95
102
{ACAD_REACTORS
330
8F
102
}
330
8F
100
DictionaryVariables
280
     0
  1
Standard
  0
DICTIONARYVAR
  5
94
102
{ACAD_REACTORS
330
8F
102
}
330
8F
100
DictionaryVariables
280
     0
  1
Standard
  0
DICTIONARY
  5
91
330
5A
100
AcDbDictionary
280
     1
281
     1
  3
ACAD_ROUNDTRIP_2008_TABLESTYLE_CELLSTYLEMAP
360
92
  0
CELLSTYLEMAP
  5
92
102
{ACAD_REACTORS
330
91
102
}
330
91
100
AcDbCellStyleMap
 90
        3
300
CELLSTYLE
  1
TABLEFORMAT_BEGIN
 90
        5
170
     1
 91
        0
 92
    32768
 62
   257
 93
        1
300
CONTENTFORMAT
  1
CONTENTFORMAT_BEGIN
 90
        0
 91
        0
 92
        4
 93
        0
300

 40
0.0
140
1.0
 94
        5
 62
     0
340
11
144
0.25
309
CONTENTFORMAT_END
171
     1
301
MARGIN
  1
CELLMARGIN_BEGIN
 40
0.06
 40
0.06
 40
0.06
 40
0.06
 40
0.06
 40
0.06
309
CELLMARGIN_END
 94
        6
 95
        1
302
GRIDFORMAT
  1
GRIDFORMAT_BEGIN
 90
        0
 91
        1
 62
     0
 92
       -2
340
14
 93
        0
 40
0.045
309
GRIDFORMAT_END
 95
        2
302
GRIDFORMAT
  1
GRIDFORMAT_BEGIN
 90
        0
 91
        1
 62
     0
 92
       -2
340
14
 93
        0
 40
0.045
309
GRIDFORMAT_END
 95
        4
302
GRIDFORMAT
  1
GRIDFORMAT_BEGIN
 90
        0
 91
        1
 62
     0
 92
       -2
340
14
 93
        0
 40
0.045
309
GRIDFORMAT_END
 95
        8
302
GRIDFORMAT
  1
GRIDFORMAT_BEGIN
 90
        0
 91
        1
 62
     0
 92
       -2
340
14
 93
        0
 40
0.045
309
GRIDFORMAT_END
 95
       16
302
GRIDFORMAT
  1
GRIDFORMAT_BEGIN
 90
        0
 91
        1
 62
     0
 92
       -2
340
14
 93
        0
 40
0.045
309
GRIDFORMAT_END
 95
       32
302
GRIDFORMAT
  1
GRIDFORMAT_BEGIN
 90
        0
 91
        1
 62
     0
 92
       -2
340
14
 93
        0
 40
0.045
309
GRIDFORMAT_END
309
TABLEFORMAT_END
  1
CELLSTYLE_BEGIN
 90
        1
 91
        1
300
_TITLE
309
CELLSTYLE_END
300
CELLSTYLE
  1
TABLEFORMAT_BEGIN
 90
        5
170
     1
 91
        0
 92
        0
 62
   257
 93
        1
300
CONTENTFORMAT
  1
CONTENTFORMAT_BEGIN
 90
        0
 91
        0
 92
        4
 93
        0
300

 40
0.0
140
1.0
 94
        5
 62
     0
340
11
144
0.18
309
CONTENTFORMAT_END
171
     1
301
MARGIN
  1
CELLMARGIN_BEGIN
 40
0.06
 40
0.06
 40
0.06
 40
0.06
 40
0.06
 40
0.06
309
CELLMARGIN_END
 94
        6
 95
        1
302
GRIDFORMAT
  1
GRIDFORMAT_BEGIN
 90
        0
 91
        1
 62
     0
 92
       -2
340
14
 93
        0
 40
0.045
309
GRIDFORMAT_END
 95
        2
302
GRIDFORMAT
  1
GRIDFORMAT_BEGIN
 90
        0
 91
        1
 62
     0
 92
       -2
340
14
 93
        0
 40
0.045
309
GRIDFORMAT_END
 95
        4
302
GRIDFORMAT
  1
GRIDFORMAT_BEGIN
 90
        0
 91
        1
 62
     0
 92
       -2
340
14
 93
        0
 40
0.045
309
GRIDFORMAT_END
 95
        8
302
GRIDFORMAT
  1
GRIDFORMAT_BEGIN
 90
        0
 91
        1
 62
     0
 92
       -2
340
14
 93
        0
 40
0.045
309
GRIDFORMAT_END
 95
       16
302
GRIDFORMAT
  1
GRIDFORMAT_BEGIN
 90
        0
 91
        1
 62
     0
 92
       -2
340
14
 93
        0
 40
0.045
309
GRIDFORMAT_END
 95
       32
302
GRIDFORMAT
  1
GRIDFORMAT_BEGIN
 90
        0
 91
        1
 62
     0
 92
       -2
340
14
 93
        0
 40
0.045
309
GRIDFORMAT_END
309
TABLEFORMAT_END
  1
CELLSTYLE_BEGIN
 90
        2
 91
        1
300
_HEADER
309
CELLSTYLE_END
300
CELLSTYLE
  1
TABLEFORMAT_BEGIN
 90
        5
170
     1
 91
        0
 92
        0
 62
   257
 93
        1
300
CONTENTFORMAT
  1
CONTENTFORMAT_BEGIN
 90
        0
 91
        0
 92
        4
 93
        0
300

 40
0.0
140
1.0
 94
        2
 62
     0
340
11
144
0.18
309
CONTENTFORMAT_END
171
     1
301
MARGIN
  1
CELLMARGIN_BEGIN
 40
0.06
 40
0.06
 40
0.06
 40
0.06
 40
0.06
 40
0.06
309
CELLMARGIN_END
 94
        6
 95
        1
302
GRIDFORMAT
  1
GRIDFORMAT_BEGIN
 90
        0
 91
        1
 62
     0
 92
       -2
340
14
 93
        0
 40
0.045
309
GRIDFORMAT_END
 95
        2
302
GRIDFORMAT
  1
GRIDFORMAT_BEGIN
 90
        0
 91
        1
 62
     0
 92
       -2
340
14
 93
        0
 40
0.045
309
GRIDFORMAT_END
 95
        4
302
GRIDFORMAT
  1
GRIDFORMAT_BEGIN
 90
        0
 91
        1
 62
     0
 92
       -2
340
14
 93
        0
 40
0.045
309
GRIDFORMAT_END
 95
        8
302
GRIDFORMAT
  1
GRIDFORMAT_BEGIN
 90
        0
 91
        1
 62
     0
 92
       -2
340
14
 93
        0
 40
0.045
309
GRIDFORMAT_END
 95
       16
302
GRIDFORMAT
  1
GRIDFORMAT_BEGIN
 90
        0
 91
        1
 62
     0
 92
       -2
340
14
 93
        0
 40
0.045
309
GRIDFORMAT_END
 95
       32
302
GRIDFORMAT
  1
GRIDFORMAT_BEGIN
 90
        0
 91
        1
 62
     0
 92
       -2
340
14
 93
        0
 40
0.045
309
GRIDFORMAT_END
309
TABLEFORMAT_END
  1
CELLSTYLE_BEGIN
 90
        3
 91
        2
300
_DATA
309
CELLSTYLE_END
  0
ENDSEC
  0
EOF
