  0
SECTION
  2
HEADER
  9
$ACADVER
  1
AC1027
  9
$ACADMAINTVER
 70
   105
  9
$DWGCODEPAGE
  3
ANSI_1252
  9
$LASTSAVEDBY
  1
Office Desk
  9
$REQUIREDVERSIONS
160
                 0
  9
$INSBASE
 10
0.0
 20
0.0
 30
0.0
  9
$EXTMIN
 10
204.5677
 20
-430.974
 30
0.0
  9
$EXTMAX
 10
696.8047
 20
452.3952
 30
0.0
  9
$LIMMIN
 10
0.0
 20
0.0
  9
$LIMMAX
 10
12.0
 20
9.0
  9
$ORTHOMODE
 70
     0
  9
$REGENMODE
 70
     1
  9
$FILLMODE
 70
     1
  9
$QTEXTMODE
 70
     0
  9
$MIRRTEXT
 70
     1
  9
$LTSCALE
 40
1.0
  9
$ATTMODE
 70
     1
  9
$TEXTSIZE
 40
0.2
  9
$TRACEWID
 40
0.05
  9
$TEXTSTYLE
  7
Standard
  9
$CLAYER
  8
0
  9
$CELTYPE
  6
ByLayer
  9
$CECOLOR
 62
   256
  9
$CELTSCALE
 40
1.0
  9
$DISPSILH
 70
     0
  9
$DIMSCALE
 40
1.0
  9
$DIMASZ
 40
0.18
  9
$DIMEXO
 40
0.0625
  9
$DIMDLI
 40
0.38
  9
$DIMRND
 40
0.0
  9
$DIMDLE
 40
0.0
  9
$DIMEXE
 40
0.18
  9
$DIMTP
 40
0.0
  9
$DIMTM
 40
0.0
  9
$DIMTXT
 40
0.18
  9
$DIMCEN
 40
0.09
  9
$DIMTSZ
 40
0.0
  9
$DIMTOL
 70
     0
  9
$DIMLIM
 70
     0
  9
$DIMTIH
 70
     1
  9
$DIMTOH
 70
     1
  9
$DIMSE1
 70
     0
  9
$DIMSE2
 70
     0
  9
$DIMTAD
 70
     0
  9
$DIMZIN
 70
     0
  9
$DIMBLK
  1

  9
$DIMASO
 70
     1
  9
$DIMSHO
 70
     1
  9
$DIMPOST
  1

  9
$DIMAPOST
  1

  9
$DIMALT
 70
     0
  9
$DIMALTD
 70
     2
  9
$DIMALTF
 40
25.4
  9
$DIMLFAC
 40
1.0
  9
$DIMTOFL
 70
     0
  9
$DIMTVP
 40
0.0
  9
$DIMTIX
 70
     0
  9
$DIMSOXD
 70
     0
  9
$DIMSAH
 70
     0
  9
$DIMBLK1
  1

  9
$DIMBLK2
  1

  9
$DIMSTYLE
  2
Standard
  9
$DIMCLRD
 70
     0
  9
$DIMCLRE
 70
     0
  9
$DIMCLRT
 70
     0
  9
$DIMTFAC
 40
1.0
  9
$DIMGAP
 40
0.09
  9
$DIMJUST
 70
     0
  9
$DIMSD1
 70
     0
  9
$DIMSD2
 70
     0
  9
$DIMTOLJ
 70
     1
  9
$DIMTZIN
 70
     0
  9
$DIMALTZ
 70
     0
  9
$DIMALTTZ
 70
     0
  9
$DIMUPT
 70
     0
  9
$DIMDEC
 70
     4
  9
$DIMTDEC
 70
     4
  9
$DIMALTU
 70
     2
  9
$DIMALTTD
 70
     2
  9
$DIMTXSTY
  7
Standard
  9
$DIMAUNIT
 70
     0
  9
$DIMADEC
 70
     0
  9
$DIMALTRND
 40
0.0
  9
$DIMAZIN
 70
     0
  9
$DIMDSEP
 70
    46
  9
$DIMATFIT
 70
     3
  9
$DIMFRAC
 70
     0
  9
$DIMLDRBLK
  1

  9
$DIMLUNIT
 70
     2
  9
$DIMLWD
 70
    -2
  9
$DIMLWE
 70
    -2
  9
$DIMTMOVE
 70
     0
  9
$DIMFXL
 40
1.0
  9
$DIMFXLON
 70
     0
  9
$DIMJOGANG
 40
0.7853981633974483
  9
$DIMTFILL
 70
     0
  9
$DIMTFILLCLR
 70
     0
  9
$DIMARCSYM
 70
     0
  9
$DIMLTYPE
  6

  9
$DIMLTEX1
  6

  9
$DIMLTEX2
  6

  9
$DIMTXTDIRECTION
 70
     0
  9
$LUNITS
 70
     2
  9
$LUPREC
 70
     4
  9
$SKETCHINC
 40
0.1
  9
$FILLETRAD
 40
0.0
  9
$AUNITS
 70
     0
  9
$AUPREC
 70
     0
  9
$MENU
  1
.
  9
$ELEVATION
 40
0.0
  9
$PELEVATION
 40
0.0
  9
$THICKNESS
 40
0.0
  9
$LIMCHECK
 70
     0
  9
$CHAMFERA
 40
0.0
  9
$CHAMFERB
 40
0.0
  9
$CHAMFERC
 40
0.0
  9
$CHAMFERD
 40
0.0
  9
$SKPOLY
 70
     0
  9
$TDCREATE
 40
2461006.696998403
  9
$TDUCREATE
 40
2461006.467831736
  9
$TDUPDATE
 40
2461006.696998426
  9
$TDUUPDATE
 40
2461006.467831759
  9
$TDINDWG
 40
0.0000000116
  9
$TDUSRTIMER
 40
0.0000000116
  9
$USRTIMER
 70
     1
  9
$ANGBASE
 50
0.0
  9
$ANGDIR
 70
     0
  9
$PDMODE
 70
     0
  9
$PDSIZE
 40
0.0
  9
$PLINEWID
 40
0.0
  9
$SPLFRAME
 70
     0
  9
$SPLINETYPE
 70
     6
  9
$SPLINESEGS
 70
     8
  9
$HANDSEED
  5
83
  9
$SURFTAB1
 70
     6
  9
$SURFTAB2
 70
     6
  9
$SURFTYPE
 70
     6
  9
$SURFU
 70
     6
  9
$SURFV
 70
     6
  9
$UCSBASE
  2

  9
$UCSNAME
  2

  9
$UCSORG
 10
0.0
 20
0.0
 30
0.0
  9
$UCSXDIR
 10
1.0
 20
0.0
 30
0.0
  9
$UCSYDIR
 10
0.0
 20
1.0
 30
0.0
  9
$UCSORTHOREF
  2

  9
$UCSORTHOVIEW
 70
     0
  9
$UCSORGTOP
 10
0.0
 20
0.0
 30
0.0
  9
$UCSORGBOTTOM
 10
0.0
 20
0.0
 30
0.0
  9
$UCSORGLEFT
 10
0.0
 20
0.0
 30
0.0
  9
$UCSORGRIGHT
 10
0.0
 20
0.0
 30
0.0
  9
$UCSORGFRONT
 10
0.0
 20
0.0
 30
0.0
  9
$UCSORGBACK
 10
0.0
 20
0.0
 30
0.0
  9
$PUCSBASE
  2

  9
$PUCSNAME
  2

  9
$PUCSORG
 10
0.0
 20
0.0
 30
0.0
  9
$PUCSXDIR
 10
1.0
 20
0.0
 30
0.0
  9
$PUCSYDIR
 10
0.0
 20
1.0
 30
0.0
  9
$PUCSORTHOREF
  2

  9
$PUCSORTHOVIEW
 70
     0
  9
$PUCSORGTOP
 10
0.0
 20
0.0
 30
0.0
  9
$PUCSORGBOTTOM
 10
0.0
 20
0.0
 30
0.0
  9
$PUCSORGLEFT
 10
0.0
 20
0.0
 30
0.0
  9
$PUCSORGRIGHT
 10
0.0
 20
0.0
 30
0.0
  9
$PUCSORGFRONT
 10
0.0
 20
0.0
 30
0.0
  9
$PUCSORGBACK
 10
0.0
 20
0.0
 30
0.0
  9
$USERI1
 70
     0
  9
$USERI2
 70
     0
  9
$USERI3
 70
     0
  9
$USERI4
 70
     0
  9
$USERI5
 70
     0
  9
$USERR1
 40
0.0
  9
$USERR2
 40
0.0
  9
$USERR3
 40
0.0
  9
$USERR4
 40
0.0
  9
$USERR5
 40
0.0
  9
$WORLDVIEW
 70
     1
  9
$SHADEDGE
 70
     3
  9
$SHADEDIF
 70
    70
  9
$TILEMODE
 70
     1
  9
$MAXACTVP
 70
    64
  9
$PINSBASE
 10
0.0
 20
0.0
 30
0.0
  9
$PLIMCHECK
 70
     0
  9
$PEXTMIN
 10
1.000000000000000E+20
 20
1.000000000000000E+20
 30
1.000000000000000E+20
  9
$PEXTMAX
 10
-1.000000000000000E+20
 20
-1.000000000000000E+20
 30
-1.000000000000000E+20
  9
$PLIMMIN
 10
0.0
 20
0.0
  9
$PLIMMAX
 10
12.0
 20
9.0
  9
$UNITMODE
 70
     0
  9
$VISRETAIN
 70
     1
  9
$PLINEGEN
 70
     0
  9
$PSLTSCALE
 70
     1
  9
$TREEDEPTH
 70
  3020
  9
$CMLSTYLE
  2
Standard
  9
$CMLJUST
 70
     0
  9
$CMLSCALE
 40
1.0
  9
$PROXYGRAPHICS
 70
     1
  9
$MEASUREMENT
 70
     0
  9
$CELWEIGHT
370
    -1
  9
$ENDCAPS
280
     0
  9
$JOINSTYLE
280
     0
  9
$LWDISPLAY
290
     0
  9
$INSUNITS
 70
     4
  9
$HYPERLINKBASE
  1

  9
$STYLESHEET
  1

  9
$XEDIT
290
     1
  9
$CEPSNTYPE
380
     0
  9
$PSTYLEMODE
290
     1
  9
$FINGERPRINTGUID
  2
{aeeb7c97-b5a7-447f-a3da-f85009e61c18}
  9
$VERSIONGUID
  2
{FAEB1C32-E019-11D5-929B-00C0DF256EC4}
  9
$EXTNAMES
290
     1
  9
$PSVPSCALE
 40
0.0
  9
$OLESTARTUP
290
     0
  9
$SORTENTS
280
   127
  9
$INDEXCTL
280
     0
  9
$HIDETEXT
280
     1
  9
$XCLIPFRAME
280
     2
  9
$HALOGAP
280
     0
  9
$OBSCOLOR
 70
   257
  9
$OBSLTYPE
280
     0
  9
$INTERSECTIONDISPLAY
280
     0
  9
$INTERSECTIONCOLOR
 70
   257
  9
$DIMASSOC
280
     2
  9
$PROJECTNAME
  1

  9
$CAMERADISPLAY
290
     0
  9
$LENSLENGTH
 40
50.0
  9
$CAMERAHEIGHT
 40
0.0
  9
$STEPSPERSEC
 40
2.0
  9
$STEPSIZE
 40
6.0
  9
$3DDWFPREC
 40
2.0
  9
$PSOLWIDTH
 40
0.25
  9
$PSOLHEIGHT
 40
4.0
  9
$LOFTANG1
 40
1.570796326794897
  9
$LOFTANG2
 40
1.570796326794897
  9
$LOFTMAG1
 40
0.0
  9
$LOFTMAG2
 40
0.0
  9
$LOFTPARAM
 70
     7
  9
$LOFTNORMALS
280
     1
  9
$LATITUDE
 40
37.795
  9
$LONGITUDE
 40
-122.394
  9
$NORTHDIRECTION
 40
0.0
  9
$TIMEZONE
 70
 -8000
  9
$LIGHTGLYPHDISPLAY
280
     1
  9
$TILEMODELIGHTSYNCH
280
     1
  9
$CMATERIAL
347
44
  9
$SOLIDHIST
280
     0
  9
$SHOWHIST
280
     1
  9
$DWFFRAME
280
     2
  9
$DGNFRAME
280
     2
  9
$REALWORLDSCALE
290
     1
  9
$INTERFERECOLOR
 62
   256
  9
$CSHADOW
280
     0
  9
$SHADOWPLANELOCATION
 40
0.0
  0
ENDSEC
  0
SECTION
  2
CLASSES
  0
CLASS
  1
ACDBDICTIONARYWDFLT
  2
AcDbDictionaryWithDefault
  3
ObjectDBX Classes
 90
        0
 91
        3
280
     0
281
     0
  0
CLASS
  1
VISUALSTYLE
  2
AcDbVisualStyle
  3
ObjectDBX Classes
 90
     4095
 91
        3
280
     0
281
     0
  0
CLASS
  1
MATERIAL
  2
AcDbMaterial
  3
ObjectDBX Classes
 90
     1153
 91
        3
280
     0
281
     0
  0
CLASS
  1
SCALE
  2
AcDbScale
  3
ObjectDBX Classes
 90
     1153
 91
        3
280
     0
281
     0
  0
CLASS
  1
TABLESTYLE
  2
AcDbTableStyle
  3
ObjectDBX Classes
 90
     4095
 91
        3
280
     0
281
     0
  0
CLASS
  1
MLEADERSTYLE
  2
AcDbMLeaderStyle
  3
ACDB_MLEADERSTYLE_CLASS
 90
     4095
 91
        3
280
     0
281
     0
  0
CLASS
  1
SUN
  2
AcDbSun
  3
SCENEOE
 90
     1153
 91
        3
280
     0
281
     0
  0
CLASS
  1
DICTIONARYVAR
  2
AcDbDictionaryVar
  3
ObjectDBX Classes
 90
        0
 91
        3
280
     0
281
     0
  0
CLASS
  1
CELLSTYLEMAP
  2
AcDbCellStyleMap
  3
ObjectDBX Classes
 90
     1152
 91
        3
280
     0
281
     0
  0
ENDSEC
  0
SECTION
  2
TABLES
  0
TABLE
  2
VPORT
  5
8
330
0
100
AcDbSymbolTable
 70
     1
  0
VPORT
  5
29
330
8
100
AcDbSymbolTableRecord
100
AcDbViewportTableRecord
  2
*Active
 70
     0
 10
0.0
 20
0.0
 11
1.0
 21
1.0
 12
10.42990654205607
 22
4.5
 13
0.0
 23
0.0
 14
0.5
 24
0.5
 15
0.5
 25
0.5
 16
0.0
 26
0.0
 36
1.0
 17
0.0
 27
0.0
 37
0.0
 40
9.0
 41
1.972972972850329
 42
50.0
 43
0.0
 44
0.0
 50
0.0
 51
0.0
 71
     0
 72
   100
 73
     1
 74
     3
 75
     0
 76
     0
 77
     0
 78
     0
281
     0
 65
     1
110
0.0
120
0.0
130
0.0
111
1.0
121
0.0
131
0.0
112
0.0
122
1.0
132
0.0
 79
     0
146
0.0
348
2F
 60
     3
 61
     5
292
     1
282
     1
141
0.0
142
0.0
 63
   250
361
5D
  0
ENDTAB
  0
TABLE
  2
LTYPE
  5
5
330
0
100
AcDbSymbolTable
 70
     1
  0
LTYPE
  5
14
330
5
100
AcDbSymbolTableRecord
100
AcDbLinetypeTableRecord
  2
ByBlock
 70
     0
  3

 72
    65
 73
     0
 40
0.0
  0
LTYPE
  5
15
330
5
100
AcDbSymbolTableRecord
100
AcDbLinetypeTableRecord
  2
ByLayer
 70
     0
  3

 72
    65
 73
     0
 40
0.0
  0
LTYPE
  5
16
330
5
100
AcDbSymbolTableRecord
100
AcDbLinetypeTableRecord
  2
Continuous
 70
     0
  3
Solid line
 72
    65
 73
     0
 40
0.0
  0
ENDTAB
  0
TABLE
  2
LAYER
  5
2
330
0
100
AcDbSymbolTable
 70
     2
  0
LAYER
  5
10
330
2
100
AcDbSymbolTableRecord
100
AcDbLayerTableRecord
  2
0
 70
     0
 62
     7
  6
Continuous
370
    -3
390
F
347
46
348
0
  0
LAYER
  5
5F
330
2
100
AcDbSymbolTableRecord
100
AcDbLayerTableRecord
  2
Layer 1
 70
     0
 62
     7
  6
Continuous
370
    -3
390
F
347
46
348
0
  0
ENDTAB
  0
TABLE
  2
STYLE
  5
3
330
0
100
AcDbSymbolTable
 70
     1
  0
STYLE
  5
11
330
3
100
AcDbSymbolTableRecord
100
AcDbTextStyleTableRecord
  2
Standard
 70
     0
 40
0.0
 41
1.0
 50
0.0
 71
     0
 42
0.2
  3
txt
  4

  0
ENDTAB
  0
TABLE
  2
VIEW
  5
6
330
0
100
AcDbSymbolTable
 70
     0
  0
ENDTAB
  0
TABLE
  2
UCS
  5
7
330
0
100
AcDbSymbolTable
 70
     0
  0
ENDTAB
  0
TABLE
  2
APPID
  5
9
330
0
100
AcDbSymbolTable
 70
     2
  0
APPID
  5
12
330
9
100
AcDbSymbolTableRecord
100
AcDbRegAppTableRecord
  2
ACAD
 70
     0
  0
APPID
  5
5E
330
9
100
AcDbSymbolTableRecord
100
AcDbRegAppTableRecord
  2
ODA
 70
     0
  0
ENDTAB
  0
TABLE
  2
DIMSTYLE
  5
A
330
0
100
AcDbSymbolTable
 70
     1
100
AcDbDimStyleTable
  0
DIMSTYLE
105
27
330
A
100
AcDbSymbolTableRecord
100
AcDbDimStyleTableRecord
  2
Standard
 70
     0
178
     0
340
11
  0
ENDTAB
  0
TABLE
  2
BLOCK_RECORD
  5
1
330
0
100
AcDbSymbolTable
 70
     1
  0
BLOCK_RECORD
  5
1F
330
1
100
AcDbSymbolTableRecord
100
AcDbBlockTableRecord
  2
*Model_Space
340
22
 70
     0
280
     1
281
     0
  0
BLOCK_RECORD
  5
1B
330
1
100
AcDbSymbolTableRecord
100
AcDbBlockTableRecord
  2
*Paper_Space
340
1E
 70
     0
280
     1
281
     0
  0
BLOCK_RECORD
  5
23
330
1
100
AcDbSymbolTableRecord
100
AcDbBlockTableRecord
  2
*Paper_Space0
340
26
 70
     0
280
     1
281
     0
  0
ENDTAB
  0
ENDSEC
  0
SECTION
  2
BLOCKS
  0
BLOCK
  5
20
330
1F
100
AcDbEntity
  8
0
100
AcDbBlockBegin
  2
*Model_Space
 70
     0
 10
0.0
 20
0.0
 30
0.0
  3
*Model_Space
  1

  0
ENDBLK
  5
21
330
1F
100
AcDbEntity
  8
0
100
AcDbBlockEnd
  0
BLOCK
  5
1C
330
1B
100
AcDbEntity
 67
     1
  8
0
100
AcDbBlockBegin
  2
*Paper_Space
 70
     0
 10
0.0
 20
0.0
 30
0.0
  3
*Paper_Space
  1

  0
ENDBLK
  5
1D
330
1B
100
AcDbEntity
 67
     1
  8
0
100
AcDbBlockEnd
  0
BLOCK
  5
24
330
23
100
AcDbEntity
  8
0
100
AcDbBlockBegin
  2
*Paper_Space0
 70
     0
 10
0.0
 20
0.0
 30
0.0
  3
*Paper_Space0
  1

  0
ENDBLK
  5
25
330
23
100
AcDbEntity
  8
0
100
AcDbBlockEnd
  0
ENDSEC
  0
SECTION
  2
ENTITIES
  0
LWPOLYLINE
  5
60
330
1F
100
AcDbEntity
  8
Layer 1
 62
   250
370
    18
100
AcDbPolyline
 90
        5
 70
     1
 43
0.0
 10
204.6559
 20
-430.8858
 10
696.7165
 20
-430.8858
 10
696.7165
 20
452.307
 10
204.6559
 20
452.307
 10
204.6559
 20
-430.8858
  0
LWPOLYLINE
  5
61
330
1F
100
AcDbEntity
  8
Layer 1
 62
     7
370
    18
100
AcDbPolyline
 90
       33
 70
     1
 43
0.0
 10
390.2154
 20
369.9944
 10
419.1401
 20
368.9484
 10
446.0745
 20
367.5994
 10
470.4418
 20
366.0027
 10
491.6656
 20
364.2137
 10
509.1693
 20
362.2877
 10
522.3764
 20
360.2799
 10
530.7102
 20
358.2457
 10
533.5942
 20
356.2404
 10
530.6457
 20
354.4067
 10
522.2518
 20
352.8653
 10
508.9905
 20
351.6375
 10
491.4394
 20
350.7444
 10
470.1766
 20
350.2074
 10
445.7797
 20
350.0477
 10
418.8267
 20
350.2866
 10
389.8953
 20
350.9454
 10
360.9704
 20
351.9914
 10
334.036
 20
353.3403
 10
309.6686
 20
354.9368
 10
288.4447
 20
356.7258
 10
270.941
 20
358.6518
 10
257.7339
 20
360.6596
 10
249.4001
 20
362.6939
 10
246.5161
 20
364.6994
 10
249.4646
 20
366.5328
 10
257.8585
 20
368.0741
 10
271.1199
 20
369.3019
 10
288.6709
 20
370.1951
 10
309.9338
 20
370.7322
 10
334.3308
 20
370.8919
 10
361.2839
 20
370.6531
 10
390.2154
 20
369.9944
  0
LWPOLYLINE
  5
62
330
1F
100
AcDbEntity
  8
Layer 1
 62
     7
370
    18
100
AcDbPolyline
 90
        2
 70
     0
 43
0.0
 10
246.5161
 20
364.6994
 10
258.8518
 20
-314.0724
  0
LWPOLYLINE
  5
63
330
1F
100
AcDbEntity
  8
Layer 1
 62
     7
370
    18
100
AcDbPolyline
 90
        2
 70
     0
 43
0.0
 10
511.3772
 20
-309.5174
 10
512.4781
 20
-290.5327
  0
LWPOLYLINE
  5
64
330
1F
100
AcDbEntity
  8
Layer 1
 62
     7
370
    18
100
AcDbPolyline
 90
       26
 70
     0
 43
0.0
 10
533.1799
 20
355.5332
 10
511.3717
 20
-309.5268
 10
510.2475
 20
-321.3058
 10
506.5327
 20
-335.0901
 10
499.7286
 20
-349.9607
 10
489.3369
 20
-364.9989
 10
474.8589
 20
-379.2856
 10
455.7962
 20
-391.902
 10
431.6502
 20
-401.9291
 10
401.9224
 20
-408.448
 10
371.1325
 20
-409.343
 10
344.1867
 20
-404.305
 10
321.1653
 20
-395.1259
 10
302.149
 20
-383.5975
 10
287.2183
 20
-371.5118
 10
276.4539
 20
-360.6607
 10
269.9361
 20
-352.8359
 10
267.7456
 20
-349.8295
 10
264.7635
 20
-342.8446
 10
262.5185
 20
-335.778
 10
260.8941
 20
-328.5996
 10
259.7736
 20
-321.2789
 10
259.0404
 20
-313.7855
 10
258.578
 20
-306.0892
 10
258.2697
 20
-298.1596
 10
257.9989
 20
-289.9664
  0
LWPOLYLINE
  5
65
330
1F
100
AcDbEntity
  8
Layer 1
 62
     7
100
AcDbPolyline
 90
       65
 70
     1
 43
0.0
 10
581.0252
 20
22.2981
 10
581.4198
 20
22.2746
 10
581.799
 20
22.2039
 10
582.1627
 20
22.0862
 10
582.5111
 20
21.9215
 10
582.8441
 20
21.7097
 10
583.1617
 20
21.4508
 10
583.4639
 20
21.1449
 10
583.7508
 20
20.792
 10
584.0095
 20
20.4094
 10
584.2336
 20
20.005
 10
584.4233
 20
19.5787
 10
584.5784
 20
19.1306
 10
584.699
 20
18.6607
 10
584.7852
 20
18.169
 10
584.8369
 20
17.6555
 10
584.8541
 20
17.1202
 10
584.8371
 20
16.5896
 10
584.786
 20
16.0768
 10
584.7009
 20
15.5818
 10
584.5817
 20
15.1046
 10
584.4284
 20
14.6453
 10
584.2411
 20
14.2038
 10
584.0197
 20
13.7801
 10
583.7642
 20
13.3743
 10
583.4843
 20
13.004
 10
583.1866
 20
12.6831
 10
582.8711
 20
12.4117
 10
582.5377
 20
12.1896
 10
582.1864
 20
12.0169
 10
581.8172
 20
11.8936
 10
581.4302
 20
11.8197
 10
581.0252
 20
11.795
 10
580.6204
 20
11.8197
 10
580.2334
 20
11.8936
 10
579.8642
 20
12.0169
 10
579.513
 20
12.1896
 10
579.1796
 20
12.4117
 10
578.8641
 20
12.6831
 10
578.5665
 20
13.004
 10
578.2868
 20
13.3743
 10
578.0313
 20
13.7801
 10
577.8098
 20
14.2038
 10
577.6224
 20
14.6453
 10
577.469
 20
15.1046
 10
577.3497
 20
15.5818
 10
577.2645
 20
16.0768
 10
577.2133
 20
16.5896
 10
577.1963
 20
17.1202
 10
577.2135
 20
17.6555
 10
577.2653
 20
18.169
 10
577.3515
 20
18.6607
 10
577.4722
 20
19.1306
 10
577.6273
 20
19.5787
 10
577.8169
 20
20.005
 10
578.041
 20
20.4094
 10
578.2995
 20
20.792
 10
578.5864
 20
21.1449
 10
578.8887
 20
21.4508
 10
579.2064
 20
21.7097
 10
579.5394
 20
21.9215
 10
579.8878
 20
22.0862
 10
580.2516
 20
22.2039
 10
580.6307
 20
22.2746
 10
581.0252
 20
22.2981
  0
LWPOLYLINE
  5
66
330
1F
100
AcDbEntity
  8
Layer 1
 62
     7
100
AcDbPolyline
 90
       65
 70
     1
 43
0.0
 10
581.0252
 20
32.4335
 10
581.3433
 20
32.4152
 10
581.6493
 20
32.3601
 10
581.9432
 20
32.2684
 10
582.2251
 20
32.14
 10
582.495
 20
31.9748
 10
582.7528
 20
31.773
 10
582.9985
 20
31.5344
 10
583.2323
 20
31.259
 10
583.4504
 20
30.9494
 10
583.6394
 20
30.6219
 10
583.7994
 20
30.2767
 10
583.9303
 20
29.9137
 10
584.0322
 20
29.5329
 10
584.105
 20
29.1343
 10
584.1486
 20
28.7179
 10
584.1632
 20
28.2838
 10
584.1486
 20
27.8593
 10
584.105
 20
27.4486
 10
584.0322
 20
27.0516
 10
583.9303
 20
26.6683
 10
583.7994
 20
26.2987
 10
583.6394
 20
25.9429
 10
583.4504
 20
25.6008
 10
583.2323
 20
25.2724
 10
583.0001
 20
24.9798
 10
582.7554
 20
24.7263
 10
582.4982
 20
24.5117
 10
582.2286
 20
24.3361
 10
581.9464
 20
24.1995
 10
581.6518
 20
24.1019
 10
581.3447
 20
24.0433
 10
581.0252
 20
24.0238
 10
580.7057
 20
24.0433
 10
580.3986
 20
24.1019
 10
580.1041
 20
24.1995
 10
579.822
 20
24.3361
 10
579.5523
 20
24.5117
 10
579.2951
 20
24.7263
 10
579.0504
 20
24.9798
 10
578.818
 20
25.2724
 10
578.6
 20
25.6008
 10
578.411
 20
25.9429
 10
578.2511
 20
26.2987
 10
578.1203
 20
26.6683
 10
578.0185
 20
27.0516
 10
577.9458
 20
27.4486
 10
577.9022
 20
27.8593
 10
577.8877
 20
28.2838
 10
577.9022
 20
28.7179
 10
577.9458
 20
29.1343
 10
578.0185
 20
29.5329
 10
578.1203
 20
29.9137
 10
578.2511
 20
30.2767
 10
578.411
 20
30.6219
 10
578.6
 20
30.9494
 10
578.818
 20
31.259
 10
579.0518
 20
31.5344
 10
579.2976
 20
31.773
 10
579.5555
 20
31.9748
 10
579.8254
 20
32.14
 10
580.1073
 20
32.2684
 10
580.4013
 20
32.3601
 10
580.7072
 20
32.4152
 10
581.0252
 20
32.4335
  0
LWPOLYLINE
  5
67
330
1F
100
AcDbEntity
  8
Layer 1
 62
     7
100
AcDbPolyline
 90
      121
 70
     1
 43
0.0
 10
581.0252
 20
9.2245
 10
581.6345
 20
9.2563
 10
582.2193
 20
9.3518
 10
582.7796
 20
9.511
 10
583.3153
 20
9.7339
 10
583.8266
 20
10.0204
 10
584.3134
 20
10.3707
 10
584.7757
 20
10.7847
 10
585.2135
 20
11.2624
 10
585.4108
 20
11.512
 10
585.5972
 20
11.7742
 10
585.7729
 20
12.049
 10
585.9378
 20
12.3364
 10
586.0919
 20
12.6365
 10
586.2353
 20
12.9492
 10
586.3679
 20
13.2745
 10
586.4898
 20
13.6124
 10
586.5988
 20
13.9632
 10
586.6932
 20
14.3266
 10
586.7731
 20
14.7025
 10
586.8385
 20
15.0911
 10
586.8893
 20
15.4921
 10
586.9256
 20
15.9058
 10
586.9473
 20
16.3321
 10
586.9546
 20
16.771
 10
586.9424
 20
17.2156
 10
586.9056
 20
17.6592
 10
586.8444
 20
18.1016
 10
586.7586
 20
18.5429
 10
586.6484
 20
18.983
 10
586.5136
 20
19.422
 10
586.3544
 20
19.8598
 10
586.1706
 20
20.2964
 10
585.9638
 20
20.7224
 10
585.7358
 20
21.1284
 10
585.4867
 20
21.5144
 10
585.2164
 20
21.8802
 10
584.925
 20
22.226
 10
584.6125
 20
22.5517
 10
584.2787
 20
22.8574
 10
583.9238
 20
23.1429
 10
584.4286
 20
23.7645
 10
584.8661
 20
24.3993
 10
585.2362
 20
25.0474
 10
585.539
 20
25.7086
 10
585.7745
 20
26.3831
 10
585.9427
 20
27.0708
 10
586.0437
 20
27.7717
 10
586.0773
 20
28.4857
 10
586.0543
 20
29.1903
 10
585.9851
 20
29.8621
 10
585.8699
 20
30.5011
 10
585.7085
 20
31.1073
 10
585.501
 20
31.6808
 10
585.2474
 20
32.2216
 10
584.9477
 20
32.7297
 10
584.6018
 20
33.2051
 10
584.2361
 20
33.6183
 10
583.8471
 20
33.9764
 10
583.4349
 20
34.2794
 10
582.9995
 20
34.5272
 10
582.5408
 20
34.72
 10
582.0588
 20
34.8577
 10
581.5536
 20
34.9403
 10
581.0252
 20
34.9678
 10
580.4968
 20
34.9403
 10
579.9916
 20
34.8577
 10
579.5096
 20
34.72
 10
579.051
 20
34.5272
 10
578.6156
 20
34.2794
 10
578.2035
 20
33.9764
 10
577.8146
 20
33.6183
 10
577.4491
 20
33.2051
 10
577.1032
 20
32.73
 10
576.8034
 20
32.2227
 10
576.5497
 20
31.6833
 10
576.3421
 20
31.1118
 10
576.1806
 20
30.5082
 10
576.0653
 20
29.8723
 10
575.9961
 20
29.2044
 10
575.973
 20
28.5042
 10
576.0067
 20
27.7857
 10
576.1077
 20
27.0811
 10
576.276
 20
26.3902
 10
576.5116
 20
25.7132
 10
576.8145
 20
25.0499
 10
577.1848
 20
24.4004
 10
577.6223
 20
23.7648
 10
578.1271
 20
23.1429
 10
577.772
 20
22.8574
 10
577.4381
 20
22.5517
 10
577.1254
 20
22.226
 10
576.834
 20
21.8802
 10
576.5637
 20
21.5144
 10
576.3146
 20
21.1284
 10
576.0866
 20
20.7224
 10
575.8798
 20
20.2964
 10
575.696
 20
19.8589
 10
575.5368
 20
19.4185
 10
575.402
 20
18.9752
 10
575.2917
 20
18.5291
 10
575.206
 20
18.0801
 10
575.1447
 20
17.6283
 10
575.108
 20
17.1737
 10
575.0957
 20
16.7163
 10
575.1229
 20
15.8959
 10
575.2046
 20
15.1152
 10
575.3406
 20
14.3741
 10
575.5311
 20
13.6726
 10
575.7761
 20
13.0107
 10
576.0754
 20
12.3884
 10
576.4292
 20
11.8056
 10
576.8374
 20
11.2624
 10
577.275
 20
10.7847
 10
577.7372
 20
10.3707
 10
578.2239
 20
10.0204
 10
578.7351
 20
9.7339
 10
579.2708
 20
9.511
 10
579.831
 20
9.3518
 10
580.4158
 20
9.2563
 10
581.0252
 20
9.2245
  0
LWPOLYLINE
  5
68
330
1F
100
AcDbEntity
  8
Layer 1
 62
     7
100
AcDbPolyline
 90
      136
 70
     1
 43
0.0
 10
592.7781
 20
25.3095
 10
594.0014
 20
31.9935
 10
600.5425
 20
31.9935
 10
600.5425
 20
34.564
 10
592.5916
 20
34.564
 10
590.5179
 20
23.3633
 10
592.5386
 20
22.1147
 10
592.8317
 20
22.3901
 10
593.1393
 20
22.6287
 10
593.4615
 20
22.8306
 10
593.7983
 20
22.9957
 10
594.1495
 20
23.1242
 10
594.5153
 20
23.2159
 10
594.8956
 20
23.271
 10
595.2905
 20
23.2893
 10
595.6877
 20
23.2624
 10
596.0717
 20
23.1815
 10
596.4423
 20
23.0468
 10
596.7996
 20
22.8581
 10
597.1437
 20
22.6154
 10
597.4744
 20
22.3188
 10
597.7918
 20
21.9682
 10
598.0959
 20
21.5636
 10
598.3827
 20
21.1123
 10
598.6312
 20
20.6443
 10
598.8414
 20
20.1597
 10
599.0134
 20
19.6585
 10
599.1472
 20
19.1406
 10
599.2428
 20
18.606
 10
599.3001
 20
18.0548
 10
599.3192
 20
17.487
 10
599.2997
 20
16.8996
 10
599.2411
 20
16.3358
 10
599.1434
 20
15.7956
 10
599.0068
 20
15.2789
 10
598.831
 20
14.7857
 10
598.6163
 20
14.3161
 10
598.3625
 20
13.8701
 10
598.0697
 20
13.4475
 10
597.9206
 20
13.2596
 10
597.7662
 20
13.0814
 10
597.6064
 20
12.9129
 10
597.4412
 20
12.7542
 10
597.2707
 20
12.6053
 10
597.0947
 20
12.4661
 10
596.9133
 20
12.3369
 10
596.7264
 20
12.2174
 10
596.5316
 20
12.1097
 10
596.326
 20
12.0164
 10
596.1096
 20
11.9374
 10
595.8824
 20
11.8728
 10
595.6444
 20
11.8226
 10
595.3955
 20
11.7867
 10
595.1358
 20
11.7652
 10
594.8652
 20
11.758
 10
594.5896
 20
11.7741
 10
594.3144
 20
11.8223
 10
594.0396
 20
11.9027
 10
593.7651
 20
12.0153
 10
593.4911
 20
12.1599
 10
593.2174
 20
12.3366
 10
592.9442
 20
12.5454
 10
592.6715
 20
12.7862
 10
592.4089
 20
13.0531
 10
592.1663
 20
13.3395
 10
591.9436
 20
13.6454
 10
591.7408
 20
13.9708
 10
591.558
 20
14.3157
 10
591.3952
 20
14.6802
 10
591.2524
 20
15.0642
 10
591.1295
 20
15.4677
 10
589.3214
 20
14.6591
 10
589.499
 20
14.0546
 10
589.7061
 20
13.4806
 10
589.9427
 20
12.937
 10
590.2088
 20
12.4238
 10
590.5044
 20
11.9411
 10
590.8295
 20
11.4887
 10
591.1841
 20
11.0667
 10
591.5682
 20
10.6751
 10
591.9767
 20
10.3178
 10
592.3942
 20
10.0081
 10
592.8208
 20
9.746
 10
593.2566
 20
9.5317
 10
593.7015
 20
9.3649
 10
594.1556
 20
9.2458
 10
594.6188
 20
9.1743
 10
595.0912
 20
9.1505
 10
595.7207
 20
9.1898
 10
596.326
 20
9.3078
 10
596.9073
 20
9.5044
 10
597.4644
 20
9.7796
 10
597.9975
 20
10.1334
 10
598.5064
 20
10.5658
 10
598.9913
 20
11.0767
 10
599.452
 20
11.6663
 10
599.8696
 20
12.3065
 10
600.2316
 20
12.9781
 10
600.5378
 20
13.6813
 10
600.7884
 20
14.416
 10
600.9833
 20
15.1822
 10
601.1225
 20
15.98
 10
601.2061
 20
16.8095
 10
601.2339
 20
17.6705
 10
601.2065
 20
18.527
 10
601.1242
 20
19.3473
 10
600.987
 20
20.1315
 10
600.795
 20
20.8794
 10
600.5482
 20
21.5912
 10
600.2465
 20
22.2668
 10
599.89
 20
22.9063
 10
599.4788
 20
23.5097
 10
599.2686
 20
23.778
 10
599.05
 20
24.0319
 10
598.8231
 20
24.2715
 10
598.5879
 20
24.4967
 10
598.3444
 20
24.7075
 10
598.0925
 20
24.904
 10
597.8324
 20
25.0861
 10
597.564
 20
25.2539
 10
597.2902
 20
25.4047
 10
597.0141
 20
25.5354
 10
596.7355
 20
25.6459
 10
596.4547
 20
25.7363
 10
596.1715
 20
25.8065
 10
595.8861
 20
25.8567
 10
595.5985
 20
25.8868
 10
595.3087
 20
25.8968
 10
595.0132
 20
25.8876
 10
594.7118
 20
25.86
 10
594.4045
 20
25.8141
 10
594.0914
 20
25.7499
 10
593.7722
 20
25.6672
 10
593.447
 20
25.5663
 10
593.1156
 20
25.4471
 10
592.7781
 20
25.3095
  0
LWPOLYLINE
  5
69
330
1F
100
AcDbEntity
  8
Layer 1
 62
     7
100
AcDbPolyline
 90
      129
 70
     1
 43
0.0
 10
611.5375
 20
31.6628
 10
611.8445
 20
31.3748
 10
612.1307
 20
31.0477
 10
612.3962
 20
30.6816
 10
612.6409
 20
30.2764
 10
612.8649
 20
29.8322
 10
613.068
 20
29.349
 10
613.2505
 20
28.8267
 10
613.4121
 20
28.2653
 10
613.5928
 20
27.5209
 10
613.7495
 20
26.7656
 10
613.882
 20
25.9994
 10
613.9905
 20
25.2223
 10
614.0748
 20
24.4342
 10
614.1351
 20
23.6353
 10
614.1712
 20
22.8254
 10
614.1833
 20
22.0045
 10
614.182
 20
21.8074
 10
614.1783
 20
21.6016
 10
614.172
 20
21.3872
 10
614.1633
 20
21.1641
 10
614.152
 20
20.9325
 10
614.1383
 20
20.6923
 10
614.1221
 20
20.4435
 10
614.1035
 20
20.1862
 10
614.0113
 20
19.199
 10
613.8907
 20
18.2664
 10
613.742
 20
17.3882
 10
613.5649
 20
16.5645
 10
613.3596
 20
15.7953
 10
613.1261
 20
15.0805
 10
612.8644
 20
14.4202
 10
612.5744
 20
13.8143
 10
612.3098
 20
13.3582
 10
612.0311
 20
12.9629
 10
611.7383
 20
12.6284
 10
611.4313
 20
12.3547
 10
611.1101
 20
12.1419
 10
610.7749
 20
11.9898
 10
610.4255
 20
11.8986
 10
610.062
 20
11.8682
 10
609.6562
 20
11.8983
 10
609.2699
 20
11.9887
 10
608.9032
 20
12.1394
 10
608.556
 20
12.3503
 10
608.2283
 20
12.6215
 10
607.9202
 20
12.953
 10
607.6316
 20
13.3447
 10
607.3626
 20
13.7967
 10
607.2488
 20
14.0157
 10
607.14
 20
14.2416
 10
607.0361
 20
14.4744
 10
606.9373
 20
14.7142
 10
606.8434
 20
14.961
 10
606.7546
 20
15.2146
 10
606.6707
 20
15.4753
 10
606.5919
 20
15.7428
 10
606.5177
 20
16.0144
 10
606.448
 20
16.2877
 10
606.3829
 20
16.5628
 10
606.3224
 20
16.8397
 10
606.2665
 20
17.1183
 10
606.2152
 20
17.3987
 10
606.1686
 20
17.6809
 10
606.1265
 20
17.9649
 10
606.088
 20
18.2483
 10
606.0525
 20
18.5294
 10
606.0199
 20
18.8082
 10
605.9902
 20
19.0846
 10
605.9635
 20
19.3588
 10
605.9396
 20
19.6307
 10
605.9186
 20
19.9003
 10
605.9005
 20
20.1677
 10
605.8849
 20
20.4391
 10
605.8714
 20
20.7209
 10
605.8599
 20
21.0127
 10
605.8506
 20
21.3147
 10
605.8434
 20
21.6267
 10
605.8382
 20
21.9487
 10
605.8351
 20
22.2805
 10
605.8341
 20
22.6221
 10
605.8387
 20
22.9791
 10
605.8524
 20
23.3569
 10
605.8752
 20
23.7554
 10
605.9072
 20
24.1747
 10
605.9483
 20
24.615
 10
605.9986
 20
25.0764
 10
606.058
 20
25.5588
 10
606.1265
 20
26.0625
 10
606.1684
 20
26.3421
 10
606.2144
 20
26.6211
 10
606.2647
 20
26.8996
 10
606.3192
 20
27.1776
 10
606.3778
 20
27.455
 10
606.4406
 20
27.7318
 10
606.5075
 20
28.0081
 10
606.5785
 20
28.2838
 10
606.6543
 20
28.5558
 10
606.7355
 20
28.821
 10
606.8221
 20
29.0792
 10
606.9141
 20
29.3306
 10
607.0115
 20
29.5751
 10
607.1143
 20
29.8126
 10
607.2226
 20
30.0433
 10
607.3364
 20
30.267
 10
607.4556
 20
30.4821
 10
607.5806
 20
30.6862
 10
607.7115
 20
30.8793
 10
607.8481
 20
31.0616
 10
607.9906
 20
31.2329
 10
608.139
 20
31.3933
 10
608.2931
 20
31.5427
 10
608.4531
 20
31.6813
 10
608.6197
 20
31.8061
 10
608.7938
 20
31.9143
 10
608.9754
 20
32.0059
 10
609.1644
 20
32.0808
 10
609.3609
 20
32.139
 10
609.5648
 20
32.1806
 10
609.7762
 20
32.2056
 10
609.995
 20
32.2139
 10
610.214
 20
32.2053
 10
610.4255
 20
32.1794
 10
610.6296
 20
32.1363
 10
610.8261
 20
32.0759
 10
611.0152
 20
31.9984
 10
611.1968
 20
31.9037
 10
611.3709
 20
31.7918
 10
611.5375
 20
31.6628
  0
LWPOLYLINE
  5
6A
330
1F
100
AcDbEntity
  8
Layer 1
 62
     7
100
AcDbPolyline
 90
       65
 70
     1
 43
0.0
 10
610.0882
 20
9.2607
 10
610.8645
 20
9.3287
 10
611.5913
 20
9.5327
 10
612.2687
 20
9.8727
 10
612.8967
 20
10.3486
 10
613.4753
 20
10.9606
 10
614.0045
 20
11.7085
 10
614.4841
 20
12.5925
 10
614.9144
 20
13.6124
 10
615.2166
 20
14.5025
 10
615.4786
 20
15.442
 10
615.7002
 20
16.4308
 10
615.8816
 20
17.4689
 10
616.0227
 20
18.5563
 10
616.1235
 20
19.6931
 10
616.1839
 20
20.8792
 10
616.2041
 20
22.1147
 10
616.1839
 20
23.3499
 10
616.1235
 20
24.5359
 10
616.0227
 20
25.6725
 10
615.8816
 20
26.7598
 10
615.7002
 20
27.7978
 10
615.4786
 20
28.7866
 10
615.2166
 20
29.726
 10
614.9144
 20
30.6161
 10
614.4841
 20
31.636
 10
614.0045
 20
32.52
 10
613.4753
 20
33.2679
 10
612.8967
 20
33.8799
 10
612.2687
 20
34.3559
 10
611.5913
 20
34.6958
 10
610.8645
 20
34.8998
 10
610.0882
 20
34.9678
 10
609.3119
 20
34.8998
 10
608.5851
 20
34.6958
 10
607.9077
 20
34.3559
 10
607.2797
 20
33.8799
 10
606.7011
 20
33.2679
 10
606.1719
 20
32.52
 10
605.6923
 20
31.636
 10
605.262
 20
30.6161
 10
604.9598
 20
29.726
 10
604.6978
 20
28.7866
 10
604.4762
 20
27.7978
 10
604.2948
 20
26.7598
 10
604.1537
 20
25.6725
 10
604.0529
 20
24.5359
 10
603.9925
 20
23.3499
 10
603.9723
 20
22.1147
 10
603.9925
 20
20.8792
 10
604.0529
 20
19.6931
 10
604.1537
 20
18.5563
 10
604.2948
 20
17.4689
 10
604.4762
 20
16.4308
 10
604.6978
 20
15.442
 10
604.9598
 20
14.5025
 10
605.262
 20
13.6124
 10
605.6923
 20
12.5925
 10
606.1719
 20
11.7085
 10
606.7011
 20
10.9606
 10
607.2797
 20
10.3486
 10
607.9077
 20
9.8727
 10
608.5851
 20
9.5327
 10
609.3119
 20
9.3287
 10
610.0882
 20
9.2607
  0
LWPOLYLINE
  5
6B
330
1F
100
AcDbEntity
  8
Layer 1
 62
     7
100
AcDbPolyline
 90
      165
 70
     1
 43
0.0
 10
634.3653
 20
9.6646
 10
636.2264
 20
9.6646
 10
636.2264
 20
19.7638
 10
636.2112
 20
20.4343
 10
636.1657
 20
21.0732
 10
636.0899
 20
21.6806
 10
635.9838
 20
22.2565
 10
635.8473
 20
22.8007
 10
635.6805
 20
23.3135
 10
635.4834
 20
23.7947
 10
635.2559
 20
24.2443
 10
635.1289
 20
24.4594
 10
634.994
 20
24.6635
 10
634.8513
 20
24.8566
 10
634.7007
 20
25.0389
 10
634.5422
 20
25.2102
 10
634.3758
 20
25.3706
 10
634.2015
 20
25.52
 10
634.0192
 20
25.6586
 10
633.8256
 20
25.7832
 10
633.617
 20
25.8912
 10
633.3935
 20
25.9826
 10
633.1551
 20
26.0574
 10
632.9016
 20
26.1156
 10
632.6333
 20
26.1571
 10
632.3499
 20
26.1821
 10
632.0515
 20
26.1904
 10
631.7506
 20
26.1761
 10
631.4592
 20
26.1331
 10
631.1774
 20
26.0615
 10
630.9051
 20
25.9611
 10
630.6424
 20
25.8321
 10
630.3891
 20
25.6743
 10
630.1455
 20
25.4877
 10
629.9113
 20
25.2724
 10
629.708
 20
25.058
 10
629.5139
 20
24.8276
 10
629.329
 20
24.5814
 10
629.1533
 20
24.3195
 10
628.9867
 20
24.042
 10
628.8292
 20
23.7493
 10
628.681
 20
23.4414
 10
628.5418
 20
23.1185
 10
628.4336
 20
23.4166
 10
628.3156
 20
23.7044
 10
628.1876
 20
23.9807
 10
628.0496
 20
24.2443
 10
627.9227
 20
24.4594
 10
627.788
 20
24.6635
 10
627.6454
 20
24.8566
 10
627.4948
 20
25.0389
 10
627.3364
 20
25.2102
 10
627.17
 20
25.3706
 10
626.9957
 20
25.52
 10
626.8135
 20
25.6586
 10
626.6198
 20
25.7832
 10
626.4112
 20
25.8912
 10
626.1876
 20
25.9826
 10
625.9491
 20
26.0574
 10
625.6957
 20
26.1156
 10
625.4273
 20
26.1571
 10
625.1439
 20
26.1821
 10
624.8457
 20
26.1904
 10
624.5446
 20
26.1761
 10
624.2531
 20
26.1331
 10
623.9712
 20
26.0615
 10
623.6988
 20
25.9611
 10
623.436
 20
25.8321
 10
623.1828
 20
25.6743
 10
622.9391
 20
25.4877
 10
622.705
 20
25.2724
 10
622.5115
 20
25.0683
 10
622.3263
 20
24.8502
 10
622.1494
 20
24.6181
 10
621.9808
 20
24.3721
 10
621.8204
 20
24.1119
 10
621.6684
 20
23.8376
 10
621.5246
 20
23.5491
 10
621.3891
 20
23.2464
 10
621.3891
 20
25.8236
 10
619.5279
 20
25.8236
 10
619.5279
 20
9.6646
 10
621.3891
 20
9.6646
 10
621.3891
 20
17.9338
 10
621.4323
 20
18.4156
 10
621.4888
 20
18.8787
 10
621.5586
 20
19.3231
 10
621.6417
 20
19.7489
 10
621.738
 20
20.1564
 10
621.8477
 20
20.5456
 10
621.9706
 20
20.9167
 10
622.1067
 20
21.2699
 10
622.2177
 20
21.5211
 10
622.3378
 20
21.7608
 10
622.467
 20
21.9892
 10
622.6054
 20
22.2062
 10
622.7528
 20
22.4117
 10
622.9095
 20
22.6058
 10
623.0752
 20
22.7884
 10
623.2502
 20
22.9595
 10
623.4314
 20
23.1142
 10
623.616
 20
23.2483
 10
623.8038
 20
23.3618
 10
623.995
 20
23.4547
 10
624.1894
 20
23.527
 10
624.3872
 20
23.5786
 10
624.5883
 20
23.6096
 10
624.7927
 20
23.6199
 10
624.9921
 20
23.6145
 10
625.1782
 20
23.5981
 10
625.351
 20
23.5709
 10
625.5105
 20
23.5328
 10
625.6567
 20
23.4838
 10
625.7896
 20
23.424
 10
625.9091
 20
23.3532
 10
626.0154
 20
23.2716
 10
626.2835
 20
22.9979
 10
626.5159
 20
22.677
 10
626.7124
 20
22.3091
 10
626.8732
 20
21.8941
 10
626.9982
 20
21.4321
 10
627.0875
 20
20.923
 10
627.1411
 20
20.3669
 10
627.1589
 20
19.7638
 10
627.1589
 20
9.6646
 10
629.0207
 20
9.6646
 10
629.0207
 20
19.7638
 10
629.0073
 20
20.3823
 10
629.076
 20
20.6163
 10
629.1499
 20
20.8419
 10
629.2289
 20
21.0595
 10
629.3131
 20
21.2699
 10
629.4239
 20
21.5211
 10
629.5439
 20
21.7608
 10
629.6731
 20
21.9892
 10
629.8114
 20
22.2062
 10
629.9589
 20
22.4117
 10
630.1155
 20
22.6058
 10
630.2812
 20
22.7884
 10
630.456
 20
22.9595
 10
630.6372
 20
23.1142
 10
630.8217
 20
23.2483
 10
631.0096
 20
23.3618
 10
631.2007
 20
23.4547
 10
631.3952
 20
23.527
 10
631.593
 20
23.5786
 10
631.7941
 20
23.6096
 10
631.9985
 20
23.6199
 10
632.1979
 20
23.6145
 10
632.384
 20
23.5981
 10
632.5568
 20
23.5709
 10
632.7164
 20
23.5328
 10
632.8626
 20
23.4838
 10
632.9956
 20
23.424
 10
633.1153
 20
23.3532
 10
633.2218
 20
23.2716
 10
633.4897
 20
22.9979
 10
633.722
 20
22.677
 10
633.9185
 20
22.3091
 10
634.0793
 20
21.8941
 10
634.2044
 20
21.4321
 10
634.2938
 20
20.923
 10
634.3474
 20
20.3669
 10
634.3653
 20
19.7638
 10
634.3653
 20
9.6646
  0
LWPOLYLINE
  5
6C
330
1F
100
AcDbEntity
  8
Layer 1
 62
     7
100
AcDbPolyline
 90
      165
 70
     1
 43
0.0
 10
654.6538
 20
9.6646
 10
656.515
 20
9.6646
 10
656.515
 20
19.7638
 10
656.4998
 20
20.4343
 10
656.4543
 20
21.0732
 10
656.3785
 20
21.6806
 10
656.2724
 20
22.2565
 10
656.1359
 20
22.8007
 10
655.9691
 20
23.3135
 10
655.772
 20
23.7947
 10
655.5445
 20
24.2443
 10
655.4175
 20
24.4594
 10
655.2826
 20
24.6635
 10
655.1398
 20
24.8566
 10
654.9892
 20
25.0389
 10
654.8307
 20
25.2102
 10
654.6643
 20
25.3706
 10
654.49
 20
25.52
 10
654.3078
 20
25.6586
 10
654.1142
 20
25.7832
 10
653.9056
 20
25.8912
 10
653.6821
 20
25.9826
 10
653.4437
 20
26.0574
 10
653.1902
 20
26.1156
 10
652.9219
 20
26.1571
 10
652.6385
 20
26.1821
 10
652.3401
 20
26.1904
 10
652.0392
 20
26.1761
 10
651.7478
 20
26.1331
 10
651.466
 20
26.0615
 10
651.1937
 20
25.9611
 10
650.9309
 20
25.8321
 10
650.6777
 20
25.6743
 10
650.4341
 20
25.4877
 10
650.1999
 20
25.2724
 10
649.9966
 20
25.058
 10
649.8025
 20
24.8276
 10
649.6176
 20
24.5814
 10
649.4418
 20
24.3195
 10
649.2752
 20
24.042
 10
649.1178
 20
23.7493
 10
648.9695
 20
23.4414
 10
648.8304
 20
23.1185
 10
648.7222
 20
23.4166
 10
648.6041
 20
23.7044
 10
648.4762
 20
23.9807
 10
648.3382
 20
24.2443
 10
648.2113
 20
24.4594
 10
648.0766
 20
24.6635
 10
647.934
 20
24.8566
 10
647.7834
 20
25.0389
 10
647.625
 20
25.2102
 10
647.4586
 20
25.3706
 10
647.2843
 20
25.52
 10
647.1021
 20
25.6586
 10
646.9084
 20
25.7832
 10
646.6998
 20
25.8912
 10
646.4762
 20
25.9826
 10
646.2377
 20
26.0574
 10
645.9842
 20
26.1156
 10
645.7158
 20
26.1571
 10
645.4325
 20
26.1821
 10
645.1343
 20
26.1904
 10
644.8332
 20
26.1761
 10
644.5417
 20
26.1331
 10
644.2598
 20
26.0615
 10
643.9874
 20
25.9611
 10
643.7246
 20
25.8321
 10
643.4714
 20
25.6743
 10
643.2277
 20
25.4877
 10
642.9935
 20
25.2724
 10
642.8
 20
25.0683
 10
642.6149
 20
24.8502
 10
642.438
 20
24.6181
 10
642.2693
 20
24.3721
 10
642.109
 20
24.1119
 10
641.9569
 20
23.8376
 10
641.8131
 20
23.5491
 10
641.6776
 20
23.2464
 10
641.6776
 20
25.8236
 10
639.8165
 20
25.8236
 10
639.8165
 20
9.6646
 10
641.6776
 20
9.6646
 10
641.6776
 20
17.9338
 10
641.7208
 20
18.4156
 10
641.7773
 20
18.8787
 10
641.8471
 20
19.3231
 10
641.9302
 20
19.7489
 10
642.0266
 20
20.1564
 10
642.1362
 20
20.5456
 10
642.2591
 20
20.9167
 10
642.3953
 20
21.2699
 10
642.5063
 20
21.5211
 10
642.6264
 20
21.7608
 10
642.7556
 20
21.9892
 10
642.8939
 20
22.2062
 10
643.0414
 20
22.4117
 10
643.198
 20
22.6058
 10
643.3638
 20
22.7884
 10
643.5388
 20
22.9595
 10
643.72
 20
23.1142
 10
643.9045
 20
23.2483
 10
644.0924
 20
23.3618
 10
644.2835
 20
23.4547
 10
644.478
 20
23.527
 10
644.6758
 20
23.5786
 10
644.8769
 20
23.6096
 10
645.0813
 20
23.6199
 10
645.2807
 20
23.6145
 10
645.4668
 20
23.5981
 10
645.6396
 20
23.5709
 10
645.7991
 20
23.5328
 10
645.9453
 20
23.4838
 10
646.0782
 20
23.424
 10
646.1977
 20
23.3532
 10
646.304
 20
23.2716
 10
646.5721
 20
22.9979
 10
646.8044
 20
22.677
 10
647.001
 20
22.3091
 10
647.1618
 20
21.8941
 10
647.2868
 20
21.4321
 10
647.3761
 20
20.923
 10
647.4296
 20
20.3669
 10
647.4475
 20
19.7638
 10
647.4475
 20
9.6646
 10
649.3092
 20
9.6646
 10
649.3092
 20
19.7638
 10
649.2958
 20
20.3823
 10
649.3646
 20
20.6163
 10
649.4385
 20
20.8419
 10
649.5175
 20
21.0595
 10
649.6017
 20
21.2699
 10
649.7125
 20
21.5211
 10
649.8325
 20
21.7608
 10
649.9617
 20
21.9892
 10
650.1
 20
22.2062
 10
650.2474
 20
22.4117
 10
650.404
 20
22.6058
 10
650.5697
 20
22.7884
 10
650.7445
 20
22.9595
 10
650.9257
 20
23.1142
 10
651.1103
 20
23.2483
 10
651.2982
 20
23.3618
 10
651.4893
 20
23.4547
 10
651.6838
 20
23.527
 10
651.8816
 20
23.5786
 10
652.0827
 20
23.6096
 10
652.2871
 20
23.6199
 10
652.4865
 20
23.6145
 10
652.6726
 20
23.5981
 10
652.8454
 20
23.5709
 10
653.005
 20
23.5328
 10
653.1512
 20
23.4838
 10
653.2842
 20
23.424
 10
653.4039
 20
23.3532
 10
653.5104
 20
23.2716
 10
653.7783
 20
22.9979
 10
654.0106
 20
22.677
 10
654.2071
 20
22.3091
 10
654.3679
 20
21.8941
 10
654.493
 20
21.4321
 10
654.5823
 20
20.923
 10
654.6359
 20
20.3669
 10
654.6538
 20
19.7638
 10
654.6538
 20
9.6646
  0
LWPOLYLINE
  5
6D
330
1F
100
AcDbEntity
  8
Layer 1
 62
     7
370
    18
100
AcDbPolyline
 90
        2
 70
     0
 43
0.0
 10
626.5192
 20
340.4963
 10
611.0057
 20
340.4963
  0
LWPOLYLINE
  5
6E
330
1F
100
AcDbEntity
  8
Layer 1
 62
     7
370
    18
100
AcDbPolyline
 90
        2
 70
     0
 43
0.0
 10
618.7622
 20
340.5015
 10
618.7622
 20
52.5319
  0
LWPOLYLINE
  5
6F
330
1F
100
AcDbEntity
  8
Layer 1
 62
     7
370
    18
100
AcDbPolyline
 90
        2
 70
     0
 43
0.0
 10
626.5192
 20
-363.1953
 10
611.0057
 20
-363.1953
  0
LWPOLYLINE
  5
70
330
1F
100
AcDbEntity
  8
Layer 1
 62
     7
370
    18
100
AcDbPolyline
 90
        2
 70
     0
 43
0.0
 10
618.7622
 20
-363.2033
 10
618.7622
 20
-21.9929
  0
LWPOLYLINE
  5
71
330
1F
100
AcDbEntity
  8
Layer 1
 62
     7
100
AcDbPolyline
 90
        4
 70
     1
 43
0.0
 10
376.1741
 20
428.3321
 10
376.1741
 20
414.3338
 10
369.4685
 20
414.3338
 10
376.1741
 20
428.3321
  0
LWPOLYLINE
  5
72
330
1F
100
AcDbEntity
  8
Layer 1
 62
     7
100
AcDbPolyline
 90
       11
 70
     1
 43
0.0
 10
378.0566
 20
411.7692
 10
380.2747
 20
411.7692
 10
380.2747
 20
414.3338
 10
378.0566
 20
414.3338
 10
378.031
 20
431.0388
 10
375.5034
 20
431.0388
 10
366.2708
 20
411.7692
 10
376.1741
 20
411.7692
 10
376.1741
 20
406.8185
 10
378.0566
 20
406.8185
 10
378.0566
 20
411.7692
  0
LWPOLYLINE
  5
73
330
1F
100
AcDbEntity
  8
Layer 1
 62
     7
100
AcDbPolyline
 90
        7
 70
     1
 43
0.0
 10
385.3032
 20
406.8185
 10
387.1089
 20
406.8185
 10
387.1089
 20
431.3241
 10
382.7762
 20
430.6829
 10
382.7762
 20
428.5104
 10
385.3032
 20
428.5104
 10
385.3032
 20
406.8185
  0
LWPOLYLINE
  5
74
330
1F
100
AcDbEntity
  8
Layer 1
 62
     7
100
AcDbPolyline
 90
      129
 70
     1
 43
0.0
 10
397.5148
 20
428.2252
 10
397.8127
 20
427.9459
 10
398.0904
 20
427.6287
 10
398.3479
 20
427.2736
 10
398.5853
 20
426.8806
 10
398.8026
 20
426.4498
 10
398.9996
 20
425.9811
 10
399.1766
 20
425.4746
 10
399.3333
 20
424.9303
 10
399.5085
 20
424.2082
 10
399.6604
 20
423.4756
 10
399.789
 20
422.7324
 10
399.8942
 20
421.9787
 10
399.9761
 20
421.2144
 10
400.0346
 20
420.4396
 10
400.0697
 20
419.6541
 10
400.0814
 20
418.858
 10
400.0802
 20
418.6667
 10
400.0765
 20
418.4671
 10
400.0704
 20
418.2591
 10
400.0619
 20
418.0428
 10
400.051
 20
417.8181
 10
400.0377
 20
417.5852
 10
400.0221
 20
417.3439
 10
400.0041
 20
417.0944
 10
399.9146
 20
416.137
 10
399.7976
 20
415.2324
 10
399.6533
 20
414.3806
 10
399.4817
 20
413.5816
 10
399.2825
 20
412.8355
 10
399.056
 20
412.1422
 10
398.802
 20
411.5019
 10
398.5206
 20
410.9144
 10
398.264
 20
410.4722
 10
397.9937
 20
410.0888
 10
397.7097
 20
409.7645
 10
397.4119
 20
409.499
 10
397.1004
 20
409.2926
 10
396.7752
 20
409.1451
 10
396.4363
 20
409.0566
 10
396.0838
 20
409.0271
 10
395.6903
 20
409.0563
 10
395.3157
 20
409.1439
 10
394.9601
 20
409.2899
 10
394.6234
 20
409.4943
 10
394.3057
 20
409.7571
 10
394.0069
 20
410.0785
 10
393.727
 20
410.4583
 10
393.466
 20
410.8967
 10
393.3556
 20
411.1092
 10
393.25
 20
411.3285
 10
393.1492
 20
411.5544
 10
393.0533
 20
411.7871
 10
392.9623
 20
412.0265
 10
392.876
 20
412.2725
 10
392.7945
 20
412.5253
 10
392.7179
 20
412.7848
 10
392.6461
 20
413.0482
 10
392.5787
 20
413.3133
 10
392.5156
 20
413.5801
 10
392.4571
 20
413.8486
 10
392.4029
 20
414.1189
 10
392.3532
 20
414.3908
 10
392.3079
 20
414.6644
 10
392.2671
 20
414.9396
 10
392.2297
 20
415.2145
 10
392.1951
 20
415.4872
 10
392.1634
 20
415.7576
 10
392.1346
 20
416.0258
 10
392.1086
 20
416.2918
 10
392.0855
 20
416.5556
 10
392.0652
 20
416.8172
 10
392.0478
 20
417.0767
 10
392.0326
 20
417.3398
 10
392.0194
 20
417.613
 10
392.0083
 20
417.896
 10
391.9993
 20
418.1889
 10
391.9922
 20
418.4915
 10
391.9872
 20
418.8038
 10
391.9842
 20
419.1257
 10
391.9832
 20
419.457
 10
391.9876
 20
419.8034
 10
392.0009
 20
420.1698
 10
392.0231
 20
420.5563
 10
392.0541
 20
420.963
 10
392.094
 20
421.3899
 10
392.1428
 20
421.8372
 10
392.2005
 20
422.305
 10
392.2671
 20
422.7932
 10
392.3077
 20
423.0646
 10
392.3524
 20
423.3354
 10
392.4011
 20
423.6056
 10
392.4539
 20
423.8753
 10
392.5106
 20
424.1444
 10
392.5714
 20
424.4128
 10
392.6363
 20
424.6807
 10
392.7051
 20
424.948
 10
392.7788
 20
425.2119
 10
392.8576
 20
425.4691
 10
392.9417
 20
425.7195
 10
393.031
 20
425.9633
 10
393.1255
 20
426.2004
 10
393.2252
 20
426.4308
 10
393.3302
 20
426.6544
 10
393.4404
 20
426.8714
 10
393.5561
 20
427.08
 10
393.6773
 20
427.278
 10
393.8042
 20
427.4653
 10
393.9368
 20
427.642
 10
394.075
 20
427.8081
 10
394.2188
 20
427.9636
 10
394.3684
 20
428.1085
 10
394.5236
 20
428.2429
 10
394.6851
 20
428.3641
 10
394.8539
 20
428.4691
 10
395.03
 20
428.5579
 10
395.2134
 20
428.6305
 10
395.404
 20
428.687
 10
395.6018
 20
428.7273
 10
395.8069
 20
428.7514
 10
396.0192
 20
428.7595
 10
396.2317
 20
428.7511
 10
396.4368
 20
428.7261
 10
396.6347
 20
428.6843
 10
396.8253
 20
428.6258
 10
397.0086
 20
428.5507
 10
397.1846
 20
428.4588
 10
397.3533
 20
428.3503
 10
397.5148
 20
428.2252
  0
LWPOLYLINE
  5
75
330
1F
100
AcDbEntity
  8
Layer 1
 62
     7
100
AcDbPolyline
 90
       65
 70
     1
 43
0.0
 10
396.1094
 20
406.4979
 10
396.8624
 20
406.5638
 10
397.5674
 20
406.7617
 10
398.2244
 20
407.0914
 10
398.8335
 20
407.553
 10
399.3947
 20
408.1465
 10
399.9079
 20
408.8719
 10
400.3732
 20
409.7291
 10
400.7905
 20
410.7183
 10
401.0835
 20
411.5815
 10
401.3375
 20
412.4926
 10
401.5525
 20
413.4516
 10
401.7284
 20
414.4585
 10
401.8653
 20
415.5133
 10
401.9631
 20
416.6159
 10
402.0217
 20
417.7664
 10
402.0413
 20
418.9648
 10
402.0217
 20
420.1629
 10
401.9631
 20
421.3132
 10
401.8653
 20
422.4157
 10
401.7284
 20
423.4704
 10
401.5525
 20
424.4772
 10
401.3375
 20
425.4362
 10
401.0835
 20
426.3473
 10
400.7905
 20
427.2105
 10
400.3732
 20
428.1997
 10
399.9079
 20
429.0569
 10
399.3947
 20
429.7823
 10
398.8335
 20
430.3758
 10
398.2244
 20
430.8374
 10
397.5674
 20
431.1671
 10
396.8624
 20
431.365
 10
396.1094
 20
431.4309
 10
395.3564
 20
431.365
 10
394.6514
 20
431.1671
 10
393.9943
 20
430.8374
 10
393.3853
 20
430.3758
 10
392.8242
 20
429.7823
 10
392.3111
 20
429.0569
 10
391.8459
 20
428.1997
 10
391.4288
 20
427.2105
 10
391.1356
 20
426.3473
 10
390.8815
 20
425.4362
 10
390.6666
 20
424.4772
 10
390.4907
 20
423.4704
 10
390.3539
 20
422.4157
 10
390.2562
 20
421.3132
 10
390.1976
 20
420.1629
 10
390.1781
 20
418.9648
 10
390.1976
 20
417.7664
 10
390.2562
 20
416.6159
 10
390.3539
 20
415.5133
 10
390.4907
 20
414.4585
 10
390.6666
 20
413.4516
 10
390.8815
 20
412.4926
 10
391.1356
 20
411.5815
 10
391.4288
 20
410.7183
 10
391.8459
 20
409.7291
 10
392.3111
 20
408.8719
 10
392.8242
 20
408.1465
 10
393.3853
 20
407.553
 10
393.9943
 20
407.0914
 10
394.6514
 20
406.7617
 10
395.3564
 20
406.5638
 10
396.1094
 20
406.4979
  0
LWPOLYLINE
  5
76
330
1F
100
AcDbEntity
  8
Layer 1
 62
     7
100
AcDbPolyline
 90
      162
 70
     1
 43
0.0
 10
419.6554
 20
406.89
 10
421.4605
 20
406.89
 10
421.4605
 20
416.6846
 10
421.4458
 20
417.335
 10
421.4017
 20
417.9548
 10
421.3281
 20
418.5439
 10
421.2252
 20
419.1024
 10
421.0928
 20
419.6302
 10
420.931
 20
420.1275
 10
420.7399
 20
420.5942
 10
420.5193
 20
421.0304
 10
420.3962
 20
421.2387
 10
420.2654
 20
421.4365
 10
420.127
 20
421.6237
 10
419.9809
 20
421.8004
 10
419.8272
 20
421.9666
 10
419.6657
 20
422.1222
 10
419.4966
 20
422.2673
 10
419.3197
 20
422.4019
 10
419.132
 20
422.5229
 10
418.9297
 20
422.6278
 10
418.713
 20
422.7166
 10
418.4817
 20
422.7892
 10
418.236
 20
422.8458
 10
417.9757
 20
422.8862
 10
417.701
 20
422.9104
 10
417.4117
 20
422.9185
 10
417.1198
 20
422.9046
 10
416.8371
 20
422.8628
 10
416.5637
 20
422.7932
 10
416.2995
 20
422.6958
 10
416.0446
 20
422.5705
 10
415.799
 20
422.4173
 10
415.5626
 20
422.2363
 10
415.3355
 20
422.0275
 10
415.1384
 20
421.8194
 10
414.9502
 20
421.5959
 10
414.7709
 20
421.3571
 10
414.6004
 20
421.1031
 10
414.4388
 20
420.8341
 10
414.2861
 20
420.5503
 10
414.1423
 20
420.2516
 10
414.0074
 20
419.9383
 10
413.9026
 20
420.2273
 10
413.7881
 20
420.5065
 10
413.6641
 20
420.7746
 10
413.5304
 20
421.0304
 10
413.4073
 20
421.2387
 10
413.2765
 20
421.4365
 10
413.138
 20
421.6237
 10
412.9918
 20
421.8004
 10
412.838
 20
421.9666
 10
412.6766
 20
422.1222
 10
412.5075
 20
422.2673
 10
412.3308
 20
422.4019
 10
412.1431
 20
422.5229
 10
411.9409
 20
422.6278
 10
411.7241
 20
422.7166
 10
411.4929
 20
422.7892
 10
411.2471
 20
422.8458
 10
410.9868
 20
422.8862
 10
410.7121
 20
422.9104
 10
410.4228
 20
422.9185
 10
410.1307
 20
422.9046
 10
409.8479
 20
422.8628
 10
409.5744
 20
422.7932
 10
409.3102
 20
422.6958
 10
409.0554
 20
422.5705
 10
408.8098
 20
422.4173
 10
408.5736
 20
422.2363
 10
408.3466
 20
422.0275
 10
408.1588
 20
421.8293
 10
407.979
 20
421.6177
 10
407.8073
 20
421.3926
 10
407.6437
 20
421.154
 10
407.4882
 20
420.9018
 10
407.3407
 20
420.6359
 10
407.2012
 20
420.3562
 10
407.0697
 20
420.0628
 10
407.0697
 20
422.5618
 10
405.2646
 20
422.5618
 10
405.2646
 20
406.89
 10
407.0697
 20
406.89
 10
407.0697
 20
414.9101
 10
407.1118
 20
415.3774
 10
407.1667
 20
415.8264
 10
407.2344
 20
416.2573
 10
407.315
 20
416.6703
 10
407.4085
 20
417.0655
 10
407.5148
 20
417.4429
 10
407.634
 20
417.8028
 10
407.766
 20
418.1453
 10
407.8737
 20
418.389
 10
407.9903
 20
418.6216
 10
408.1157
 20
418.843
 10
408.2499
 20
419.0534
 10
408.393
 20
419.2526
 10
408.545
 20
419.4407
 10
408.7058
 20
419.6177
 10
408.8754
 20
419.7835
 10
409.0511
 20
419.9338
 10
409.23
 20
420.064
 10
409.412
 20
420.1742
 10
409.5974
 20
420.2643
 10
409.7859
 20
420.3344
 10
409.9777
 20
420.3845
 10
410.1727
 20
420.4146
 10
410.371
 20
420.4246
 10
410.5645
 20
420.4193
 10
410.745
 20
420.4035
 10
410.9126
 20
420.377
 10
411.0673
 20
420.3401
 10
411.2091
 20
420.2925
 10
411.338
 20
420.2344
 10
411.454
 20
420.1657
 10
411.5571
 20
420.0864
 10
411.8171
 20
419.8209
 10
412.0425
 20
419.5098
 10
412.2331
 20
419.153
 10
412.3892
 20
418.7506
 10
412.5105
 20
418.3025
 10
412.5972
 20
417.8088
 10
412.6492
 20
417.2695
 10
412.6665
 20
416.6846
 10
412.6665
 20
406.89
 10
414.4716
 20
406.89
 10
414.4716
 20
416.6846
 10
414.4588
 20
417.2846
 10
414.7555
 20
418.1453
 10
414.863
 20
418.389
 10
414.9794
 20
418.6216
 10
415.1047
 20
418.843
 10
415.2388
 20
419.0534
 10
415.3819
 20
419.2526
 10
415.5338
 20
419.4407
 10
415.6946
 20
419.6177
 10
415.8643
 20
419.7835
 10
416.04
 20
419.9338
 10
416.2189
 20
420.064
 10
416.4009
 20
420.1742
 10
416.5863
 20
420.2643
 10
416.7748
 20
420.3344
 10
416.9666
 20
420.3845
 10
417.1616
 20
420.4146
 10
417.3599
 20
420.4246
 10
417.5533
 20
420.4193
 10
417.7338
 20
420.4035
 10
417.9015
 20
420.377
 10
418.0562
 20
420.3401
 10
418.198
 20
420.2925
 10
418.3269
 20
420.2344
 10
418.4429
 20
420.1657
 10
418.546
 20
420.0864
 10
418.806
 20
419.8209
 10
419.0314
 20
419.5098
 10
419.222
 20
419.153
 10
419.3781
 20
418.7506
 10
419.4994
 20
418.3025
 10
419.5861
 20
417.8088
 10
419.6381
 20
417.2695
 10
419.6554
 20
416.6846
 10
419.6554
 20
406.89
  0
LWPOLYLINE
  5
77
330
1F
100
AcDbEntity
  8
Layer 1
 62
     7
100
AcDbPolyline
 90
      162
 70
     1
 43
0.0
 10
439.3329
 20
406.89
 10
441.138
 20
406.89
 10
441.138
 20
416.6846
 10
441.1233
 20
417.335
 10
441.0792
 20
417.9548
 10
441.0057
 20
418.5439
 10
440.9027
 20
419.1024
 10
440.7704
 20
419.6302
 10
440.6086
 20
420.1275
 10
440.4174
 20
420.5942
 10
440.1968
 20
421.0304
 10
440.0737
 20
421.2387
 10
439.943
 20
421.4365
 10
439.8046
 20
421.6237
 10
439.6585
 20
421.8004
 10
439.5047
 20
421.9666
 10
439.3432
 20
422.1222
 10
439.1741
 20
422.2673
 10
438.9972
 20
422.4019
 10
438.8095
 20
422.5229
 10
438.6073
 20
422.6278
 10
438.3905
 20
422.7166
 10
438.1593
 20
422.7892
 10
437.9135
 20
422.8458
 10
437.6533
 20
422.8862
 10
437.3785
 20
422.9104
 10
437.0892
 20
422.9185
 10
436.7973
 20
422.9046
 10
436.5146
 20
422.8628
 10
436.2412
 20
422.7932
 10
435.9771
 20
422.6958
 10
435.7222
 20
422.5705
 10
435.4765
 20
422.4173
 10
435.2401
 20
422.2363
 10
435.013
 20
422.0275
 10
434.8159
 20
421.8194
 10
434.6277
 20
421.5959
 10
434.4484
 20
421.3571
 10
434.2779
 20
421.1031
 10
434.1163
 20
420.8341
 10
433.9636
 20
420.5503
 10
433.8198
 20
420.2516
 10
433.6849
 20
419.9383
 10
433.5801
 20
420.2273
 10
433.4656
 20
420.5065
 10
433.3416
 20
420.7746
 10
433.2079
 20
421.0304
 10
433.0848
 20
421.2387
 10
432.954
 20
421.4365
 10
432.8155
 20
421.6237
 10
432.6694
 20
421.8004
 10
432.5155
 20
421.9666
 10
432.3541
 20
422.1222
 10
432.1851
 20
422.2673
 10
432.0084
 20
422.4019
 10
431.8207
 20
422.5229
 10
431.6184
 20
422.6278
 10
431.4017
 20
422.7166
 10
431.1704
 20
422.7892
 10
430.9246
 20
422.8458
 10
430.6644
 20
422.8862
 10
430.3896
 20
422.9104
 10
430.1003
 20
422.9185
 10
429.8082
 20
422.9046
 10
429.5254
 20
422.8628
 10
429.2519
 20
422.7932
 10
428.9878
 20
422.6958
 10
428.7329
 20
422.5705
 10
428.4873
 20
422.4173
 10
428.2511
 20
422.2363
 10
428.0241
 20
422.0275
 10
427.8363
 20
421.8293
 10
427.6565
 20
421.6177
 10
427.4849
 20
421.3926
 10
427.3213
 20
421.154
 10
427.1657
 20
420.9018
 10
427.0182
 20
420.6359
 10
426.8787
 20
420.3562
 10
426.7472
 20
420.0628
 10
426.7472
 20
422.5618
 10
424.9421
 20
422.5618
 10
424.9421
 20
406.89
 10
426.7472
 20
406.89
 10
426.7472
 20
414.9101
 10
426.7893
 20
415.3774
 10
426.8442
 20
415.8264
 10
426.912
 20
416.2573
 10
426.9926
 20
416.6703
 10
427.0861
 20
417.0655
 10
427.1924
 20
417.4429
 10
427.3115
 20
417.8028
 10
427.4435
 20
418.1453
 10
427.5512
 20
418.389
 10
427.6678
 20
418.6216
 10
427.7932
 20
418.843
 10
427.9274
 20
419.0534
 10
428.0705
 20
419.2526
 10
428.2225
 20
419.4407
 10
428.3833
 20
419.6177
 10
428.5529
 20
419.7835
 10
428.7286
 20
419.9338
 10
428.9075
 20
420.064
 10
429.0896
 20
420.1742
 10
429.2749
 20
420.2643
 10
429.4635
 20
420.3344
 10
429.6552
 20
420.3845
 10
429.8502
 20
420.4146
 10
430.0485
 20
420.4246
 10
430.242
 20
420.4193
 10
430.4225
 20
420.4035
 10
430.5901
 20
420.377
 10
430.7449
 20
420.3401
 10
430.8867
 20
420.2925
 10
431.0156
 20
420.2344
 10
431.1316
 20
420.1657
 10
431.2347
 20
420.0864
 10
431.4947
 20
419.8209
 10
431.72
 20
419.5098
 10
431.9107
 20
419.153
 10
432.0667
 20
418.7506
 10
432.188
 20
418.3025
 10
432.2747
 20
417.8088
 10
432.3267
 20
417.2695
 10
432.344
 20
416.6846
 10
432.344
 20
406.89
 10
434.1491
 20
406.89
 10
434.1491
 20
416.6846
 10
434.1363
 20
417.2846
 10
434.433
 20
418.1453
 10
434.5405
 20
418.389
 10
434.6569
 20
418.6216
 10
434.7822
 20
418.843
 10
434.9164
 20
419.0534
 10
435.0594
 20
419.2526
 10
435.2114
 20
419.4407
 10
435.3722
 20
419.6177
 10
435.5418
 20
419.7835
 10
435.7175
 20
419.9338
 10
435.8964
 20
420.064
 10
436.0785
 20
420.1742
 10
436.2638
 20
420.2643
 10
436.4524
 20
420.3344
 10
436.6441
 20
420.3845
 10
436.8391
 20
420.4146
 10
437.0374
 20
420.4246
 10
437.2309
 20
420.4193
 10
437.4114
 20
420.4035
 10
437.579
 20
420.377
 10
437.7338
 20
420.3401
 10
437.8756
 20
420.2925
 10
438.0045
 20
420.2344
 10
438.1204
 20
420.1657
 10
438.2235
 20
420.0864
 10
438.4835
 20
419.8209
 10
438.7089
 20
419.5098
 10
438.8995
 20
419.153
 10
439.0556
 20
418.7506
 10
439.1769
 20
418.3025
 10
439.2636
 20
417.8088
 10
439.3156
 20
417.2695
 10
439.3329
 20
416.6846
 10
439.3329
 20
406.89
  0
LWPOLYLINE
  5
78
330
1F
100
AcDbEntity
  8
Layer 1
 62
     7
370
    18
100
AcDbPolyline
 90
       33
 70
     1
 43
0.0
 10
330.621
 20
431.4309
 10
332.5046
 20
431.1686
 10
334.259
 20
430.4165
 10
335.8467
 20
429.2263
 10
337.2299
 20
427.65
 10
338.3712
 20
425.7395
 10
339.233
 20
423.5468
 10
339.7776
 20
421.1237
 10
339.9675
 20
418.5222
 10
339.7776
 20
415.9207
 10
339.233
 20
413.4976
 10
338.3712
 20
411.3049
 10
337.2299
 20
409.3945
 10
335.8467
 20
407.8182
 10
334.259
 20
406.628
 10
332.5046
 20
405.8759
 10
330.621
 20
405.6136
 10
328.7374
 20
405.8759
 10
326.9829
 20
406.628
 10
325.3953
 20
407.8182
 10
324.012
 20
409.3945
 10
322.8707
 20
411.3049
 10
322.0089
 20
413.4976
 10
321.4643
 20
415.9207
 10
321.2744
 20
418.5222
 10
321.4643
 20
421.1237
 10
322.0089
 20
423.5468
 10
322.8707
 20
425.7395
 10
324.012
 20
427.65
 10
325.3953
 20
429.2263
 10
326.9829
 20
430.4165
 10
328.7374
 20
431.1686
 10
330.621
 20
431.4309
  0
LWPOLYLINE
  5
79
330
1F
100
AcDbEntity
  8
Layer 1
 62
     7
370
    18
100
AcDbPolyline
 90
        9
 70
     0
 43
0.0
 10
335.2668
 20
440.2008
 10
332.2859
 20
425.8176
 10
330.0215
 20
414.9419
 10
328.3753
 20
407.0837
 10
327.249
 20
401.753
 10
326.5441
 20
398.4598
 10
326.1624
 20
396.7141
 10
326.0055
 20
396.0261
 10
325.9751
 20
395.9056
  0
ENDSEC
  0
SECTION
  2
OBJECTS
  0
DICTIONARY
  5
C
330
0
100
AcDbDictionary
281
     1
  3
ACAD_DETAILVIEWSTYLE
350
81
  3
ACAD_GROUP
350
D
  3
ACAD_LAYOUT
350
1A
  3
ACAD_MATERIAL
350
43
  3
ACAD_MLEADERSTYLE
350
5B
  3
ACAD_MLINESTYLE
350
17
  3
ACAD_PLOTSETTINGS
350
19
  3
ACAD_PLOTSTYLENAME
350
E
  3
ACAD_SCALELIST
350
47
  3
ACAD_SECTIONVIEWSTYLE
350
82
  3
ACAD_TABLESTYLE
350
59
  3
ACAD_VISUALSTYLE
350
2A
  3
ACDB_RECOMPOSE_DATA
350
7E
  3
AcDbVariableDictionary
350
7A
  0
SUN
  5
5D
330
29
100
AcDbSun
 90
        1
290
     0
 63
     7
421
 16777215
 40
1.0
291
     1
 91
  2455826
 92
 54000000
292
     0
 70
     2
 71
   256
280
     1
  0
DICTIONARY
  5
81
102
{ACAD_REACTORS
330
C
102
}
330
C
100
AcDbDictionary
281
     1
  0
DICTIONARY
  5
D
102
{ACAD_REACTORS
330
C
102
}
330
C
100
AcDbDictionary
281
     1
  0
DICTIONARY
  5
1A
102
{ACAD_REACTORS
330
C
102
}
330
C
100
AcDbDictionary
281
     1
  3
Layout1
350
1E
  3
Layout2
350
26
  3
Model
350
22
  0
DICTIONARY
  5
43
102
{ACAD_REACTORS
330
C
102
}
330
C
100
AcDbDictionary
281
     1
  3
ByBlock
350
45
  3
ByLayer
350
44
  3
Global
350
46
  0
DICTIONARY
  5
5B
102
{ACAD_REACTORS
330
C
102
}
330
C
100
AcDbDictionary
281
     1
  3
Standard
350
5C
  0
DICTIONARY
  5
17
102
{ACAD_REACTORS
330
C
102
}
330
C
100
AcDbDictionary
281
     1
  3
Standard
350
18
  0
DICTIONARY
  5
19
102
{ACAD_REACTORS
330
C
102
}
330
C
100
AcDbDictionary
281
     1
  0
ACDBDICTIONARYWDFLT
  5
E
102
{ACAD_REACTORS
330
C
102
}
330
C
100
AcDbDictionary
281
     1
  3
Normal
350
F
100
AcDbDictionaryWithDefault
340
F
  0
DICTIONARY
  5
47
102
{ACAD_REACTORS
330
C
102
}
330
C
100
AcDbDictionary
281
     1
  3
A0
350
48
  3
A1
350
49
  3
A2
350
4A
  3
A3
350
4B
  3
A4
350
4C
  3
A5
350
4D
  3
A6
350
4E
  3
A7
350
4F
  3
A8
350
50
  3
A9
350
51
  3
B1
350
52
  3
B2
350
53
  3
B3
350
54
  3
B4
350
55
  3
B5
350
56
  3
B6
350
57
  3
B7
350
58
  0
DICTIONARY
  5
82
102
{ACAD_REACTORS
330
C
102
}
330
C
100
AcDbDictionary
281
     1
  0
DICTIONARY
  5
59
102
{ACAD_REACTORS
330
C
102
}
330
C
100
AcDbDictionary
281
     1
  3
Standard
350
5A
  0
DICTIONARY
  5
2A
102
{ACAD_REACTORS
330
C
102
}
330
C
100
AcDbDictionary
281
     1
  3
2dWireframe
350
2F
  3
Basic
350
32
  3
Brighten
350
36
  3
ColorChange
350
3A
  3
Conceptual
350
34
  3
Dim
350
35
  3
EdgeColorOff
350
3D
  3
Facepattern
350
39
  3
Flat
350
2B
  3
FlatWithEdges
350
2C
  3
Gouraud
350
2D
  3
GouraudWithEdges
350
2E
  3
Hidden
350
31
  3
JitterOff
350
3B
  3
Linepattern
350
38
  3
OverhangOff
350
3C
  3
Realistic
350
33
  3
Shaded
350
42
  3
Shaded with edges
350
41
  3
Shades of Gray
350
3E
  3
Sketchy
350
3F
  3
Thicken
350
37
  3
Wireframe
350
30
  3
X-Ray
350
40
  0
XRECORD
  5
7E
102
{ACAD_REACTORS
330
C
102
}
330
C
100
AcDbXrecord
280
     1
 90
        1
330
5A
  0
DICTIONARY
  5
7A
102
{ACAD_REACTORS
330
C
102
}
330
C
100
AcDbDictionary
281
     1
  3
CANNOSCALE
350
7B
  3
CMLEADERSTYLE
350
80
  3
CTABLESTYLE
350
7F
  0
LAYOUT
  5
1E
102
{ACAD_REACTORS
330
1A
102
}
330
1A
100
AcDbPlotSettings
  1

  2
none_device
  4

  6

 40
0.0
 41
0.0
 42
0.0
 43
0.0
 44
0.0
 45
0.0
 46
0.0
 47
0.0
 48
0.0
 49
0.0
140
0.0
141
0.0
142
1.0
143
1.0
 70
   688
 72
     0
 73
     0
 74
     5
  7

 75
    16
 76
     0
 77
     2
 78
   300
147
1.0
148
0.0
149
0.0
100
AcDbLayout
  1
Layout1
 70
     1
 71
     1
 10
0.0
 20
0.0
 11
12.0
 21
9.0
 12
0.0
 22
0.0
 32
0.0
 14
1.000000000000000E+20
 24
1.000000000000000E+20
 34
1.000000000000000E+20
 15
-1.000000000000000E+20
 25
-1.000000000000000E+20
 35
-1.000000000000000E+20
146
0.0
 13
0.0
 23
0.0
 33
0.0
 16
1.0
 26
0.0
 36
0.0
 17
0.0
 27
1.0
 37
0.0
 76
     0
330
1B
  0
LAYOUT
  5
26
102
{ACAD_REACTORS
330
1A
102
}
330
1A
100
AcDbPlotSettings
  1

  2
none_device
  4

  6

 40
0.0
 41
0.0
 42
0.0
 43
0.0
 44
0.0
 45
0.0
 46
0.0
 47
0.0
 48
0.0
 49
0.0
140
0.0
141
0.0
142
1.0
143
1.0
 70
   688
 72
     0
 73
     0
 74
     5
  7

 75
    16
 76
     0
 77
     2
 78
   300
147
1.0
148
0.0
149
0.0
100
AcDbLayout
  1
Layout2
 70
     1
 71
     2
 10
0.0
 20
0.0
 11
0.0
 21
0.0
 12
0.0
 22
0.0
 32
0.0
 14
0.0
 24
0.0
 34
0.0
 15
0.0
 25
0.0
 35
0.0
146
0.0
 13
0.0
 23
0.0
 33
0.0
 16
1.0
 26
0.0
 36
0.0
 17
0.0
 27
1.0
 37
0.0
 76
     0
330
23
  0
LAYOUT
  5
22
102
{ACAD_REACTORS
330
1A
102
}
330
1A
100
AcDbPlotSettings
  1

  2
none_device
  4
Letter_(8.50_x_11.00_Inches)
  6

 40
6.35
 41
6.35
 42
6.35000508
 43
6.35000508
 44
215.9
 45
279.4
 46
0.0
 47
0.0
 48
0.0
 49
0.0
140
0.0
141
0.0
142
1.0
143
1.0
 70
  1712
 72
     0
 73
     0
 74
     0
  7

 75
     0
 76
     0
 77
     2
 78
   300
147
1.0
148
0.0
149
0.0
100
AcDbLayout
  1
Model
 70
     1
 71
     0
 10
0.0
 20
0.0
 11
12.0
 21
9.0
 12
0.0
 22
0.0
 32
0.0
 14
204.5677
 24
-430.974
 34
0.0
 15
696.8047
 25
452.3952
 35
0.0
146
0.0
 13
0.0
 23
0.0
 33
0.0
 16
1.0
 26
0.0
 36
0.0
 17
0.0
 27
1.0
 37
0.0
 76
     0
330
1F
331
29
  0
MATERIAL
  5
45
102
{ACAD_REACTORS
330
43
102
}
330
43
100
AcDbMaterial
  1
ByBlock
 72
     1
 94
      127
  0
MATERIAL
  5
44
102
{ACAD_REACTORS
330
43
102
}
330
43
100
AcDbMaterial
  1
ByLayer
 72
     1
 94
      127
  0
MATERIAL
  5
46
102
{ACAD_REACTORS
330
43
102
}
330
43
100
AcDbMaterial
  1
Global
 72
     1
 94
      127
  0
MLEADERSTYLE
  5
5C
102
{ACAD_REACTORS
330
5B
102
}
330
5B
100
AcDbMLeaderStyle
179
     2
170
     2
171
     1
172
     0
 90
        2
 40
0.0
 41
0.0
173
     1
 91
-1056964608
340
14
 92
       -2
290
     1
 42
0.09
291
     1
 43
0.36
  3
Standard
341
0
 44
0.18
300

342
11
174
     1
178
     6
175
     1
176
     0
 93
-1056964608
 45
0.18
292
     0
297
     0
 46
0.18
343
0
 94
-1056964608
 47
1.0
 49
1.0
140
1.0
293
     1
141
0.0
294
     1
177
     0
142
1.0
295
     0
296
     0
143
0.125
271
     0
272
     9
273
     9
298
     0
  0
MLINESTYLE
  5
18
102
{ACAD_REACTORS
330
17
102
}
330
17
100
AcDbMlineStyle
  2
Standard
 70
     0
  3

 62
   256
 51
90.0
 52
90.0
 71
     2
 49
0.5
 62
   256
  6
BYLAYER
 49
-0.5
 62
   256
  6
BYLAYER
  0
ACDBPLACEHOLDER
  5
F
102
{ACAD_REACTORS
330
E
102
}
330
E
  0
SCALE
  5
48
102
{ACAD_REACTORS
330
47
102
}
330
47
100
AcDbScale
 70
     0
300
1:1
140
1.0
141
1.0
290
     1
  0
SCALE
  5
49
102
{ACAD_REACTORS
330
47
102
}
330
47
100
AcDbScale
 70
     0
300
1/128" = 1'-0"
140
0.0078125
141
12.0
290
     0
  0
SCALE
  5
4A
102
{ACAD_REACTORS
330
47
102
}
330
47
100
AcDbScale
 70
     0
300
1/64" = 1'-0"
140
0.015625
141
12.0
290
     0
  0
SCALE
  5
4B
102
{ACAD_REACTORS
330
47
102
}
330
47
100
AcDbScale
 70
     0
300
1/32" = 1'-0"
140
0.03125
141
12.0
290
     0
  0
SCALE
  5
4C
102
{ACAD_REACTORS
330
47
102
}
330
47
100
AcDbScale
 70
     0
300
1/16" = 1'-0"
140
0.0625
141
12.0
290
     0
  0
SCALE
  5
4D
102
{ACAD_REACTORS
330
47
102
}
330
47
100
AcDbScale
 70
     0
300
3/32" = 1'-0"
140
0.09375
141
12.0
290
     0
  0
SCALE
  5
4E
102
{ACAD_REACTORS
330
47
102
}
330
47
100
AcDbScale
 70
     0
300
1/8" = 1'-0"
140
0.125
141
12.0
290
     0
  0
SCALE
  5
4F
102
{ACAD_REACTORS
330
47
102
}
330
47
100
AcDbScale
 70
     0
300
3/16" = 1'-0"
140
0.1875
141
12.0
290
     0
  0
SCALE
  5
50
102
{ACAD_REACTORS
330
47
102
}
330
47
100
AcDbScale
 70
     0
300
1/4" = 1'-0"
140
0.25
141
12.0
290
     0
  0
SCALE
  5
51
102
{ACAD_REACTORS
330
47
102
}
330
47
100
AcDbScale
 70
     0
300
3/8" = 1'-0"
140
0.375
141
12.0
290
     0
  0
SCALE
  5
52
102
{ACAD_REACTORS
330
47
102
}
330
47
100
AcDbScale
 70
     0
300
1/2" = 1'-0"
140
0.5
141
12.0
290
     0
  0
SCALE
  5
53
102
{ACAD_REACTORS
330
47
102
}
330
47
100
AcDbScale
 70
     0
300
3/4" = 1'-0"
140
0.75
141
12.0
290
     0
  0
SCALE
  5
54
102
{ACAD_REACTORS
330
47
102
}
330
47
100
AcDbScale
 70
     0
300
1" = 1'-0"
140
1.0
141
12.0
290
     0
  0
SCALE
  5
55
102
{ACAD_REACTORS
330
47
102
}
330
47
100
AcDbScale
 70
     0
300
1-1/2" = 1'-0"
140
1.5
141
12.0
290
     0
  0
SCALE
  5
56
102
{ACAD_REACTORS
330
47
102
}
330
47
100
AcDbScale
 70
     0
300
3" = 1'-0"
140
3.0
141
12.0
290
     0
  0
SCALE
  5
57
102
{ACAD_REACTORS
330
47
102
}
330
47
100
AcDbScale
 70
     0
300
6" = 1'-0"
140
6.0
141
12.0
290
     0
  0
SCALE
  5
58
102
{ACAD_REACTORS
330
47
102
}
330
47
100
AcDbScale
 70
     0
300
1'-0" = 1'-0"
140
12.0
141
12.0
290
     0
  0
TABLESTYLE
  5
5A
102
{ACAD_REACTORS
330
59
102
}
102
{ACAD_XDICTIONARY
360
7C
102
}
330
59
100
AcDbTableStyle
  3
Standard
 70
     0
 71
     0
 40
0.06
 41
0.06
280
     0
281
     0
  7
Standard
140
0.18
170
     2
 62
     0
 63
   257
283
     0
 90
        4
 91
        0
  1

274
    -2
284
     1
 64
     0
275
    -2
285
     1
 65
     0
276
    -2
286
     1
 66
     0
277
    -2
287
     1
 67
     0
278
    -2
288
     1
 68
     0
279
    -2
289
     1
 69
     0
  7
Standard
140
0.25
170
     5
 62
     0
 63
   257
283
     0
 90
        4
 91
        0
  1

274
    -2
284
     1
 64
     0
275
    -2
285
     1
 65
     0
276
    -2
286
     1
 66
     0
277
    -2
287
     1
 67
     0
278
    -2
288
     1
 68
     0
279
    -2
289
     1
 69
     0
  7
Standard
140
0.18
170
     5
 62
     0
 63
   257
283
     0
 90
        4
 91
        0
  1

274
    -2
284
     1
 64
     0
275
    -2
285
     1
 65
     0
276
    -2
286
     1
 66
     0
277
    -2
287
     1
 67
     0
278
    -2
288
     1
 68
     0
279
    -2
289
     1
 69
     0
  0
VISUALSTYLE
  5
2F
102
{ACAD_REACTORS
330
2A
102
}
330
2A
100
AcDbVisualStyle
  2
2dWireframe
 70
     4
177
     3
291
     0
 70
    58
 90
        0
176
     1
 90
        2
176
     1
 90
        0
176
     1
 90
        0
176
     1
 40
0.6
176
     1
 40
30.0
176
     1
 62
     7
420
 16777215
176
     1
 90
        1
176
     1
 90
        4
176
     1
 62
     7
176
     1
 62
   257
176
     1
 90
        1
176
     1
 90
        1
176
     1
 40
1.0
176
     1
 90
        0
176
     1
 62
   257
176
     1
 40
1.0
176
     1
 90
        1
176
     1
 90
        6
176
     1
 90
        2
176
     1
 62
     7
176
     1
 90
        5
176
     1
 90
        0
176
     1
 90
        0
176
     1
290
     0
176
     1
 90
        1
176
     1
 40
0.0
176
     1
 90
        0
176
     1
290
     1
176
     1
290
     1
176
     1
290
     0
176
     1
290
     0
176
     1
290
     0
176
     1
290
     0
176
     1
290
     0
176
     1
290
     0
176
     1
290
     0
176
     1
 90
       50
176
     1
 40
0.0
176
     1
 40
1.0
176
     1
 90
        0
176
     1
 62
    18
420
        0
176
     1
 90
       50
176
     1
 90
        3
176
     1
 62
     5
420
      255
176
     1
290
     0
176
     1
 90
       50
176
     1
 90
       50
176
     1
 90
       50
176
     1
290
     0
176
     1
 90
       50
176
     1
 62
   256
176
     0
 40
1.0
176
     0
 90
        2
176
     1
  1
strokes_ogs.tif
176
     1
290
     0
176
     1
 40
1.0
176
     1
 40
1.0
176
     1
  0
VISUALSTYLE
  5
32
102
{ACAD_REACTORS
330
2A
102
}
330
2A
100
AcDbVisualStyle
  2
Basic
 70
     7
177
     3
291
     1
 70
    58
 90
        1
176
     1
 90
        0
176
     1
 90
        1
176
     1
 90
        0
176
     1
 40
0.6
176
     1
 40
30.0
176
     1
 62
     7
420
 16777215
176
     1
 90
        0
176
     1
 90
        4
176
     1
 62
     7
176
     1
 62
   257
176
     1
 90
        1
176
     1
 90
        1
176
     1
 40
1.0
176
     1
 90
        8
176
     1
 62
     7
176
     1
 40
1.0
176
     1
 90
        1
176
     1
 90
        6
176
     1
 90
        2
176
     1
 62
     7
176
     1
 90
        5
176
     1
 90
        0
176
     1
 90
        0
176
     1
290
     0
176
     1
 90
        1
176
     1
 40
0.0
176
     1
 90
        0
176
     1
290
     0
176
     1
290
     1
176
     1
290
     1
176
     1
290
     0
176
     1
290
     0
176
     1
290
     0
176
     1
290
     0
176
     1
290
     0
176
     1
290
     0
176
     1
 90
       50
176
     1
 40
0.0
176
     1
 40
1.0
176
     1
 90
        0
176
     1
 62
    18
420
        0
176
     1
 90
       50
176
     1
 90
        3
176
     1
 62
     5
420
      255
176
     1
290
     0
176
     1
 90
       50
176
     1
 90
       50
176
     1
 90
       50
176
     1
290
     0
176
     1
 90
       50
176
     1
 62
   256
176
     0
 40
1.0
176
     0
 90
        2
176
     1
  1
strokes_ogs.tif
176
     1
290
     0
176
     1
 40
1.0
176
     1
 40
1.0
176
     1
  0
VISUALSTYLE
  5
36
102
{ACAD_REACTORS
330
2A
102
}
330
2A
100
AcDbVisualStyle
  2
Brighten
 70
    12
177
     3
291
     1
 70
    58
 90
        2
176
     1
 90
        2
176
     1
 90
        0
176
     1
 90
        0
176
     1
 40
0.6
176
     1
 40
30.0
176
     1
 62
     7
420
 16777215
176
     1
 90
        1
176
     1
 90
        4
176
     1
 62
     7
176
     1
 62
   257
176
     1
 90
        1
176
     1
 90
        1
176
     1
 40
1.0
176
     1
 90
        8
176
     1
 62
     7
176
     1
 40
1.0
176
     1
 90
        1
176
     1
 90
        6
176
     1
 90
        2
176
     1
 62
     7
176
     1
 90
        5
176
     1
 90
        0
176
     1
 90
        0
176
     1
290
     0
176
     1
 90
        1
176
     1
 40
50.0
176
     1
 90
        0
176
     1
290
     0
176
     1
290
     1
176
     1
290
     1
176
     1
290
     0
176
     1
290
     0
176
     1
290
     0
176
     1
290
     0
176
     1
290
     0
176
     1
290
     0
176
     1
 90
       50
176
     1
 40
0.0
176
     1
 40
1.0
176
     1
 90
        0
176
     1
 62
    18
420
        0
176
     1
 90
       50
176
     1
 90
        3
176
     1
 62
     5
420
      255
176
     1
290
     0
176
     1
 90
       50
176
     1
 90
       50
176
     1
 90
       50
176
     1
290
     0
176
     1
 90
       50
176
     1
 62
   256
176
     0
 40
1.0
176
     0
 90
        2
176
     1
  1
strokes_ogs.tif
176
     1
290
     0
176
     1
 40
1.0
176
     1
 40
1.0
176
     1
  0
VISUALSTYLE
  5
3A
102
{ACAD_REACTORS
330
2A
102
}
330
2A
100
AcDbVisualStyle
  2
ColorChange
 70
    16
177
     3
291
     1
 70
    58
 90
        2
176
     1
 90
        2
176
     1
 90
        3
176
     1
 90
        0
176
     1
 40
0.6
176
     1
 40
30.0
176
     1
 62
     8
420
  8421504
176
     1
 90
        1
176
     1
 90
        4
176
     1
 62
     7
176
     1
 62
   257
176
     1
 90
        1
176
     1
 90
        1
176
     1
 40
1.0
176
     1
 90
        8
176
     1
 62
     8
420
  8421504
176
     1
 40
1.0
176
     1
 90
        1
176
     1
 90
        6
176
     1
 90
        2
176
     1
 62
     7
176
     1
 90
        5
176
     1
 90
        0
176
     1
 90
        0
176
     1
290
     0
176
     1
 90
        1
176
     1
 40
0.0
176
     1
 90
        0
176
     1
290
     0
176
     1
290
     1
176
     1
290
     1
176
     1
290
     0
176
     1
290
     0
176
     1
290
     0
176
     1
290
     0
176
     1
290
     0
176
     1
290
     0
176
     1
 90
       50
176
     1
 40
0.0
176
     1
 40
1.0
176
     1
 90
        0
176
     1
 62
    18
420
        0
176
     1
 90
       50
176
     1
 90
        3
176
     1
 62
     5
420
      255
176
     1
290
     0
176
     1
 90
       50
176
     1
 90
       50
176
     1
 90
       50
176
     1
290
     0
176
     1
 90
       50
176
     1
 62
   256
176
     0
 40
1.0
176
     0
 90
        2
176
     1
  1
strokes_ogs.tif
176
     1
290
     0
176
     1
 40
1.0
176
     1
 40
1.0
176
     1
  0
VISUALSTYLE
  5
34
102
{ACAD_REACTORS
330
2A
102
}
330
2A
100
AcDbVisualStyle
  2
Conceptual
 70
     9
177
     3
291
     0
 70
    58
 90
        3
176
     1
 90
        2
176
     1
 90
        0
176
     1
 90
        0
176
     1
 40
0.6
176
     1
 40
30.0
176
     1
 62
     7
420
 16777215
176
     1
 90
        2
176
     1
 90
        2
176
     1
 62
     7
176
     1
 62
   257
176
     1
 90
        1
176
     1
 90
        1
176
     1
 40
179.0
176
     1
 90
        8
176
     1
 62
     7
176
     1
 40
1.0
176
     1
 90
        1
176
     1
 90
        6
176
     1
 90
        2
176
     1
 62
     7
176
     1
 90
        3
176
     1
 90
        0
176
     1
 90
        0
176
     1
290
     0
176
     1
 90
        1
176
     1
 40
0.0
176
     1
 90
        0
176
     1
290
     0
176
     1
290
     1
176
     1
290
     1
176
     1
290
     0
176
     1
290
     0
176
     1
290
     0
176
     1
290
     0
176
     1
290
     0
176
     1
290
     0
176
     1
 90
       50
176
     1
 40
0.0
176
     1
 40
1.0
176
     1
 90
        0
176
     1
 62
    18
420
        0
176
     1
 90
       50
176
     1
 90
        3
176
     1
 62
     5
420
      255
176
     1
290
     0
176
     1
 90
       50
176
     1
 90
       50
176
     1
 90
       50
176
     1
290
     0
176
     1
 90
       50
176
     1
 62
   256
176
     0
 40
1.0
176
     0
 90
        2
176
     1
  1
strokes_ogs.tif
176
     1
290
     0
176
     1
 40
1.0
176
     1
 40
1.0
176
     1
  0
VISUALSTYLE
  5
35
102
{ACAD_REACTORS
330
2A
102
}
330
2A
100
AcDbVisualStyle
  2
Dim
 70
    11
177
     3
291
     1
 70
    58
 90
        2
176
     1
 90
        2
176
     1
 90
        0
176
     1
 90
        0
176
     1
 40
0.6
176
     1
 40
30.0
176
     1
 62
     7
420
 16777215
176
     1
 90
        1
176
     1
 90
        4
176
     1
 62
     7
176
     1
 62
   257
176
     1
 90
        1
176
     1
 90
        1
176
     1
 40
1.0
176
     1
 90
        8
176
     1
 62
     7
176
     1
 40
1.0
176
     1
 90
        1
176
     1
 90
        6
176
     1
 90
        2
176
     1
 62
     7
176
     1
 90
        5
176
     1
 90
        0
176
     1
 90
        0
176
     1
290
     0
176
     1
 90
        1
176
     1
 40
-50.0
176
     1
 90
        0
176
     1
290
     0
176
     1
290
     1
176
     1
290
     1
176
     1
290
     0
176
     1
290
     0
176
     1
290
     0
176
     1
290
     0
176
     1
290
     0
176
     1
290
     0
176
     1
 90
       50
176
     1
 40
0.0
176
     1
 40
1.0
176
     1
 90
        0
176
     1
 62
    18
420
        0
176
     1
 90
       50
176
     1
 90
        3
176
     1
 62
     5
420
      255
176
     1
290
     0
176
     1
 90
       50
176
     1
 90
       50
176
     1
 90
       50
176
     1
290
     0
176
     1
 90
       50
176
     1
 62
   256
176
     0
 40
1.0
176
     0
 90
        2
176
     1
  1
strokes_ogs.tif
176
     1
290
     0
176
     1
 40
1.0
176
     1
 40
1.0
176
     1
  0
VISUALSTYLE
  5
3D
102
{ACAD_REACTORS
330
2A
102
}
330
2A
100
AcDbVisualStyle
  2
EdgeColorOff
 70
    22
177
     3
291
     1
 70
    58
 90
        2
176
     0
 90
        2
176
     0
 90
        0
176
     0
 90
        0
176
     0
 40
0.6
176
     0
 40
30.0
176
     0
 62
     7
420
 16777215
176
     0
 90
        1
176
     0
 90
        4
176
     0
 62
     7
176
     0
 62
   257
176
     0
 90
        1
176
     0
 90
        1
176
     0
 40
1.0
176
     0
 90
        8
176
     2
 62
     7
176
     0
 40
1.0
176
     0
 90
        1
176
     0
 90
        6
176
     0
 90
        2
176
     0
 62
     7
176
     0
 90
        5
176
     0
 90
        0
176
     0
 90
        0
176
     0
290
     0
176
     0
 90
        1
176
     0
 40
0.0
176
     0
 90
        0
176
     0
290
     0
176
     0
290
     1
176
     0
290
     1
176
     0
290
     0
176
     0
290
     0
176
     0
290
     0
176
     0
290
     0
176
     0
290
     0
176
     0
290
     0
176
     0
 90
       50
176
     0
 40
0.0
176
     0
 40
1.0
176
     0
 90
        0
176
     0
 62
    18
420
        0
176
     0
 90
       50
176
     0
 90
        3
176
     0
 62
     5
420
      255
176
     0
290
     0
176
     0
 90
       50
176
     0
 90
       50
176
     0
 90
       50
176
     0
290
     0
176
     0
 90
       50
176
     0
 62
   256
176
     0
 40
1.0
176
     0
 90
        2
176
     0
  1
strokes_ogs.tif
176
     0
290
     0
176
     0
 40
1.0
176
     0
 40
1.0
176
     0
  0
VISUALSTYLE
  5
39
102
{ACAD_REACTORS
330
2A
102
}
330
2A
100
AcDbVisualStyle
  2
Facepattern
 70
    15
177
     3
291
     1
 70
    58
 90
        2
176
     1
 90
        2
176
     1
 90
        0
176
     1
 90
        0
176
     1
 40
0.6
176
     1
 40
30.0
176
     1
 62
     7
420
 16777215
176
     1
 90
        1
176
     1
 90
        4
176
     1
 62
     7
176
     1
 62
   257
176
     1
 90
        1
176
     1
 90
        1
176
     1
 40
1.0
176
     1
 90
        8
176
     1
 62
     7
176
     1
 40
1.0
176
     1
 90
        1
176
     1
 90
        6
176
     1
 90
        2
176
     1
 62
     7
176
     1
 90
        5
176
     1
 90
        0
176
     1
 90
        0
176
     1
290
     0
176
     1
 90
        1
176
     1
 40
0.0
176
     1
 90
        0
176
     1
290
     0
176
     1
290
     1
176
     1
290
     1
176
     1
290
     0
176
     1
290
     0
176
     1
290
     0
176
     1
290
     0
176
     1
290
     0
176
     1
290
     0
176
     1
 90
       50
176
     1
 40
0.0
176
     1
 40
1.0
176
     1
 90
        0
176
     1
 62
    18
420
        0
176
     1
 90
       50
176
     1
 90
        3
176
     1
 62
     5
420
      255
176
     1
290
     0
176
     1
 90
       50
176
     1
 90
       50
176
     1
 90
       50
176
     1
290
     0
176
     1
 90
       50
176
     1
 62
   256
176
     0
 40
1.0
176
     0
 90
        2
176
     1
  1
strokes_ogs.tif
176
     1
290
     0
176
     1
 40
1.0
176
     1
 40
1.0
176
     1
  0
VISUALSTYLE
  5
2B
102
{ACAD_REACTORS
330
2A
102
}
330
2A
100
AcDbVisualStyle
  2
Flat
 70
     0
177
     3
291
     1
 70
    58
 90
        2
176
     1
 90
        1
176
     1
 90
        1
176
     1
 90
        2
176
     1
 40
0.6
176
     1
 40
30.0
176
     1
 62
     7
420
 16777215
176
     1
 90
        0
176
     1
 90
        0
176
     1
 62
     7
176
     1
 62
   257
176
     1
 90
        1
176
     1
 90
        1
176
     1
 40
1.0
176
     1
 90
        8
176
     1
 62
     7
176
     1
 40
1.0
176
     1
 90
        1
176
     1
 90
        6
176
     1
 90
        2
176
     1
 62
     7
176
     1
 90
        5
176
     1
 90
        0
176
     1
 90
        0
176
     1
290
     0
176
     1
 90
       13
176
     1
 40
0.0
176
     1
 90
        0
176
     1
290
     0
176
     1
290
     1
176
     1
290
     1
176
     1
290
     0
176
     1
290
     0
176
     1
290
     0
176
     1
290
     0
176
     1
290
     0
176
     1
290
     0
176
     1
 90
       50
176
     1
 40
0.0
176
     1
 40
1.0
176
     1
 90
        0
176
     1
 62
    18
420
        0
176
     1
 90
       50
176
     1
 90
        3
176
     1
 62
     5
420
      255
176
     1
290
     0
176
     1
 90
       50
176
     1
 90
       50
176
     1
 90
       50
176
     1
290
     0
176
     1
 90
       50
176
     1
 62
   256
176
     0
 40
1.0
176
     0
 90
        2
176
     1
  1
strokes_ogs.tif
176
     1
290
     0
176
     1
 40
1.0
176
     1
 40
1.0
176
     1
  0
VISUALSTYLE
  5
2C
102
{ACAD_REACTORS
330
2A
102
}
330
2A
100
AcDbVisualStyle
  2
FlatWithEdges
 70
     1
177
     3
291
     1
 70
    58
 90
        2
176
     1
 90
        1
176
     1
 90
        1
176
     1
 90
        2
176
     1
 40
0.6
176
     1
 40
30.0
176
     1
 62
     7
420
 16777215
176
     1
 90
        1
176
     1
 90
        0
176
     1
 62
     7
176
     1
 62
   257
176
     1
 90
        1
176
     1
 90
        1
176
     1
 40
1.0
176
     1
 90
        0
176
     1
 62
   257
176
     1
 40
1.0
176
     1
 90
        1
176
     1
 90
        6
176
     1
 90
        2
176
     1
 62
     7
176
     1
 90
        5
176
     1
 90
        0
176
     1
 90
        0
176
     1
290
     0
176
     1
 90
       13
176
     1
 40
0.0
176
     1
 90
        0
176
     1
290
     0
176
     1
290
     1
176
     1
290
     1
176
     1
290
     0
176
     1
290
     0
176
     1
290
     0
176
     1
290
     0
176
     1
290
     0
176
     1
290
     0
176
     1
 90
       50
176
     1
 40
0.0
176
     1
 40
1.0
176
     1
 90
        0
176
     1
 62
    18
420
        0
176
     1
 90
       50
176
     1
 90
        3
176
     1
 62
     5
420
      255
176
     1
290
     0
176
     1
 90
       50
176
     1
 90
       50
176
     1
 90
       50
176
     1
290
     0
176
     1
 90
       50
176
     1
 62
   256
176
     0
 40
1.0
176
     0
 90
        2
176
     1
  1
strokes_ogs.tif
176
     1
290
     0
176
     1
 40
1.0
176
     1
 40
1.0
176
     1
  0
VISUALSTYLE
  5
2D
102
{ACAD_REACTORS
330
2A
102
}
330
2A
100
AcDbVisualStyle
  2
Gouraud
 70
     2
177
     3
291
     1
 70
    58
 90
        2
176
     1
 90
        2
176
     1
 90
        1
176
     1
 90
        2
176
     1
 40
0.6
176
     1
 40
30.0
176
     1
 62
     7
420
 16777215
176
     1
 90
        0
176
     1
 90
        0
176
     1
 62
     7
176
     1
 62
   257
176
     1
 90
        1
176
     1
 90
        1
176
     1
 40
1.0
176
     1
 90
        0
176
     1
 62
     7
176
     1
 40
1.0
176
     1
 90
        1
176
     1
 90
        6
176
     1
 90
        2
176
     1
 62
     7
176
     1
 90
        5
176
     1
 90
        0
176
     1
 90
        0
176
     1
290
     0
176
     1
 90
       13
176
     1
 40
0.0
176
     1
 90
        0
176
     1
290
     0
176
     1
290
     1
176
     1
290
     1
176
     1
290
     0
176
     1
290
     0
176
     1
290
     0
176
     1
290
     0
176
     1
290
     0
176
     1
290
     0
176
     1
 90
       50
176
     1
 40
0.0
176
     1
 40
1.0
176
     1
 90
        0
176
     1
 62
    18
420
        0
176
     1
 90
       50
176
     1
 90
        3
176
     1
 62
     5
420
      255
176
     1
290
     0
176
     1
 90
       50
176
     1
 90
       50
176
     1
 90
       50
176
     1
290
     0
176
     1
 90
       50
176
     1
 62
   256
176
     0
 40
1.0
176
     0
 90
        2
176
     1
  1
strokes_ogs.tif
176
     1
290
     0
176
     1
 40
1.0
176
     1
 40
1.0
176
     1
  0
VISUALSTYLE
  5
2E
102
{ACAD_REACTORS
330
2A
102
}
330
2A
100
AcDbVisualStyle
  2
GouraudWithEdges
 70
     3
177
     3
291
     1
 70
    58
 90
        2
176
     1
 90
        2
176
     1
 90
        1
176
     1
 90
        2
176
     1
 40
0.6
176
     1
 40
30.0
176
     1
 62
     7
420
 16777215
176
     1
 90
        1
176
     1
 90
        0
176
     1
 62
     7
176
     1
 62
   257
176
     1
 90
        1
176
     1
 90
        1
176
     1
 40
1.0
176
     1
 90
        0
176
     1
 62
   257
176
     1
 40
1.0
176
     1
 90
        1
176
     1
 90
        6
176
     1
 90
        2
176
     1
 62
     7
176
     1
 90
        5
176
     1
 90
        0
176
     1
 90
        0
176
     1
290
     0
176
     1
 90
       13
176
     1
 40
0.0
176
     1
 90
        0
176
     1
290
     0
176
     1
290
     1
176
     1
290
     1
176
     1
290
     0
176
     1
290
     0
176
     1
290
     0
176
     1
290
     0
176
     1
290
     0
176
     1
290
     0
176
     1
 90
       50
176
     1
 40
0.0
176
     1
 40
1.0
176
     1
 90
        0
176
     1
 62
    18
420
        0
176
     1
 90
       50
176
     1
 90
        3
176
     1
 62
     5
420
      255
176
     1
290
     0
176
     1
 90
       50
176
     1
 90
       50
176
     1
 90
       50
176
     1
290
     0
176
     1
 90
       50
176
     1
 62
   256
176
     0
 40
1.0
176
     0
 90
        2
176
     1
  1
strokes_ogs.tif
176
     1
290
     0
176
     1
 40
1.0
176
     1
 40
1.0
176
     1
  0
VISUALSTYLE
  5
31
102
{ACAD_REACTORS
330
2A
102
}
330
2A
100
AcDbVisualStyle
  2
Hidden
 70
     6
177
     3
291
     0
 70
    58
 90
        1
176
     1
 90
        2
176
     1
 90
        2
176
     1
 90
        0
176
     1
 40
0.6
176
     1
 40
30.0
176
     1
 62
     7
420
 16777215
176
     1
 90
        2
176
     1
 90
        2
176
     1
 62
     7
176
     1
 62
   257
176
     1
 90
        2
176
     1
 90
        1
176
     1
 40
40.0
176
     1
 90
        0
176
     1
 62
   257
176
     1
 40
1.0
176
     1
 90
        1
176
     1
 90
        6
176
     1
 90
        2
176
     1
 62
     7
176
     1
 90
        3
176
     1
 90
        0
176
     1
 90
        0
176
     1
290
     0
176
     1
 90
        1
176
     1
 40
0.0
176
     1
 90
        0
176
     1
290
     0
176
     1
290
     1
176
     1
290
     1
176
     1
290
     0
176
     1
290
     0
176
     1
290
     0
176
     1
290
     0
176
     1
290
     0
176
     1
290
     0
176
     1
 90
       50
176
     1
 40
0.0
176
     1
 40
1.0
176
     1
 90
        0
176
     1
 62
    18
420
        0
176
     1
 90
       50
176
     1
 90
        3
176
     1
 62
     5
420
      255
176
     1
290
     0
176
     1
 90
       50
176
     1
 90
       50
176
     1
 90
       50
176
     1
290
     0
176
     1
 90
       50
176
     1
 62
   256
176
     0
 40
1.0
176
     0
 90
        2
176
     1
  1
strokes_ogs.tif
176
     1
290
     0
176
     1
 40
1.0
176
     1
 40
1.0
176
     1
  0
VISUALSTYLE
  5
3B
102
{ACAD_REACTORS
330
2A
102
}
330
2A
100
AcDbVisualStyle
  2
JitterOff
 70
    20
177
     3
291
     1
 70
    58
 90
        2
176
     0
 90
        2
176
     0
 90
        0
176
     0
 90
        0
176
     0
 40
0.6
176
     0
 40
30.0
176
     0
 62
     7
420
 16777215
176
     0
 90
        1
176
     0
 90
        4
176
     0
 62
     7
176
     0
 62
   257
176
     0
 90
        1
176
     0
 90
        1
176
     0
 40
1.0
176
     0
 90
       10
176
     2
 62
     7
176
     0
 40
1.0
176
     0
 90
        1
176
     0
 90
        6
176
     0
 90
        2
176
     0
 62
     7
176
     0
 90
        5
176
     0
 90
        0
176
     0
 90
        0
176
     0
290
     0
176
     0
 90
        1
176
     0
 40
0.0
176
     0
 90
        0
176
     0
290
     0
176
     0
290
     1
176
     0
290
     1
176
     0
290
     0
176
     0
290
     0
176
     0
290
     0
176
     0
290
     0
176
     0
290
     0
176
     0
290
     0
176
     0
 90
       50
176
     0
 40
0.0
176
     0
 40
1.0
176
     0
 90
        0
176
     0
 62
    18
420
        0
176
     0
 90
       50
176
     0
 90
        3
176
     0
 62
     5
420
      255
176
     0
290
     0
176
     0
 90
       50
176
     0
 90
       50
176
     0
 90
       50
176
     0
290
     0
176
     0
 90
       50
176
     0
 62
   256
176
     0
 40
1.0
176
     0
 90
        2
176
     0
  1
strokes_ogs.tif
176
     0
290
     0
176
     0
 40
1.0
176
     0
 40
1.0
176
     0
  0
VISUALSTYLE
  5
38
102
{ACAD_REACTORS
330
2A
102
}
330
2A
100
AcDbVisualStyle
  2
Linepattern
 70
    14
177
     3
291
     1
 70
    58
 90
        2
176
     1
 90
        2
176
     1
 90
        0
176
     1
 90
        0
176
     1
 40
0.6
176
     1
 40
30.0
176
     1
 62
     7
420
 16777215
176
     1
 90
        1
176
     1
 90
        4
176
     1
 62
     7
176
     1
 62
   257
176
     1
 90
        7
176
     1
 90
        7
176
     1
 40
1.0
176
     1
 90
        8
176
     1
 62
     7
176
     1
 40
1.0
176
     1
 90
        1
176
     1
 90
        6
176
     1
 90
        2
176
     1
 62
     7
176
     1
 90
        5
176
     1
 90
        0
176
     1
 90
        0
176
     1
290
     0
176
     1
 90
        1
176
     1
 40
0.0
176
     1
 90
        0
176
     1
290
     0
176
     1
290
     1
176
     1
290
     1
176
     1
290
     0
176
     1
290
     0
176
     1
290
     0
176
     1
290
     0
176
     1
290
     0
176
     1
290
     0
176
     1
 90
       50
176
     1
 40
0.0
176
     1
 40
1.0
176
     1
 90
        0
176
     1
 62
    18
420
        0
176
     1
 90
       50
176
     1
 90
        3
176
     1
 62
     5
420
      255
176
     1
290
     0
176
     1
 90
       50
176
     1
 90
       50
176
     1
 90
       50
176
     1
290
     0
176
     1
 90
       50
176
     1
 62
   256
176
     0
 40
1.0
176
     0
 90
        2
176
     1
  1
strokes_ogs.tif
176
     1
290
     0
176
     1
 40
1.0
176
     1
 40
1.0
176
     1
  0
VISUALSTYLE
  5
3C
102
{ACAD_REACTORS
330
2A
102
}
330
2A
100
AcDbVisualStyle
  2
OverhangOff
 70
    21
177
     3
291
     1
 70
    58
 90
        2
176
     0
 90
        2
176
     0
 90
        0
176
     0
 90
        0
176
     0
 40
0.6
176
     0
 40
30.0
176
     0
 62
     7
420
 16777215
176
     0
 90
        1
176
     0
 90
        4
176
     0
 62
     7
176
     0
 62
   257
176
     0
 90
        1
176
     0
 90
        1
176
     0
 40
1.0
176
     0
 90
        9
176
     2
 62
     7
176
     0
 40
1.0
176
     0
 90
        1
176
     0
 90
        6
176
     0
 90
        2
176
     0
 62
     7
176
     0
 90
        5
176
     0
 90
        0
176
     0
 90
        0
176
     0
290
     0
176
     0
 90
        1
176
     0
 40
0.0
176
     0
 90
        0
176
     0
290
     0
176
     0
290
     1
176
     0
290
     1
176
     0
290
     0
176
     0
290
     0
176
     0
290
     0
176
     0
290
     0
176
     0
290
     0
176
     0
290
     0
176
     0
 90
       50
176
     0
 40
0.0
176
     0
 40
1.0
176
     0
 90
        0
176
     0
 62
    18
420
        0
176
     0
 90
       50
176
     0
 90
        3
176
     0
 62
     5
420
      255
176
     0
290
     0
176
     0
 90
       50
176
     0
 90
       50
176
     0
 90
       50
176
     0
290
     0
176
     0
 90
       50
176
     0
 62
   256
176
     0
 40
1.0
176
     0
 90
        2
176
     0
  1
strokes_ogs.tif
176
     0
290
     0
176
     0
 40
1.0
176
     0
 40
1.0
176
     0
  0
VISUALSTYLE
  5
33
102
{ACAD_REACTORS
330
2A
102
}
330
2A
100
AcDbVisualStyle
  2
Realistic
 70
     8
177
     3
291
     0
 70
    58
 90
        2
176
     1
 90
        3
176
     1
 90
        0
176
     1
 90
        2
176
     1
 40
0.6
176
     1
 40
30.0
176
     1
 62
     7
420
 16777215
176
     1
 90
        0
176
     1
 90
        0
176
     1
 62
     7
176
     1
 62
   257
176
     1
 90
        1
176
     1
 90
        1
176
     1
 40
1.0
176
     1
 90
        8
176
     1
 62
   257
176
     1
 40
1.0
176
     1
 90
        1
176
     1
 90
        6
176
     1
 90
        2
176
     1
 62
     7
176
     1
 90
        3
176
     1
 90
        0
176
     1
 90
        0
176
     1
290
     0
176
     1
 90
       13
176
     1
 40
0.0
176
     1
 90
        0
176
     1
290
     0
176
     1
290
     1
176
     1
290
     1
176
     1
290
     0
176
     1
290
     0
176
     1
290
     0
176
     1
290
     0
176
     1
290
     0
176
     1
290
     0
176
     1
 90
       50
176
     1
 40
0.0
176
     1
 40
1.0
176
     1
 90
        0
176
     1
 62
    18
420
        0
176
     1
 90
       50
176
     1
 90
        3
176
     1
 62
     5
420
      255
176
     1
290
     0
176
     1
 90
       50
176
     1
 90
       50
176
     1
 90
       50
176
     1
290
     0
176
     1
 90
       50
176
     1
 62
   256
176
     0
 40
1.0
176
     0
 90
        2
176
     1
  1
strokes_ogs.tif
176
     1
290
     0
176
     1
 40
1.0
176
     1
 40
1.0
176
     1
  0
VISUALSTYLE
  5
42
102
{ACAD_REACTORS
330
2A
102
}
330
2A
100
AcDbVisualStyle
  2
Shaded
 70
    27
177
     3
291
     0
 70
    58
 90
        2
176
     1
 90
        2
176
     1
 90
        1
176
     1
 90
        2
176
     1
 40
0.6
176
     1
 40
30.0
176
     1
 62
     7
420
 16777215
176
     1
 90
        0
176
     1
 90
        4
176
     1
 62
     7
176
     1
 62
   257
176
     1
 90
        1
176
     1
 90
        1
176
     1
 40
1.0
176
     1
 90
        8
176
     1
 62
   257
176
     1
 40
1.0
176
     1
 90
        1
176
     1
 90
        6
176
     1
 90
        2
176
     1
 62
     8
420
  7895160
176
     1
 90
        3
176
     1
 90
        0
176
     1
 90
        0
176
     1
290
     0
176
     1
 90
        5
176
     1
 40
0.0
176
     1
 90
        0
176
     1
290
     0
176
     1
290
     1
176
     1
290
     1
176
     1
290
     0
176
     1
290
     0
176
     1
290
     0
176
     1
290
     0
176
     1
290
     0
176
     1
290
     0
176
     1
 90
       50
176
     1
 40
0.0
176
     1
 40
1.0
176
     1
 90
        0
176
     1
 62
    18
420
        0
176
     1
 90
       50
176
     1
 90
        3
176
     1
 62
     5
420
      255
176
     1
290
     0
176
     1
 90
       50
176
     1
 90
       50
176
     1
 90
       50
176
     1
290
     0
176
     1
 90
       50
176
     1
 62
   256
176
     0
 40
1.0
176
     0
 90
        2
176
     1
  1
strokes_ogs.tif
176
     1
290
     0
176
     1
 40
1.0
176
     1
 40
1.0
176
     1
  0
VISUALSTYLE
  5
41
102
{ACAD_REACTORS
330
2A
102
}
330
2A
100
AcDbVisualStyle
  2
Shaded with edges
 70
    26
177
     3
291
     0
 70
    58
 90
        2
176
     1
 90
        2
176
     1
 90
        1
176
     1
 90
        2
176
     1
 40
0.6
176
     1
 40
30.0
176
     1
 62
     7
420
 16777215
176
     1
 90
        1
176
     1
 90
       10
176
     1
 62
     7
176
     1
 62
   257
176
     1
 90
        2
176
     1
 90
        1
176
     1
 40
1.0
176
     1
 90
        8
176
     1
 62
   257
176
     1
 40
1.0
176
     1
 90
        1
176
     1
 90
        6
176
     1
 90
        2
176
     1
 62
     7
176
     1
 90
        3
176
     1
 90
        0
176
     1
 90
        0
176
     1
290
     0
176
     1
 90
        5
176
     1
 40
0.0
176
     1
 90
        0
176
     1
290
     0
176
     1
290
     1
176
     1
290
     1
176
     1
290
     0
176
     1
290
     0
176
     1
290
     0
176
     1
290
     0
176
     1
290
     0
176
     1
290
     0
176
     1
 90
       50
176
     1
 40
0.0
176
     1
 40
1.0
176
     1
 90
        0
176
     1
 62
    18
420
        0
176
     1
 90
       50
176
     1
 90
        3
176
     1
 62
     5
420
      255
176
     1
290
     0
176
     1
 90
       50
176
     1
 90
       50
176
     1
 90
       50
176
     1
290
     0
176
     1
 90
       50
176
     1
 62
   256
176
     0
 40
1.0
176
     0
 90
        2
176
     1
  1
strokes_ogs.tif
176
     1
290
     0
176
     1
 40
1.0
176
     1
 40
1.0
176
     1
  0
VISUALSTYLE
  5
3E
102
{ACAD_REACTORS
330
2A
102
}
330
2A
100
AcDbVisualStyle
  2
Shades of Gray
 70
    23
177
     3
291
     0
 70
    58
 90
        2
176
     1
 90
        2
176
     1
 90
        3
176
     1
 90
        0
176
     1
 40
0.6
176
     1
 40
30.0
176
     1
 62
     7
420
 16777215
176
     1
 90
        2
176
     1
 90
        2
176
     1
 62
     7
176
     1
 62
     7
176
     1
 90
        1
176
     1
 90
        1
176
     1
 40
40.0
176
     1
 90
        8
176
     1
 62
     7
176
     1
 40
1.0
176
     1
 90
        1
176
     1
 90
        6
176
     1
 90
        2
176
     1
 62
     7
176
     1
 90
        3
176
     1
 90
        0
176
     1
 90
        0
176
     1
290
     0
176
     1
 90
        1
176
     1
 40
0.0
176
     1
 90
        0
176
     1
290
     0
176
     1
290
     1
176
     1
290
     1
176
     1
290
     0
176
     1
290
     0
176
     1
290
     0
176
     1
290
     0
176
     1
290
     0
176
     1
290
     0
176
     1
 90
       50
176
     1
 40
0.0
176
     1
 40
1.0
176
     1
 90
        0
176
     1
 62
    18
420
        0
176
     1
 90
       50
176
     1
 90
        3
176
     1
 62
     5
420
      255
176
     1
290
     0
176
     1
 90
       50
176
     1
 90
       50
176
     1
 90
       50
176
     1
290
     0
176
     1
 90
       50
176
     1
 62
   256
176
     0
 40
1.0
176
     0
 90
        2
176
     1
  1
strokes_ogs.tif
176
     1
290
     0
176
     1
 40
1.0
176
     1
 40
1.0
176
     1
  0
VISUALSTYLE
  5
3F
102
{ACAD_REACTORS
330
2A
102
}
330
2A
100
AcDbVisualStyle
  2
Sketchy
 70
    24
177
     3
291
     0
 70
    58
 90
        1
176
     1
 90
        2
176
     1
 90
        2
176
     1
 90
        0
176
     1
 40
0.6
176
     1
 40
30.0
176
     1
 62
     7
420
 16777215
176
     1
 90
        2
176
     1
 90
        2
176
     1
 62
     7
176
     1
 62
     7
176
     1
 90
        1
176
     1
 90
        1
176
     1
 40
40.0
176
     1
 90
       11
176
     1
 62
     7
176
     1
 40
1.0
176
     1
 90
        1
176
     1
 90
        6
176
     1
 90
        2
176
     1
 62
     7
176
     1
 90
        6
176
     1
 90
        0
176
     1
 90
        0
176
     1
290
     0
176
     1
 90
        1
176
     1
 40
0.0
176
     1
 90
        0
176
     1
290
     0
176
     1
290
     1
176
     1
290
     1
176
     1
290
     0
176
     1
290
     0
176
     1
290
     0
176
     1
290
     0
176
     1
290
     0
176
     1
290
     0
176
     1
 90
       50
176
     1
 40
0.0
176
     1
 40
1.0
176
     1
 90
        0
176
     1
 62
    18
420
        0
176
     1
 90
       50
176
     1
 90
        3
176
     1
 62
     5
420
      255
176
     1
290
     0
176
     1
 90
       50
176
     1
 90
       50
176
     1
 90
       50
176
     1
290
     0
176
     1
 90
       50
176
     1
 62
   256
176
     0
 40
1.0
176
     0
 90
        2
176
     1
  1
strokes_ogs.tif
176
     1
290
     0
176
     1
 40
1.0
176
     1
 40
1.0
176
     1
  0
VISUALSTYLE
  5
37
102
{ACAD_REACTORS
330
2A
102
}
330
2A
100
AcDbVisualStyle
  2
Thicken
 70
    13
177
     3
291
     1
 70
    58
 90
        2
176
     1
 90
        2
176
     1
 90
        0
176
     1
 90
        0
176
     1
 40
0.6
176
     1
 40
30.0
176
     1
 62
     7
420
 16777215
176
     1
 90
        1
176
     1
 90
        4
176
     1
 62
     7
176
     1
 62
   257
176
     1
 90
        1
176
     1
 90
        1
176
     1
 40
1.0
176
     1
 90
       12
176
     1
 62
     7
176
     1
 40
1.0
176
     1
 90
        1
176
     1
 90
        6
176
     1
 90
        2
176
     1
 62
     7
176
     1
 90
        5
176
     1
 90
        0
176
     1
 90
        0
176
     1
290
     0
176
     1
 90
        1
176
     1
 40
0.0
176
     1
 90
        0
176
     1
290
     0
176
     1
290
     1
176
     1
290
     1
176
     1
290
     0
176
     1
290
     0
176
     1
290
     0
176
     1
290
     0
176
     1
290
     0
176
     1
290
     0
176
     1
 90
       50
176
     1
 40
0.0
176
     1
 40
1.0
176
     1
 90
        0
176
     1
 62
    18
420
        0
176
     1
 90
       50
176
     1
 90
        3
176
     1
 62
     5
420
      255
176
     1
290
     0
176
     1
 90
       50
176
     1
 90
       50
176
     1
 90
       50
176
     1
290
     0
176
     1
 90
       50
176
     1
 62
   256
176
     0
 40
1.0
176
     0
 90
        2
176
     1
  1
strokes_ogs.tif
176
     1
290
     0
176
     1
 40
1.0
176
     1
 40
1.0
176
     1
  0
VISUALSTYLE
  5
30
102
{ACAD_REACTORS
330
2A
102
}
330
2A
100
AcDbVisualStyle
  2
Wireframe
 70
     5
177
     3
291
     0
 70
    58
 90
        0
176
     1
 90
        2
176
     1
 90
        0
176
     1
 90
        0
176
     1
 40
0.6
176
     1
 40
30.0
176
     1
 62
     7
420
 16777215
176
     1
 90
        1
176
     1
 90
        4
176
     1
 62
     7
176
     1
 62
   257
176
     1
 90
        1
176
     1
 90
        1
176
     1
 40
1.0
176
     1
 90
        0
176
     1
 62
   257
176
     1
 40
1.0
176
     1
 90
        1
176
     1
 90
        6
176
     1
 90
        2
176
     1
 62
     7
176
     1
 90
        3
176
     1
 90
        0
176
     1
 90
        0
176
     1
290
     0
176
     1
 90
        1
176
     1
 40
0.0
176
     1
 90
        0
176
     1
290
     0
176
     1
290
     1
176
     1
290
     1
176
     1
290
     0
176
     1
290
     0
176
     1
290
     0
176
     1
290
     0
176
     1
290
     0
176
     1
290
     0
176
     1
 90
       50
176
     1
 40
0.0
176
     1
 40
1.0
176
     1
 90
        0
176
     1
 62
    18
420
        0
176
     1
 90
       50
176
     1
 90
        3
176
     1
 62
     5
420
      255
176
     1
290
     0
176
     1
 90
       50
176
     1
 90
       50
176
     1
 90
       50
176
     1
290
     0
176
     1
 90
       50
176
     1
 62
   256
176
     0
 40
1.0
176
     0
 90
        2
176
     1
  1
strokes_ogs.tif
176
     1
290
     0
176
     1
 40
1.0
176
     1
 40
1.0
176
     1
  0
VISUALSTYLE
  5
40
102
{ACAD_REACTORS
330
2A
102
}
330
2A
100
AcDbVisualStyle
  2
X-Ray
 70
    25
177
     3
291
     0
 70
    58
 90
        2
176
     1
 90
        2
176
     1
 90
        1
176
     1
 90
        1
176
     1
 40
0.5
176
     1
 40
30.0
176
     1
 62
     7
420
 16777215
176
     1
 90
        1
176
     1
 90
        0
176
     1
 62
     7
176
     1
 62
   257
176
     1
 90
        1
176
     1
 90
        1
176
     1
 40
1.0
176
     1
 90
        8
176
     1
 62
     7
176
     1
 40
1.0
176
     1
 90
        1
176
     1
 90
        6
176
     1
 90
        2
176
     1
 62
     7
176
     1
 90
        3
176
     1
 90
        0
176
     1
 90
        0
176
     1
290
     0
176
     1
 90
       13
176
     1
 40
0.0
176
     1
 90
        0
176
     1
290
     0
176
     1
290
     1
176
     1
290
     1
176
     1
290
     0
176
     1
290
     0
176
     1
290
     0
176
     1
290
     0
176
     1
290
     0
176
     1
290
     0
176
     1
 90
       50
176
     1
 40
0.0
176
     1
 40
1.0
176
     1
 90
        0
176
     1
 62
    18
420
        0
176
     1
 90
       50
176
     1
 90
        3
176
     1
 62
     5
420
      255
176
     1
290
     0
176
     1
 90
       50
176
     1
 90
       50
176
     1
 90
       50
176
     1
290
     0
176
     1
 90
       50
176
     1
 62
   256
176
     0
 40
1.0
176
     0
 90
        2
176
     1
  1
strokes_ogs.tif
176
     1
290
     0
176
     1
 40
1.0
176
     1
 40
1.0
176
     1
  0
DICTIONARYVAR
  5
7B
102
{ACAD_REACTORS
330
7A
102
}
330
7A
100
DictionaryVariables
280
     0
  1
1:1
  0
DICTIONARYVAR
  5
80
102
{ACAD_REACTORS
330
7A
102
}
330
7A
100
DictionaryVariables
280
     0
  1
Standard
  0
DICTIONARYVAR
  5
7F
102
{ACAD_REACTORS
330
7A
102
}
330
7A
100
DictionaryVariables
280
     0
  1
Standard
  0
DICTIONARY
  5
7C
330
5A
100
AcDbDictionary
280
     1
281
     1
  3
ACAD_ROUNDTRIP_2008_TABLESTYLE_CELLSTYLEMAP
360
7D
  0
CELLSTYLEMAP
  5
7D
102
{ACAD_REACTORS
330
7C
102
}
330
7C
100
AcDbCellStyleMap
 90
        3
300
CELLSTYLE
  1
TABLEFORMAT_BEGIN
 90
        5
170
     1
 91
        0
 92
    32768
 62
   257
 93
        1
300
CONTENTFORMAT
  1
CONTENTFORMAT_BEGIN
 90
        0
 91
        0
 92
        4
 93
        0
300

 40
0.0
140
1.0
 94
        5
 62
     0
340
11
144
0.25
309
CONTENTFORMAT_END
171
     1
301
MARGIN
  1
CELLMARGIN_BEGIN
 40
0.06
 40
0.06
 40
0.06
 40
0.06
 40
0.06
 40
0.06
309
CELLMARGIN_END
 94
        6
 95
        1
302
GRIDFORMAT
  1
GRIDFORMAT_BEGIN
 90
        0
 91
        1
 62
     0
 92
       -2
340
14
 93
        0
 40
0.045
309
GRIDFORMAT_END
 95
        2
302
GRIDFORMAT
  1
GRIDFORMAT_BEGIN
 90
        0
 91
        1
 62
     0
 92
       -2
340
14
 93
        0
 40
0.045
309
GRIDFORMAT_END
 95
        4
302
GRIDFORMAT
  1
GRIDFORMAT_BEGIN
 90
        0
 91
        1
 62
     0
 92
       -2
340
14
 93
        0
 40
0.045
309
GRIDFORMAT_END
 95
        8
302
GRIDFORMAT
  1
GRIDFORMAT_BEGIN
 90
        0
 91
        1
 62
     0
 92
       -2
340
14
 93
        0
 40
0.045
309
GRIDFORMAT_END
 95
       16
302
GRIDFORMAT
  1
GRIDFORMAT_BEGIN
 90
        0
 91
        1
 62
     0
 92
       -2
340
14
 93
        0
 40
0.045
309
GRIDFORMAT_END
 95
       32
302
GRIDFORMAT
  1
GRIDFORMAT_BEGIN
 90
        0
 91
        1
 62
     0
 92
       -2
340
14
 93
        0
 40
0.045
309
GRIDFORMAT_END
309
TABLEFORMAT_END
  1
CELLSTYLE_BEGIN
 90
        1
 91
        1
300
_TITLE
309
CELLSTYLE_END
300
CELLSTYLE
  1
TABLEFORMAT_BEGIN
 90
        5
170
     1
 91
        0
 92
        0
 62
   257
 93
        1
300
CONTENTFORMAT
  1
CONTENTFORMAT_BEGIN
 90
        0
 91
        0
 92
        4
 93
        0
300

 40
0.0
140
1.0
 94
        5
 62
     0
340
11
144
0.18
309
CONTENTFORMAT_END
171
     1
301
MARGIN
  1
CELLMARGIN_BEGIN
 40
0.06
 40
0.06
 40
0.06
 40
0.06
 40
0.06
 40
0.06
309
CELLMARGIN_END
 94
        6
 95
        1
302
GRIDFORMAT
  1
GRIDFORMAT_BEGIN
 90
        0
 91
        1
 62
     0
 92
       -2
340
14
 93
        0
 40
0.045
309
GRIDFORMAT_END
 95
        2
302
GRIDFORMAT
  1
GRIDFORMAT_BEGIN
 90
        0
 91
        1
 62
     0
 92
       -2
340
14
 93
        0
 40
0.045
309
GRIDFORMAT_END
 95
        4
302
GRIDFORMAT
  1
GRIDFORMAT_BEGIN
 90
        0
 91
        1
 62
     0
 92
       -2
340
14
 93
        0
 40
0.045
309
GRIDFORMAT_END
 95
        8
302
GRIDFORMAT
  1
GRIDFORMAT_BEGIN
 90
        0
 91
        1
 62
     0
 92
       -2
340
14
 93
        0
 40
0.045
309
GRIDFORMAT_END
 95
       16
302
GRIDFORMAT
  1
GRIDFORMAT_BEGIN
 90
        0
 91
        1
 62
     0
 92
       -2
340
14
 93
        0
 40
0.045
309
GRIDFORMAT_END
 95
       32
302
GRIDFORMAT
  1
GRIDFORMAT_BEGIN
 90
        0
 91
        1
 62
     0
 92
       -2
340
14
 93
        0
 40
0.045
309
GRIDFORMAT_END
309
TABLEFORMAT_END
  1
CELLSTYLE_BEGIN
 90
        2
 91
        1
300
_HEADER
309
CELLSTYLE_END
300
CELLSTYLE
  1
TABLEFORMAT_BEGIN
 90
        5
170
     1
 91
        0
 92
        0
 62
   257
 93
        1
300
CONTENTFORMAT
  1
CONTENTFORMAT_BEGIN
 90
        0
 91
        0
 92
        4
 93
        0
300

 40
0.0
140
1.0
 94
        2
 62
     0
340
11
144
0.18
309
CONTENTFORMAT_END
171
     1
301
MARGIN
  1
CELLMARGIN_BEGIN
 40
0.06
 40
0.06
 40
0.06
 40
0.06
 40
0.06
 40
0.06
309
CELLMARGIN_END
 94
        6
 95
        1
302
GRIDFORMAT
  1
GRIDFORMAT_BEGIN
 90
        0
 91
        1
 62
     0
 92
       -2
340
14
 93
        0
 40
0.045
309
GRIDFORMAT_END
 95
        2
302
GRIDFORMAT
  1
GRIDFORMAT_BEGIN
 90
        0
 91
        1
 62
     0
 92
       -2
340
14
 93
        0
 40
0.045
309
GRIDFORMAT_END
 95
        4
302
GRIDFORMAT
  1
GRIDFORMAT_BEGIN
 90
        0
 91
        1
 62
     0
 92
       -2
340
14
 93
        0
 40
0.045
309
GRIDFORMAT_END
 95
        8
302
GRIDFORMAT
  1
GRIDFORMAT_BEGIN
 90
        0
 91
        1
 62
     0
 92
       -2
340
14
 93
        0
 40
0.045
309
GRIDFORMAT_END
 95
       16
302
GRIDFORMAT
  1
GRIDFORMAT_BEGIN
 90
        0
 91
        1
 62
     0
 92
       -2
340
14
 93
        0
 40
0.045
309
GRIDFORMAT_END
 95
       32
302
GRIDFORMAT
  1
GRIDFORMAT_BEGIN
 90
        0
 91
        1
 62
     0
 92
       -2
340
14
 93
        0
 40
0.045
309
GRIDFORMAT_END
309
TABLEFORMAT_END
  1
CELLSTYLE_BEGIN
 90
        3
 91
        2
300
_DATA
309
CELLSTYLE_END
  0
ENDSEC
  0
EOF
