  0
SECTION
  2
HEADER
  9
$ACADVER
  1
AC1027
  9
$ACADMAINTVER
 70
   105
  9
$DWGCODEPAGE
  3
ANSI_1252
  9
$LASTSAVEDBY
  1
Office Desk
  9
$REQUIREDVERSIONS
160
                 0
  9
$INSBASE
 10
0.0
 20
0.0
 30
0.0
  9
$EXTMIN
 10
397.852
 20
-672.0016
 30
0.0
  9
$EXTMAX
 10
1103.7022
 20
292.2929
 30
0.0
  9
$LIMMIN
 10
0.0
 20
0.0
  9
$LIMMAX
 10
12.0
 20
9.0
  9
$ORTHOMODE
 70
     0
  9
$REGENMODE
 70
     1
  9
$FILLMODE
 70
     1
  9
$QTEXTMODE
 70
     0
  9
$MIRRTEXT
 70
     1
  9
$LTSCALE
 40
1.0
  9
$ATTMODE
 70
     1
  9
$TEXTSIZE
 40
0.2
  9
$TRACEWID
 40
0.05
  9
$TEXTSTYLE
  7
Standard
  9
$CLAYER
  8
0
  9
$CELTYPE
  6
ByLayer
  9
$CECOLOR
 62
   256
  9
$CELTSCALE
 40
1.0
  9
$DISPSILH
 70
     0
  9
$DIMSCALE
 40
1.0
  9
$DIMASZ
 40
0.18
  9
$DIMEXO
 40
0.0625
  9
$DIMDLI
 40
0.38
  9
$DIMRND
 40
0.0
  9
$DIMDLE
 40
0.0
  9
$DIMEXE
 40
0.18
  9
$DIMTP
 40
0.0
  9
$DIMTM
 40
0.0
  9
$DIMTXT
 40
0.18
  9
$DIMCEN
 40
0.09
  9
$DIMTSZ
 40
0.0
  9
$DIMTOL
 70
     0
  9
$DIMLIM
 70
     0
  9
$DIMTIH
 70
     1
  9
$DIMTOH
 70
     1
  9
$DIMSE1
 70
     0
  9
$DIMSE2
 70
     0
  9
$DIMTAD
 70
     0
  9
$DIMZIN
 70
     0
  9
$DIMBLK
  1

  9
$DIMASO
 70
     1
  9
$DIMSHO
 70
     1
  9
$DIMPOST
  1

  9
$DIMAPOST
  1

  9
$DIMALT
 70
     0
  9
$DIMALTD
 70
     2
  9
$DIMALTF
 40
25.4
  9
$DIMLFAC
 40
1.0
  9
$DIMTOFL
 70
     0
  9
$DIMTVP
 40
0.0
  9
$DIMTIX
 70
     0
  9
$DIMSOXD
 70
     0
  9
$DIMSAH
 70
     0
  9
$DIMBLK1
  1

  9
$DIMBLK2
  1

  9
$DIMSTYLE
  2
Standard
  9
$DIMCLRD
 70
     0
  9
$DIMCLRE
 70
     0
  9
$DIMCLRT
 70
     0
  9
$DIMTFAC
 40
1.0
  9
$DIMGAP
 40
0.09
  9
$DIMJUST
 70
     0
  9
$DIMSD1
 70
     0
  9
$DIMSD2
 70
     0
  9
$DIMTOLJ
 70
     1
  9
$DIMTZIN
 70
     0
  9
$DIMALTZ
 70
     0
  9
$DIMALTTZ
 70
     0
  9
$DIMUPT
 70
     0
  9
$DIMDEC
 70
     4
  9
$DIMTDEC
 70
     4
  9
$DIMALTU
 70
     2
  9
$DIMALTTD
 70
     2
  9
$DIMTXSTY
  7
Standard
  9
$DIMAUNIT
 70
     0
  9
$DIMADEC
 70
     0
  9
$DIMALTRND
 40
0.0
  9
$DIMAZIN
 70
     0
  9
$DIMDSEP
 70
    46
  9
$DIMATFIT
 70
     3
  9
$DIMFRAC
 70
     0
  9
$DIMLDRBLK
  1

  9
$DIMLUNIT
 70
     2
  9
$DIMLWD
 70
    -2
  9
$DIMLWE
 70
    -2
  9
$DIMTMOVE
 70
     0
  9
$DIMFXL
 40
1.0
  9
$DIMFXLON
 70
     0
  9
$DIMJOGANG
 40
0.7853981633974483
  9
$DIMTFILL
 70
     0
  9
$DIMTFILLCLR
 70
     0
  9
$DIMARCSYM
 70
     0
  9
$DIMLTYPE
  6

  9
$DIMLTEX1
  6

  9
$DIMLTEX2
  6

  9
$DIMTXTDIRECTION
 70
     0
  9
$LUNITS
 70
     2
  9
$LUPREC
 70
     4
  9
$SKETCHINC
 40
0.1
  9
$FILLETRAD
 40
0.0
  9
$AUNITS
 70
     0
  9
$AUPREC
 70
     0
  9
$MENU
  1
.
  9
$ELEVATION
 40
0.0
  9
$PELEVATION
 40
0.0
  9
$THICKNESS
 40
0.0
  9
$LIMCHECK
 70
     0
  9
$CHAMFERA
 40
0.0
  9
$CHAMFERB
 40
0.0
  9
$CHAMFERC
 40
0.0
  9
$CHAMFERD
 40
0.0
  9
$SKPOLY
 70
     0
  9
$TDCREATE
 40
2461007.694894074
  9
$TDUCREATE
 40
2461007.465727408
  9
$TDUPDATE
 40
2461007.694894248
  9
$TDUUPDATE
 40
2461007.465727581
  9
$TDINDWG
 40
0.0000000116
  9
$TDUSRTIMER
 40
0.0000000116
  9
$USRTIMER
 70
     1
  9
$ANGBASE
 50
0.0
  9
$ANGDIR
 70
     0
  9
$PDMODE
 70
     0
  9
$PDSIZE
 40
0.0
  9
$PLINEWID
 40
0.0
  9
$SPLFRAME
 70
     0
  9
$SPLINETYPE
 70
     6
  9
$SPLINESEGS
 70
     8
  9
$HANDSEED
  5
90
  9
$SURFTAB1
 70
     6
  9
$SURFTAB2
 70
     6
  9
$SURFTYPE
 70
     6
  9
$SURFU
 70
     6
  9
$SURFV
 70
     6
  9
$UCSBASE
  2

  9
$UCSNAME
  2

  9
$UCSORG
 10
0.0
 20
0.0
 30
0.0
  9
$UCSXDIR
 10
1.0
 20
0.0
 30
0.0
  9
$UCSYDIR
 10
0.0
 20
1.0
 30
0.0
  9
$UCSORTHOREF
  2

  9
$UCSORTHOVIEW
 70
     0
  9
$UCSORGTOP
 10
0.0
 20
0.0
 30
0.0
  9
$UCSORGBOTTOM
 10
0.0
 20
0.0
 30
0.0
  9
$UCSORGLEFT
 10
0.0
 20
0.0
 30
0.0
  9
$UCSORGRIGHT
 10
0.0
 20
0.0
 30
0.0
  9
$UCSORGFRONT
 10
0.0
 20
0.0
 30
0.0
  9
$UCSORGBACK
 10
0.0
 20
0.0
 30
0.0
  9
$PUCSBASE
  2

  9
$PUCSNAME
  2

  9
$PUCSORG
 10
0.0
 20
0.0
 30
0.0
  9
$PUCSXDIR
 10
1.0
 20
0.0
 30
0.0
  9
$PUCSYDIR
 10
0.0
 20
1.0
 30
0.0
  9
$PUCSORTHOREF
  2

  9
$PUCSORTHOVIEW
 70
     0
  9
$PUCSORGTOP
 10
0.0
 20
0.0
 30
0.0
  9
$PUCSORGBOTTOM
 10
0.0
 20
0.0
 30
0.0
  9
$PUCSORGLEFT
 10
0.0
 20
0.0
 30
0.0
  9
$PUCSORGRIGHT
 10
0.0
 20
0.0
 30
0.0
  9
$PUCSORGFRONT
 10
0.0
 20
0.0
 30
0.0
  9
$PUCSORGBACK
 10
0.0
 20
0.0
 30
0.0
  9
$USERI1
 70
     0
  9
$USERI2
 70
     0
  9
$USERI3
 70
     0
  9
$USERI4
 70
     0
  9
$USERI5
 70
     0
  9
$USERR1
 40
0.0
  9
$USERR2
 40
0.0
  9
$USERR3
 40
0.0
  9
$USERR4
 40
0.0
  9
$USERR5
 40
0.0
  9
$WORLDVIEW
 70
     1
  9
$SHADEDGE
 70
     3
  9
$SHADEDIF
 70
    70
  9
$TILEMODE
 70
     1
  9
$MAXACTVP
 70
    64
  9
$PINSBASE
 10
0.0
 20
0.0
 30
0.0
  9
$PLIMCHECK
 70
     0
  9
$PEXTMIN
 10
1.000000000000000E+20
 20
1.000000000000000E+20
 30
1.000000000000000E+20
  9
$PEXTMAX
 10
-1.000000000000000E+20
 20
-1.000000000000000E+20
 30
-1.000000000000000E+20
  9
$PLIMMIN
 10
0.0
 20
0.0
  9
$PLIMMAX
 10
12.0
 20
9.0
  9
$UNITMODE
 70
     0
  9
$VISRETAIN
 70
     1
  9
$PLINEGEN
 70
     0
  9
$PSLTSCALE
 70
     1
  9
$TREEDEPTH
 70
  3020
  9
$CMLSTYLE
  2
Standard
  9
$CMLJUST
 70
     0
  9
$CMLSCALE
 40
1.0
  9
$PROXYGRAPHICS
 70
     1
  9
$MEASUREMENT
 70
     0
  9
$CELWEIGHT
370
    -1
  9
$ENDCAPS
280
     0
  9
$JOINSTYLE
280
     0
  9
$LWDISPLAY
290
     0
  9
$INSUNITS
 70
     4
  9
$HYPERLINKBASE
  1

  9
$STYLESHEET
  1

  9
$XEDIT
290
     1
  9
$CEPSNTYPE
380
     0
  9
$PSTYLEMODE
290
     1
  9
$FINGERPRINTGUID
  2
{eb1ade62-8701-4b87-be50-faf80ac3d00e}
  9
$VERSIONGUID
  2
{FAEB1C32-E019-11D5-929B-00C0DF256EC4}
  9
$EXTNAMES
290
     1
  9
$PSVPSCALE
 40
0.0
  9
$OLESTARTUP
290
     0
  9
$SORTENTS
280
   127
  9
$INDEXCTL
280
     0
  9
$HIDETEXT
280
     1
  9
$XCLIPFRAME
280
     2
  9
$HALOGAP
280
     0
  9
$OBSCOLOR
 70
   257
  9
$OBSLTYPE
280
     0
  9
$INTERSECTIONDISPLAY
280
     0
  9
$INTERSECTIONCOLOR
 70
   257
  9
$DIMASSOC
280
     2
  9
$PROJECTNAME
  1

  9
$CAMERADISPLAY
290
     0
  9
$LENSLENGTH
 40
50.0
  9
$CAMERAHEIGHT
 40
0.0
  9
$STEPSPERSEC
 40
2.0
  9
$STEPSIZE
 40
6.0
  9
$3DDWFPREC
 40
2.0
  9
$PSOLWIDTH
 40
0.25
  9
$PSOLHEIGHT
 40
4.0
  9
$LOFTANG1
 40
1.570796326794897
  9
$LOFTANG2
 40
1.570796326794897
  9
$LOFTMAG1
 40
0.0
  9
$LOFTMAG2
 40
0.0
  9
$LOFTPARAM
 70
     7
  9
$LOFTNORMALS
280
     1
  9
$LATITUDE
 40
37.795
  9
$LONGITUDE
 40
-122.394
  9
$NORTHDIRECTION
 40
0.0
  9
$TIMEZONE
 70
 -8000
  9
$LIGHTGLYPHDISPLAY
280
     1
  9
$TILEMODELIGHTSYNCH
280
     1
  9
$CMATERIAL
347
44
  9
$SOLIDHIST
280
     0
  9
$SHOWHIST
280
     1
  9
$DWFFRAME
280
     2
  9
$DGNFRAME
280
     2
  9
$REALWORLDSCALE
290
     1
  9
$INTERFERECOLOR
 62
   256
  9
$CSHADOW
280
     0
  9
$SHADOWPLANELOCATION
 40
0.0
  0
ENDSEC
  0
SECTION
  2
CLASSES
  0
CLASS
  1
ACDBDICTIONARYWDFLT
  2
AcDbDictionaryWithDefault
  3
ObjectDBX Classes
 90
        0
 91
        3
280
     0
281
     0
  0
CLASS
  1
VISUALSTYLE
  2
AcDbVisualStyle
  3
ObjectDBX Classes
 90
     4095
 91
        3
280
     0
281
     0
  0
CLASS
  1
MATERIAL
  2
AcDbMaterial
  3
ObjectDBX Classes
 90
     1153
 91
        3
280
     0
281
     0
  0
CLASS
  1
SCALE
  2
AcDbScale
  3
ObjectDBX Classes
 90
     1153
 91
        3
280
     0
281
     0
  0
CLASS
  1
TABLESTYLE
  2
AcDbTableStyle
  3
ObjectDBX Classes
 90
     4095
 91
        3
280
     0
281
     0
  0
CLASS
  1
MLEADERSTYLE
  2
AcDbMLeaderStyle
  3
ACDB_MLEADERSTYLE_CLASS
 90
     4095
 91
        3
280
     0
281
     0
  0
CLASS
  1
SUN
  2
AcDbSun
  3
SCENEOE
 90
     1153
 91
        3
280
     0
281
     0
  0
CLASS
  1
DICTIONARYVAR
  2
AcDbDictionaryVar
  3
ObjectDBX Classes
 90
        0
 91
        3
280
     0
281
     0
  0
CLASS
  1
CELLSTYLEMAP
  2
AcDbCellStyleMap
  3
ObjectDBX Classes
 90
     1152
 91
        3
280
     0
281
     0
  0
ENDSEC
  0
SECTION
  2
TABLES
  0
TABLE
  2
VPORT
  5
8
330
0
100
AcDbSymbolTable
 70
     1
  0
VPORT
  5
29
330
8
100
AcDbSymbolTableRecord
100
AcDbViewportTableRecord
  2
*Active
 70
     0
 10
0.0
 20
0.0
 11
1.0
 21
1.0
 12
10.42990654205607
 22
4.5
 13
0.0
 23
0.0
 14
0.5
 24
0.5
 15
0.5
 25
0.5
 16
0.0
 26
0.0
 36
1.0
 17
0.0
 27
0.0
 37
0.0
 40
9.0
 41
1.972972972850329
 42
50.0
 43
0.0
 44
0.0
 50
0.0
 51
0.0
 71
     0
 72
   100
 73
     1
 74
     3
 75
     0
 76
     0
 77
     0
 78
     0
281
     0
 65
     1
110
0.0
120
0.0
130
0.0
111
1.0
121
0.0
131
0.0
112
0.0
122
1.0
132
0.0
 79
     0
146
0.0
348
2F
 60
     3
 61
     5
292
     1
282
     1
141
0.0
142
0.0
 63
   250
361
5D
  0
ENDTAB
  0
TABLE
  2
LTYPE
  5
5
330
0
100
AcDbSymbolTable
 70
     1
  0
LTYPE
  5
14
330
5
100
AcDbSymbolTableRecord
100
AcDbLinetypeTableRecord
  2
ByBlock
 70
     0
  3

 72
    65
 73
     0
 40
0.0
  0
LTYPE
  5
15
330
5
100
AcDbSymbolTableRecord
100
AcDbLinetypeTableRecord
  2
ByLayer
 70
     0
  3

 72
    65
 73
     0
 40
0.0
  0
LTYPE
  5
16
330
5
100
AcDbSymbolTableRecord
100
AcDbLinetypeTableRecord
  2
Continuous
 70
     0
  3
Solid line
 72
    65
 73
     0
 40
0.0
  0
ENDTAB
  0
TABLE
  2
LAYER
  5
2
330
0
100
AcDbSymbolTable
 70
     2
  0
LAYER
  5
10
330
2
100
AcDbSymbolTableRecord
100
AcDbLayerTableRecord
  2
0
 70
     0
 62
     7
  6
Continuous
370
    -3
390
F
347
46
348
0
  0
LAYER
  5
5F
330
2
100
AcDbSymbolTableRecord
100
AcDbLayerTableRecord
  2
Layer 1
 70
     0
 62
     7
  6
Continuous
370
    -3
390
F
347
46
348
0
  0
ENDTAB
  0
TABLE
  2
STYLE
  5
3
330
0
100
AcDbSymbolTable
 70
     1
  0
STYLE
  5
11
330
3
100
AcDbSymbolTableRecord
100
AcDbTextStyleTableRecord
  2
Standard
 70
     0
 40
0.0
 41
1.0
 50
0.0
 71
     0
 42
0.2
  3
txt
  4

  0
ENDTAB
  0
TABLE
  2
VIEW
  5
6
330
0
100
AcDbSymbolTable
 70
     0
  0
ENDTAB
  0
TABLE
  2
UCS
  5
7
330
0
100
AcDbSymbolTable
 70
     0
  0
ENDTAB
  0
TABLE
  2
APPID
  5
9
330
0
100
AcDbSymbolTable
 70
     2
  0
APPID
  5
12
330
9
100
AcDbSymbolTableRecord
100
AcDbRegAppTableRecord
  2
ACAD
 70
     0
  0
APPID
  5
5E
330
9
100
AcDbSymbolTableRecord
100
AcDbRegAppTableRecord
  2
ODA
 70
     0
  0
ENDTAB
  0
TABLE
  2
DIMSTYLE
  5
A
330
0
100
AcDbSymbolTable
 70
     1
100
AcDbDimStyleTable
  0
DIMSTYLE
105
27
330
A
100
AcDbSymbolTableRecord
100
AcDbDimStyleTableRecord
  2
Standard
 70
     0
178
     0
340
11
  0
ENDTAB
  0
TABLE
  2
BLOCK_RECORD
  5
1
330
0
100
AcDbSymbolTable
 70
     1
  0
BLOCK_RECORD
  5
1F
330
1
100
AcDbSymbolTableRecord
100
AcDbBlockTableRecord
  2
*Model_Space
340
22
 70
     0
280
     1
281
     0
  0
BLOCK_RECORD
  5
1B
330
1
100
AcDbSymbolTableRecord
100
AcDbBlockTableRecord
  2
*Paper_Space
340
1E
 70
     0
280
     1
281
     0
  0
BLOCK_RECORD
  5
23
330
1
100
AcDbSymbolTableRecord
100
AcDbBlockTableRecord
  2
*Paper_Space0
340
26
 70
     0
280
     1
281
     0
  0
ENDTAB
  0
ENDSEC
  0
SECTION
  2
BLOCKS
  0
BLOCK
  5
20
330
1F
100
AcDbEntity
  8
0
100
AcDbBlockBegin
  2
*Model_Space
 70
     0
 10
0.0
 20
0.0
 30
0.0
  3
*Model_Space
  1

  0
ENDBLK
  5
21
330
1F
100
AcDbEntity
  8
0
100
AcDbBlockEnd
  0
BLOCK
  5
1C
330
1B
100
AcDbEntity
 67
     1
  8
0
100
AcDbBlockBegin
  2
*Paper_Space
 70
     0
 10
0.0
 20
0.0
 30
0.0
  3
*Paper_Space
  1

  0
ENDBLK
  5
1D
330
1B
100
AcDbEntity
 67
     1
  8
0
100
AcDbBlockEnd
  0
BLOCK
  5
24
330
23
100
AcDbEntity
  8
0
100
AcDbBlockBegin
  2
*Paper_Space0
 70
     0
 10
0.0
 20
0.0
 30
0.0
  3
*Paper_Space0
  1

  0
ENDBLK
  5
25
330
23
100
AcDbEntity
  8
0
100
AcDbBlockEnd
  0
ENDSEC
  0
SECTION
  2
ENTITIES
  0
LWPOLYLINE
  5
60
330
1F
100
AcDbEntity
  8
Layer 1
 62
   250
370
    18
100
AcDbPolyline
 90
        5
 70
     1
 43
0.0
 10
397.9402
 20
-671.9133
 10
1103.614
 20
-671.9133
 10
1103.614
 20
292.2047
 10
397.9402
 20
292.2047
 10
397.9402
 20
-671.9133
  0
LWPOLYLINE
  5
61
330
1F
100
AcDbEntity
  8
Layer 1
 62
     7
370
    18
100
AcDbPolyline
 90
      857
 70
     1
 43
0.0
 10
626.8999
 20
-373.2545
 10
626.7349
 20
-377.5477
 10
626.093
 20
-376.6906
 10
625.5202
 20
-375.7596
 10
625.0215
 20
-374.7607
 10
624.6021
 20
-373.7004
 10
624.2669
 20
-372.5848
 10
624.0213
 20
-371.4202
 10
623.8701
 20
-370.2129
 10
623.8186
 20
-368.969
 10
623.8856
 20
-367.5508
 10
624.0816
 20
-366.1813
 10
624.3991
 20
-364.8699
 10
624.8304
 20
-363.6259
 10
625.368
 20
-362.4586
 10
626.0043
 20
-361.3774
 10
626.7318
 20
-360.3915
 10
627.5429
 20
-359.5104
 10
627.826
 20
-354.6416
 10
626.9564
 20
-353.7599
 10
626.1751
 20
-352.762
 10
625.4906
 20
-351.6584
 10
624.9114
 20
-350.4594
 10
624.4461
 20
-349.1757
 10
624.1032
 20
-347.8177
 10
623.8912
 20
-346.3958
 10
623.8186
 20
-344.9207
 10
623.9217
 20
-343.164
 10
624.2214
 20
-341.4861
 10
624.7031
 20
-339.9052
 10
625.3523
 20
-338.439
 10
626.1545
 20
-337.1056
 10
627.0952
 20
-335.9229
 10
628.1599
 20
-334.9089
 10
629.334
 20
-334.0814
 10
629.661
 20
-330.3554
 10
628.8443
 20
-329.4743
 10
628.1118
 20
-328.4873
 10
627.4709
 20
-327.404
 10
626.9295
 20
-326.2337
 10
626.4951
 20
-324.986
 10
626.1753
 20
-323.6702
 10
625.9778
 20
-322.2959
 10
625.9103
 20
-320.8724
 10
626.02
 20
-319.0613
 10
626.3386
 20
-317.3349
 10
626.85
 20
-315.7128
 10
627.5382
 20
-314.2147
 10
628.3873
 20
-312.8603
 10
629.3812
 20
-311.6693
 10
630.5041
 20
-310.6614
 10
631.7399
 20
-309.8563
 10
631.2774
 20
-314.0336
 10
630.5215
 20
-313.1568
 10
629.8446
 20
-312.1858
 10
629.2535
 20
-311.1288
 10
628.7548
 20
-309.9941
 10
628.3552
 20
-308.79
 10
628.0615
 20
-307.5248
 10
627.8804
 20
-306.2066
 10
627.8185
 20
-304.8439
 10
627.9288
 20
-303.0277
 10
628.2491
 20
-301.2968
 10
628.7632
 20
-299.671
 10
629.455
 20
-298.1701
 10
630.3084
 20
-296.814
 10
631.3072
 20
-295.6224
 10
632.4355
 20
-294.6152
 10
633.677
 20
-293.8122
 10
633.1505
 20
-297.968
 10
632.402
 20
-297.0918
 10
631.7319
 20
-296.1229
 10
631.1468
 20
-295.0693
 10
630.6532
 20
-293.9392
 10
630.2578
 20
-292.7406
 10
629.9671
 20
-291.4817
 10
629.7879
 20
-290.1706
 10
629.7267
 20
-288.8154
 10
629.8433
 20
-286.9487
 10
630.1813
 20
-285.1727
 10
630.7233
 20
-283.5089
 10
631.4519
 20
-281.979
 10
632.3494
 20
-280.6046
 10
633.3984
 20
-279.4074
 10
634.5815
 20
-278.4089
 10
635.8811
 20
-277.6307
 10
635.6914
 20
-278.9692
 10
632.4287
 20
-275.3622
 10
631.0036
 20
-271.6047
 10
631.0156
 20
-267.9381
 10
632.0645
 20
-264.604
 10
633.7498
 20
-261.8439
 10
635.6711
 20
-259.8995
 10
637.4281
 20
-259.0123
 10
638.6203
 20
-259.4237
 10
637.9517
 20
-258.6085
 10
637.3514
 20
-257.7859
 10
636.826
 20
-256.9255
 10
636.3817
 20
-255.997
 10
636.0249
 20
-254.9702
 10
635.7622
 20
-253.8146
 10
635.5998
 20
-252.5002
 10
635.5443
 20
-250.9964
 10
635.664
 20
-249.3518
 10
636.0108
 20
-247.6701
 10
636.5666
 20
-246.0039
 10
637.3131
 20
-244.4057
 10
638.2321
 20
-242.9281
 10
639.3053
 20
-241.6237
 10
640.5146
 20
-240.545
 10
641.8417
 20
-239.7446
 10
641.4928
 20
-241.8094
 10
640.2337
 20
-241.0138
 10
639.0888
 20
-240.009
 10
638.0746
 20
-238.8154
 10
637.2078
 20
-237.4535
 10
636.5048
 20
-235.9436
 10
635.9822
 20
-234.3061
 10
635.6565
 20
-232.5615
 10
635.5443
 20
-230.7301
 10
635.7421
 20
-228.3064
 10
636.3095
 20
-226.0491
 10
637.2073
 20
-224.0066
 10
638.3964
 20
-222.227
 10
639.8376
 20
-220.7588
 10
641.4917
 20
-219.6502
 10
643.3196
 20
-218.9497
 10
645.2821
 20
-218.7054
 10
645.4938
 20
-218.7087
 10
645.2395
 20
-220.1425
 10
644.318
 20
-219.102
 10
643.4886
 20
-217.9109
 10
642.761
 20
-216.5831
 10
642.1445
 20
-215.1322
 10
641.6485
 20
-213.572
 10
641.2825
 20
-211.9164
 10
641.056
 20
-210.1792
 10
640.9784
 20
-208.374
 10
641.1571
 20
-205.6455
 10
641.6709
 20
-203.0921
 10
642.4862
 20
-200.7627
 10
643.5695
 20
-198.7063
 10
644.8872
 20
-196.9718
 10
646.4059
 20
-195.6082
 10
648.0919
 20
-194.6645
 10
649.9117
 20
-194.1896
 10
650.1118
 20
-193.0918
 10
649.0807
 20
-192.2914
 10
648.1471
 20
-191.3746
 10
647.3231
 20
-190.3232
 10
646.6213
 20
-189.1191
 10
646.0539
 20
-187.7439
 10
645.6334
 20
-186.1794
 10
645.372
 20
-184.4076
 10
645.2821
 20
-182.41
 10
645.5636
 20
-180.2734
 10
646.3268
 20
-178.1519
 10
647.4497
 20
-176.1288
 10
648.8103
 20
-174.287
 10
650.2866
 20
-172.7098
 10
651.7565
 20
-171.4803
 10
653.0982
 20
-170.6816
 10
654.1896
 20
-170.3969
 10
654.2409
 20
-170.398
 10
654.1227
 20
-171.0507
 10
653.5547
 20
-170.1997
 10
653.0482
 20
-169.2783
 10
652.6076
 20
-168.2924
 10
652.2374
 20
-167.2479
 10
651.9417
 20
-166.1508
 10
651.7251
 20
-165.0068
 10
651.592
 20
-163.822
 10
651.5466
 20
-162.6023
 10
651.5127
 20
-161.9285
 10
651.4367
 20
-161.1816
 10
651.357
 20
-160.4109
 10
651.3117
 20
-159.6661
 10
651.3394
 20
-158.9967
 10
651.4783
 20
-158.4521
 10
651.7668
 20
-158.082
 10
652.2433
 20
-157.9359
 10
654.0458
 20
-157.888
 10
655.9915
 20
-157.8469
 10
658.0429
 20
-157.8111
 10
660.1628
 20
-157.7793
 10
662.3135
 20
-157.75
 10
664.4577
 20
-157.7218
 10
666.5578
 20
-157.6933
 10
668.5766
 20
-157.6631
 10
715.8143
 20
-157.6248
 10
730.3081
 20
-157.8307
 10
744.9701
 20
-157.969
 10
759.7431
 20
-158.0127
 10
774.5697
 20
-157.9348
 10
789.3926
 20
-157.7081
 10
804.1544
 20
-157.3056
 10
818.798
 20
-156.7003
 10
833.2658
 20
-155.8649
 10
875.2811
 20
-154.1699
 10
877.1205
 20
-154.0518
 10
879.0341
 20
-153.8337
 10
880.9877
 20
-153.5503
 10
882.9474
 20
-153.2362
 10
884.879
 20
-152.926
 10
886.7485
 20
-152.6545
 10
888.522
 20
-152.4561
 10
890.1652
 20
-152.3657
 10
890.6046
 20
-152.4904
 10
890.8815
 20
-152.8476
 10
891.0291
 20
-153.3858
 10
891.0802
 20
-154.0539
 10
891.0678
 20
-154.8007
 10
891.025
 20
-155.5749
 10
890.9848
 20
-156.3252
 10
890.98
 20
-157.0005
 10
890.9861
 20
-158.2223
 10
890.9109
 20
-159.4131
 10
890.7581
 20
-160.5668
 10
890.5314
 20
-161.6772
 10
890.2347
 20
-162.7383
 10
889.8717
 20
-163.7439
 10
889.4461
 20
-164.6879
 10
888.9617
 20
-165.5642
 10
888.829
 20
-164.9172
 10
888.8757
 20
-164.9138
 10
890.5199
 20
-165.0775
 10
892.0696
 20
-165.7026
 10
893.4903
 20
-166.7424
 10
894.7476
 20
-168.1502
 10
895.8069
 20
-169.8794
 10
896.6337
 20
-171.8832
 10
897.1936
 20
-174.1151
 10
897.4521
 20
-176.5282
 10
897.4367
 20
-178.2452
 10
897.2622
 20
-179.8951
 10
896.9392
 20
-181.4609
 10
896.4784
 20
-182.9254
 10
895.8903
 20
-184.2713
 10
895.1855
 20
-185.4816
 10
894.3747
 20
-186.539
 10
893.4684
 20
-187.4263
 10
893.6933
 20
-188.5147
 10
895.3689
 20
-188.9085
 10
896.9408
 20
-189.777
 10
898.3766
 20
-191.0726
 10
899.6438
 20
-192.748
 10
900.7099
 20
-194.7558
 10
901.5425
 20
-197.0486
 10
902.1093
 20
-199.5789
 10
902.3776
 20
-202.2993
 10
902.3769
 20
-204.1079
 10
902.238
 20
-205.8553
 10
901.969
 20
-207.5272
 10
901.5779
 20
-209.1096
 10
901.0727
 20
-210.588
 10
900.4616
 20
-211.9485
 10
899.7526
 20
-213.1767
 10
898.9538
 20
-214.2585
 10
898.6666
 20
-212.8363
 10
898.8592
 20
-212.8236
 10
900.6557
 20
-212.9799
 10
902.3473
 20
-213.5985
 10
903.8965
 20
-214.6329
 10
905.2658
 20
-216.0366
 10
906.4176
 20
-217.7629
 10
907.3143
 20
-219.7653
 10
907.9186
 20
-221.9971
 10
908.1928
 20
-224.4119
 10
908.1614
 20
-226.2483
 10
907.9324
 20
-228.0075
 10
907.52
 20
-229.6684
 10
906.9383
 20
-231.2098
 10
906.2018
 20
-232.6106
 10
905.3246
 20
-233.8496
 10
904.3209
 20
-234.9058
 10
903.2051
 20
-235.758
 10
902.8072
 20
-233.7087
 10
904.0453
 20
-234.4145
 10
905.1851
 20
-235.3537
 10
906.2089
 20
-236.5047
 10
907.0994
 20
-237.8457
 10
907.8389
 20
-239.3551
 10
908.4102
 20
-241.0115
 10
908.7956
 20
-242.793
 10
908.9777
 20
-244.6782
 10
908.9781
 20
-245.951
 10
908.8824
 20
-247.1903
 10
908.6954
 20
-248.3891
 10
908.4216
 20
-249.5405
 10
908.0659
 20
-250.6377
 10
907.6328
 20
-251.6736
 10
907.127
 20
-252.6414
 10
906.5533
 20
-253.5341
 10
906.0752
 20
-250.9337
 10
907.5585
 20
-251.4548
 10
908.9364
 20
-252.2972
 10
910.1838
 20
-253.4298
 10
911.2759
 20
-254.8216
 10
912.1876
 20
-256.4415
 10
912.8938
 20
-258.2586
 10
913.3696
 20
-260.2418
 10
913.59
 20
-262.3601
 10
913.5763
 20
-263.9254
 10
913.4182
 20
-265.4372
 10
913.1245
 20
-266.8826
 10
912.7039
 20
-268.2485
 10
912.1652
 20
-269.5219
 10
911.5171
 20
-270.6899
 10
910.7685
 20
-271.7395
 10
909.9281
 20
-272.6577
 10
909.7037
 20
-271.3275
 10
910.9172
 20
-272.0475
 10
912.0331
 20
-272.9931
 10
913.0348
 20
-274.1434
 10
913.9053
 20
-275.4776
 10
914.628
 20
-276.9748
 10
915.186
 20
-278.6143
 10
915.5626
 20
-280.3752
 10
915.741
 20
-282.2366
 10
915.7379
 20
-283.5946
 10
915.6256
 20
-284.9138
 10
915.4097
 20
-286.1857
 10
915.0961
 20
-287.402
 10
914.6904
 20
-288.5543
 10
914.1984
 20
-289.6341
 10
913.6257
 20
-290.6331
 10
912.9781
 20
-291.5428
 10
912.3374
 20
-287.4104
 10
913.4992
 20
-288.1578
 10
914.5658
 20
-289.1146
 10
915.5216
 20
-290.2614
 10
916.3513
 20
-291.5794
 10
917.0395
 20
-293.0493
 10
917.5706
 20
-294.652
 10
917.9293
 20
-296.3686
 10
918.1002
 20
-298.1798
 10
918.0967
 20
-299.5453
 10
917.9828
 20
-300.8716
 10
917.7644
 20
-302.15
 10
917.4471
 20
-303.3721
 10
917.0369
 20
-304.5291
 10
916.5395
 20
-305.6126
 10
915.9606
 20
-306.614
 10
915.3062
 20
-307.5247
 10
914.7232
 20
-303.3679
 10
915.8797
 20
-304.1177
 10
916.9413
 20
-305.0753
 10
917.8926
 20
-306.2218
 10
918.7184
 20
-307.5382
 10
919.4032
 20
-309.0054
 10
919.9317
 20
-310.6046
 10
920.2887
 20
-312.3168
 10
920.4588
 20
-314.1229
 10
920.4525
 20
-315.5494
 10
920.326
 20
-316.9326
 10
920.0858
 20
-318.2628
 10
919.7386
 20
-319.53
 10
919.2909
 20
-320.7245
 10
918.7494
 20
-321.8366
 10
918.1206
 20
-322.8563
 10
917.4111
 20
-323.7739
 10
917.8534
 20
-327.4855
 10
918.9545
 20
-328.2603
 10
919.9632
 20
-329.2266
 10
920.8656
 20
-330.3671
 10
921.6477
 20
-331.6645
 10
922.2957
 20
-333.1016
 10
922.7956
 20
-334.6609
 10
923.1335
 20
-336.3254
 10
923.2955
 20
-338.0775
 10
923.2867
 20
-339.5559
 10
923.1488
 20
-340.9873
 10
922.8892
 20
-342.3607
 10
922.5152
 20
-343.6653
 10
922.0343
 20
-344.8902
 10
921.4537
 20
-346.0245
 10
920.781
 20
-347.0574
 10
920.0234
 20
-347.978
 10
920.4698
 20
-352.834
 10
921.2424
 20
-353.6789
 10
921.943
 20
-354.6321
 10
922.5643
 20
-355.6849
 10
923.0991
 20
-356.8281
 10
923.54
 20
-358.0527
 10
923.8799
 20
-359.3499
 10
924.1114
 20
-360.7106
 10
924.2274
 20
-362.1258
 10
924.2288
 20
-363.372
 10
924.138
 20
-364.5862
 10
923.9594
 20
-365.7618
 10
923.6975
 20
-366.8925
 10
923.3567
 20
-367.9717
 10
922.9413
 20
-368.9928
 10
922.4558
 20
-369.9496
 10
921.9046
 20
-370.8353
 10
921.588
 20
-366.5493
 10
921.513
 20
-365.5613
 10
922.1708
 20
-366.3971
 10
922.7652
 20
-367.3177
 10
923.2907
 20
-368.3163
 10
923.7421
 20
-369.3862
 10
924.1138
 20
-370.5206
 10
924.4006
 20
-371.7128
 10
924.5969
 20
-372.9561
 10
924.6974
 20
-374.2436
 10
924.7023
 20
-375.3832
 10
924.63
 20
-376.4966
 10
924.4838
 20
-377.5788
 10
924.2672
 20
-378.6249
 10
923.9835
 20
-379.6298
 10
923.6359
 20
-380.5887
 10
923.2279
 20
-381.4965
 10
922.7627
 20
-382.3483
 10
922.3036
 20
-376.2076
 10
923.2313
 20
-377.0363
 10
924.0764
 20
-378.0097
 10
924.8288
 20
-379.1151
 10
925.4785
 20
-380.3401
 10
926.0152
 20
-381.6722
 10
926.4289
 20
-383.0987
 10
926.7094
 20
-384.6072
 10
926.8467
 20
-386.1852
 10
926.8403
 20
-387.6157
 10
926.7129
 20
-389.0025
 10
926.4712
 20
-390.3358
 10
926.1219
 20
-391.6057
 10
925.6717
 20
-392.8025
 10
925.1271
 20
-393.9163
 10
924.4949
 20
-394.9373
 10
923.7817
 20
-395.8556
 10
923.675
 20
-394.4512
 10
924.4671
 20
-395.2956
 10
925.1859
 20
-396.2527
 10
925.8236
 20
-397.3131
 10
926.3727
 20
-398.4675
 10
926.8256
 20
-399.7063
 10
927.1746
 20
-401.0203
 10
927.4122
 20
-402.4
 10
927.5307
 20
-403.8361
 10
927.5308
 20
-405.1169
 10
927.4337
 20
-406.3637
 10
927.244
 20
-407.5693
 10
926.9665
 20
-408.7268
 10
926.6061
 20
-409.8292
 10
926.1674
 20
-410.8694
 10
925.6554
 20
-411.8404
 10
925.0746
 20
-412.7352
 10
924.7228
 20
-408.1659
 10
925.7955
 20
-408.9523
 10
926.7773
 20
-409.9219
 10
927.6549
 20
-411.0584
 10
928.4151
 20
-412.3453
 10
929.0447
 20
-413.766
 10
929.5303
 20
-415.3043
 10
929.8587
 20
-416.9436
 10
930.0167
 20
-418.6675
 10
930.0029
 20
-420.2366
 10
929.844
 20
-421.7521
 10
929.5488
 20
-423.2006
 10
929.1262
 20
-424.5692
 10
928.5849
 20
-425.8448
 10
927.9337
 20
-427.0142
 10
927.1814
 20
-428.0644
 10
926.3369
 20
-428.9822
 10
925.7712
 20
-421.7292
 10
926.7403
 20
-422.5484
 10
927.6245
 20
-423.5229
 10
928.4126
 20
-424.6389
 10
929.0937
 20
-425.883
 10
929.6568
 20
-427.2416
 10
930.091
 20
-428.701
 10
930.3851
 20
-430.2478
 10
930.5283
 20
-431.8682
 10
930.5203
 20
-433.3282
 10
930.3864
 20
-434.7426
 10
930.1336
 20
-436.1008
 10
929.7692
 20
-437.3923
 10
929.3001
 20
-438.6066
 10
928.7334
 20
-439.7333
 10
928.0763
 20
-440.7618
 10
927.3358
 20
-441.6817
 10
927.1812
 20
-439.7183
 10
928.0061
 20
-440.561
 10
928.7553
 20
-441.5239
 10
929.4205
 20
-442.5967
 10
929.9936
 20
-443.7694
 10
930.4665
 20
-445.0319
 10
930.8309
 20
-446.374
 10
931.0788
 20
-447.7857
 10
931.2018
 20
-449.2568
 10
931.201
 20
-450.5606
 10
931.0995
 20
-451.829
 10
930.9023
 20
-453.0546
 10
930.6145
 20
-454.2298
 10
930.241
 20
-455.3472
 10
929.7869
 20
-456.3996
 10
929.2572
 20
-457.3793
 10
928.6569
 20
-458.2791
 10
928.7232
 20
-459.1086
 10
929.3834
 20
-459.9452
 10
929.9801
 20
-460.8669
 10
930.5079
 20
-461.8669
 10
930.9613
 20
-462.9386
 10
931.3348
 20
-464.0751
 10
931.6229
 20
-465.2697
 10
931.8201
 20
-466.5158
 10
931.9209
 20
-467.8065
 10
931.9265
 20
-468.9229
 10
931.858
 20
-470.0143
 10
931.7186
 20
-471.0759
 10
931.5114
 20
-472.1033
 10
931.2395
 20
-473.0916
 10
930.906
 20
-474.0362
 10
930.5141
 20
-474.9325
 10
930.0669
 20
-475.7758
 10
930.312
 20
-478.7966
 10
930.7947
 20
-479.5815
 10
931.2289
 20
-480.4199
 10
931.6116
 20
-481.308
 10
931.9395
 20
-482.2418
 10
932.2094
 20
-483.2175
 10
932.4183
 20
-484.231
 10
932.5629
 20
-485.2785
 10
932.6401
 20
-486.3562
 10
932.6506
 20
-487.253
 10
932.6129
 20
-488.1343
 10
932.5289
 20
-488.9976
 10
932.4001
 20
-489.8406
 10
932.2281
 20
-490.6609
 10
932.0146
 20
-491.4562
 10
931.7611
 20
-492.224
 10
931.4694
 20
-492.9621
 10
931.5749
 20
-494.2495
 10
932.3683
 20
-495.0939
 10
933.0882
 20
-496.0512
 10
933.7269
 20
-497.1121
 10
934.2769
 20
-498.2672
 10
934.7305
 20
-499.507
 10
935.0802
 20
-500.8221
 10
935.3182
 20
-502.2031
 10
935.437
 20
-503.6405
 10
935.4378
 20
-504.8964
 10
935.3452
 20
-506.1197
 10
935.1635
 20
-507.3038
 10
934.8973
 20
-508.442
 10
934.5511
 20
-509.5278
 10
934.1292
 20
-510.5544
 10
933.6362
 20
-511.5153
 10
933.0766
 20
-512.4039
 10
932.8996
 20
-510.2758
 10
933.5458
 20
-511.11
 10
934.1296
 20
-512.0266
 10
934.6459
 20
-513.0192
 10
935.0892
 20
-514.0812
 10
935.4544
 20
-515.2061
 10
935.7362
 20
-516.3875
 10
935.9291
 20
-517.6187
 10
936.0281
 20
-518.8933
 10
936.0346
 20
-519.9807
 10
935.9707
 20
-521.0445
 10
935.8393
 20
-522.0803
 10
935.6434
 20
-523.0839
 10
935.3858
 20
-524.051
 10
935.0695
 20
-524.9772
 10
934.6973
 20
-525.8584
 10
934.2721
 20
-526.6902
 10
934.1752
 20
-525.5453
 10
934.6745
 20
-526.337
 10
935.1238
 20
-527.185
 10
935.5198
 20
-528.0851
 10
935.8592
 20
-529.0332
 10
936.1386
 20
-530.025
 10
936.3546
 20
-531.0565
 10
936.504
 20
-532.1235
 10
936.5834
 20
-533.2218
 10
936.5936
 20
-534.1279
 10
936.5548
 20
-535.0181
 10
936.4687
 20
-535.89
 10
936.3369
 20
-536.741
 10
936.1611
 20
-537.5688
 10
935.9429
 20
-538.3708
 10
935.6841
 20
-539.1445
 10
935.3862
 20
-539.8876
 10
935.2103
 20
-537.8067
 10
935.9636
 20
-538.6512
 10
936.6464
 20
-539.5999
 10
937.2516
 20
-540.6442
 10
937.7724
 20
-541.7757
 10
938.2017
 20
-542.9857
 10
938.5327
 20
-544.2657
 10
938.7583
 20
-545.6071
 10
938.8717
 20
-547.0014
 10
938.8745
 20
-548.2025
 10
938.7917
 20
-549.374
 10
938.6272
 20
-550.5103
 10
938.385
 20
-551.6055
 10
938.0689
 20
-552.6537
 10
937.6828
 20
-553.6493
 10
937.2308
 20
-554.5865
 10
936.7166
 20
-555.4593
 10
936.5079
 20
-553.0285
 10
937.1121
 20
-553.8539
 10
937.6574
 20
-554.7539
 10
938.1391
 20
-555.7228
 10
938.5525
 20
-556.7546
 10
938.8929
 20
-557.8437
 10
939.1556
 20
-558.9843
 10
939.336
 20
-560.1705
 10
939.4293
 20
-561.3965
 10
939.4372
 20
-562.4221
 10
939.3825
 20
-563.4269
 10
939.2676
 20
-564.4073
 10
939.0949
 20
-565.3596
 10
938.8668
 20
-566.2804
 10
938.5858
 20
-567.166
 10
938.2543
 20
-568.0129
 10
937.8746
 20
-568.8175
 10
938.0326
 20
-570.6267
 10
934.47
 20
-588.6724
 10
921.7909
 20
-603.5019
 10
902.1807
 20
-615.3884
 10
877.825
 20
-624.6049
 10
850.9091
 20
-631.4244
 10
823.6186
 20
-636.1201
 10
798.1391
 20
-638.965
 10
776.6559
 20
-640.2322
 10
771.0765
 20
-640.2854
 10
735.9811
 20
-637.5984
 10
705.2119
 20
-630.5143
 10
678.8779
 20
-620.499
 10
657.0878
 20
-609.018
 10
639.9506
 20
-597.5369
 10
627.5749
 20
-587.5216
 10
620.0697
 20
-580.4375
 10
617.5438
 20
-577.7505
 10
617.6407
 20
-575.9374
 10
617.1903
 20
-575.1529
 10
616.7909
 20
-574.3239
 10
616.4452
 20
-573.4537
 10
616.156
 20
-572.5459
 10
615.9262
 20
-571.6038
 10
615.7586
 20
-570.631
 10
615.6559
 20
-569.6308
 10
615.6211
 20
-568.6068
 10
615.6713
 20
-567.3785
 10
615.8186
 20
-566.1857
 10
616.0581
 20
-565.0344
 10
616.385
 20
-563.9307
 10
616.7943
 20
-562.8805
 10
617.2811
 20
-561.8898
 10
617.8405
 20
-560.9647
 10
618.4676
 20
-560.1112
 10
618.3419
 20
-562.5476
 10
617.7414
 20
-561.7017
 10
617.2061
 20
-560.7885
 10
616.7408
 20
-559.8138
 10
616.3498
 20
-558.783
 10
616.0378
 20
-557.7019
 10
615.8093
 20
-556.5759
 10
615.6689
 20
-555.4106
 10
615.6211
 20
-554.2117
 10
615.6862
 20
-552.8145
 10
615.8765
 20
-551.4645
 10
616.1848
 20
-550.1707
 10
616.6039
 20
-548.9418
 10
617.1266
 20
-547.7869
 10
617.7455
 20
-546.7147
 10
618.4535
 20
-545.7343
 10
619.2433
 20
-544.8545
 10
619.1389
 20
-546.9405
 10
618.7809
 20
-546.2133
 10
618.4644
 20
-545.4536
 10
618.1912
 20
-544.6638
 10
617.9633
 20
-543.8462
 10
617.7827
 20
-543.0031
 10
617.6513
 20
-542.1371
 10
617.571
 20
-541.2505
 10
617.5438
 20
-540.3456
 10
617.584
 20
-539.2455
 10
617.7024
 20
-538.1733
 10
617.8954
 20
-537.1332
 10
618.1595
 20
-536.1295
 10
618.4912
 20
-535.1667
 10
618.887
 20
-534.2489
 10
619.3433
 20
-533.3806
 10
619.8568
 20
-532.5659
 10
619.7998
 20
-533.7131
 10
619.2984
 20
-532.9038
 10
618.8529
 20
-532.0426
 10
618.4668
 20
-531.1336
 10
618.1435
 20
-530.181
 10
617.8861
 20
-529.1889
 10
617.6982
 20
-528.1614
 10
617.583
 20
-527.1028
 10
617.5438
 20
-526.0171
 10
617.5981
 20
-524.7401
 10
617.7573
 20
-523.5017
 10
618.0158
 20
-522.3088
 10
618.3682
 20
-521.1681
 10
618.809
 20
-520.0864
 10
619.3327
 20
-519.0704
 10
619.9337
 20
-518.1269
 10
620.6065
 20
-517.2627
 10
620.5027
 20
-519.3951
 10
619.8517
 20
-518.5358
 10
619.2706
 20
-517.601
 10
618.7647
 20
-516.597
 10
618.339
 20
-515.5303
 10
617.9989
 20
-514.4073
 10
617.7495
 20
-513.2343
 10
617.5961
 20
-512.0179
 10
617.5438
 20
-510.7643
 10
617.613
 20
-509.3238
 10
617.8152
 20
-507.9338
 10
618.1425
 20
-506.6041
 10
618.587
 20
-505.3444
 10
619.1407
 20
-504.1646
 10
619.7957
 20
-503.0744
 10
620.544
 20
-502.0836
 10
621.3776
 20
-501.202
 10
621.4387
 20
-499.9117
 10
621.0876
 20
-499.1894
 10
620.7772
 20
-498.4355
 10
620.5094
 20
-497.6522
 10
620.2861
 20
-496.8419
 10
620.1092
 20
-496.0068
 10
619.9805
 20
-495.1492
 10
619.9019
 20
-494.2714
 10
619.8753
 20
-493.3757
 10
619.914
 20
-492.2963
 10
620.028
 20
-491.2437
 10
620.2139
 20
-490.2218
 10
620.4683
 20
-489.2348
 10
620.7881
 20
-488.2866
 10
621.1698
 20
-487.3815
 10
621.6102
 20
-486.5233
 10
622.1059
 20
-485.7163
 10
622.246
 20
-482.6895
 10
621.72
 20
-481.8697
 10
621.2523
 20
-480.9942
 10
620.8466
 20
-480.0677
 10
620.5066
 20
-479.0946
 10
620.2359
 20
-478.0793
 10
620.038
 20
-477.0265
 10
619.9166
 20
-475.9406
 10
619.8753
 20
-474.826
 10
619.931
 20
-473.5328
 10
620.0942
 20
-472.2794
 10
620.3592
 20
-471.0728
 10
620.7203
 20
-469.92
 10
621.1717
 20
-468.828
 10
621.7077
 20
-467.804
 10
622.3226
 20
-466.8549
 10
623.0107
 20
-465.9878
 10
623.0482
 20
-465.1567
 10
622.3521
 20
-464.288
 10
621.7299
 20
-463.3361
 10
621.1874
 20
-462.308
 10
620.7306
 20
-461.211
 10
620.3651
 20
-460.0521
 10
620.0969
 20
-458.8387
 10
619.9317
 20
-457.5777
 10
619.8753
 20
-456.2764
 10
619.9478
 20
-454.802
 10
620.1595
 20
-453.3809
 10
620.5021
 20
-452.0234
 10
620.9668
 20
-450.7402
 10
621.5452
 20
-449.5416
 10
622.2289
 20
-448.4382
 10
623.0091
 20
-447.4404
 10
623.8775
 20
-446.5588
 10
623.791
 20
-448.526
 10
622.9404
 20
-447.6442
 10
622.1766
 20
-446.6499
 10
621.5077
 20
-445.5532
 10
620.942
 20
-444.3642
 10
620.4876
 20
-443.093
 10
620.1529
 20
-441.7497
 10
619.9461
 20
-440.3446
 10
619.8753
 20
-438.8877
 10
619.9634
 20
-437.2633
 10
620.2201
 20
-435.7051
 10
620.6339
 20
-434.2272
 10
621.1933
 20
-432.8436
 10
621.8869
 20
-431.5685
 10
622.7033
 20
-430.4159
 10
623.6309
 20
-429.4
 10
624.6583
 20
-428.5348
 10
624.3463
 20
-435.8016
 10
623.3818
 20
-434.9269
 10
622.5128
 20
-433.9156
 10
621.7494
 20
-432.7804
 10
621.102
 20
-431.5338
 10
620.5806
 20
-430.1886
 10
620.1956
 20
-428.7572
 10
619.9571
 20
-427.2525
 10
619.8753
 20
-425.687
 10
619.9751
 20
-423.9586
 10
620.2655
 20
-422.3064
 10
620.7324
 20
-420.7472
 10
621.3621
 20
-419.2983
 10
622.1407
 20
-417.9766
 10
623.0543
 20
-416.7992
 10
624.0892
 20
-415.7833
 10
625.2315
 20
-414.9459
 10
625.0401
 20
-419.5236
 10
624.3656
 20
-418.6591
 10
623.7631
 20
-417.715
 10
623.2382
 20
-416.6984
 10
622.7963
 20
-415.6158
 10
622.443
 20
-414.4741
 10
622.1838
 20
-413.28
 10
622.0242
 20
-412.0403
 10
621.9698
 20
-410.7619
 10
622.0388
 20
-409.3228
 10
622.2407
 20
-407.934
 10
622.5674
 20
-406.6054
 10
623.0111
 20
-405.3467
 10
623.5639
 20
-404.1676
 10
624.2178
 20
-403.0779
 10
624.9648
 20
-402.0874
 10
625.7972
 20
-401.2057
 10
625.7401
 20
-402.6124
 10
624.9195
 20
-401.7309
 10
624.1832
 20
-400.743
 10
623.539
 20
-399.6581
 10
622.9947
 20
-398.4857
 10
622.5579
 20
-397.2353
 10
622.2363
 20
-395.9164
 10
622.0377
 20
-394.5384
 10
621.9698
 20
-393.111
 10
622.0533
 20
-391.5293
 10
622.2968
 20
-390.0099
 10
622.6896
 20
-388.5658
 10
623.2214
 20
-387.2099
 10
623.8814
 20
-385.9554
 10
624.6591
 20
-384.8151
 10
625.5441
 20
-383.8021
 10
626.5256
 20
-382.9294
 10
626.2834
 20
-389.0812
 10
625.7374
 20
-388.2537
 10
625.2516
 20
-387.3676
 10
624.8299
 20
-386.4276
 10
624.4762
 20
-385.4385
 10
624.1943
 20
-384.4052
 10
623.9882
 20
-383.3322
 10
623.8616
 20
-382.2246
 10
623.8186
 20
-381.0869
 10
623.874
 20
-379.7969
 10
624.0363
 20
-378.5463
 10
624.2999
 20
-377.3423
 10
624.6592
 20
-376.1918
 10
625.1085
 20
-375.1017
 10
625.6421
 20
-374.0792
 10
626.2543
 20
-373.1313
 10
626.9396
 20
-372.2648
 10
626.8999
 20
-373.2545
  0
LWPOLYLINE
  5
62
330
1F
100
AcDbEntity
  8
Layer 1
 62
     7
370
    18
100
AcDbPolyline
 90
      814
 70
     1
 43
0.0
 10
618.9249
 20
78.0349
 10
618.9705
 20
77.5675
 10
618.5248
 20
77.2477
 10
618.1234
 20
76.8791
 10
617.7709
 20
76.4664
 10
617.472
 20
76.0139
 10
617.2314
 20
75.5261
 10
617.0537
 20
75.0075
 10
616.9437
 20
74.4626
 10
616.906
 20
73.8959
 10
616.9595
 20
73.2219
 10
617.1147
 20
72.5803
 10
617.3636
 20
71.9786
 10
617.6983
 20
71.4245
 10
618.1108
 20
70.9256
 10
618.5932
 20
70.4895
 10
619.1375
 20
70.1238
 10
619.7357
 20
69.8361
 10
620.0085
 20
67.1164
 10
619.5443
 20
66.7984
 10
619.1257
 20
66.4285
 10
618.7578
 20
66.0114
 10
618.4454
 20
65.5522
 10
618.1937
 20
65.0555
 10
618.0077
 20
64.5261
 10
617.8924
 20
63.9689
 10
617.8529
 20
63.3887
 10
617.9089
 20
62.6994
 10
618.0712
 20
62.044
 10
618.3313
 20
61.4309
 10
618.6807
 20
60.8681
 10
619.1109
 20
60.3639
 10
619.6133
 20
59.9263
 10
620.1795
 20
59.5636
 10
620.8009
 20
59.284
 10
621.0742
 20
56.6054
 10
620.6113
 20
56.2873
 10
620.1939
 20
55.9174
 10
619.827
 20
55.5007
 10
619.5156
 20
55.0419
 10
619.2647
 20
54.5457
 10
619.0792
 20
54.0171
 10
618.9643
 20
53.4608
 10
618.9249
 20
52.8816
 10
618.9811
 20
52.1911
 10
619.1439
 20
51.5348
 10
619.4048
 20
50.9209
 10
619.7553
 20
50.3575
 10
620.1866
 20
49.853
 10
620.6904
 20
49.4154
 10
621.2581
 20
49.0531
 10
621.881
 20
48.7741
 10
622.174
 20
45.9569
 10
621.7562
 20
45.6355
 10
621.3805
 20
45.27
 10
621.0511
 20
44.8643
 10
620.7722
 20
44.4225
 10
620.5481
 20
43.9486
 10
620.3828
 20
43.4466
 10
620.2805
 20
42.9206
 10
620.2455
 20
42.3745
 10
620.2968
 20
41.7144
 10
620.4457
 20
41.0852
 10
620.6847
 20
40.4938
 10
621.0064
 20
39.9475
 10
621.4034
 20
39.4535
 10
621.8682
 20
39.019
 10
622.3934
 20
38.651
 10
622.9715
 20
38.3568
 10
623.2944
 20
35.3056
 10
622.9178
 20
34.9843
 10
622.5801
 20
34.6253
 10
622.2848
 20
34.232
 10
622.0354
 20
33.8077
 10
621.8353
 20
33.3557
 10
621.6881
 20
32.8794
 10
621.5972
 20
32.3821
 10
621.5661
 20
31.8673
 10
621.613
 20
31.2358
 10
621.7494
 20
30.6322
 10
621.9687
 20
30.0627
 10
622.2645
 20
29.5336
 10
622.6302
 20
29.051
 10
623.0594
 20
28.6212
 10
623.5456
 20
28.2504
 10
624.0822
 20
27.945
 10
624.6462
 20
22.7486
 10
624.1671
 20
22.4325
 10
623.7346
 20
22.0619
 10
623.3541
 20
21.6418
 10
623.0308
 20
21.1773
 10
622.7701
 20
20.6736
 10
622.5773
 20
20.1357
 10
622.4577
 20
19.5687
 10
622.4167
 20
18.9777
 10
622.476
 20
18.2684
 10
622.6478
 20
17.5955
 10
622.9227
 20
16.9677
 10
623.2915
 20
16.3941
 10
623.7447
 20
15.8835
 10
624.2732
 20
15.445
 10
624.8677
 20
15.0874
 10
625.5187
 20
14.8197
 10
626.0533
 20
10.0336
 10
625.5072
 20
9.7306
 10
625.012
 20
9.3603
 10
624.5746
 20
8.9292
 10
624.2017
 20
8.4438
 10
623.8999
 20
7.9105
 10
623.676
 20
7.3358
 10
623.5367
 20
6.7261
 10
623.4888
 20
6.088
 10
623.5568
 20
5.3289
 10
623.7533
 20
4.6123
 10
624.0667
 20
3.9492
 10
624.4856
 20
3.3505
 10
624.9986
 20
2.8273
 10
625.5942
 20
2.3905
 10
626.261
 20
2.0511
 10
626.9875
 20
1.8202
 10
627.5117
 20
-2.6959
 10
626.8897
 20
-2.9752
 10
626.323
 20
-3.3377
 10
625.82
 20
-3.7753
 10
625.3895
 20
-4.2797
 10
625.0397
 20
-4.8428
 10
624.7793
 20
-5.4562
 10
624.6169
 20
-6.112
 10
624.5608
 20
-6.8017
 10
624.6392
 20
-7.6157
 10
624.8648
 20
-8.3797
 10
625.2236
 20
-9.08
 10
625.7011
 20
-9.7032
 10
626.2834
 20
-10.2354
 10
626.956
 20
-10.6631
 10
627.7048
 20
-10.9727
 10
628.5157
 20
-11.1504
 10
629.0388
 20
-15.4458
 10
628.3297
 20
-15.6861
 10
627.6797
 20
-16.0304
 10
627.0997
 20
-16.4682
 10
626.6008
 20
-16.9889
 10
626.1937
 20
-17.5821
 10
625.8894
 20
-18.2372
 10
625.6988
 20
-18.9438
 10
625.6329
 20
-19.6914
 10
625.7239
 20
-20.5677
 10
625.9852
 20
-21.3846
 10
626.3987
 20
-22.125
 10
626.9468
 20
-22.7717
 10
627.6115
 20
-23.3075
 10
628.375
 20
-23.7153
 10
629.2195
 20
-23.9779
 10
630.127
 20
-24.0783
 10
630.4891
 20
-26.8534
 10
629.9685
 20
-27.1622
 10
629.4973
 20
-27.5334
 10
629.0816
 20
-27.9609
 10
628.7276
 20
-28.4389
 10
628.4416
 20
-28.9614
 10
628.2296
 20
-29.5224
 10
628.0979
 20
-30.116
 10
628.0526
 20
-30.7363
 10
628.1218
 20
-31.5016
 10
628.3214
 20
-32.2237
 10
628.6399
 20
-32.8911
 10
629.0654
 20
-33.4927
 10
629.5861
 20
-34.0171
 10
630.1904
 20
-34.4532
 10
630.8665
 20
-34.7896
 10
631.6027
 20
-35.0152
 10
631.8455
 20
-36.7118
 10
631.2685
 20
-37.0063
 10
630.7443
 20
-37.3743
 10
630.2804
 20
-37.8087
 10
629.8841
 20
-38.3024
 10
629.563
 20
-38.8483
 10
629.3245
 20
-39.4391
 10
629.1759
 20
-40.0678
 10
629.1247
 20
-40.7273
 10
629.2044
 20
-41.5481
 10
629.4339
 20
-42.318
 10
629.7984
 20
-43.0228
 10
630.2835
 20
-43.6487
 10
630.8746
 20
-44.1817
 10
631.5571
 20
-44.6078
 10
632.3163
 20
-44.9129
 10
633.1378
 20
-45.0832
 10
633.2987
 20
-46.0452
 10
632.9167
 20
-46.3667
 10
632.574
 20
-46.7267
 10
632.2743
 20
-47.1219
 10
632.0211
 20
-47.5487
 10
631.8179
 20
-48.0037
 10
631.6683
 20
-48.4834
 10
631.576
 20
-48.9845
 10
631.5444
 20
-49.5034
 10
631.6086
 20
-50.2409
 10
631.7941
 20
-50.9387
 10
632.0904
 20
-51.5867
 10
632.4872
 20
-52.175
 10
632.9739
 20
-52.6933
 10
633.5401
 20
-53.1316
 10
634.1753
 20
-53.4798
 10
634.869
 20
-53.7278
 10
634.9688
 20
-54.0817
 10
635.0668
 20
-54.4049
 10
635.1628
 20
-54.6999
 10
635.2571
 20
-54.9693
 10
634.9139
 20
-55.2883
 10
634.6067
 20
-55.6401
 10
634.3386
 20
-56.0218
 10
634.1125
 20
-56.4306
 10
633.9315
 20
-56.8636
 10
633.7985
 20
-57.3179
 10
633.7165
 20
-57.7908
 10
633.6885
 20
-58.2794
 10
633.771
 20
-59.1143
 10
634.0082
 20
-59.8961
 10
634.3848
 20
-60.6102
 10
634.8854
 20
-61.2418
 10
635.4947
 20
-61.7762
 10
636.1973
 20
-62.1985
 10
636.9779
 20
-62.4941
 10
637.821
 20
-62.6481
 10
637.9899
 20
-63.2491
 10
638.1663
 20
-63.867
 10
638.3507
 20
-64.5016
 10
638.5441
 20
-65.1525
 10
638.747
 20
-65.8193
 10
638.9601
 20
-66.5018
 10
639.1843
 20
-67.1995
 10
639.4202
 20
-67.9122
 10
639.1617
 20
-68.215
 10
638.9317
 20
-68.5394
 10
638.7319
 20
-68.8838
 10
638.5642
 20
-69.2464
 10
638.4306
 20
-69.6254
 10
638.3328
 20
-70.0191
 10
638.2728
 20
-70.4255
 10
638.2524
 20
-70.8431
 10
638.3332
 20
-71.6693
 10
638.5657
 20
-72.4438
 10
638.935
 20
-73.1522
 10
639.4262
 20
-73.7804
 10
640.0244
 20
-74.3139
 10
640.7147
 20
-74.7386
 10
641.4823
 20
-75.04
 10
642.3122
 20
-75.204
 10
643.4079
 20
-77.4573
 10
643.2744
 20
-77.7012
 10
643.1566
 20
-77.9538
 10
643.0553
 20
-78.2145
 10
642.9709
 20
-78.4828
 10
642.9042
 20
-78.7579
 10
642.8558
 20
-79.0395
 10
642.8263
 20
-79.3268
 10
642.8163
 20
-79.6192
 10
642.9053
 20
-80.4855
 10
643.1606
 20
-81.2941
 10
643.5652
 20
-82.0283
 10
644.1017
 20
-82.6716
 10
644.7529
 20
-83.2074
 10
645.5017
 20
-83.6192
 10
646.3307
 20
-83.8904
 10
647.2227
 20
-84.0045
 10
647.4738
 20
-84.382
 10
647.7293
 20
-84.7607
 10
647.9893
 20
-85.1404
 10
648.2537
 20
-85.5212
 10
648.5227
 20
-85.9031
 10
648.7962
 20
-86.2859
 10
649.0743
 20
-86.6698
 10
649.357
 20
-87.0546
 10
648.9636
 20
-87.3764
 10
648.6104
 20
-87.7384
 10
648.3012
 20
-88.1371
 10
648.0397
 20
-88.5689
 10
647.8297
 20
-89.03
 10
647.6751
 20
-89.5169
 10
647.5795
 20
-90.0261
 10
647.5468
 20
-90.5538
 10
647.6395
 20
-91.4382
 10
647.9054
 20
-92.2619
 10
648.3262
 20
-93.0073
 10
648.8835
 20
-93.6567
 10
649.5589
 20
-94.1925
 10
650.3341
 20
-94.5971
 10
651.1908
 20
-94.8528
 10
652.1106
 20
-94.9419
 10
652.5308
 20
-94.9235
 10
652.9402
 20
-94.8695
 10
653.3373
 20
-94.7815
 10
653.7203
 20
-94.661
 10
654.0876
 20
-94.5097
 10
654.4374
 20
-94.3293
 10
654.7682
 20
-94.1212
 10
655.0782
 20
-93.8873
 10
656.6168
 20
-95.4775
 10
656.2806
 20
-95.8444
 10
655.981
 20
-96.2406
 10
655.7206
 20
-96.6638
 10
655.5017
 20
-97.1114
 10
655.3271
 20
-97.5811
 10
655.1992
 20
-98.0703
 10
655.1206
 20
-98.5766
 10
655.0938
 20
-99.0976
 10
655.2038
 20
-100.1471
 10
655.5194
 20
-101.1245
 10
656.0186
 20
-102.009
 10
656.6799
 20
-102.7796
 10
657.4814
 20
-103.4154
 10
658.4013
 20
-103.8954
 10
659.4179
 20
-104.1988
 10
660.5094
 20
-104.3046
 10
661.1041
 20
-104.2735
 10
661.68
 20
-104.1825
 10
662.2339
 20
-104.0348
 10
662.7622
 20
-103.8338
 10
663.2617
 20
-103.5825
 10
663.7289
 20
-103.2845
 10
664.1605
 20
-102.9428
 10
664.5531
 20
-102.5608
 10
666.3789
 20
-103.9791
 10
666.1365
 20
-104.3155
 10
665.9217
 20
-104.6702
 10
665.7359
 20
-105.042
 10
665.5806
 20
-105.4294
 10
665.4573
 20
-105.831
 10
665.3673
 20
-106.2454
 10
665.3123
 20
-106.6711
 10
665.2936
 20
-107.1068
 10
665.4036
 20
-108.1563
 10
665.7191
 20
-109.1337
 10
666.2184
 20
-110.0182
 10
666.8797
 20
-110.7888
 10
667.6811
 20
-111.4246
 10
668.6011
 20
-111.9047
 10
669.6177
 20
-112.208
 10
670.7092
 20
-112.3138
 10
671.3973
 20
-112.2722
 10
672.0595
 20
-112.1507
 10
672.6904
 20
-111.9544
 10
673.2849
 20
-111.6884
 10
673.8375
 20
-111.3578
 10
674.3432
 20
-110.9676
 10
674.7965
 20
-110.523
 10
675.1923
 20
-110.0289
 10
676.3745
 20
-110.7469
 10
676.3172
 20
-110.9338
 10
676.2671
 20
-111.1236
 10
676.2243
 20
-111.316
 10
676.1889
 20
-111.511
 10
676.1611
 20
-111.7084
 10
676.141
 20
-111.9081
 10
676.1289
 20
-112.11
 10
676.1248
 20
-112.3138
 10
676.2348
 20
-113.3633
 10
676.5503
 20
-114.3407
 10
677.0496
 20
-115.2252
 10
677.7109
 20
-115.9958
 10
678.5123
 20
-116.6316
 10
679.4323
 20
-117.1117
 10
680.4489
 20
-117.415
 10
681.5404
 20
-117.5208
 10
682.1252
 20
-117.4908
 10
682.692
 20
-117.4029
 10
683.2375
 20
-117.2601
 10
683.7586
 20
-117.0655
 10
684.2519
 20
-116.8223
 10
684.7143
 20
-116.5335
 10
685.1425
 20
-116.2022
 10
685.5333
 20
-115.8314
 10
686.9981
 20
-116.5705
 10
687.2114
 20
-117.5036
 10
687.59
 20
-118.3658
 10
688.1166
 20
-119.1405
 10
688.7742
 20
-119.8114
 10
689.5456
 20
-120.3618
 10
690.4138
 20
-120.7754
 10
691.3615
 20
-121.0356
 10
692.3716
 20
-121.126
 10
692.7565
 20
-121.1131
 10
693.134
 20
-121.0749
 10
693.5034
 20
-121.0122
 10
693.8637
 20
-120.926
 10
694.2141
 20
-120.817
 10
694.5535
 20
-120.6862
 10
694.8812
 20
-120.5344
 10
695.1962
 20
-120.3625
 10
697.4864
 20
-121.3344
 10
699.8388
 20
-122.2965
 10
702.2543
 20
-123.2484
 10
704.7337
 20
-124.1894
 10
707.2781
 20
-125.1191
 10
709.8883
 20
-126.0369
 10
712.5652
 20
-126.9424
 10
715.3097
 20
-127.835
 10
716.4255
 20
-128.0213
 10
719.4588
 20
-128.5166
 10
723.9387
 20
-129.226
 10
729.3941
 20
-130.0544
 10
735.354
 20
-130.9066
 10
741.3475
 20
-131.6876
 10
746.9036
 20
-132.3022
 10
751.5512
 20
-132.6555
 10
758.0535
 20
-132.8016
 10
768.4993
 20
-132.8702
 10
781.4058
 20
-132.8792
 10
795.2904
 20
-132.8464
 10
808.6705
 20
-132.7897
 10
820.0633
 20
-132.7271
 10
827.9863
 20
-132.6764
 10
830.9568
 20
-132.6555
 10
833.0822
 20
-132.4612
 10
838.7151
 20
-131.9306
 10
846.74
 20
-131.1423
 10
856.042
 20
-130.1749
 10
865.5056
 20
-129.1069
 10
874.0157
 20
-128.0168
 10
880.457
 20
-126.9832
 10
883.7144
 20
-126.0846
 10
884.1708
 20
-125.8012
 10
884.8708
 20
-125.3637
 10
885.7981
 20
-124.7763
 10
886.9368
 20
-124.0435
 10
888.2708
 20
-123.1692
 10
889.7842
 20
-122.1579
 10
891.4607
 20
-121.0137
 10
893.2845
 20
-119.7409
 10
893.4638
 20
-119.7875
 10
893.6453
 20
-119.8283
 10
893.8289
 20
-119.8631
 10
894.0146
 20
-119.8919
 10
894.2021
 20
-119.9144
 10
894.3916
 20
-119.9307
 10
894.5829
 20
-119.9405
 10
894.7758
 20
-119.9438
 10
895.8591
 20
-119.8374
 10
896.8662
 20
-119.5322
 10
897.776
 20
-119.049
 10
898.5674
 20
-118.4089
 10
899.2193
 20
-117.6327
 10
899.7105
 20
-116.7413
 10
900.0201
 20
-115.7557
 10
900.1268
 20
-114.6969
 10
901.922
 20
-113.2964
 10
902.2986
 20
-113.5942
 10
902.7013
 20
-113.8592
 10
903.1279
 20
-114.0892
 10
903.5761
 20
-114.2822
 10
904.0438
 20
-114.4359
 10
904.5289
 20
-114.5484
 10
905.0292
 20
-114.6174
 10
905.5424
 20
-114.6409
 10
906.6324
 20
-114.5332
 10
907.6451
 20
-114.2242
 10
908.559
 20
-113.7352
 10
909.3525
 20
-113.0877
 10
910.0042
 20
-112.3028
 10
910.4925
 20
-111.4019
 10
910.7958
 20
-110.4064
 10
910.8928
 20
-109.3375
 10
910.8741
 20
-108.9533
 10
910.8281
 20
-108.5765
 10
910.7558
 20
-108.208
 10
910.6581
 20
-107.8489
 10
910.5361
 20
-107.4999
 10
910.3906
 20
-107.1622
 10
910.2228
 20
-106.8366
 10
910.0336
 20
-106.5241
 10
911.8011
 20
-104.9378
 10
912.1896
 20
-105.2785
 10
912.6097
 20
-105.5823
 10
913.0588
 20
-105.8467
 10
913.534
 20
-106.0689
 10
914.0327
 20
-106.2464
 10
914.5522
 20
-106.3764
 10
915.0897
 20
-106.4564
 10
915.6424
 20
-106.4836
 10
916.7324
 20
-106.3759
 10
917.7451
 20
-106.0669
 10
918.659
 20
-105.5779
 10
919.4525
 20
-104.9304
 10
920.1042
 20
-104.1456
 10
920.5925
 20
-103.2448
 10
920.8958
 20
-102.2494
 10
920.9928
 20
-101.1807
 10
920.9593
 20
-100.6485
 10
920.8737
 20
-100.1313
 10
920.7388
 20
-99.6317
 10
920.5571
 20
-99.1522
 10
920.3312
 20
-98.6953
 10
920.0639
 20
-98.2635
 10
919.7576
 20
-97.8593
 10
919.415
 20
-97.4852
 10
920.9283
 20
-95.8623
 10
921.2422
 20
-96.1031
 10
921.5768
 20
-96.3173
 10
921.9304
 20
-96.503
 10
922.3013
 20
-96.6588
 10
922.6878
 20
-96.7828
 10
923.0881
 20
-96.8734
 10
923.5006
 20
-96.929
 10
923.9235
 20
-96.9479
 10
924.8422
 20
-96.8571
 10
925.6958
 20
-96.5968
 10
926.466
 20
-96.1848
 10
927.1349
 20
-95.6391
 10
927.6841
 20
-94.9777
 10
928.0957
 20
-94.2186
 10
928.3514
 20
-93.3797
 10
928.4332
 20
-92.4789
 10
928.3968
 20
-91.9637
 10
928.3028
 20
-91.4657
 10
928.1546
 20
-90.9882
 10
927.9555
 20
-90.5344
 10
927.7088
 20
-90.1075
 10
927.418
 20
-89.7108
 10
927.0862
 20
-89.3474
 10
926.717
 20
-89.0207
 10
927.0268
 20
-88.6195
 10
927.3341
 20
-88.2167
 10
927.6391
 20
-87.8125
 10
927.9416
 20
-87.4069
 10
928.2417
 20
-87.0
 10
928.5392
 20
-86.5917
 10
928.8343
 20
-86.1822
 10
929.1269
 20
-85.7715
 10
929.9356
 20
-85.5904
 10
930.6806
 20
-85.2751
 10
931.3479
 20
-84.8395
 10
931.9234
 20
-84.2974
 10
932.3931
 20
-83.6628
 10
932.743
 20
-82.9495
 10
932.959
 20
-82.1715
 10
933.027
 20
-81.3425
 10
933.022
 20
-81.1771
 10
933.0108
 20
-81.0132
 10
932.9937
 20
-80.851
 10
932.9708
 20
-80.6906
 10
932.9421
 20
-80.5319
 10
932.9078
 20
-80.3751
 10
932.868
 20
-80.2204
 10
932.8229
 20
-80.0677
 10
933.0796
 20
-79.627
 10
933.3327
 20
-79.1852
 10
933.5822
 20
-78.7422
 10
933.828
 20
-78.2982
 10
934.07
 20
-77.8531
 10
934.3082
 20
-77.4068
 10
934.5424
 20
-76.9594
 10
934.7726
 20
-76.5108
 10
935.3535
 20
-76.2133
 10
935.8803
 20
-75.8392
 10
936.3453
 20
-75.396
 10
936.7411
 20
-74.8912
 10
937.0602
 20
-74.3322
 10
937.2949
 20
-73.7264
 10
937.4378
 20
-73.0814
 10
937.4813
 20
-72.4045
 10
937.4753
 20
-72.2193
 10
937.4616
 20
-72.0361
 10
937.4405
 20
-71.855
 10
937.4122
 20
-71.6761
 10
937.3767
 20
-71.4996
 10
937.3343
 20
-71.3256
 10
937.2851
 20
-71.1542
 10
937.2293
 20
-70.9856
 10
937.5652
 20
-70.0764
 10
937.8823
 20
-69.164
 10
938.1803
 20
-68.2485
 10
938.4588
 20
-67.3301
 10
938.7174
 20
-66.4089
 10
938.9557
 20
-65.4848
 10
939.1733
 20
-64.5581
 10
939.3699
 20
-63.6289
 10
939.913
 20
-63.3205
 10
940.4042
 20
-62.9434
 10
940.8368
 20
-62.5044
 10
941.2042
 20
-62.0099
 10
941.4998
 20
-61.4666
 10
941.7168
 20
-60.8809
 10
941.8488
 20
-60.2596
 10
941.8889
 20
-59.6091
 10
941.8618
 20
-59.1697
 10
941.7925
 20
-58.7424
 10
941.6833
 20
-58.3292
 10
941.536
 20
-57.9322
 10
941.3529
 20
-57.5532
 10
941.1361
 20
-57.1944
 10
940.8875
 20
-56.8577
 10
940.6092
 20
-56.5451
 10
940.867
 20
-54.9077
 10
941.5161
 20
-54.6356
 10
942.1073
 20
-54.2717
 10
942.6314
 20
-53.8251
 10
943.0792
 20
-53.3048
 10
943.4415
 20
-52.7202
 10
943.7091
 20
-52.0803
 10
943.8728
 20
-51.3942
 10
943.9234
 20
-50.6711
 10
943.8829
 20
-50.1251
 10
943.7779
 20
-49.5986
 10
943.6123
 20
-49.0957
 10
943.3902
 20
-48.6201
 10
943.1155
 20
-48.1756
 10
942.7922
 20
-47.7663
 10
942.4243
 20
-47.3958
 10
942.0158
 20
-47.0681
 10
942.1386
 20
-46.1832
 10
942.983
 20
-46.0287
 10
943.7629
 20
-45.7291
 10
944.4632
 20
-45.2996
 10
945.0684
 20
-44.7553
 10
945.5633
 20
-44.1114
 10
945.9327
 20
-43.3829
 10
946.1612
 20
-42.5851
 10
946.2336
 20
-41.7331
 10
946.1701
 20
-41.0371
 10
946.0026
 20
-40.375
 10
945.7393
 20
-39.755
 10
945.3888
 20
-39.1852
 10
944.9594
 20
-38.6737
 10
944.4595
 20
-38.2286
 10
943.8974
 20
-37.858
 10
943.2816
 20
-37.5701
 10
943.4869
 20
-35.955
 10
944.2574
 20
-35.748
 10
944.9652
 20
-35.4178
 10
945.5975
 20
-34.9771
 10
946.1417
 20
-34.4385
 10
946.5849
 20
-33.8145
 10
946.9144
 20
-33.118
 10
947.1174
 20
-32.3614
 10
947.1811
 20
-31.5575
 10
947.1243
 20
-30.9018
 10
946.9748
 20
-30.2757
 10
946.7398
 20
-29.6861
 10
946.4262
 20
-29.1395
 10
946.0409
 20
-28.6429
 10
945.5911
 20
-28.2029
 10
945.0836
 20
-27.8263
 10
944.5255
 20
-27.5199
 10
944.8524
 20
-24.7758
 10
944.9539
 20
-24.7775
 10
945.8726
 20
-24.6867
 10
946.7262
 20
-24.4264
 10
947.4964
 20
-24.0144
 10
948.1652
 20
-23.4687
 10
948.7144
 20
-22.8073
 10
949.1258
 20
-22.0482
 10
949.3814
 20
-21.2093
 10
949.463
 20
-20.3085
 10
949.3846
 20
-19.5309
 10
949.1769
 20
-18.797
 10
948.8515
 20
-18.1183
 10
948.4203
 20
-17.5063
 10
947.8951
 20
-16.9723
 10
947.2878
 20
-16.5278
 10
946.61
 20
-16.1843
 10
945.8737
 20
-15.9532
 10
946.3605
 20
-11.6233
 10
947.1901
 20
-11.4575
 10
947.9555
 20
-11.1513
 10
948.642
 20
-10.7191
 10
949.2347
 20
-10.1756
 10
949.7191
 20
-9.5355
 10
950.0803
 20
-8.8132
 10
950.3035
 20
-8.0236
 10
950.3742
 20
-7.181
 10
950.3081
 20
-6.4702
 10
950.1336
 20
-5.7951
 10
949.8596
 20
-5.1642
 10
949.495
 20
-4.5861
 10
949.0488
 20
-4.0697
 10
948.5299
 20
-3.6235
 10
947.9472
 20
-3.2562
 10
947.3097
 20
-2.9764
 10
947.8004
 20
1.5907
 10
948.5316
 20
1.8217
 10
949.2014
 20
2.165
 10
949.7984
 20
2.6094
 10
950.3109
 20
3.1434
 10
950.7275
 20
3.7555
 10
951.0365
 20
4.4344
 10
951.2265
 20
5.1686
 10
951.2859
 20
5.9466
 10
951.2301
 20
6.5951
 10
951.0838
 20
7.2148
 10
950.8535
 20
7.799
 10
950.5463
 20
8.3412
 10
950.1686
 20
8.835
 10
949.7275
 20
9.2737
 10
949.2296
 20
9.6508
 10
948.6816
 20
9.9598
 10
949.1874
 20
14.8535
 10
949.8271
 20
15.1296
 10
950.4096
 20
15.4952
 10
950.9257
 20
15.9416
 10
951.3665
 20
16.4598
 10
951.723
 20
17.041
 10
951.9863
 20
17.6764
 10
952.1473
 20
18.357
 10
952.1971
 20
19.0741
 10
952.1505
 20
19.6638
 10
952.0286
 20
20.2302
 10
951.8366
 20
20.7685
 10
951.5795
 20
21.2737
 10
951.2625
 20
21.741
 10
950.8905
 20
22.1654
 10
950.4687
 20
22.5421
 10
950.0022
 20
22.8661
 10
950.5431
 20
28.2705
 10
951.051
 20
28.5869
 10
951.5093
 20
28.965
 10
951.912
 20
29.3989
 10
952.2534
 20
29.8828
 10
952.5275
 20
30.4109
 10
952.7283
 20
30.9773
 10
952.8501
 20
31.5762
 10
952.8868
 20
32.2017
 10
952.8526
 20
32.7016
 10
952.764
 20
33.1853
 10
952.6243
 20
33.65
 10
952.4364
 20
34.0927
 10
952.2034
 20
34.5105
 10
951.9284
 20
34.9003
 10
951.6144
 20
35.2593
 10
951.2646
 20
35.5845
 10
951.5881
 20
38.898
 10
952.1251
 20
39.2079
 10
952.6106
 20
39.5851
 10
953.0381
 20
40.0233
 10
953.401
 20
40.516
 10
953.6929
 20
41.0567
 10
953.9071
 20
41.6391
 10
954.0372
 20
42.2566
 10
954.0765
 20
42.9029
 10
954.0392
 20
43.4261
 10
953.9424
 20
43.9316
 10
953.7898
 20
44.4157
 10
953.5849
 20
44.8753
 10
953.331
 20
45.3069
 10
953.0318
 20
45.7071
 10
952.6907
 20
46.0726
 10
952.3112
 20
46.3999
 10
952.6088
 20
49.5199
 10
953.1794
 20
49.8206
 10
953.6964
 20
50.1957
 10
954.1526
 20
50.6379
 10
954.5406
 20
51.14
 10
954.8532
 20
51.6948
 10
955.0831
 20
52.2952
 10
955.223
 20
52.9338
 10
955.2656
 20
53.6035
 10
955.2248
 20
54.1531
 10
955.1187
 20
54.6829
 10
954.9512
 20
55.1888
 10
954.7264
 20
55.6669
 10
954.4484
 20
56.1133
 10
954.1213
 20
56.5239
 10
953.7492
 20
56.895
 10
953.336
 20
57.2225
 10
953.6192
 20
60.2527
 10
954.176
 20
60.5574
 10
954.6801
 20
60.9336
 10
955.1245
 20
61.3743
 10
955.5022
 20
61.8726
 10
955.8063
 20
62.4217
 10
956.0297
 20
63.0147
 10
956.1655
 20
63.6446
 10
956.2067
 20
64.3047
 10
956.1669
 20
64.8469
 10
956.0633
 20
65.3698
 10
955.9001
 20
65.8697
 10
955.6809
 20
66.3427
 10
955.4098
 20
66.7851
 10
955.0907
 20
67.193
 10
954.7274
 20
67.5627
 10
954.3239
 20
67.8904
 10
954.611
 20
71.0392
 10
955.1326
 20
71.3527
 10
955.6037
 20
71.7305
 10
956.0181
 20
72.1666
 10
956.3697
 20
72.6548
 10
956.6522
 20
73.1889
 10
956.8594
 20
73.7629
 10
956.9852
 20
74.3706
 10
957.0233
 20
75.0059
 10
956.9194
 20
75.9067
 10
956.6431
 20
76.7456
 10
956.2129
 20
77.5047
 10
955.6475
 20
78.1661
 10
954.9653
 20
78.7118
 10
954.185
 20
79.1238
 10
953.325
 20
79.3841
 10
952.4041
 20
79.4749
 10
952.0625
 20
79.4626
 10
951.728
 20
79.4262
 10
951.4017
 20
79.3665
 10
951.0842
 20
79.2845
 10
950.7765
 20
79.181
 10
950.4795
 20
79.0569
 10
950.194
 20
78.913
 10
949.9209
 20
78.7502
 10
933.3275
 20
80.7182
 10
906.8226
 20
83.3302
 10
871.8217
 20
85.9704
 10
829.7405
 20
88.0226
 10
781.9946
 20
88.8711
 10
729.9996
 20
87.9
 10
675.1712
 20
84.4932
 10
618.9249
 20
78.0349
  0
LWPOLYLINE
  5
63
330
1F
100
AcDbEntity
  8
Layer 1
 62
     7
370
    18
100
AcDbPolyline
 90
      147
 70
     1
 43
0.0
 10
656.6797
 20
-102.7798
 10
654.9456
 20
-102.7799
 10
649.9904
 20
-102.7984
 10
642.1847
 20
-102.8621
 10
631.8991
 20
-102.9982
 10
619.5041
 20
-103.2336
 10
605.3703
 20
-103.5955
 10
589.8684
 20
-104.1107
 10
573.3688
 20
-104.8064
 10
562.9173
 20
-105.3339
 10
552.3154
 20
-105.9457
 10
541.6485
 20
-106.648
 10
531.002
 20
-107.4472
 10
520.4615
 20
-108.3493
 10
510.1124
 20
-109.3605
 10
500.0402
 20
-110.4872
 10
490.3302
 20
-111.7355
 10
468.2521
 20
-114.9766
 10
451.5132
 20
-117.8209
 10
439.3751
 20
-120.2979
 10
431.0995
 20
-122.4371
 10
425.9481
 20
-124.268
 10
423.1826
 20
-125.82
 10
422.0648
 20
-127.1226
 10
421.8562
 20
-128.2054
 10
421.9643
 20
-129.5728
 10
422.2493
 20
-131.5475
 10
422.6523
 20
-133.886
 10
423.1143
 20
-136.3451
 10
423.5762
 20
-138.6814
 10
423.9792
 20
-140.6514
 10
424.2642
 20
-142.0119
 10
424.3723
 20
-142.5195
 10
424.9579
 20
-142.8689
 10
426.6923
 20
-143.8053
 10
429.5414
 20
-145.1612
 10
433.4714
 20
-146.7688
 10
438.4484
 20
-148.4607
 10
444.4384
 20
-150.0691
 10
451.4076
 20
-151.4264
 10
459.3221
 20
-152.3651
 10
474.0842
 20
-153.1185
 10
499.1065
 20
-153.9872
 10
530.6198
 20
-154.9049
 10
564.8551
 20
-155.8049
 10
598.0434
 20
-156.6206
 10
626.4158
 20
-157.2857
 10
646.2032
 20
-157.7335
 10
653.6365
 20
-157.8976
 10
662.0247
 20
-157.9198
 10
684.5339
 20
-157.9244
 10
717.1814
 20
-157.8183
 10
755.9844
 20
-157.5081
 10
796.9599
 20
-156.9009
 10
836.1252
 20
-155.9034
 10
869.4973
 20
-154.4226
 10
893.0936
 20
-152.3651
 10
908.7139
 20
-150.2008
 10
921.1318
 20
-148.398
 10
930.8245
 20
-146.8616
 10
938.2695
 20
-145.4965
 10
943.9441
 20
-144.2075
 10
948.3257
 20
-142.8994
 10
951.8916
 20
-141.4773
 10
955.1191
 20
-139.8459
 10
955.335
 20
-139.6686
 10
955.9067
 20
-139.0879
 10
956.7203
 20
-138.031
 10
957.662
 20
-136.425
 10
958.6178
 20
-134.197
 10
959.4739
 20
-131.274
 10
960.1165
 20
-127.5832
 10
960.4315
 20
-123.0516
 10
958.3896
 20
-118.6524
 10
952.8186
 20
-115.3105
 10
944.8899
 20
-112.8808
 10
935.7755
 20
-111.2183
 10
926.6468
 20
-110.1778
 10
918.6757
 20
-109.6142
 10
913.0338
 20
-109.3825
 10
910.8928
 20
-109.3375
 10
912.3326
 20
-109.5299
 10
916.1635
 20
-110.0668
 10
921.6531
 20
-110.8878
 10
928.0688
 20
-111.9327
 10
934.6782
 20
-113.1411
 10
940.7486
 20
-114.4525
 10
945.5475
 20
-115.8066
 10
948.3425
 20
-117.1432
 10
950.779
 20
-121.1342
 10
948.5236
 20
-124.3833
 10
942.8256
 20
-126.9723
 10
934.9341
 20
-128.983
 10
926.0982
 20
-130.4975
 10
917.567
 20
-131.5975
 10
910.5897
 20
-132.365
 10
906.4155
 20
-132.8818
 10
903.411
 20
-133.1861
 10
897.3358
 20
-133.5961
 10
888.5337
 20
-134.0799
 10
877.3489
 20
-134.6056
 10
864.1253
 20
-135.1413
 10
849.207
 20
-135.655
 10
832.9379
 20
-136.115
 10
815.662
 20
-136.4891
 10
788.0568
 20
-136.9208
 10
760.1319
 20
-137.2447
 10
733.1202
 20
-137.4763
 10
708.2548
 20
-137.6311
 10
686.7687
 20
-137.7245
 10
669.8949
 20
-137.7721
 10
658.8664
 20
-137.7893
 10
654.9162
 20
-137.7916
 10
531.6396
 20
-137.7372
 10
529.4155
 20
-137.6625
 10
523.3691
 20
-137.4521
 10
514.4388
 20
-137.1263
 10
503.5632
 20
-136.7053
 10
491.681
 20
-136.2096
 10
479.7306
 20
-135.6594
 10
468.6506
 20
-135.0751
 10
459.3797
 20
-134.477
 10
451.7445
 20
-133.8765
 10
445.0118
 20
-133.2451
 10
439.28
 20
-132.5436
 10
434.6477
 20
-131.7328
 10
431.2133
 20
-130.7733
 10
429.0754
 20
-129.626
 10
428.3326
 20
-128.2516
 10
429.0832
 20
-126.6107
 10
433.0617
 20
-124.6351
 10
441.0115
 20
-122.3916
 10
451.5452
 20
-120.044
 10
463.2752
 20
-117.7561
 10
474.8139
 20
-115.6915
 10
484.7738
 20
-114.0141
 10
491.7673
 20
-112.8876
 10
494.4068
 20
-112.4757
 10
559.2592
 20
-105.536
 10
561.6969
 20
-105.4086
 10
568.4867
 20
-105.0745
 10
578.8441
 20
-104.6062
 10
591.9843
 20
-104.0758
 10
607.1226
 20
-103.5556
 10
623.4744
 20
-103.1181
 10
640.255
 20
-102.8354
 10
656.6797
 20
-102.7798
  0
LWPOLYLINE
  5
64
330
1F
100
AcDbEntity
  8
Layer 1
 62
     7
100
AcDbPolyline
 90
       65
 70
     1
 43
0.0
 10
968.5481
 20
-223.4388
 10
969.0878
 20
-223.4612
 10
969.6065
 20
-223.5285
 10
970.1043
 20
-223.6406
 10
970.581
 20
-223.7975
 10
971.0367
 20
-223.9993
 10
971.4715
 20
-224.2459
 10
971.8851
 20
-224.5374
 10
972.2777
 20
-224.8737
 10
972.6316
 20
-225.2382
 10
972.9383
 20
-225.6234
 10
973.1978
 20
-226.0295
 10
973.4102
 20
-226.4564
 10
973.5754
 20
-226.9041
 10
973.6934
 20
-227.3726
 10
973.7642
 20
-227.8618
 10
973.7878
 20
-228.3718
 10
973.7645
 20
-228.8773
 10
973.6945
 20
-229.3659
 10
973.578
 20
-229.8374
 10
973.4148
 20
-230.292
 10
973.205
 20
-230.7296
 10
972.9486
 20
-231.1502
 10
972.6457
 20
-231.554
 10
972.2961
 20
-231.9408
 10
971.9131
 20
-232.2935
 10
971.5057
 20
-232.5991
 10
971.0738
 20
-232.8577
 10
970.6176
 20
-233.0692
 10
970.1369
 20
-233.2337
 10
969.6317
 20
-233.3512
 10
969.1022
 20
-233.4217
 10
968.5481
 20
-233.4452
 10
967.994
 20
-233.4217
 10
967.4643
 20
-233.3512
 10
966.9591
 20
-233.2337
 10
966.4783
 20
-233.0692
 10
966.022
 20
-232.8577
 10
965.5901
 20
-232.5991
 10
965.1828
 20
-232.2935
 10
964.8
 20
-231.9408
 10
964.4502
 20
-231.554
 10
964.1471
 20
-231.1502
 10
963.8906
 20
-230.7296
 10
963.6807
 20
-230.292
 10
963.5175
 20
-229.8374
 10
963.4009
 20
-229.3659
 10
963.3309
 20
-228.8773
 10
963.3076
 20
-228.3718
 10
963.3312
 20
-227.8618
 10
963.402
 20
-227.3726
 10
963.52
 20
-226.9041
 10
963.6852
 20
-226.4564
 10
963.8976
 20
-226.0295
 10
964.1571
 20
-225.6234
 10
964.4638
 20
-225.2382
 10
964.8177
 20
-224.8737
 10
965.2105
 20
-224.5374
 10
965.6243
 20
-224.2459
 10
966.059
 20
-223.9993
 10
966.5148
 20
-223.7975
 10
966.9915
 20
-223.6406
 10
967.4893
 20
-223.5285
 10
968.0082
 20
-223.4612
 10
968.5481
 20
-223.4388
  0
LWPOLYLINE
  5
65
330
1F
100
AcDbEntity
  8
Layer 1
 62
     7
100
AcDbPolyline
 90
       65
 70
     1
 43
0.0
 10
968.5481
 20
-213.7822
 10
968.9832
 20
-213.7997
 10
969.4019
 20
-213.8522
 10
969.8041
 20
-213.9397
 10
970.1898
 20
-214.0622
 10
970.5591
 20
-214.2197
 10
970.9119
 20
-214.4122
 10
971.2483
 20
-214.6396
 10
971.5683
 20
-214.902
 10
971.8668
 20
-215.197
 10
972.1255
 20
-215.5089
 10
972.3444
 20
-215.8377
 10
972.5236
 20
-216.1835
 10
972.6629
 20
-216.5462
 10
972.7624
 20
-216.9258
 10
972.8221
 20
-217.3224
 10
972.842
 20
-217.7358
 10
972.8221
 20
-218.1405
 10
972.7624
 20
-218.5321
 10
972.6629
 20
-218.9104
 10
972.5236
 20
-219.2756
 10
972.3444
 20
-219.6276
 10
972.1255
 20
-219.9665
 10
971.8668
 20
-220.2923
 10
971.5683
 20
-220.605
 10
971.2503
 20
-220.8837
 10
970.9153
 20
-221.1254
 10
970.5634
 20
-221.3299
 10
970.1944
 20
-221.4973
 10
969.8083
 20
-221.6274
 10
969.4053
 20
-221.7205
 10
968.9852
 20
-221.7763
 10
968.5481
 20
-221.7949
 10
968.1107
 20
-221.7763
 10
967.6904
 20
-221.7205
 10
967.2873
 20
-221.6274
 10
966.9012
 20
-221.4973
 10
966.5323
 20
-221.3299
 10
966.1804
 20
-221.1254
 10
965.8456
 20
-220.8837
 10
965.5278
 20
-220.605
 10
965.2293
 20
-220.2923
 10
964.9706
 20
-219.9665
 10
964.7517
 20
-219.6276
 10
964.5726
 20
-219.2756
 10
964.4333
 20
-218.9104
 10
964.3338
 20
-218.5321
 10
964.2741
 20
-218.1405
 10
964.2542
 20
-217.7358
 10
964.2741
 20
-217.3224
 10
964.3338
 20
-216.9258
 10
964.4333
 20
-216.5462
 10
964.5726
 20
-216.1835
 10
964.7517
 20
-215.8377
 10
964.9706
 20
-215.5089
 10
965.2293
 20
-215.197
 10
965.5278
 20
-214.902
 10
965.8476
 20
-214.6396
 10
966.1838
 20
-214.4122
 10
966.5365
 20
-214.2197
 10
966.9058
 20
-214.0622
 10
967.2916
 20
-213.9397
 10
967.6939
 20
-213.8522
 10
968.1127
 20
-213.7997
 10
968.5481
 20
-213.7822
  0
LWPOLYLINE
  5
66
330
1F
100
AcDbEntity
  8
Layer 1
 62
     7
100
AcDbPolyline
 90
      121
 70
     1
 43
0.0
 10
968.5481
 20
-235.8944
 10
969.3818
 20
-235.8641
 10
970.182
 20
-235.773
 10
970.9488
 20
-235.6213
 10
971.682
 20
-235.4089
 10
972.3816
 20
-235.1358
 10
973.0477
 20
-234.802
 10
973.6803
 20
-234.4075
 10
974.2792
 20
-233.9523
 10
974.5493
 20
-233.7146
 10
974.8046
 20
-233.4648
 10
975.0451
 20
-233.203
 10
975.2708
 20
-232.9292
 10
975.4817
 20
-232.6433
 10
975.6778
 20
-232.3454
 10
975.8592
 20
-232.0355
 10
976.0258
 20
-231.7135
 10
976.175
 20
-231.3794
 10
976.3043
 20
-231.0334
 10
976.4137
 20
-230.6752
 10
976.5032
 20
-230.3051
 10
976.5728
 20
-229.923
 10
976.6225
 20
-229.5289
 10
976.6523
 20
-229.1228
 10
976.6622
 20
-228.7047
 10
976.6454
 20
-228.2809
 10
976.5951
 20
-227.8583
 10
976.5113
 20
-227.4367
 10
976.3939
 20
-227.0162
 10
976.243
 20
-226.5969
 10
976.0585
 20
-226.1786
 10
975.8405
 20
-225.7615
 10
975.5889
 20
-225.3454
 10
975.3061
 20
-224.9397
 10
974.9943
 20
-224.5531
 10
974.6534
 20
-224.1855
 10
974.2836
 20
-223.837
 10
973.8848
 20
-223.5076
 10
973.4569
 20
-223.1973
 10
973.0001
 20
-222.9062
 10
972.5142
 20
-222.6342
 10
973.2051
 20
-222.0419
 10
973.8039
 20
-221.437
 10
974.3104
 20
-220.8195
 10
974.7249
 20
-220.1895
 10
975.0472
 20
-219.5469
 10
975.2774
 20
-218.8918
 10
975.4155
 20
-218.2241
 10
975.4615
 20
-217.5439
 10
975.4299
 20
-216.8727
 10
975.3353
 20
-216.2328
 10
975.1775
 20
-215.624
 10
974.9566
 20
-215.0464
 10
974.6727
 20
-214.5
 10
974.3256
 20
-213.9848
 10
973.9156
 20
-213.5007
 10
973.4424
 20
-213.0478
 10
972.942
 20
-212.6541
 10
972.4097
 20
-212.313
 10
971.8456
 20
-212.0244
 10
971.2498
 20
-211.7882
 10
970.6221
 20
-211.6046
 10
969.9626
 20
-211.4734
 10
969.2712
 20
-211.3947
 10
968.5481
 20
-211.3685
 10
967.8247
 20
-211.3947
 10
967.1332
 20
-211.4734
 10
966.4736
 20
-211.6046
 10
965.8459
 20
-211.7882
 10
965.25
 20
-212.0244
 10
964.6861
 20
-212.313
 10
964.154
 20
-212.6541
 10
963.6538
 20
-213.0478
 10
963.1804
 20
-213.5004
 10
962.7701
 20
-213.9837
 10
962.4229
 20
-214.4975
 10
962.1389
 20
-215.042
 10
961.9179
 20
-215.617
 10
961.7601
 20
-216.2228
 10
961.6655
 20
-216.8591
 10
961.6339
 20
-217.5261
 10
961.68
 20
-218.2105
 10
961.8181
 20
-218.8818
 10
962.0484
 20
-219.54
 10
962.3708
 20
-220.1851
 10
962.7853
 20
-220.817
 10
963.2919
 20
-221.4359
 10
963.8905
 20
-222.0416
 10
964.5812
 20
-222.6342
 10
964.0953
 20
-222.9062
 10
963.6385
 20
-223.1973
 10
963.2106
 20
-223.5076
 10
962.8118
 20
-223.837
 10
962.442
 20
-224.1855
 10
962.1011
 20
-224.5531
 10
961.7893
 20
-224.9397
 10
961.5065
 20
-225.3454
 10
961.255
 20
-225.7623
 10
961.0369
 20
-226.1819
 10
960.8525
 20
-226.6043
 10
960.7015
 20
-227.0294
 10
960.5841
 20
-227.4573
 10
960.5003
 20
-227.8878
 10
960.45
 20
-228.3211
 10
960.4332
 20
-228.7571
 10
960.4704
 20
-229.5385
 10
960.5822
 20
-230.2822
 10
960.7684
 20
-230.9882
 10
961.0291
 20
-231.6565
 10
961.3642
 20
-232.287
 10
961.7738
 20
-232.8798
 10
962.2578
 20
-233.4349
 10
962.8162
 20
-233.9523
 10
963.4154
 20
-234.4075
 10
964.048
 20
-234.802
 10
964.7142
 20
-235.1358
 10
965.4138
 20
-235.4089
 10
966.1471
 20
-235.6213
 10
966.9138
 20
-235.773
 10
967.7142
 20
-235.8641
 10
968.5481
 20
-235.8944
  0
LWPOLYLINE
  5
67
330
1F
100
AcDbEntity
  8
Layer 1
 62
     7
100
AcDbPolyline
 90
      136
 70
     1
 43
0.0
 10
984.6312
 20
-220.5703
 10
986.3057
 20
-214.2022
 10
995.2566
 20
-214.2022
 10
995.2566
 20
-211.753
 10
984.3764
 20
-211.753
 10
981.5381
 20
-222.4245
 10
984.3042
 20
-223.6137
 10
984.7052
 20
-223.3513
 10
985.1261
 20
-223.124
 10
985.567
 20
-222.9317
 10
986.0279
 20
-222.7743
 10
986.5086
 20
-222.652
 10
987.0092
 20
-222.5646
 10
987.5296
 20
-222.5122
 10
988.0699
 20
-222.4947
 10
988.6135
 20
-222.5204
 10
989.139
 20
-222.5974
 10
989.6462
 20
-222.7258
 10
990.1353
 20
-222.9056
 10
990.6061
 20
-223.1367
 10
991.0587
 20
-223.4192
 10
991.4931
 20
-223.7532
 10
991.9093
 20
-224.1385
 10
992.3015
 20
-224.5686
 10
992.6414
 20
-225.0145
 10
992.9291
 20
-225.4762
 10
993.1645
 20
-225.9537
 10
993.3476
 20
-226.4471
 10
993.4784
 20
-226.9562
 10
993.5568
 20
-227.4812
 10
993.583
 20
-228.0219
 10
993.5563
 20
-228.5815
 10
993.4762
 20
-229.1186
 10
993.3426
 20
-229.6334
 10
993.1556
 20
-230.1257
 10
992.915
 20
-230.5955
 10
992.621
 20
-231.043
 10
992.2735
 20
-231.4681
 10
991.8725
 20
-231.8707
 10
991.6687
 20
-232.0498
 10
991.4575
 20
-232.2196
 10
991.2389
 20
-232.3801
 10
991.0129
 20
-232.5312
 10
990.7795
 20
-232.6731
 10
990.5388
 20
-232.8056
 10
990.2907
 20
-232.9289
 10
990.0353
 20
-233.0429
 10
989.7685
 20
-233.1454
 10
989.487
 20
-233.2343
 10
989.1907
 20
-233.3095
 10
988.8797
 20
-233.3711
 10
988.5539
 20
-233.419
 10
988.2133
 20
-233.4532
 10
987.858
 20
-233.4737
 10
987.488
 20
-233.4806
 10
987.1108
 20
-233.4653
 10
986.7341
 20
-233.4193
 10
986.358
 20
-233.3427
 10
985.9824
 20
-233.2354
 10
985.6074
 20
-233.0976
 10
985.233
 20
-232.9291
 10
984.8592
 20
-232.73
 10
984.4861
 20
-232.5003
 10
984.1267
 20
-232.2463
 10
983.7946
 20
-231.9736
 10
983.4898
 20
-231.6822
 10
983.2124
 20
-231.3723
 10
982.9623
 20
-231.0436
 10
982.7394
 20
-230.6964
 10
982.5439
 20
-230.3307
 10
982.3757
 20
-229.9463
 10
979.9013
 20
-230.7162
 10
980.1443
 20
-231.2921
 10
980.4277
 20
-231.8391
 10
980.7515
 20
-232.3571
 10
981.1156
 20
-232.8461
 10
981.5202
 20
-233.3061
 10
981.9651
 20
-233.7372
 10
982.4503
 20
-234.1393
 10
982.976
 20
-234.5125
 10
983.5348
 20
-234.8528
 10
984.1061
 20
-235.1477
 10
984.69
 20
-235.3972
 10
985.2865
 20
-235.6014
 10
985.8955
 20
-235.7603
 10
986.517
 20
-235.8737
 10
987.1509
 20
-235.9418
 10
987.7974
 20
-235.9645
 10
988.6587
 20
-235.9271
 10
989.4871
 20
-235.8147
 10
990.2824
 20
-235.6275
 10
991.0449
 20
-235.3654
 10
991.7743
 20
-235.0284
 10
992.4708
 20
-234.6164
 10
993.1343
 20
-234.1295
 10
993.7649
 20
-233.5677
 10
994.3363
 20
-232.9578
 10
994.8316
 20
-232.3179
 10
995.2506
 20
-231.6479
 10
995.5935
 20
-230.9479
 10
995.8603
 20
-230.2178
 10
996.0508
 20
-229.4576
 10
996.1651
 20
-228.6674
 10
996.2032
 20
-227.847
 10
996.1657
 20
-227.0313
 10
996.0531
 20
-226.25
 10
995.8654
 20
-225.503
 10
995.6028
 20
-224.7905
 10
995.2651
 20
-224.1124
 10
994.8523
 20
-223.4686
 10
994.3646
 20
-222.8593
 10
993.8018
 20
-222.2843
 10
993.514
 20
-222.0287
 10
993.2148
 20
-221.7869
 10
992.9042
 20
-221.5587
 10
992.5823
 20
-221.3442
 10
992.2491
 20
-221.1433
 10
991.9045
 20
-220.9561
 10
991.5487
 20
-220.7826
 10
991.1815
 20
-220.6227
 10
990.8067
 20
-220.4792
 10
990.4286
 20
-220.3548
 10
990.0473
 20
-220.2495
 10
989.6628
 20
-220.1633
 10
989.2752
 20
-220.0962
 10
988.8845
 20
-220.0483
 10
988.491
 20
-220.0196
 10
988.0945
 20
-220.01
 10
987.6903
 20
-220.0188
 10
987.278
 20
-220.045
 10
986.8577
 20
-220.0888
 10
986.4291
 20
-220.1501
 10
985.9922
 20
-220.2289
 10
985.547
 20
-220.3252
 10
985.0933
 20
-220.439
 10
984.6312
 20
-220.5703
  0
LWPOLYLINE
  5
68
330
1F
100
AcDbEntity
  8
Layer 1
 62
     7
100
AcDbPolyline
 90
      129
 70
     1
 43
0.0
 10
1010.3041
 20
-214.5174
 10
1010.7241
 20
-214.7918
 10
1011.1157
 20
-215.1034
 10
1011.4789
 20
-215.4522
 10
1011.8137
 20
-215.8382
 10
1012.1202
 20
-216.2613
 10
1012.3982
 20
-216.7216
 10
1012.6479
 20
-217.219
 10
1012.8691
 20
-217.7535
 10
1013.1166
 20
-218.4629
 10
1013.331
 20
-219.1827
 10
1013.5125
 20
-219.9128
 10
1013.6609
 20
-220.6532
 10
1013.7763
 20
-221.404
 10
1013.8588
 20
-222.1652
 10
1013.9082
 20
-222.9367
 10
1013.9247
 20
-223.7185
 10
1013.923
 20
-223.9064
 10
1013.9178
 20
-224.1024
 10
1013.9092
 20
-224.3067
 10
1013.8972
 20
-224.5191
 10
1013.8819
 20
-224.7398
 10
1013.8631
 20
-224.9686
 10
1013.8411
 20
-225.2057
 10
1013.8157
 20
-225.451
 10
1013.6893
 20
-226.3914
 10
1013.5243
 20
-227.28
 10
1013.3207
 20
-228.1166
 10
1013.0785
 20
-228.9014
 10
1012.7976
 20
-229.6342
 10
1012.478
 20
-230.3151
 10
1012.1198
 20
-230.9439
 10
1011.7228
 20
-231.5208
 10
1011.3607
 20
-231.9555
 10
1010.9793
 20
-232.3321
 10
1010.5785
 20
-232.6508
 10
1010.1584
 20
-232.9116
 10
1009.7189
 20
-233.1143
 10
1009.26
 20
-233.2592
 10
1008.7818
 20
-233.346
 10
1008.2842
 20
-233.375
 10
1007.7289
 20
-233.3463
 10
1007.2004
 20
-233.2603
 10
1006.6986
 20
-233.1168
 10
1006.2235
 20
-232.916
 10
1005.7752
 20
-232.6577
 10
1005.3535
 20
-232.3421
 10
1004.9587
 20
-231.969
 10
1004.5906
 20
-231.5385
 10
1004.4348
 20
-231.3296
 10
1004.2859
 20
-231.1142
 10
1004.1438
 20
-230.8922
 10
1004.0085
 20
-230.6637
 10
1003.8801
 20
-230.4287
 10
1003.7585
 20
-230.1871
 10
1003.6437
 20
-229.939
 10
1003.5358
 20
-229.6843
 10
1003.4342
 20
-229.4255
 10
1003.3388
 20
-229.165
 10
1003.2498
 20
-228.9028
 10
1003.1671
 20
-228.639
 10
1003.0906
 20
-228.3736
 10
1003.0204
 20
-228.1064
 10
1002.9564
 20
-227.8376
 10
1002.8986
 20
-227.5672
 10
1002.8461
 20
-227.2973
 10
1002.7976
 20
-227.0295
 10
1002.7529
 20
-226.7639
 10
1002.7122
 20
-226.5004
 10
1002.6755
 20
-226.2391
 10
1002.6427
 20
-225.9799
 10
1002.6139
 20
-225.7228
 10
1002.5892
 20
-225.4679
 10
1002.5679
 20
-225.2094
 10
1002.5494
 20
-224.9411
 10
1002.5339
 20
-224.6631
 10
1002.5211
 20
-224.3755
 10
1002.5113
 20
-224.0783
 10
1002.5042
 20
-223.7716
 10
1002.5
 20
-223.4555
 10
1002.4986
 20
-223.1302
 10
1002.5049
 20
-222.7901
 10
1002.5236
 20
-222.4303
 10
1002.5549
 20
-222.0507
 10
1002.5987
 20
-221.6512
 10
1002.655
 20
-221.2317
 10
1002.7237
 20
-220.7922
 10
1002.8049
 20
-220.3326
 10
1002.8986
 20
-219.8528
 10
1002.9561
 20
-219.5862
 10
1003.0192
 20
-219.3202
 10
1003.088
 20
-219.0547
 10
1003.1625
 20
-218.7898
 10
1003.2426
 20
-218.5255
 10
1003.3285
 20
-218.2617
 10
1003.4201
 20
-217.9985
 10
1003.5174
 20
-217.7358
 10
1003.621
 20
-217.4767
 10
1003.7321
 20
-217.2241
 10
1003.8507
 20
-216.9781
 10
1003.9767
 20
-216.7387
 10
1004.1101
 20
-216.5059
 10
1004.2509
 20
-216.2796
 10
1004.3991
 20
-216.0599
 10
1004.5546
 20
-215.8468
 10
1004.7177
 20
-215.6421
 10
1004.8888
 20
-215.4478
 10
1005.0678
 20
-215.2638
 10
1005.2548
 20
-215.0902
 10
1005.4497
 20
-214.927
 10
1005.6526
 20
-214.7741
 10
1005.8635
 20
-214.6317
 10
1006.0823
 20
-214.4997
 10
1006.3105
 20
-214.3808
 10
1006.5489
 20
-214.2778
 10
1006.7974
 20
-214.1907
 10
1007.0562
 20
-214.1194
 10
1007.3252
 20
-214.0639
 10
1007.6044
 20
-214.0243
 10
1007.8939
 20
-214.0005
 10
1008.1936
 20
-213.9926
 10
1008.4931
 20
-214.0008
 10
1008.7824
 20
-214.0254
 10
1009.0615
 20
-214.0664
 10
1009.3303
 20
-214.1238
 10
1009.589
 20
-214.1976
 10
1009.8375
 20
-214.2878
 10
1010.0759
 20
-214.3944
 10
1010.3041
 20
-214.5174
  0
LWPOLYLINE
  5
69
330
1F
100
AcDbEntity
  8
Layer 1
 62
     7
100
AcDbPolyline
 90
       65
 70
     1
 43
0.0
 10
1008.3203
 20
-235.8597
 10
1009.3828
 20
-235.7949
 10
1010.3776
 20
-235.6005
 10
1011.3047
 20
-235.2765
 10
1012.1642
 20
-234.823
 10
1012.9559
 20
-234.2399
 10
1013.68
 20
-233.5272
 10
1014.3364
 20
-232.6851
 10
1014.925
 20
-231.7135
 10
1015.3388
 20
-230.8656
 10
1015.6973
 20
-229.9707
 10
1016.0007
 20
-229.0287
 10
1016.2489
 20
-228.0398
 10
1016.4419
 20
-227.0038
 10
1016.5797
 20
-225.9207
 10
1016.6624
 20
-224.7907
 10
1016.69
 20
-223.6137
 10
1016.6624
 20
-222.4367
 10
1016.5797
 20
-221.3068
 10
1016.4419
 20
-220.2239
 10
1016.2489
 20
-219.188
 10
1016.0007
 20
-218.1992
 10
1015.6973
 20
-217.2573
 10
1015.3388
 20
-216.3625
 10
1014.925
 20
-215.5147
 10
1014.3364
 20
-214.5429
 10
1013.68
 20
-213.7006
 10
1012.9559
 20
-212.988
 10
1012.1642
 20
-212.405
 10
1011.3047
 20
-211.9515
 10
1010.3776
 20
-211.6276
 10
1009.3828
 20
-211.4333
 10
1008.3203
 20
-211.3685
 10
1007.258
 20
-211.4333
 10
1006.2634
 20
-211.6276
 10
1005.3364
 20
-211.9515
 10
1004.477
 20
-212.405
 10
1003.6853
 20
-212.988
 10
1002.9613
 20
-213.7006
 10
1002.3049
 20
-214.5429
 10
1001.7163
 20
-215.5147
 10
1001.3025
 20
-216.3625
 10
1000.944
 20
-217.2573
 10
1000.6406
 20
-218.1992
 10
1000.3924
 20
-219.188
 10
1000.1994
 20
-220.2239
 10
1000.0616
 20
-221.3068
 10
999.9789
 20
-222.4367
 10
999.9513
 20
-223.6137
 10
999.9789
 20
-224.7907
 10
1000.0616
 20
-225.9207
 10
1000.1994
 20
-227.0038
 10
1000.3924
 20
-228.0398
 10
1000.6406
 20
-229.0287
 10
1000.944
 20
-229.9707
 10
1001.3025
 20
-230.8656
 10
1001.7163
 20
-231.7135
 10
1002.3049
 20
-232.6851
 10
1002.9613
 20
-233.5272
 10
1003.6853
 20
-234.2399
 10
1004.477
 20
-234.823
 10
1005.3364
 20
-235.2765
 10
1006.2634
 20
-235.6005
 10
1007.258
 20
-235.7949
 10
1008.3203
 20
-235.8597
  0
LWPOLYLINE
  5
6A
330
1F
100
AcDbEntity
  8
Layer 1
 62
     7
100
AcDbPolyline
 90
      165
 70
     1
 43
0.0
 10
1041.5437
 20
-235.4744
 10
1044.0911
 20
-235.4744
 10
1044.0911
 20
-225.8533
 10
1044.0703
 20
-225.2145
 10
1044.0081
 20
-224.6057
 10
1043.9043
 20
-224.027
 10
1043.759
 20
-223.4783
 10
1043.5722
 20
-222.9598
 10
1043.3439
 20
-222.4713
 10
1043.0741
 20
-222.0128
 10
1042.7629
 20
-221.5845
 10
1042.5891
 20
-221.3799
 10
1042.4046
 20
-221.1856
 10
1042.2093
 20
-221.0017
 10
1042.0032
 20
-220.8282
 10
1041.7863
 20
-220.665
 10
1041.5587
 20
-220.5121
 10
1041.3201
 20
-220.3696
 10
1041.0708
 20
-220.2374
 10
1040.8058
 20
-220.1185
 10
1040.5203
 20
-220.0155
 10
1040.2144
 20
-219.9284
 10
1039.888
 20
-219.8571
 10
1039.5412
 20
-219.8016
 10
1039.1738
 20
-219.762
 10
1038.786
 20
-219.7382
 10
1038.3776
 20
-219.7303
 10
1037.9658
 20
-219.744
 10
1037.567
 20
-219.785
 10
1037.1813
 20
-219.8533
 10
1036.8087
 20
-219.949
 10
1036.4491
 20
-220.072
 10
1036.1025
 20
-220.2223
 10
1035.7691
 20
-220.4
 10
1035.4487
 20
-220.605
 10
1035.1706
 20
-220.8094
 10
1034.905
 20
-221.029
 10
1034.652
 20
-221.2637
 10
1034.4115
 20
-221.5132
 10
1034.1836
 20
-221.7775
 10
1033.9682
 20
-222.0565
 10
1033.7652
 20
-222.3499
 10
1033.5747
 20
-222.6578
 10
1033.4268
 20
-222.3735
 10
1033.2654
 20
-222.0993
 10
1033.0903
 20
-221.836
 10
1032.9014
 20
-221.5845
 10
1032.7276
 20
-221.3799
 10
1032.5431
 20
-221.1856
 10
1032.3478
 20
-221.0017
 10
1032.1418
 20
-220.8282
 10
1031.9249
 20
-220.665
 10
1031.6972
 20
-220.5121
 10
1031.4587
 20
-220.3696
 10
1031.2093
 20
-220.2374
 10
1030.9443
 20
-220.1185
 10
1030.6588
 20
-220.0155
 10
1030.3529
 20
-219.9284
 10
1030.0265
 20
-219.8571
 10
1029.6797
 20
-219.8016
 10
1029.3123
 20
-219.762
 10
1028.9245
 20
-219.7382
 10
1028.5161
 20
-219.7303
 10
1028.1043
 20
-219.744
 10
1027.7055
 20
-219.785
 10
1027.3198
 20
-219.8533
 10
1026.9472
 20
-219.949
 10
1026.5876
 20
-220.072
 10
1026.2411
 20
-220.2223
 10
1025.9076
 20
-220.4
 10
1025.5873
 20
-220.605
 10
1025.3223
 20
-220.7995
 10
1025.0688
 20
-221.0073
 10
1024.8266
 20
-221.2283
 10
1024.5957
 20
-221.4627
 10
1024.3763
 20
-221.7105
 10
1024.1682
 20
-221.9718
 10
1023.9715
 20
-222.2467
 10
1023.7862
 20
-222.5352
 10
1023.7862
 20
-220.0801
 10
1021.2388
 20
-220.0801
 10
1021.2388
 20
-235.4744
 10
1023.7862
 20
-235.4744
 10
1023.7862
 20
-227.5968
 10
1023.8453
 20
-227.1377
 10
1023.9226
 20
-226.6966
 10
1024.0181
 20
-226.2732
 10
1024.1317
 20
-225.8675
 10
1024.2635
 20
-225.4793
 10
1024.4135
 20
-225.1084
 10
1024.5817
 20
-224.7548
 10
1024.7681
 20
-224.4183
 10
1024.92
 20
-224.179
 10
1025.0844
 20
-223.9507
 10
1025.2612
 20
-223.7331
 10
1025.4506
 20
-223.5265
 10
1025.6525
 20
-223.3308
 10
1025.8669
 20
-223.146
 10
1026.0939
 20
-222.9721
 10
1026.3335
 20
-222.8091
 10
1026.5814
 20
-222.6615
 10
1026.8337
 20
-222.5335
 10
1027.0907
 20
-222.4253
 10
1027.3522
 20
-222.3368
 10
1027.6183
 20
-222.268
 10
1027.8889
 20
-222.2188
 10
1028.1642
 20
-222.1893
 10
1028.444
 20
-222.1795
 10
1028.7168
 20
-222.1847
 10
1028.9714
 20
-222.2003
 10
1029.2079
 20
-222.2262
 10
1029.4262
 20
-222.2625
 10
1029.6263
 20
-222.3092
 10
1029.8083
 20
-222.3663
 10
1029.972
 20
-222.4338
 10
1030.1176
 20
-222.5116
 10
1030.4844
 20
-222.7724
 10
1030.8023
 20
-223.078
 10
1031.0712
 20
-223.4284
 10
1031.2912
 20
-223.8237
 10
1031.4623
 20
-224.2639
 10
1031.5845
 20
-224.7488
 10
1031.6579
 20
-225.2786
 10
1031.6823
 20
-225.8533
 10
1031.6823
 20
-235.4744
 10
1034.2296
 20
-235.4744
 10
1034.2296
 20
-225.8533
 10
1034.2112
 20
-225.2642
 10
1034.3056
 20
-225.041
 10
1034.4069
 20
-224.826
 10
1034.5149
 20
-224.6187
 10
1034.6296
 20
-224.4183
 10
1034.7815
 20
-224.179
 10
1034.9458
 20
-223.9507
 10
1035.1227
 20
-223.7331
 10
1035.312
 20
-223.5265
 10
1035.5138
 20
-223.3308
 10
1035.7281
 20
-223.146
 10
1035.9549
 20
-222.9721
 10
1036.1942
 20
-222.8091
 10
1036.4423
 20
-222.6615
 10
1036.6949
 20
-222.5335
 10
1036.9519
 20
-222.4253
 10
1037.2135
 20
-222.3368
 10
1037.4797
 20
-222.268
 10
1037.7503
 20
-222.2188
 10
1038.0256
 20
-222.1893
 10
1038.3054
 20
-222.1795
 10
1038.5782
 20
-222.1847
 10
1038.8329
 20
-222.2003
 10
1039.0694
 20
-222.2262
 10
1039.2877
 20
-222.2625
 10
1039.4878
 20
-222.3092
 10
1039.6698
 20
-222.3663
 10
1039.8335
 20
-222.4338
 10
1039.9791
 20
-222.5116
 10
1040.3459
 20
-222.7724
 10
1040.6637
 20
-223.078
 10
1040.9326
 20
-223.4284
 10
1041.1526
 20
-223.8237
 10
1041.3237
 20
-224.2639
 10
1041.4459
 20
-224.7488
 10
1041.5193
 20
-225.2786
 10
1041.5437
 20
-225.8533
 10
1041.5437
 20
-235.4744
  0
LWPOLYLINE
  5
6B
330
1F
100
AcDbEntity
  8
Layer 1
 62
     7
100
AcDbPolyline
 90
      165
 70
     1
 43
0.0
 10
1069.3086
 20
-235.4744
 10
1071.856
 20
-235.4744
 10
1071.856
 20
-225.8533
 10
1071.8352
 20
-225.2145
 10
1071.773
 20
-224.6057
 10
1071.6692
 20
-224.027
 10
1071.5239
 20
-223.4783
 10
1071.3371
 20
-222.9598
 10
1071.1088
 20
-222.4713
 10
1070.839
 20
-222.0128
 10
1070.5278
 20
-221.5845
 10
1070.354
 20
-221.3799
 10
1070.1695
 20
-221.1856
 10
1069.9742
 20
-221.0017
 10
1069.7682
 20
-220.8282
 10
1069.5513
 20
-220.665
 10
1069.3236
 20
-220.5121
 10
1069.0851
 20
-220.3696
 10
1068.8357
 20
-220.2374
 10
1068.5707
 20
-220.1185
 10
1068.2852
 20
-220.0155
 10
1067.9793
 20
-219.9284
 10
1067.6529
 20
-219.8571
 10
1067.3061
 20
-219.8016
 10
1066.9387
 20
-219.762
 10
1066.5509
 20
-219.7382
 10
1066.1425
 20
-219.7303
 10
1065.7307
 20
-219.744
 10
1065.3319
 20
-219.785
 10
1064.9462
 20
-219.8533
 10
1064.5736
 20
-219.949
 10
1064.214
 20
-220.072
 10
1063.8674
 20
-220.2223
 10
1063.534
 20
-220.4
 10
1063.2136
 20
-220.605
 10
1062.9355
 20
-220.8094
 10
1062.6699
 20
-221.029
 10
1062.4169
 20
-221.2637
 10
1062.1764
 20
-221.5132
 10
1061.9485
 20
-221.7775
 10
1061.7331
 20
-222.0565
 10
1061.5301
 20
-222.3499
 10
1061.3396
 20
-222.6578
 10
1061.1917
 20
-222.3735
 10
1061.0303
 20
-222.0993
 10
1060.8552
 20
-221.836
 10
1060.6663
 20
-221.5845
 10
1060.4925
 20
-221.3799
 10
1060.308
 20
-221.1856
 10
1060.1127
 20
-221.0017
 10
1059.9067
 20
-220.8282
 10
1059.6898
 20
-220.665
 10
1059.4621
 20
-220.5121
 10
1059.2236
 20
-220.3696
 10
1058.9742
 20
-220.2374
 10
1058.7092
 20
-220.1185
 10
1058.4237
 20
-220.0155
 10
1058.1178
 20
-219.9284
 10
1057.7914
 20
-219.8571
 10
1057.4446
 20
-219.8016
 10
1057.0772
 20
-219.762
 10
1056.6894
 20
-219.7382
 10
1056.281
 20
-219.7303
 10
1055.8692
 20
-219.744
 10
1055.4704
 20
-219.785
 10
1055.0847
 20
-219.8533
 10
1054.7121
 20
-219.949
 10
1054.3525
 20
-220.072
 10
1054.006
 20
-220.2223
 10
1053.6725
 20
-220.4
 10
1053.3522
 20
-220.605
 10
1053.0872
 20
-220.7995
 10
1052.8337
 20
-221.0073
 10
1052.5915
 20
-221.2283
 10
1052.3606
 20
-221.4627
 10
1052.1412
 20
-221.7105
 10
1051.9331
 20
-221.9718
 10
1051.7364
 20
-222.2467
 10
1051.5511
 20
-222.5352
 10
1051.5511
 20
-220.0801
 10
1049.0037
 20
-220.0801
 10
1049.0037
 20
-235.4744
 10
1051.5511
 20
-235.4744
 10
1051.5511
 20
-227.5968
 10
1051.6103
 20
-227.1377
 10
1051.6876
 20
-226.6966
 10
1051.783
 20
-226.2732
 10
1051.8967
 20
-225.8675
 10
1052.0285
 20
-225.4793
 10
1052.1784
 20
-225.1084
 10
1052.3466
 20
-224.7548
 10
1052.533
 20
-224.4183
 10
1052.6849
 20
-224.179
 10
1052.8493
 20
-223.9507
 10
1053.0262
 20
-223.7331
 10
1053.2155
 20
-223.5265
 10
1053.4174
 20
-223.3308
 10
1053.6319
 20
-223.146
 10
1053.8588
 20
-222.9721
 10
1054.0984
 20
-222.8091
 10
1054.3463
 20
-222.6615
 10
1054.5986
 20
-222.5335
 10
1054.8556
 20
-222.4253
 10
1055.1171
 20
-222.3368
 10
1055.3832
 20
-222.268
 10
1055.6538
 20
-222.2188
 10
1055.9291
 20
-222.1893
 10
1056.2089
 20
-222.1795
 10
1056.4817
 20
-222.1847
 10
1056.7363
 20
-222.2003
 10
1056.9728
 20
-222.2262
 10
1057.1911
 20
-222.2625
 10
1057.3912
 20
-222.3092
 10
1057.5732
 20
-222.3663
 10
1057.7369
 20
-222.4338
 10
1057.8825
 20
-222.5116
 10
1058.2493
 20
-222.7724
 10
1058.5672
 20
-223.078
 10
1058.8361
 20
-223.4284
 10
1059.0561
 20
-223.8237
 10
1059.2272
 20
-224.2639
 10
1059.3494
 20
-224.7488
 10
1059.4228
 20
-225.2786
 10
1059.4472
 20
-225.8533
 10
1059.4472
 20
-235.4744
 10
1061.9945
 20
-235.4744
 10
1061.9945
 20
-225.8533
 10
1061.9761
 20
-225.2642
 10
1062.0705
 20
-225.041
 10
1062.1718
 20
-224.826
 10
1062.2798
 20
-224.6187
 10
1062.3945
 20
-224.4183
 10
1062.5464
 20
-224.179
 10
1062.7107
 20
-223.9507
 10
1062.8876
 20
-223.7331
 10
1063.0769
 20
-223.5265
 10
1063.2787
 20
-223.3308
 10
1063.493
 20
-223.146
 10
1063.7198
 20
-222.9721
 10
1063.9591
 20
-222.8091
 10
1064.2072
 20
-222.6615
 10
1064.4598
 20
-222.5335
 10
1064.7168
 20
-222.4253
 10
1064.9785
 20
-222.3368
 10
1065.2446
 20
-222.268
 10
1065.5153
 20
-222.2188
 10
1065.7905
 20
-222.1893
 10
1066.0704
 20
-222.1795
 10
1066.3432
 20
-222.1847
 10
1066.5978
 20
-222.2003
 10
1066.8343
 20
-222.2262
 10
1067.0526
 20
-222.2625
 10
1067.2527
 20
-222.3092
 10
1067.4347
 20
-222.3663
 10
1067.5984
 20
-222.4338
 10
1067.744
 20
-222.5116
 10
1068.1108
 20
-222.7724
 10
1068.4286
 20
-223.078
 10
1068.6975
 20
-223.4284
 10
1068.9175
 20
-223.8237
 10
1069.0886
 20
-224.2639
 10
1069.2108
 20
-224.7488
 10
1069.2842
 20
-225.2786
 10
1069.3086
 20
-225.8533
 10
1069.3086
 20
-235.4744
  0
LWPOLYLINE
  5
6C
330
1F
100
AcDbEntity
  8
Layer 1
 62
     7
370
    18
100
AcDbPolyline
 90
        2
 70
     0
 43
0.0
 10
1030.8086
 20
79.7162
 10
1009.5776
 20
79.7162
  0
LWPOLYLINE
  5
6D
330
1F
100
AcDbEntity
  8
Layer 1
 62
     7
370
    18
100
AcDbPolyline
 90
        2
 70
     0
 43
0.0
 10
1020.1926
 20
79.7211
 10
1020.1926
 20
-194.6341
  0
LWPOLYLINE
  5
6E
330
1F
100
AcDbEntity
  8
Layer 1
 62
     7
370
    18
100
AcDbPolyline
 90
        2
 70
     0
 43
0.0
 10
1030.8086
 20
-590.7071
 10
1009.5776
 20
-590.7071
  0
LWPOLYLINE
  5
6F
330
1F
100
AcDbEntity
  8
Layer 1
 62
     7
370
    18
100
AcDbPolyline
 90
        2
 70
     0
 43
0.0
 10
1020.1926
 20
-590.7146
 10
1020.1926
 20
-265.6356
  0
LWPOLYLINE
  5
70
330
1F
100
AcDbEntity
  8
Layer 1
 62
     7
370
    18
100
AcDbPolyline
 90
        2
 70
     0
 43
0.0
 10
613.4266
 20
153.7432
 10
613.4266
 20
133.33
  0
LWPOLYLINE
  5
71
330
1F
100
AcDbEntity
  8
Layer 1
 62
     7
370
    18
100
AcDbPolyline
 90
        2
 70
     0
 43
0.0
 10
613.4214
 20
143.5362
 10
723.6679
 20
143.5362
  0
LWPOLYLINE
  5
72
330
1F
100
AcDbEntity
  8
Layer 1
 62
     7
370
    18
100
AcDbPolyline
 90
        2
 70
     0
 43
0.0
 10
956.7959
 20
153.7432
 10
956.7959
 20
133.33
  0
LWPOLYLINE
  5
73
330
1F
100
AcDbEntity
  8
Layer 1
 62
     7
370
    18
100
AcDbPolyline
 90
        2
 70
     0
 43
0.0
 10
956.8011
 20
143.5362
 10
850.3364
 20
143.5362
  0
LWPOLYLINE
  5
74
330
1F
100
AcDbEntity
  8
Layer 1
 62
     7
370
    18
100
AcDbPolyline
 90
        2
 70
     0
 43
0.0
 10
433.3151
 20
207.4704
 10
433.3151
 20
187.0573
  0
LWPOLYLINE
  5
75
330
1F
100
AcDbEntity
  8
Layer 1
 62
     7
370
    18
100
AcDbPolyline
 90
        2
 70
     0
 43
0.0
 10
433.3015
 20
197.2635
 10
723.6678
 20
197.2635
  0
LWPOLYLINE
  5
76
330
1F
100
AcDbEntity
  8
Layer 1
 62
     7
370
    18
100
AcDbPolyline
 90
        2
 70
     0
 43
0.0
 10
975.4508
 20
207.4704
 10
975.4508
 20
187.0573
  0
LWPOLYLINE
  5
77
330
1F
100
AcDbEntity
  8
Layer 1
 62
     7
370
    18
100
AcDbPolyline
 90
        2
 70
     0
 43
0.0
 10
975.4569
 20
197.2635
 10
850.3364
 20
197.2635
  0
LWPOLYLINE
  5
78
330
1F
100
AcDbEntity
  8
Layer 1
 62
     7
100
AcDbPolyline
 90
       73
 70
     1
 43
0.0
 10
743.3601
 20
199.3872
 10
743.8957
 20
199.3635
 10
744.4114
 20
199.2923
 10
744.9071
 20
199.1738
 10
745.3829
 20
199.0078
 10
745.8388
 20
198.7943
 10
746.2748
 20
198.5335
 10
746.6909
 20
198.2252
 10
747.0872
 20
197.8695
 10
747.4451
 20
197.4854
 10
747.7553
 20
197.083
 10
748.0177
 20
196.6625
 10
748.2323
 20
196.2238
 10
748.3993
 20
195.7669
 10
748.5185
 20
195.2918
 10
748.5901
 20
194.7985
 10
748.6139
 20
194.287
 10
748.5898
 20
193.7873
 10
748.5175
 20
193.3047
 10
748.3969
 20
192.8392
 10
748.2281
 20
192.3908
 10
748.011
 20
191.9596
 10
747.7455
 20
191.5456
 10
747.4317
 20
191.1488
 10
747.0696
 20
190.7691
 10
746.6809
 20
190.4287
 10
746.2702
 20
190.1337
 10
745.8375
 20
189.8842
 10
745.3828
 20
189.68
 10
744.906
 20
189.5213
 10
744.4072
 20
189.4079
 10
743.8864
 20
189.3399
 10
743.3435
 20
189.3172
 10
742.8113
 20
189.3406
 10
742.2968
 20
189.4109
 10
741.8001
 20
189.528
 10
741.3212
 20
189.6921
 10
740.8601
 20
189.9031
 10
740.4169
 20
190.161
 10
739.9916
 20
190.466
 10
739.5843
 20
190.8179
 10
739.2144
 20
191.1983
 10
738.8937
 20
191.5974
 10
738.6224
 20
192.0152
 10
738.4005
 20
192.4517
 10
738.2279
 20
192.9069
 10
738.1045
 20
193.3807
 10
738.0306
 20
193.8733
 10
738.0059
 20
194.3845
 10
738.0306
 20
194.8929
 10
738.1045
 20
195.3817
 10
738.2279
 20
195.8509
 10
738.4005
 20
196.3005
 10
738.6224
 20
196.7305
 10
738.8937
 20
197.1408
 10
739.2144
 20
197.5314
 10
739.5843
 20
197.9024
 10
739.7725
 20
198.0675
 10
739.968
 20
198.2241
 10
740.1709
 20
198.3721
 10
740.3812
 20
198.5116
 10
740.5988
 20
198.6424
 10
740.8239
 20
198.7646
 10
741.0564
 20
198.8782
 10
741.2963
 20
198.9831
 10
741.5414
 20
199.0778
 10
741.7902
 20
199.1599
 10
742.0427
 20
199.2293
 10
742.2988
 20
199.2862
 10
742.5587
 20
199.3304
 10
742.8222
 20
199.3619
 10
743.0893
 20
199.3809
 10
743.3601
 20
199.3872
  0
LWPOLYLINE
  5
79
330
1F
100
AcDbEntity
  8
Layer 1
 62
     7
100
AcDbPolyline
 90
       69
 70
     1
 43
0.0
 10
750.9975
 20
194.4482
 10
750.9608
 20
195.2255
 10
750.8507
 20
195.9675
 10
750.6671
 20
196.674
 10
750.4102
 20
197.3453
 10
750.0798
 20
197.9813
 10
749.6759
 20
198.582
 10
749.1987
 20
199.1475
 10
748.648
 20
199.6777
 10
748.0848
 20
200.124
 10
747.4824
 20
200.5155
 10
746.8406
 20
200.8521
 10
746.1594
 20
201.1338
 10
745.4389
 20
201.3605
 10
744.6791
 20
201.5323
 10
743.8799
 20
201.6491
 10
743.0413
 20
201.7108
 10
742.3706
 20
201.2908
 10
749.3529
 20
209.3595
 10
746.2644
 20
209.3595
 10
737.3352
 20
198.999
 10
736.9339
 20
198.4947
 10
736.5861
 20
197.9696
 10
736.2919
 20
197.4237
 10
736.0512
 20
196.8572
 10
735.8639
 20
196.27
 10
735.7302
 20
195.6621
 10
735.65
 20
195.0336
 10
735.6233
 20
194.3845
 10
735.6584
 20
193.6361
 10
735.7638
 20
192.9166
 10
735.9394
 20
192.2258
 10
736.1853
 20
191.5639
 10
736.5015
 20
190.9307
 10
736.8881
 20
190.3263
 10
737.3451
 20
189.7506
 10
737.8724
 20
189.2037
 10
738.4529
 20
188.7007
 10
739.0618
 20
188.2648
 10
739.6991
 20
187.8959
 10
740.3648
 20
187.594
 10
741.0587
 20
187.3592
 10
741.781
 20
187.1914
 10
742.5316
 20
187.0908
 10
743.3104
 20
187.0572
 10
744.1004
 20
187.0905
 10
744.8589
 20
187.1904
 10
745.5858
 20
187.3569
 10
746.2813
 20
187.59
 10
746.9453
 20
187.8896
 10
747.5778
 20
188.2558
 10
748.1788
 20
188.6886
 10
748.7484
 20
189.1878
 10
749.0018
 20
189.443
 10
749.2415
 20
189.7082
 10
749.4675
 20
189.9835
 10
749.6799
 20
190.2689
 10
749.8787
 20
190.5644
 10
750.0638
 20
190.87
 10
750.2353
 20
191.1857
 10
750.3931
 20
191.5115
 10
750.5347
 20
191.8469
 10
750.6574
 20
192.1914
 10
750.7613
 20
192.5449
 10
750.8463
 20
192.9075
 10
750.9124
 20
193.2791
 10
750.9597
 20
193.6597
 10
750.988
 20
194.0494
 10
750.9975
 20
194.4482
  0
LWPOLYLINE
  5
7A
330
1F
100
AcDbEntity
  8
Layer 1
 62
     7
100
AcDbPolyline
 90
      136
 70
     1
 43
0.0
 10
757.9136
 20
201.2261
 10
759.4568
 20
207.1005
 10
767.7152
 20
207.1005
 10
767.7152
 20
209.3595
 10
757.6776
 20
209.3595
 10
755.06
 20
199.5155
 10
757.6114
 20
198.4189
 10
757.9813
 20
198.6609
 10
758.3696
 20
198.8707
 10
758.7762
 20
199.0482
 10
759.2013
 20
199.1935
 10
759.6447
 20
199.3065
 10
760.1064
 20
199.3872
 10
760.5865
 20
199.4356
 10
761.0849
 20
199.4518
 10
761.5865
 20
199.4281
 10
762.0712
 20
199.357
 10
762.5391
 20
199.2384
 10
762.9902
 20
199.0724
 10
763.4245
 20
198.859
 10
763.842
 20
198.5982
 10
764.2428
 20
198.2899
 10
764.6267
 20
197.9342
 10
764.9885
 20
197.5375
 10
765.3022
 20
197.1262
 10
765.5676
 20
196.7003
 10
765.7848
 20
196.2598
 10
765.9537
 20
195.8047
 10
766.0744
 20
195.335
 10
766.1469
 20
194.8506
 10
766.171
 20
194.3517
 10
766.1463
 20
193.8355
 10
766.0724
 20
193.3399
 10
765.9491
 20
192.865
 10
765.7765
 20
192.4109
 10
765.5547
 20
191.9773
 10
765.2835
 20
191.5645
 10
764.9632
 20
191.1724
 10
764.5936
 20
190.8009
 10
764.4054
 20
190.6358
 10
764.2104
 20
190.4793
 10
764.0086
 20
190.3314
 10
763.8001
 20
190.1922
 10
763.5849
 20
190.0614
 10
763.3628
 20
189.9392
 10
763.134
 20
189.8255
 10
762.8983
 20
189.7202
 10
762.6523
 20
189.6255
 10
762.3926
 20
189.5436
 10
762.1192
 20
189.4743
 10
761.8322
 20
189.4177
 10
761.5314
 20
189.3737
 10
761.2171
 20
189.3423
 10
760.8892
 20
189.3235
 10
760.5477
 20
189.3172
 10
760.2
 20
189.3313
 10
759.8528
 20
189.3737
 10
759.506
 20
189.4443
 10
759.1596
 20
189.5431
 10
758.8138
 20
189.6702
 10
758.4683
 20
189.8255
 10
758.1234
 20
190.009
 10
757.779
 20
190.2208
 10
757.4475
 20
190.4553
 10
757.1412
 20
190.7068
 10
756.8601
 20
190.9755
 10
756.6042
 20
191.2613
 10
756.3734
 20
191.5643
 10
756.1679
 20
191.8845
 10
755.9875
 20
192.2218
 10
755.8322
 20
192.5763
 10
753.5489
 20
191.8668
 10
753.7731
 20
191.3353
 10
754.0345
 20
190.8307
 10
754.3332
 20
190.3529
 10
754.6692
 20
189.9018
 10
755.0424
 20
189.4775
 10
755.4529
 20
189.0799
 10
755.9008
 20
188.709
 10
756.3859
 20
188.3648
 10
756.9013
 20
188.0509
 10
757.4283
 20
187.7788
 10
757.9668
 20
187.5486
 10
758.517
 20
187.3603
 10
759.0787
 20
187.2138
 10
759.652
 20
187.1091
 10
760.2369
 20
187.0463
 10
760.8334
 20
187.0254
 10
761.6281
 20
187.0599
 10
762.3924
 20
187.1636
 10
763.1262
 20
187.3363
 10
763.8296
 20
187.5781
 10
764.5026
 20
187.8889
 10
765.1451
 20
188.2688
 10
765.7571
 20
188.7177
 10
766.3386
 20
189.2356
 10
766.866
 20
189.7983
 10
767.3229
 20
190.3887
 10
767.7095
 20
191.0068
 10
768.0258
 20
191.6527
 10
768.2717
 20
192.3262
 10
768.4473
 20
193.0275
 10
768.5527
 20
193.7564
 10
768.5878
 20
194.5129
 10
768.5532
 20
195.2657
 10
768.4494
 20
195.9868
 10
768.2764
 20
196.676
 10
768.0342
 20
197.3334
 10
767.7227
 20
197.959
 10
767.342
 20
198.5528
 10
766.892
 20
199.1148
 10
766.3728
 20
199.6449
 10
766.1074
 20
199.8808
 10
765.8314
 20
200.104
 10
765.5449
 20
200.3146
 10
765.2479
 20
200.5126
 10
764.9404
 20
200.698
 10
764.6224
 20
200.8708
 10
764.2939
 20
201.0309
 10
763.955
 20
201.1784
 10
763.6096
 20
201.3107
 10
763.261
 20
201.4254
 10
762.9093
 20
201.5224
 10
762.5546
 20
201.6017
 10
762.1971
 20
201.6634
 10
761.8367
 20
201.7074
 10
761.4736
 20
201.7338
 10
761.108
 20
201.7426
 10
760.7349
 20
201.7345
 10
760.3545
 20
201.7104
 10
759.9666
 20
201.6701
 10
759.5712
 20
201.6136
 10
759.1683
 20
201.541
 10
758.7577
 20
201.4522
 10
758.3395
 20
201.3473
 10
757.9136
 20
201.2261
  0
LWPOLYLINE
  5
7B
330
1F
100
AcDbEntity
  8
Layer 1
 62
     7
100
AcDbPolyline
 90
      129
 70
     1
 43
0.0
 10
781.5959
 20
206.81
 10
781.9836
 20
206.5569
 10
782.345
 20
206.2695
 10
782.6802
 20
205.9477
 10
782.9891
 20
205.5916
 10
783.2717
 20
205.2012
 10
783.5281
 20
204.7766
 10
783.7582
 20
204.3177
 10
783.962
 20
203.8245
 10
784.1904
 20
203.1702
 10
784.3883
 20
202.5063
 10
784.5557
 20
201.8328
 10
784.6926
 20
201.1497
 10
784.7991
 20
200.4569
 10
784.8751
 20
199.7546
 10
784.9207
 20
199.0427
 10
784.9359
 20
198.3213
 10
784.9343
 20
198.1481
 10
784.9295
 20
197.9673
 10
784.9216
 20
197.779
 10
784.9106
 20
197.5832
 10
784.8964
 20
197.3797
 10
784.8792
 20
197.1687
 10
784.8589
 20
196.9502
 10
784.8356
 20
196.7241
 10
784.7189
 20
195.8564
 10
784.5667
 20
195.0367
 10
784.3788
 20
194.2648
 10
784.1554
 20
193.5409
 10
783.8963
 20
192.8649
 10
783.6016
 20
192.2368
 10
783.2712
 20
191.6566
 10
782.9052
 20
191.1244
 10
782.5712
 20
190.7232
 10
782.2192
 20
190.3757
 10
781.8494
 20
190.0816
 10
781.4618
 20
189.8411
 10
781.0563
 20
189.6541
 10
780.633
 20
189.5205
 10
780.1918
 20
189.4404
 10
779.7329
 20
189.4137
 10
779.2207
 20
189.4402
 10
778.7331
 20
189.5195
 10
778.2702
 20
189.6518
 10
777.8319
 20
189.8371
 10
777.4183
 20
190.0754
 10
777.0294
 20
190.3667
 10
776.6651
 20
190.7111
 10
776.3256
 20
191.1085
 10
776.1819
 20
191.3009
 10
776.0445
 20
191.4994
 10
775.9134
 20
191.7041
 10
775.7885
 20
191.9149
 10
775.6699
 20
192.1318
 10
775.5576
 20
192.3549
 10
775.4515
 20
192.584
 10
775.3516
 20
192.8192
 10
775.2581
 20
193.0578
 10
775.1703
 20
193.298
 10
775.0882
 20
193.5398
 10
775.0119
 20
193.7831
 10
774.9414
 20
194.0279
 10
774.8767
 20
194.2743
 10
774.8178
 20
194.5222
 10
774.7648
 20
194.7716
 10
774.7162
 20
195.0207
 10
774.6713
 20
195.2678
 10
774.6301
 20
195.5128
 10
774.5926
 20
195.7558
 10
774.5587
 20
195.9968
 10
774.5286
 20
196.2359
 10
774.502
 20
196.473
 10
774.4791
 20
196.7082
 10
774.4593
 20
196.9466
 10
774.4423
 20
197.1941
 10
774.4278
 20
197.4506
 10
774.4161
 20
197.716
 10
774.407
 20
197.9903
 10
774.4005
 20
198.2733
 10
774.3966
 20
198.565
 10
774.3953
 20
198.8654
 10
774.4011
 20
199.1791
 10
774.4184
 20
199.5109
 10
774.4473
 20
199.861
 10
774.4878
 20
200.2295
 10
774.5398
 20
200.6163
 10
774.6033
 20
201.0216
 10
774.6783
 20
201.4454
 10
774.7648
 20
201.8879
 10
774.8175
 20
202.1338
 10
774.8756
 20
202.3793
 10
774.9391
 20
202.6242
 10
775.0078
 20
202.8685
 10
775.0817
 20
203.1124
 10
775.161
 20
203.3556
 10
775.2454
 20
203.5983
 10
775.3351
 20
203.8404
 10
775.4307
 20
204.0796
 10
775.5332
 20
204.3127
 10
775.6425
 20
204.5397
 10
775.7586
 20
204.7607
 10
775.8816
 20
204.9756
 10
776.0114
 20
205.1845
 10
776.148
 20
205.3873
 10
776.2914
 20
205.584
 10
776.442
 20
205.7728
 10
776.6
 20
205.9521
 10
776.7653
 20
206.1217
 10
776.9381
 20
206.2817
 10
777.1182
 20
206.4321
 10
777.3056
 20
206.5729
 10
777.5002
 20
206.7042
 10
777.7022
 20
206.8259
 10
777.9125
 20
206.9358
 10
778.1322
 20
207.0311
 10
778.3613
 20
207.1117
 10
778.5999
 20
207.1776
 10
778.848
 20
207.2288
 10
779.1055
 20
207.2654
 10
779.3726
 20
207.2873
 10
779.6491
 20
207.2946
 10
779.9253
 20
207.287
 10
780.1921
 20
207.2644
 10
780.4496
 20
207.2265
 10
780.6978
 20
207.1736
 10
780.9365
 20
207.1054
 10
781.1658
 20
207.0222
 10
781.3856
 20
206.9237
 10
781.5959
 20
206.81
  0
LWPOLYLINE
  5
7C
330
1F
100
AcDbEntity
  8
Layer 1
 62
     7
100
AcDbPolyline
 90
       65
 70
     1
 43
0.0
 10
779.766
 20
187.1219
 10
780.7461
 20
187.1817
 10
781.6638
 20
187.3609
 10
782.519
 20
187.6597
 10
783.3118
 20
188.078
 10
784.0423
 20
188.6158
 10
784.7103
 20
189.2731
 10
785.3159
 20
190.0499
 10
785.8592
 20
190.9462
 10
786.2408
 20
191.7287
 10
786.5715
 20
192.5544
 10
786.8513
 20
193.4234
 10
787.0803
 20
194.3358
 10
787.2583
 20
195.2914
 10
787.3855
 20
196.2905
 10
787.4619
 20
197.333
 10
787.4873
 20
198.4189
 10
787.4619
 20
199.5045
 10
787.3855
 20
200.5468
 10
787.2583
 20
201.5458
 10
787.0803
 20
202.5015
 10
786.8513
 20
203.4138
 10
786.5715
 20
204.2828
 10
786.2408
 20
205.1084
 10
785.8592
 20
205.8905
 10
785.3159
 20
206.7868
 10
784.7103
 20
207.5636
 10
784.0423
 20
208.2209
 10
783.3118
 20
208.7587
 10
782.519
 20
209.177
 10
781.6638
 20
209.4758
 10
780.7461
 20
209.655
 10
779.766
 20
209.7148
 10
778.7859
 20
209.655
 10
777.8682
 20
209.4758
 10
777.013
 20
209.177
 10
776.2202
 20
208.7587
 10
775.4899
 20
208.2209
 10
774.8221
 20
207.5636
 10
774.2168
 20
206.7868
 10
773.6739
 20
205.8905
 10
773.2923
 20
205.1084
 10
772.9616
 20
204.2828
 10
772.6818
 20
203.4138
 10
772.4528
 20
202.5015
 10
772.2748
 20
201.5458
 10
772.1476
 20
200.5468
 10
772.0712
 20
199.5045
 10
772.0458
 20
198.4189
 10
772.0712
 20
197.333
 10
772.1476
 20
196.2905
 10
772.2748
 20
195.2914
 10
772.4528
 20
194.3358
 10
772.6818
 20
193.4234
 10
772.9616
 20
192.5544
 10
773.2923
 20
191.7287
 10
773.6739
 20
190.9462
 10
774.2168
 20
190.0499
 10
774.8221
 20
189.2731
 10
775.4899
 20
188.6158
 10
776.2202
 20
188.078
 10
777.013
 20
187.6597
 10
777.8682
 20
187.3609
 10
778.7859
 20
187.1817
 10
779.766
 20
187.1219
  0
LWPOLYLINE
  5
7D
330
1F
100
AcDbEntity
  8
Layer 1
 62
     7
100
AcDbPolyline
 90
      165
 70
     1
 43
0.0
 10
810.414
 20
187.4772
 10
812.7635
 20
187.4772
 10
812.7635
 20
196.3529
 10
812.7444
 20
196.9423
 10
812.687
 20
197.5039
 10
812.5913
 20
198.0377
 10
812.4574
 20
198.5438
 10
812.2852
 20
199.0221
 10
812.0748
 20
199.4726
 10
811.8261
 20
199.8955
 10
811.5391
 20
200.2907
 10
811.3787
 20
200.4796
 10
811.2084
 20
200.6588
 10
811.0282
 20
200.8284
 10
810.838
 20
200.9884
 10
810.6379
 20
201.1388
 10
810.4277
 20
201.2796
 10
810.2075
 20
201.4109
 10
809.9772
 20
201.5326
 10
809.7328
 20
201.6426
 10
809.4696
 20
201.7379
 10
809.1876
 20
201.8184
 10
808.8866
 20
201.8843
 10
808.5667
 20
201.9356
 10
808.2278
 20
201.9722
 10
807.87
 20
201.9941
 10
807.4932
 20
202.0014
 10
807.1133
 20
201.9888
 10
806.7455
 20
201.9509
 10
806.3898
 20
201.8878
 10
806.0461
 20
201.7995
 10
805.7145
 20
201.686
 10
805.3949
 20
201.5473
 10
805.0874
 20
201.3834
 10
804.7918
 20
201.1943
 10
804.5353
 20
201.0056
 10
804.2903
 20
200.8029
 10
804.0568
 20
200.5864
 10
803.8348
 20
200.3562
 10
803.6243
 20
200.1124
 10
803.4254
 20
199.855
 10
803.2381
 20
199.5843
 10
803.0623
 20
199.3002
 10
802.926
 20
199.5625
 10
802.777
 20
199.8157
 10
802.6154
 20
200.0588
 10
802.4412
 20
200.2907
 10
802.2811
 20
200.4796
 10
802.111
 20
200.6588
 10
801.9308
 20
200.8284
 10
801.7407
 20
200.9884
 10
801.5406
 20
201.1388
 10
801.3305
 20
201.2796
 10
801.1104
 20
201.4109
 10
800.8804
 20
201.5326
 10
800.636
 20
201.6426
 10
800.3727
 20
201.7379
 10
800.0905
 20
201.8184
 10
799.7894
 20
201.8843
 10
799.4694
 20
201.9356
 10
799.1306
 20
201.9722
 10
798.7729
 20
201.9941
 10
798.3964
 20
202.0014
 10
798.0165
 20
201.9888
 10
797.6485
 20
201.9509
 10
797.2926
 20
201.8878
 10
796.9488
 20
201.7995
 10
796.617
 20
201.686
 10
796.2972
 20
201.5473
 10
795.9895
 20
201.3834
 10
795.6939
 20
201.1943
 10
795.4497
 20
201.0148
 10
795.2158
 20
200.8232
 10
794.9924
 20
200.6192
 10
794.7794
 20
200.403
 10
794.5769
 20
200.1744
 10
794.3849
 20
199.9333
 10
794.2035
 20
199.6798
 10
794.0327
 20
199.4137
 10
794.0327
 20
201.6779
 10
791.6822
 20
201.6779
 10
791.6822
 20
187.4772
 10
794.0327
 20
187.4772
 10
794.0327
 20
194.7441
 10
794.0871
 20
195.1677
 10
794.1583
 20
195.5747
 10
794.2463
 20
195.9652
 10
794.3511
 20
196.3395
 10
794.4727
 20
196.6977
 10
794.6111
 20
197.0398
 10
794.7663
 20
197.366
 10
794.9383
 20
197.6765
 10
795.0785
 20
197.8973
 10
795.2302
 20
198.108
 10
795.3933
 20
198.3087
 10
795.568
 20
198.4992
 10
795.7543
 20
198.6797
 10
795.952
 20
198.8502
 10
796.1613
 20
199.0108
 10
796.3822
 20
199.1613
 10
796.611
 20
199.2974
 10
796.8439
 20
199.4152
 10
797.0809
 20
199.515
 10
797.3222
 20
199.5965
 10
797.5676
 20
199.6599
 10
797.8172
 20
199.7052
 10
798.071
 20
199.7324
 10
798.3291
 20
199.7414
 10
798.5809
 20
199.7366
 10
798.8159
 20
199.7223
 10
799.0342
 20
199.6984
 10
799.2357
 20
199.6649
 10
799.4203
 20
199.6218
 10
799.5882
 20
199.5691
 10
799.7392
 20
199.5068
 10
799.8734
 20
199.4349
 10
800.2119
 20
199.1943
 10
800.5052
 20
198.9125
 10
800.7534
 20
198.5893
 10
800.9564
 20
198.2248
 10
801.1143
 20
197.8189
 10
801.227
 20
197.3717
 10
801.2947
 20
196.883
 10
801.3172
 20
196.3529
 10
801.3172
 20
187.4772
 10
803.6667
 20
187.4772
 10
803.6667
 20
196.3529
 10
803.6502
 20
196.8959
 10
803.737
 20
197.1018
 10
803.8304
 20
197.3001
 10
803.9301
 20
197.4914
 10
804.0362
 20
197.6765
 10
804.1761
 20
197.8973
 10
804.3276
 20
198.108
 10
804.4907
 20
198.3087
 10
804.6654
 20
198.4992
 10
804.8516
 20
198.6797
 10
805.0493
 20
198.8502
 10
805.2585
 20
199.0108
 10
805.479
 20
199.1613
 10
805.7078
 20
199.2974
 10
805.9408
 20
199.4152
 10
806.1781
 20
199.515
 10
806.4195
 20
199.5965
 10
806.6651
 20
199.6599
 10
806.9149
 20
199.7052
 10
807.1689
 20
199.7324
 10
807.427
 20
199.7414
 10
807.6787
 20
199.7366
 10
807.9137
 20
199.7223
 10
808.1317
 20
199.6984
 10
808.333
 20
199.6649
 10
808.5175
 20
199.6218
 10
808.6851
 20
199.5691
 10
808.8361
 20
199.5068
 10
808.9702
 20
199.4349
 10
809.3087
 20
199.1943
 10
809.602
 20
198.9125
 10
809.8502
 20
198.5893
 10
810.0532
 20
198.2248
 10
810.2111
 20
197.8189
 10
810.3238
 20
197.3717
 10
810.3915
 20
196.883
 10
810.414
 20
196.3529
 10
810.414
 20
187.4772
  0
LWPOLYLINE
  5
7E
330
1F
100
AcDbEntity
  8
Layer 1
 62
     7
100
AcDbPolyline
 90
      165
 70
     1
 43
0.0
 10
836.0267
 20
187.4772
 10
838.3762
 20
187.4772
 10
838.3762
 20
196.3529
 10
838.3571
 20
196.9423
 10
838.2997
 20
197.5039
 10
838.204
 20
198.0377
 10
838.0701
 20
198.5438
 10
837.8979
 20
199.0221
 10
837.6874
 20
199.4726
 10
837.4387
 20
199.8955
 10
837.1518
 20
200.2907
 10
836.9913
 20
200.4796
 10
836.821
 20
200.6588
 10
836.6408
 20
200.8284
 10
836.4507
 20
200.9884
 10
836.2505
 20
201.1388
 10
836.0404
 20
201.2796
 10
835.8202
 20
201.4109
 10
835.5899
 20
201.5326
 10
835.3455
 20
201.6426
 10
835.0823
 20
201.7379
 10
834.8003
 20
201.8184
 10
834.4993
 20
201.8843
 10
834.1794
 20
201.9356
 10
833.8405
 20
201.9722
 10
833.4827
 20
201.9941
 10
833.1058
 20
202.0014
 10
832.7259
 20
201.9888
 10
832.3581
 20
201.9509
 10
832.0024
 20
201.8878
 10
831.6588
 20
201.7995
 10
831.3272
 20
201.686
 10
831.0076
 20
201.5473
 10
830.7
 20
201.3834
 10
830.4045
 20
201.1943
 10
830.148
 20
201.0056
 10
829.903
 20
200.8029
 10
829.6695
 20
200.5864
 10
829.4475
 20
200.3562
 10
829.237
 20
200.1124
 10
829.0381
 20
199.855
 10
828.8507
 20
199.5843
 10
828.6749
 20
199.3002
 10
828.5386
 20
199.5625
 10
828.3896
 20
199.8157
 10
828.228
 20
200.0588
 10
828.0539
 20
200.2907
 10
827.8938
 20
200.4796
 10
827.7236
 20
200.6588
 10
827.5435
 20
200.8284
 10
827.3533
 20
200.9884
 10
827.1532
 20
201.1388
 10
826.9431
 20
201.2796
 10
826.7231
 20
201.4109
 10
826.4931
 20
201.5326
 10
826.2487
 20
201.6426
 10
825.9854
 20
201.7379
 10
825.7032
 20
201.8184
 10
825.4021
 20
201.8843
 10
825.0821
 20
201.9356
 10
824.7432
 20
201.9722
 10
824.3855
 20
201.9941
 10
824.009
 20
202.0014
 10
823.6291
 20
201.9888
 10
823.2612
 20
201.9509
 10
822.9053
 20
201.8878
 10
822.5614
 20
201.7995
 10
822.2296
 20
201.686
 10
821.9099
 20
201.5473
 10
821.6022
 20
201.3834
 10
821.3066
 20
201.1943
 10
821.0623
 20
201.0148
 10
820.8285
 20
200.8232
 10
820.605
 20
200.6192
 10
820.392
 20
200.403
 10
820.1895
 20
200.1744
 10
819.9976
 20
199.9333
 10
819.8162
 20
199.6798
 10
819.6454
 20
199.4137
 10
819.6454
 20
201.6779
 10
817.2948
 20
201.6779
 10
817.2948
 20
187.4772
 10
819.6454
 20
187.4772
 10
819.6454
 20
194.7441
 10
819.6997
 20
195.1677
 10
819.7709
 20
195.5747
 10
819.8589
 20
195.9652
 10
819.9638
 20
196.3395
 10
820.0854
 20
196.6977
 10
820.2238
 20
197.0398
 10
820.379
 20
197.366
 10
820.551
 20
197.6765
 10
820.6912
 20
197.8973
 10
820.8428
 20
198.108
 10
821.006
 20
198.3087
 10
821.1807
 20
198.4992
 10
821.3669
 20
198.6797
 10
821.5647
 20
198.8502
 10
821.774
 20
199.0108
 10
821.9949
 20
199.1613
 10
822.2236
 20
199.2974
 10
822.4565
 20
199.4152
 10
822.6936
 20
199.515
 10
822.9348
 20
199.5965
 10
823.1802
 20
199.6599
 10
823.4299
 20
199.7052
 10
823.6837
 20
199.7324
 10
823.9418
 20
199.7414
 10
824.1936
 20
199.7366
 10
824.4286
 20
199.7223
 10
824.6469
 20
199.6984
 10
824.8483
 20
199.6649
 10
825.033
 20
199.6218
 10
825.2008
 20
199.5691
 10
825.3518
 20
199.5068
 10
825.486
 20
199.4349
 10
825.8245
 20
199.1943
 10
826.1179
 20
198.9125
 10
826.3661
 20
198.5893
 10
826.5691
 20
198.2248
 10
826.727
 20
197.8189
 10
826.8397
 20
197.3717
 10
826.9074
 20
196.883
 10
826.9299
 20
196.3529
 10
826.9299
 20
187.4772
 10
829.2794
 20
187.4772
 10
829.2794
 20
196.3529
 10
829.2628
 20
196.8959
 10
829.3497
 20
197.1018
 10
829.443
 20
197.3001
 10
829.5428
 20
197.4914
 10
829.6489
 20
197.6765
 10
829.7888
 20
197.8973
 10
829.9403
 20
198.108
 10
830.1034
 20
198.3087
 10
830.2781
 20
198.4992
 10
830.4643
 20
198.6797
 10
830.662
 20
198.8502
 10
830.8711
 20
199.0108
 10
831.0917
 20
199.1613
 10
831.3205
 20
199.2974
 10
831.5535
 20
199.4152
 10
831.7907
 20
199.515
 10
832.0321
 20
199.5965
 10
832.2777
 20
199.6599
 10
832.5275
 20
199.7052
 10
832.7815
 20
199.7324
 10
833.0396
 20
199.7414
 10
833.2914
 20
199.7366
 10
833.5263
 20
199.7223
 10
833.7444
 20
199.6984
 10
833.9457
 20
199.6649
 10
834.1301
 20
199.6218
 10
834.2978
 20
199.5691
 10
834.4487
 20
199.5068
 10
834.5828
 20
199.4349
 10
834.9213
 20
199.1943
 10
835.2147
 20
198.9125
 10
835.4629
 20
198.5893
 10
835.6659
 20
198.2248
 10
835.8238
 20
197.8189
 10
835.9365
 20
197.3717
 10
836.0042
 20
196.883
 10
836.0267
 20
196.3529
 10
836.0267
 20
187.4772
  0
LWPOLYLINE
  5
7F
330
1F
100
AcDbEntity
  8
Layer 1
 62
     7
100
AcDbPolyline
 90
        4
 70
     1
 43
0.0
 10
748.1109
 20
153.2118
 10
748.1109
 20
140.5266
 10
739.3825
 20
140.5266
 10
748.1109
 20
153.2118
  0
LWPOLYLINE
  5
80
330
1F
100
AcDbEntity
  8
Layer 1
 62
     7
100
AcDbPolyline
 90
       11
 70
     1
 43
0.0
 10
750.5607
 20
138.2029
 10
753.4485
 20
138.2029
 10
753.4485
 20
140.5266
 10
750.5607
 20
140.5266
 10
750.5276
 20
155.6638
 10
747.2384
 20
155.6638
 10
735.2196
 20
138.2029
 10
748.1109
 20
138.2029
 10
748.1109
 20
133.7168
 10
750.5607
 20
133.7168
 10
750.5607
 20
138.2029
  0
LWPOLYLINE
  5
81
330
1F
100
AcDbEntity
  8
Layer 1
 62
     7
100
AcDbPolyline
 90
      129
 70
     1
 43
0.0
 10
766.2548
 20
153.1142
 10
766.6425
 20
152.8612
 10
767.0039
 20
152.5738
 10
767.3391
 20
152.252
 10
767.648
 20
151.8959
 10
767.9306
 20
151.5055
 10
768.1869
 20
151.0809
 10
768.417
 20
150.622
 10
768.6208
 20
150.1288
 10
768.8492
 20
149.4745
 10
769.0471
 20
148.8106
 10
769.2145
 20
148.1371
 10
769.3514
 20
147.454
 10
769.4579
 20
146.7612
 10
769.534
 20
146.0589
 10
769.5796
 20
145.347
 10
769.5948
 20
144.6256
 10
769.5932
 20
144.4524
 10
769.5884
 20
144.2716
 10
769.5805
 20
144.0833
 10
769.5694
 20
143.8875
 10
769.5553
 20
143.684
 10
769.5381
 20
143.473
 10
769.5178
 20
143.2545
 10
769.4945
 20
143.0284
 10
769.3778
 20
142.1607
 10
769.2256
 20
141.3409
 10
769.0377
 20
140.5691
 10
768.8143
 20
139.8452
 10
768.5552
 20
139.1692
 10
768.2605
 20
138.5411
 10
767.9301
 20
137.9609
 10
767.5641
 20
137.4287
 10
767.23
 20
137.0275
 10
766.8781
 20
136.68
 10
766.5083
 20
136.3859
 10
766.1206
 20
136.1454
 10
765.7151
 20
135.9584
 10
765.2918
 20
135.8248
 10
764.8507
 20
135.7447
 10
764.3918
 20
135.718
 10
763.8796
 20
135.7445
 10
763.392
 20
135.8238
 10
762.9291
 20
135.9561
 10
762.4908
 20
136.1414
 10
762.0772
 20
136.3797
 10
761.6883
 20
136.671
 10
761.324
 20
137.0154
 10
760.9845
 20
137.4128
 10
760.8408
 20
137.6052
 10
760.7034
 20
137.8037
 10
760.5723
 20
138.0084
 10
760.4474
 20
138.2192
 10
760.3288
 20
138.4361
 10
760.2165
 20
138.6591
 10
760.1104
 20
138.8882
 10
760.0105
 20
139.1234
 10
759.917
 20
139.362
 10
759.8292
 20
139.6023
 10
759.7471
 20
139.844
 10
759.6708
 20
140.0874
 10
759.6002
 20
140.3322
 10
759.5355
 20
140.5786
 10
759.4767
 20
140.8265
 10
759.4237
 20
141.0759
 10
759.3751
 20
141.325
 10
759.3302
 20
141.5721
 10
759.289
 20
141.8171
 10
759.2515
 20
142.0601
 10
759.2176
 20
142.3011
 10
759.1874
 20
142.5402
 10
759.1609
 20
142.7773
 10
759.138
 20
143.0125
 10
759.1182
 20
143.2509
 10
759.1012
 20
143.4984
 10
759.0867
 20
143.7549
 10
759.075
 20
144.0203
 10
759.0659
 20
144.2946
 10
759.0594
 20
144.5776
 10
759.0555
 20
144.8693
 10
759.0542
 20
145.1697
 10
759.06
 20
145.4834
 10
759.0773
 20
145.8152
 10
759.1062
 20
146.1653
 10
759.1467
 20
146.5338
 10
759.1987
 20
146.9206
 10
759.2622
 20
147.3259
 10
759.3372
 20
147.7497
 10
759.4237
 20
148.1922
 10
759.4764
 20
148.4381
 10
759.5345
 20
148.6836
 10
759.5979
 20
148.9285
 10
759.6666
 20
149.1728
 10
759.7406
 20
149.4167
 10
759.8198
 20
149.6599
 10
759.9043
 20
149.9026
 10
759.9939
 20
150.1447
 10
760.0896
 20
150.3839
 10
760.1921
 20
150.617
 10
760.3014
 20
150.844
 10
760.4175
 20
151.065
 10
760.5405
 20
151.2799
 10
760.6703
 20
151.4888
 10
760.8069
 20
151.6915
 10
760.9503
 20
151.8882
 10
761.1009
 20
152.0771
 10
761.2589
 20
152.2563
 10
761.4242
 20
152.4259
 10
761.597
 20
152.5859
 10
761.7771
 20
152.7363
 10
761.9645
 20
152.8771
 10
762.1591
 20
153.0084
 10
762.3611
 20
153.1301
 10
762.5714
 20
153.2401
 10
762.7911
 20
153.3354
 10
763.0202
 20
153.4159
 10
763.2588
 20
153.4818
 10
763.5069
 20
153.5331
 10
763.7644
 20
153.5697
 10
764.0314
 20
153.5916
 10
764.3079
 20
153.5989
 10
764.5841
 20
153.5913
 10
764.851
 20
153.5687
 10
765.1085
 20
153.5308
 10
765.3567
 20
153.4779
 10
765.5954
 20
153.4097
 10
765.8247
 20
153.3264
 10
766.0445
 20
153.2279
 10
766.2548
 20
153.1142
  0
LWPOLYLINE
  5
82
330
1F
100
AcDbEntity
  8
Layer 1
 62
     7
100
AcDbPolyline
 90
       65
 70
     1
 43
0.0
 10
764.4249
 20
133.4262
 10
765.405
 20
133.486
 10
766.3227
 20
133.6652
 10
767.1779
 20
133.964
 10
767.9707
 20
134.3823
 10
768.7012
 20
134.9201
 10
769.3692
 20
135.5774
 10
769.9748
 20
136.3542
 10
770.5181
 20
137.2505
 10
770.8997
 20
138.033
 10
771.2304
 20
138.8587
 10
771.5102
 20
139.7277
 10
771.7392
 20
140.6401
 10
771.9172
 20
141.5957
 10
772.0444
 20
142.5948
 10
772.1208
 20
143.6373
 10
772.1462
 20
144.7232
 10
772.1208
 20
145.8088
 10
772.0444
 20
146.8511
 10
771.9172
 20
147.8501
 10
771.7392
 20
148.8058
 10
771.5102
 20
149.7181
 10
771.2304
 20
150.587
 10
770.8997
 20
151.4126
 10
770.5181
 20
152.1947
 10
769.9748
 20
153.091
 10
769.3692
 20
153.8679
 10
768.7012
 20
154.5252
 10
767.9707
 20
155.063
 10
767.1779
 20
155.4813
 10
766.3227
 20
155.7801
 10
765.405
 20
155.9593
 10
764.4249
 20
156.0191
 10
763.4448
 20
155.9593
 10
762.5271
 20
155.7801
 10
761.6719
 20
155.4813
 10
760.8791
 20
155.063
 10
760.1488
 20
154.5252
 10
759.481
 20
153.8679
 10
758.8757
 20
153.091
 10
758.3328
 20
152.1947
 10
757.9512
 20
151.4126
 10
757.6205
 20
150.587
 10
757.3407
 20
149.7181
 10
757.1117
 20
148.8058
 10
756.9337
 20
147.8501
 10
756.8065
 20
146.8511
 10
756.7301
 20
145.8088
 10
756.7047
 20
144.7232
 10
756.7301
 20
143.6373
 10
756.8065
 20
142.5948
 10
756.9337
 20
141.5957
 10
757.1117
 20
140.6401
 10
757.3407
 20
139.7277
 10
757.6205
 20
138.8587
 10
757.9512
 20
138.033
 10
758.3328
 20
137.2505
 10
758.8757
 20
136.3542
 10
759.481
 20
135.5774
 10
760.1488
 20
134.9201
 10
760.8791
 20
134.3823
 10
761.6719
 20
133.964
 10
762.5271
 20
133.6652
 10
763.4448
 20
133.486
 10
764.4249
 20
133.4262
  0
LWPOLYLINE
  5
83
330
1F
100
AcDbEntity
  8
Layer 1
 62
     7
100
AcDbPolyline
 90
      129
 70
     1
 43
0.0
 10
785.0529
 20
153.1142
 10
785.4406
 20
152.8612
 10
785.802
 20
152.5738
 10
786.1371
 20
152.252
 10
786.446
 20
151.8959
 10
786.7286
 20
151.5055
 10
786.985
 20
151.0809
 10
787.2151
 20
150.622
 10
787.4189
 20
150.1288
 10
787.6473
 20
149.4745
 10
787.8452
 20
148.8106
 10
788.0126
 20
148.1371
 10
788.1495
 20
147.454
 10
788.256
 20
146.7612
 10
788.3321
 20
146.0589
 10
788.3777
 20
145.347
 10
788.3929
 20
144.6256
 10
788.3913
 20
144.4524
 10
788.3865
 20
144.2716
 10
788.3786
 20
144.0833
 10
788.3675
 20
143.8875
 10
788.3534
 20
143.684
 10
788.3361
 20
143.473
 10
788.3158
 20
143.2545
 10
788.2925
 20
143.0284
 10
788.1759
 20
142.1607
 10
788.0236
 20
141.3409
 10
787.8358
 20
140.5691
 10
787.6124
 20
139.8452
 10
787.3533
 20
139.1692
 10
787.0586
 20
138.5411
 10
786.7282
 20
137.9609
 10
786.3622
 20
137.4287
 10
786.0281
 20
137.0275
 10
785.6762
 20
136.68
 10
785.3064
 20
136.3859
 10
784.9187
 20
136.1454
 10
784.5132
 20
135.9584
 10
784.0899
 20
135.8248
 10
783.6488
 20
135.7447
 10
783.1898
 20
135.718
 10
782.6776
 20
135.7445
 10
782.1901
 20
135.8238
 10
781.7271
 20
135.9561
 10
781.2889
 20
136.1414
 10
780.8752
 20
136.3797
 10
780.4863
 20
136.671
 10
780.122
 20
137.0154
 10
779.7825
 20
137.4128
 10
779.6388
 20
137.6052
 10
779.5015
 20
137.8037
 10
779.3704
 20
138.0084
 10
779.2455
 20
138.2192
 10
779.1269
 20
138.4361
 10
779.0146
 20
138.6591
 10
778.9084
 20
138.8882
 10
778.8085
 20
139.1234
 10
778.715
 20
139.362
 10
778.6272
 20
139.6023
 10
778.5451
 20
139.844
 10
778.4688
 20
140.0874
 10
778.3983
 20
140.3322
 10
778.3336
 20
140.5786
 10
778.2747
 20
140.8265
 10
778.2217
 20
141.0759
 10
778.1731
 20
141.325
 10
778.1282
 20
141.5721
 10
778.087
 20
141.8171
 10
778.0495
 20
142.0601
 10
778.0157
 20
142.3011
 10
777.9855
 20
142.5402
 10
777.9589
 20
142.7773
 10
777.936
 20
143.0125
 10
777.9163
 20
143.2509
 10
777.8992
 20
143.4984
 10
777.8848
 20
143.7549
 10
777.873
 20
144.0203
 10
777.8639
 20
144.2946
 10
777.8574
 20
144.5776
 10
777.8535
 20
144.8693
 10
777.8522
 20
145.1697
 10
777.858
 20
145.4834
 10
777.8753
 20
145.8152
 10
777.9042
 20
146.1653
 10
777.9447
 20
146.5338
 10
777.9967
 20
146.9206
 10
778.0602
 20
147.3259
 10
778.1352
 20
147.7497
 10
778.2217
 20
148.1922
 10
778.2744
 20
148.4381
 10
778.3325
 20
148.6836
 10
778.396
 20
148.9285
 10
778.4647
 20
149.1728
 10
778.5386
 20
149.4167
 10
778.6179
 20
149.6599
 10
778.7023
 20
149.9026
 10
778.792
 20
150.1447
 10
778.8877
 20
150.3839
 10
778.9901
 20
150.617
 10
779.0995
 20
150.844
 10
779.2156
 20
151.065
 10
779.3385
 20
151.2799
 10
779.4683
 20
151.4888
 10
779.6049
 20
151.6915
 10
779.7483
 20
151.8882
 10
779.8989
 20
152.0771
 10
780.0569
 20
152.2563
 10
780.2222
 20
152.4259
 10
780.395
 20
152.5859
 10
780.5751
 20
152.7363
 10
780.7625
 20
152.8771
 10
780.9571
 20
153.0084
 10
781.1591
 20
153.1301
 10
781.3694
 20
153.2401
 10
781.5891
 20
153.3354
 10
781.8182
 20
153.4159
 10
782.0568
 20
153.4818
 10
782.3049
 20
153.5331
 10
782.5624
 20
153.5697
 10
782.8295
 20
153.5916
 10
783.106
 20
153.5989
 10
783.3822
 20
153.5913
 10
783.6491
 20
153.5687
 10
783.9066
 20
153.5308
 10
784.1548
 20
153.4779
 10
784.3935
 20
153.4097
 10
784.6228
 20
153.3264
 10
784.8426
 20
153.2279
 10
785.0529
 20
153.1142
  0
LWPOLYLINE
  5
84
330
1F
100
AcDbEntity
  8
Layer 1
 62
     7
100
AcDbPolyline
 90
       65
 70
     1
 43
0.0
 10
783.2229
 20
133.4262
 10
784.203
 20
133.486
 10
785.1207
 20
133.6652
 10
785.976
 20
133.964
 10
786.7688
 20
134.3823
 10
787.4992
 20
134.9201
 10
788.1672
 20
135.5774
 10
788.7729
 20
136.3542
 10
789.3161
 20
137.2505
 10
789.6977
 20
138.033
 10
790.0284
 20
138.8587
 10
790.3082
 20
139.7277
 10
790.5372
 20
140.6401
 10
790.7152
 20
141.5957
 10
790.8424
 20
142.5948
 10
790.9188
 20
143.6373
 10
790.9442
 20
144.7232
 10
790.9188
 20
145.8088
 10
790.8424
 20
146.8511
 10
790.7152
 20
147.8501
 10
790.5372
 20
148.8058
 10
790.3082
 20
149.7181
 10
790.0284
 20
150.587
 10
789.6977
 20
151.4126
 10
789.3161
 20
152.1947
 10
788.7729
 20
153.091
 10
788.1672
 20
153.8679
 10
787.4992
 20
154.5252
 10
786.7688
 20
155.063
 10
785.976
 20
155.4813
 10
785.1207
 20
155.7801
 10
784.203
 20
155.9593
 10
783.2229
 20
156.0191
 10
782.2428
 20
155.9593
 10
781.3251
 20
155.7801
 10
780.4699
 20
155.4813
 10
779.6772
 20
155.063
 10
778.9469
 20
154.5252
 10
778.2791
 20
153.8679
 10
777.6737
 20
153.091
 10
777.1308
 20
152.1947
 10
776.7492
 20
151.4126
 10
776.4185
 20
150.587
 10
776.1387
 20
149.7181
 10
775.9097
 20
148.8058
 10
775.7317
 20
147.8501
 10
775.6045
 20
146.8511
 10
775.5281
 20
145.8088
 10
775.5027
 20
144.7232
 10
775.5281
 20
143.6373
 10
775.6045
 20
142.5948
 10
775.7317
 20
141.5957
 10
775.9097
 20
140.6401
 10
776.1387
 20
139.7277
 10
776.4185
 20
138.8587
 10
776.7492
 20
138.033
 10
777.1308
 20
137.2505
 10
777.6737
 20
136.3542
 10
778.2791
 20
135.5774
 10
778.9469
 20
134.9201
 10
779.6772
 20
134.3823
 10
780.4699
 20
133.964
 10
781.3251
 20
133.6652
 10
782.2428
 20
133.486
 10
783.2229
 20
133.4262
  0
LWPOLYLINE
  5
85
330
1F
100
AcDbEntity
  8
Layer 1
 62
     7
100
AcDbPolyline
 90
      165
 70
     1
 43
0.0
 10
813.871
 20
133.7815
 10
816.2205
 20
133.7815
 10
816.2205
 20
142.6572
 10
816.2014
 20
143.2466
 10
816.144
 20
143.8082
 10
816.0483
 20
144.342
 10
815.9144
 20
144.8481
 10
815.7422
 20
145.3264
 10
815.5317
 20
145.7769
 10
815.283
 20
146.1998
 10
814.9961
 20
146.595
 10
814.8356
 20
146.7839
 10
814.6653
 20
146.9631
 10
814.4851
 20
147.1327
 10
814.295
 20
147.2927
 10
814.0948
 20
147.4431
 10
813.8847
 20
147.5839
 10
813.6645
 20
147.7152
 10
813.4342
 20
147.8369
 10
813.1898
 20
147.9469
 10
812.9266
 20
148.0422
 10
812.6445
 20
148.1227
 10
812.3435
 20
148.1886
 10
812.0236
 20
148.2399
 10
811.6848
 20
148.2765
 10
811.3269
 20
148.2984
 10
810.9501
 20
148.3057
 10
810.5702
 20
148.2931
 10
810.2024
 20
148.2552
 10
809.8467
 20
148.1921
 10
809.5031
 20
148.1038
 10
809.1715
 20
147.9903
 10
808.8519
 20
147.8516
 10
808.5443
 20
147.6877
 10
808.2488
 20
147.4986
 10
807.9923
 20
147.3099
 10
807.7472
 20
147.1072
 10
807.5137
 20
146.8907
 10
807.2917
 20
146.6605
 10
807.0812
 20
146.4167
 10
806.8823
 20
146.1593
 10
806.695
 20
145.8886
 10
806.5192
 20
145.6045
 10
806.3829
 20
145.8668
 10
806.2339
 20
146.12
 10
806.0723
 20
146.3631
 10
805.8982
 20
146.595
 10
805.7381
 20
146.7839
 10
805.5679
 20
146.9631
 10
805.3877
 20
147.1327
 10
805.1976
 20
147.2927
 10
804.9975
 20
147.4431
 10
804.7874
 20
147.5839
 10
804.5674
 20
147.7152
 10
804.3374
 20
147.8369
 10
804.093
 20
147.9469
 10
803.8296
 20
148.0422
 10
803.5474
 20
148.1227
 10
803.2463
 20
148.1886
 10
802.9264
 20
148.2399
 10
802.5875
 20
148.2765
 10
802.2298
 20
148.2984
 10
801.8533
 20
148.3057
 10
801.4734
 20
148.2931
 10
801.1055
 20
148.2552
 10
800.7496
 20
148.1921
 10
800.4057
 20
148.1038
 10
800.0739
 20
147.9903
 10
799.7542
 20
147.8516
 10
799.4465
 20
147.6877
 10
799.1509
 20
147.4986
 10
798.9066
 20
147.3191
 10
798.6728
 20
147.1275
 10
798.4493
 20
146.9235
 10
798.2363
 20
146.7073
 10
798.0338
 20
146.4787
 10
797.8419
 20
146.2376
 10
797.6605
 20
145.9841
 10
797.4897
 20
145.718
 10
797.4897
 20
147.9822
 10
795.1391
 20
147.9822
 10
795.1391
 20
133.7815
 10
797.4897
 20
133.7815
 10
797.4897
 20
141.0483
 10
797.544
 20
141.4719
 10
797.6152
 20
141.8789
 10
797.7032
 20
142.2695
 10
797.8081
 20
142.6438
 10
797.9297
 20
143.002
 10
798.0681
 20
143.3441
 10
798.2233
 20
143.6703
 10
798.3953
 20
143.9808
 10
798.5355
 20
144.2016
 10
798.6871
 20
144.4123
 10
798.8503
 20
144.613
 10
799.025
 20
144.8035
 10
799.2112
 20
144.984
 10
799.409
 20
145.1545
 10
799.6183
 20
145.315
 10
799.8392
 20
145.4655
 10
800.0679
 20
145.6016
 10
800.3008
 20
145.7195
 10
800.5378
 20
145.8192
 10
800.7791
 20
145.9008
 10
801.0245
 20
145.9642
 10
801.2741
 20
146.0095
 10
801.5279
 20
146.0366
 10
801.786
 20
146.0457
 10
802.0378
 20
146.0409
 10
802.2728
 20
146.0266
 10
802.4911
 20
146.0027
 10
802.6926
 20
145.9692
 10
802.8773
 20
145.9261
 10
803.0451
 20
145.8734
 10
803.1961
 20
145.8111
 10
803.3303
 20
145.7392
 10
803.6688
 20
145.4986
 10
803.9621
 20
145.2168
 10
804.2103
 20
144.8936
 10
804.4133
 20
144.5291
 10
804.5712
 20
144.1232
 10
804.684
 20
143.676
 10
804.7517
 20
143.1873
 10
804.7742
 20
142.6572
 10
804.7742
 20
133.7815
 10
807.1237
 20
133.7815
 10
807.1237
 20
142.6572
 10
807.1071
 20
143.2002
 10
807.194
 20
143.4061
 10
807.2873
 20
143.6044
 10
807.3871
 20
143.7957
 10
807.4932
 20
143.9808
 10
807.6331
 20
144.2016
 10
807.7846
 20
144.4123
 10
807.9477
 20
144.613
 10
808.1224
 20
144.8035
 10
808.3086
 20
144.984
 10
808.5063
 20
145.1545
 10
808.7154
 20
145.315
 10
808.936
 20
145.4655
 10
809.1648
 20
145.6016
 10
809.3978
 20
145.7195
 10
809.635
 20
145.8192
 10
809.8764
 20
145.9008
 10
810.122
 20
145.9642
 10
810.3718
 20
146.0095
 10
810.6258
 20
146.0366
 10
810.8839
 20
146.0457
 10
811.1357
 20
146.0409
 10
811.3706
 20
146.0266
 10
811.5887
 20
146.0027
 10
811.7899
 20
145.9692
 10
811.9744
 20
145.9261
 10
812.1421
 20
145.8734
 10
812.293
 20
145.8111
 10
812.4271
 20
145.7392
 10
812.7656
 20
145.4986
 10
813.0589
 20
145.2168
 10
813.3071
 20
144.8936
 10
813.5101
 20
144.5291
 10
813.668
 20
144.1232
 10
813.7808
 20
143.676
 10
813.8485
 20
143.1873
 10
813.871
 20
142.6572
 10
813.871
 20
133.7815
  0
LWPOLYLINE
  5
86
330
1F
100
AcDbEntity
  8
Layer 1
 62
     7
100
AcDbPolyline
 90
      165
 70
     1
 43
0.0
 10
839.4836
 20
133.7815
 10
841.8331
 20
133.7815
 10
841.8331
 20
142.6572
 10
841.814
 20
143.2466
 10
841.7566
 20
143.8082
 10
841.6609
 20
144.342
 10
841.527
 20
144.8481
 10
841.3548
 20
145.3264
 10
841.1444
 20
145.7769
 10
840.8957
 20
146.1998
 10
840.6087
 20
146.595
 10
840.4483
 20
146.7839
 10
840.278
 20
146.9631
 10
840.0978
 20
147.1327
 10
839.9076
 20
147.2927
 10
839.7075
 20
147.4431
 10
839.4973
 20
147.5839
 10
839.2771
 20
147.7152
 10
839.0468
 20
147.8369
 10
838.8024
 20
147.9469
 10
838.5392
 20
148.0422
 10
838.2572
 20
148.1227
 10
837.9562
 20
148.1886
 10
837.6363
 20
148.2399
 10
837.2974
 20
148.2765
 10
836.9396
 20
148.2984
 10
836.5628
 20
148.3057
 10
836.1829
 20
148.2931
 10
835.8151
 20
148.2552
 10
835.4594
 20
148.1921
 10
835.1157
 20
148.1038
 10
834.7841
 20
147.9903
 10
834.4645
 20
147.8516
 10
834.1569
 20
147.6877
 10
833.8614
 20
147.4986
 10
833.6049
 20
147.3099
 10
833.3599
 20
147.1072
 10
833.1264
 20
146.8907
 10
832.9044
 20
146.6605
 10
832.6939
 20
146.4167
 10
832.495
 20
146.1593
 10
832.3076
 20
145.8886
 10
832.1318
 20
145.6045
 10
831.9956
 20
145.8668
 10
831.8466
 20
146.12
 10
831.685
 20
146.3631
 10
831.5108
 20
146.595
 10
831.3507
 20
146.7839
 10
831.1806
 20
146.9631
 10
831.0004
 20
147.1327
 10
830.8103
 20
147.2927
 10
830.6102
 20
147.4431
 10
830.4001
 20
147.5839
 10
830.18
 20
147.7152
 10
829.95
 20
147.8369
 10
829.7056
 20
147.9469
 10
829.4423
 20
148.0422
 10
829.1601
 20
148.1227
 10
828.859
 20
148.1886
 10
828.539
 20
148.2399
 10
828.2002
 20
148.2765
 10
827.8425
 20
148.2984
 10
827.466
 20
148.3057
 10
827.0861
 20
148.2931
 10
826.7181
 20
148.2552
 10
826.3622
 20
148.1921
 10
826.0183
 20
148.1038
 10
825.6865
 20
147.9903
 10
825.3668
 20
147.8516
 10
825.0591
 20
147.6877
 10
824.7635
 20
147.4986
 10
824.5193
 20
147.3191
 10
824.2854
 20
147.1275
 10
824.062
 20
146.9235
 10
823.849
 20
146.7073
 10
823.6465
 20
146.4787
 10
823.4545
 20
146.2376
 10
823.2731
 20
145.9841
 10
823.1023
 20
145.718
 10
823.1023
 20
147.9822
 10
820.7518
 20
147.9822
 10
820.7518
 20
133.7815
 10
823.1023
 20
133.7815
 10
823.1023
 20
141.0483
 10
823.1567
 20
141.4719
 10
823.2279
 20
141.8789
 10
823.3159
 20
142.2695
 10
823.4207
 20
142.6438
 10
823.5423
 20
143.002
 10
823.6807
 20
143.3441
 10
823.8359
 20
143.6703
 10
824.0079
 20
143.9808
 10
824.1481
 20
144.2016
 10
824.2997
 20
144.4123
 10
824.4629
 20
144.613
 10
824.6376
 20
144.8035
 10
824.8238
 20
144.984
 10
825.0216
 20
145.1545
 10
825.2309
 20
145.315
 10
825.4518
 20
145.4655
 10
825.6806
 20
145.6016
 10
825.9135
 20
145.7195
 10
826.1505
 20
145.8192
 10
826.3918
 20
145.9008
 10
826.6372
 20
145.9642
 10
826.8868
 20
146.0095
 10
827.1406
 20
146.0366
 10
827.3987
 20
146.0457
 10
827.6505
 20
146.0409
 10
827.8855
 20
146.0266
 10
828.1038
 20
146.0027
 10
828.3052
 20
145.9692
 10
828.4899
 20
145.9261
 10
828.6577
 20
145.8734
 10
828.8087
 20
145.8111
 10
828.9429
 20
145.7392
 10
829.2814
 20
145.4986
 10
829.5748
 20
145.2168
 10
829.823
 20
144.8936
 10
830.026
 20
144.5291
 10
830.1839
 20
144.1232
 10
830.2966
 20
143.676
 10
830.3643
 20
143.1873
 10
830.3868
 20
142.6572
 10
830.3868
 20
133.7815
 10
832.7363
 20
133.7815
 10
832.7363
 20
142.6572
 10
832.7198
 20
143.2002
 10
832.8066
 20
143.4061
 10
832.9
 20
143.6044
 10
832.9997
 20
143.7957
 10
833.1058
 20
143.9808
 10
833.2457
 20
144.2016
 10
833.3972
 20
144.4123
 10
833.5603
 20
144.613
 10
833.735
 20
144.8035
 10
833.9212
 20
144.984
 10
834.1189
 20
145.1545
 10
834.328
 20
145.315
 10
834.5486
 20
145.4655
 10
834.7774
 20
145.6016
 10
835.0104
 20
145.7195
 10
835.2477
 20
145.8192
 10
835.4891
 20
145.9008
 10
835.7347
 20
145.9642
 10
835.9845
 20
146.0095
 10
836.2385
 20
146.0366
 10
836.4966
 20
146.0457
 10
836.7483
 20
146.0409
 10
836.9833
 20
146.0266
 10
837.2013
 20
146.0027
 10
837.4026
 20
145.9692
 10
837.587
 20
145.9261
 10
837.7547
 20
145.8734
 10
837.9056
 20
145.8111
 10
838.0397
 20
145.7392
 10
838.3782
 20
145.4986
 10
838.6716
 20
145.2168
 10
838.9198
 20
144.8936
 10
839.1228
 20
144.5291
 10
839.2807
 20
144.1232
 10
839.3934
 20
143.676
 10
839.4611
 20
143.1873
 10
839.4836
 20
142.6572
 10
839.4836
 20
133.7815
  0
ENDSEC
  0
SECTION
  2
OBJECTS
  0
DICTIONARY
  5
C
330
0
100
AcDbDictionary
281
     1
  3
ACAD_DETAILVIEWSTYLE
350
8E
  3
ACAD_GROUP
350
D
  3
ACAD_LAYOUT
350
1A
  3
ACAD_MATERIAL
350
43
  3
ACAD_MLEADERSTYLE
350
5B
  3
ACAD_MLINESTYLE
350
17
  3
ACAD_PLOTSETTINGS
350
19
  3
ACAD_PLOTSTYLENAME
350
E
  3
ACAD_SCALELIST
350
47
  3
ACAD_SECTIONVIEWSTYLE
350
8F
  3
ACAD_TABLESTYLE
350
59
  3
ACAD_VISUALSTYLE
350
2A
  3
ACDB_RECOMPOSE_DATA
350
8B
  3
AcDbVariableDictionary
350
87
  0
SUN
  5
5D
330
29
100
AcDbSun
 90
        1
290
     0
 63
     7
421
 16777215
 40
1.0
291
     1
 91
  2455826
 92
 54000000
292
     0
 70
     2
 71
   256
280
     1
  0
DICTIONARY
  5
8E
102
{ACAD_REACTORS
330
C
102
}
330
C
100
AcDbDictionary
281
     1
  0
DICTIONARY
  5
D
102
{ACAD_REACTORS
330
C
102
}
330
C
100
AcDbDictionary
281
     1
  0
DICTIONARY
  5
1A
102
{ACAD_REACTORS
330
C
102
}
330
C
100
AcDbDictionary
281
     1
  3
Layout1
350
1E
  3
Layout2
350
26
  3
Model
350
22
  0
DICTIONARY
  5
43
102
{ACAD_REACTORS
330
C
102
}
330
C
100
AcDbDictionary
281
     1
  3
ByBlock
350
45
  3
ByLayer
350
44
  3
Global
350
46
  0
DICTIONARY
  5
5B
102
{ACAD_REACTORS
330
C
102
}
330
C
100
AcDbDictionary
281
     1
  3
Standard
350
5C
  0
DICTIONARY
  5
17
102
{ACAD_REACTORS
330
C
102
}
330
C
100
AcDbDictionary
281
     1
  3
Standard
350
18
  0
DICTIONARY
  5
19
102
{ACAD_REACTORS
330
C
102
}
330
C
100
AcDbDictionary
281
     1
  0
ACDBDICTIONARYWDFLT
  5
E
102
{ACAD_REACTORS
330
C
102
}
330
C
100
AcDbDictionary
281
     1
  3
Normal
350
F
100
AcDbDictionaryWithDefault
340
F
  0
DICTIONARY
  5
47
102
{ACAD_REACTORS
330
C
102
}
330
C
100
AcDbDictionary
281
     1
  3
A0
350
48
  3
A1
350
49
  3
A2
350
4A
  3
A3
350
4B
  3
A4
350
4C
  3
A5
350
4D
  3
A6
350
4E
  3
A7
350
4F
  3
A8
350
50
  3
A9
350
51
  3
B1
350
52
  3
B2
350
53
  3
B3
350
54
  3
B4
350
55
  3
B5
350
56
  3
B6
350
57
  3
B7
350
58
  0
DICTIONARY
  5
8F
102
{ACAD_REACTORS
330
C
102
}
330
C
100
AcDbDictionary
281
     1
  0
DICTIONARY
  5
59
102
{ACAD_REACTORS
330
C
102
}
330
C
100
AcDbDictionary
281
     1
  3
Standard
350
5A
  0
DICTIONARY
  5
2A
102
{ACAD_REACTORS
330
C
102
}
330
C
100
AcDbDictionary
281
     1
  3
2dWireframe
350
2F
  3
Basic
350
32
  3
Brighten
350
36
  3
ColorChange
350
3A
  3
Conceptual
350
34
  3
Dim
350
35
  3
EdgeColorOff
350
3D
  3
Facepattern
350
39
  3
Flat
350
2B
  3
FlatWithEdges
350
2C
  3
Gouraud
350
2D
  3
GouraudWithEdges
350
2E
  3
Hidden
350
31
  3
JitterOff
350
3B
  3
Linepattern
350
38
  3
OverhangOff
350
3C
  3
Realistic
350
33
  3
Shaded
350
42
  3
Shaded with edges
350
41
  3
Shades of Gray
350
3E
  3
Sketchy
350
3F
  3
Thicken
350
37
  3
Wireframe
350
30
  3
X-Ray
350
40
  0
XRECORD
  5
8B
102
{ACAD_REACTORS
330
C
102
}
330
C
100
AcDbXrecord
280
     1
 90
        1
330
5A
  0
DICTIONARY
  5
87
102
{ACAD_REACTORS
330
C
102
}
330
C
100
AcDbDictionary
281
     1
  3
CANNOSCALE
350
88
  3
CMLEADERSTYLE
350
8D
  3
CTABLESTYLE
350
8C
  0
LAYOUT
  5
1E
102
{ACAD_REACTORS
330
1A
102
}
330
1A
100
AcDbPlotSettings
  1

  2
none_device
  4

  6

 40
0.0
 41
0.0
 42
0.0
 43
0.0
 44
0.0
 45
0.0
 46
0.0
 47
0.0
 48
0.0
 49
0.0
140
0.0
141
0.0
142
1.0
143
1.0
 70
   688
 72
     0
 73
     0
 74
     5
  7

 75
    16
 76
     0
 77
     2
 78
   300
147
1.0
148
0.0
149
0.0
100
AcDbLayout
  1
Layout1
 70
     1
 71
     1
 10
0.0
 20
0.0
 11
12.0
 21
9.0
 12
0.0
 22
0.0
 32
0.0
 14
1.000000000000000E+20
 24
1.000000000000000E+20
 34
1.000000000000000E+20
 15
-1.000000000000000E+20
 25
-1.000000000000000E+20
 35
-1.000000000000000E+20
146
0.0
 13
0.0
 23
0.0
 33
0.0
 16
1.0
 26
0.0
 36
0.0
 17
0.0
 27
1.0
 37
0.0
 76
     0
330
1B
  0
LAYOUT
  5
26
102
{ACAD_REACTORS
330
1A
102
}
330
1A
100
AcDbPlotSettings
  1

  2
none_device
  4

  6

 40
0.0
 41
0.0
 42
0.0
 43
0.0
 44
0.0
 45
0.0
 46
0.0
 47
0.0
 48
0.0
 49
0.0
140
0.0
141
0.0
142
1.0
143
1.0
 70
   688
 72
     0
 73
     0
 74
     5
  7

 75
    16
 76
     0
 77
     2
 78
   300
147
1.0
148
0.0
149
0.0
100
AcDbLayout
  1
Layout2
 70
     1
 71
     2
 10
0.0
 20
0.0
 11
0.0
 21
0.0
 12
0.0
 22
0.0
 32
0.0
 14
0.0
 24
0.0
 34
0.0
 15
0.0
 25
0.0
 35
0.0
146
0.0
 13
0.0
 23
0.0
 33
0.0
 16
1.0
 26
0.0
 36
0.0
 17
0.0
 27
1.0
 37
0.0
 76
     0
330
23
  0
LAYOUT
  5
22
102
{ACAD_REACTORS
330
1A
102
}
330
1A
100
AcDbPlotSettings
  1

  2
none_device
  4
Letter_(8.50_x_11.00_Inches)
  6

 40
6.35
 41
6.35
 42
6.35000508
 43
6.35000508
 44
215.9
 45
279.4
 46
0.0
 47
0.0
 48
0.0
 49
0.0
140
0.0
141
0.0
142
1.0
143
1.0
 70
  1712
 72
     0
 73
     0
 74
     0
  7

 75
     0
 76
     0
 77
     2
 78
   300
147
1.0
148
0.0
149
0.0
100
AcDbLayout
  1
Model
 70
     1
 71
     0
 10
0.0
 20
0.0
 11
12.0
 21
9.0
 12
0.0
 22
0.0
 32
0.0
 14
397.852
 24
-672.0016
 34
0.0
 15
1103.7022
 25
292.2929
 35
0.0
146
0.0
 13
0.0
 23
0.0
 33
0.0
 16
1.0
 26
0.0
 36
0.0
 17
0.0
 27
1.0
 37
0.0
 76
     0
330
1F
331
29
  0
MATERIAL
  5
45
102
{ACAD_REACTORS
330
43
102
}
330
43
100
AcDbMaterial
  1
ByBlock
 72
     1
 94
      127
  0
MATERIAL
  5
44
102
{ACAD_REACTORS
330
43
102
}
330
43
100
AcDbMaterial
  1
ByLayer
 72
     1
 94
      127
  0
MATERIAL
  5
46
102
{ACAD_REACTORS
330
43
102
}
330
43
100
AcDbMaterial
  1
Global
 72
     1
 94
      127
  0
MLEADERSTYLE
  5
5C
102
{ACAD_REACTORS
330
5B
102
}
330
5B
100
AcDbMLeaderStyle
179
     2
170
     2
171
     1
172
     0
 90
        2
 40
0.0
 41
0.0
173
     1
 91
-1056964608
340
14
 92
       -2
290
     1
 42
0.09
291
     1
 43
0.36
  3
Standard
341
0
 44
0.18
300

342
11
174
     1
178
     6
175
     1
176
     0
 93
-1056964608
 45
0.18
292
     0
297
     0
 46
0.18
343
0
 94
-1056964608
 47
1.0
 49
1.0
140
1.0
293
     1
141
0.0
294
     1
177
     0
142
1.0
295
     0
296
     0
143
0.125
271
     0
272
     9
273
     9
298
     0
  0
MLINESTYLE
  5
18
102
{ACAD_REACTORS
330
17
102
}
330
17
100
AcDbMlineStyle
  2
Standard
 70
     0
  3

 62
   256
 51
90.0
 52
90.0
 71
     2
 49
0.5
 62
   256
  6
BYLAYER
 49
-0.5
 62
   256
  6
BYLAYER
  0
ACDBPLACEHOLDER
  5
F
102
{ACAD_REACTORS
330
E
102
}
330
E
  0
SCALE
  5
48
102
{ACAD_REACTORS
330
47
102
}
330
47
100
AcDbScale
 70
     0
300
1:1
140
1.0
141
1.0
290
     1
  0
SCALE
  5
49
102
{ACAD_REACTORS
330
47
102
}
330
47
100
AcDbScale
 70
     0
300
1/128" = 1'-0"
140
0.0078125
141
12.0
290
     0
  0
SCALE
  5
4A
102
{ACAD_REACTORS
330
47
102
}
330
47
100
AcDbScale
 70
     0
300
1/64" = 1'-0"
140
0.015625
141
12.0
290
     0
  0
SCALE
  5
4B
102
{ACAD_REACTORS
330
47
102
}
330
47
100
AcDbScale
 70
     0
300
1/32" = 1'-0"
140
0.03125
141
12.0
290
     0
  0
SCALE
  5
4C
102
{ACAD_REACTORS
330
47
102
}
330
47
100
AcDbScale
 70
     0
300
1/16" = 1'-0"
140
0.0625
141
12.0
290
     0
  0
SCALE
  5
4D
102
{ACAD_REACTORS
330
47
102
}
330
47
100
AcDbScale
 70
     0
300
3/32" = 1'-0"
140
0.09375
141
12.0
290
     0
  0
SCALE
  5
4E
102
{ACAD_REACTORS
330
47
102
}
330
47
100
AcDbScale
 70
     0
300
1/8" = 1'-0"
140
0.125
141
12.0
290
     0
  0
SCALE
  5
4F
102
{ACAD_REACTORS
330
47
102
}
330
47
100
AcDbScale
 70
     0
300
3/16" = 1'-0"
140
0.1875
141
12.0
290
     0
  0
SCALE
  5
50
102
{ACAD_REACTORS
330
47
102
}
330
47
100
AcDbScale
 70
     0
300
1/4" = 1'-0"
140
0.25
141
12.0
290
     0
  0
SCALE
  5
51
102
{ACAD_REACTORS
330
47
102
}
330
47
100
AcDbScale
 70
     0
300
3/8" = 1'-0"
140
0.375
141
12.0
290
     0
  0
SCALE
  5
52
102
{ACAD_REACTORS
330
47
102
}
330
47
100
AcDbScale
 70
     0
300
1/2" = 1'-0"
140
0.5
141
12.0
290
     0
  0
SCALE
  5
53
102
{ACAD_REACTORS
330
47
102
}
330
47
100
AcDbScale
 70
     0
300
3/4" = 1'-0"
140
0.75
141
12.0
290
     0
  0
SCALE
  5
54
102
{ACAD_REACTORS
330
47
102
}
330
47
100
AcDbScale
 70
     0
300
1" = 1'-0"
140
1.0
141
12.0
290
     0
  0
SCALE
  5
55
102
{ACAD_REACTORS
330
47
102
}
330
47
100
AcDbScale
 70
     0
300
1-1/2" = 1'-0"
140
1.5
141
12.0
290
     0
  0
SCALE
  5
56
102
{ACAD_REACTORS
330
47
102
}
330
47
100
AcDbScale
 70
     0
300
3" = 1'-0"
140
3.0
141
12.0
290
     0
  0
SCALE
  5
57
102
{ACAD_REACTORS
330
47
102
}
330
47
100
AcDbScale
 70
     0
300
6" = 1'-0"
140
6.0
141
12.0
290
     0
  0
SCALE
  5
58
102
{ACAD_REACTORS
330
47
102
}
330
47
100
AcDbScale
 70
     0
300
1'-0" = 1'-0"
140
12.0
141
12.0
290
     0
  0
TABLESTYLE
  5
5A
102
{ACAD_REACTORS
330
59
102
}
102
{ACAD_XDICTIONARY
360
89
102
}
330
59
100
AcDbTableStyle
  3
Standard
 70
     0
 71
     0
 40
0.06
 41
0.06
280
     0
281
     0
  7
Standard
140
0.18
170
     2
 62
     0
 63
   257
283
     0
 90
        4
 91
        0
  1

274
    -2
284
     1
 64
     0
275
    -2
285
     1
 65
     0
276
    -2
286
     1
 66
     0
277
    -2
287
     1
 67
     0
278
    -2
288
     1
 68
     0
279
    -2
289
     1
 69
     0
  7
Standard
140
0.25
170
     5
 62
     0
 63
   257
283
     0
 90
        4
 91
        0
  1

274
    -2
284
     1
 64
     0
275
    -2
285
     1
 65
     0
276
    -2
286
     1
 66
     0
277
    -2
287
     1
 67
     0
278
    -2
288
     1
 68
     0
279
    -2
289
     1
 69
     0
  7
Standard
140
0.18
170
     5
 62
     0
 63
   257
283
     0
 90
        4
 91
        0
  1

274
    -2
284
     1
 64
     0
275
    -2
285
     1
 65
     0
276
    -2
286
     1
 66
     0
277
    -2
287
     1
 67
     0
278
    -2
288
     1
 68
     0
279
    -2
289
     1
 69
     0
  0
VISUALSTYLE
  5
2F
102
{ACAD_REACTORS
330
2A
102
}
330
2A
100
AcDbVisualStyle
  2
2dWireframe
 70
     4
177
     3
291
     0
 70
    58
 90
        0
176
     1
 90
        2
176
     1
 90
        0
176
     1
 90
        0
176
     1
 40
0.6
176
     1
 40
30.0
176
     1
 62
     7
420
 16777215
176
     1
 90
        1
176
     1
 90
        4
176
     1
 62
     7
176
     1
 62
   257
176
     1
 90
        1
176
     1
 90
        1
176
     1
 40
1.0
176
     1
 90
        0
176
     1
 62
   257
176
     1
 40
1.0
176
     1
 90
        1
176
     1
 90
        6
176
     1
 90
        2
176
     1
 62
     7
176
     1
 90
        5
176
     1
 90
        0
176
     1
 90
        0
176
     1
290
     0
176
     1
 90
        1
176
     1
 40
0.0
176
     1
 90
        0
176
     1
290
     1
176
     1
290
     1
176
     1
290
     0
176
     1
290
     0
176
     1
290
     0
176
     1
290
     0
176
     1
290
     0
176
     1
290
     0
176
     1
290
     0
176
     1
 90
       50
176
     1
 40
0.0
176
     1
 40
1.0
176
     1
 90
        0
176
     1
 62
    18
420
        0
176
     1
 90
       50
176
     1
 90
        3
176
     1
 62
     5
420
      255
176
     1
290
     0
176
     1
 90
       50
176
     1
 90
       50
176
     1
 90
       50
176
     1
290
     0
176
     1
 90
       50
176
     1
 62
   256
176
     0
 40
1.0
176
     0
 90
        2
176
     1
  1
strokes_ogs.tif
176
     1
290
     0
176
     1
 40
1.0
176
     1
 40
1.0
176
     1
  0
VISUALSTYLE
  5
32
102
{ACAD_REACTORS
330
2A
102
}
330
2A
100
AcDbVisualStyle
  2
Basic
 70
     7
177
     3
291
     1
 70
    58
 90
        1
176
     1
 90
        0
176
     1
 90
        1
176
     1
 90
        0
176
     1
 40
0.6
176
     1
 40
30.0
176
     1
 62
     7
420
 16777215
176
     1
 90
        0
176
     1
 90
        4
176
     1
 62
     7
176
     1
 62
   257
176
     1
 90
        1
176
     1
 90
        1
176
     1
 40
1.0
176
     1
 90
        8
176
     1
 62
     7
176
     1
 40
1.0
176
     1
 90
        1
176
     1
 90
        6
176
     1
 90
        2
176
     1
 62
     7
176
     1
 90
        5
176
     1
 90
        0
176
     1
 90
        0
176
     1
290
     0
176
     1
 90
        1
176
     1
 40
0.0
176
     1
 90
        0
176
     1
290
     0
176
     1
290
     1
176
     1
290
     1
176
     1
290
     0
176
     1
290
     0
176
     1
290
     0
176
     1
290
     0
176
     1
290
     0
176
     1
290
     0
176
     1
 90
       50
176
     1
 40
0.0
176
     1
 40
1.0
176
     1
 90
        0
176
     1
 62
    18
420
        0
176
     1
 90
       50
176
     1
 90
        3
176
     1
 62
     5
420
      255
176
     1
290
     0
176
     1
 90
       50
176
     1
 90
       50
176
     1
 90
       50
176
     1
290
     0
176
     1
 90
       50
176
     1
 62
   256
176
     0
 40
1.0
176
     0
 90
        2
176
     1
  1
strokes_ogs.tif
176
     1
290
     0
176
     1
 40
1.0
176
     1
 40
1.0
176
     1
  0
VISUALSTYLE
  5
36
102
{ACAD_REACTORS
330
2A
102
}
330
2A
100
AcDbVisualStyle
  2
Brighten
 70
    12
177
     3
291
     1
 70
    58
 90
        2
176
     1
 90
        2
176
     1
 90
        0
176
     1
 90
        0
176
     1
 40
0.6
176
     1
 40
30.0
176
     1
 62
     7
420
 16777215
176
     1
 90
        1
176
     1
 90
        4
176
     1
 62
     7
176
     1
 62
   257
176
     1
 90
        1
176
     1
 90
        1
176
     1
 40
1.0
176
     1
 90
        8
176
     1
 62
     7
176
     1
 40
1.0
176
     1
 90
        1
176
     1
 90
        6
176
     1
 90
        2
176
     1
 62
     7
176
     1
 90
        5
176
     1
 90
        0
176
     1
 90
        0
176
     1
290
     0
176
     1
 90
        1
176
     1
 40
50.0
176
     1
 90
        0
176
     1
290
     0
176
     1
290
     1
176
     1
290
     1
176
     1
290
     0
176
     1
290
     0
176
     1
290
     0
176
     1
290
     0
176
     1
290
     0
176
     1
290
     0
176
     1
 90
       50
176
     1
 40
0.0
176
     1
 40
1.0
176
     1
 90
        0
176
     1
 62
    18
420
        0
176
     1
 90
       50
176
     1
 90
        3
176
     1
 62
     5
420
      255
176
     1
290
     0
176
     1
 90
       50
176
     1
 90
       50
176
     1
 90
       50
176
     1
290
     0
176
     1
 90
       50
176
     1
 62
   256
176
     0
 40
1.0
176
     0
 90
        2
176
     1
  1
strokes_ogs.tif
176
     1
290
     0
176
     1
 40
1.0
176
     1
 40
1.0
176
     1
  0
VISUALSTYLE
  5
3A
102
{ACAD_REACTORS
330
2A
102
}
330
2A
100
AcDbVisualStyle
  2
ColorChange
 70
    16
177
     3
291
     1
 70
    58
 90
        2
176
     1
 90
        2
176
     1
 90
        3
176
     1
 90
        0
176
     1
 40
0.6
176
     1
 40
30.0
176
     1
 62
     8
420
  8421504
176
     1
 90
        1
176
     1
 90
        4
176
     1
 62
     7
176
     1
 62
   257
176
     1
 90
        1
176
     1
 90
        1
176
     1
 40
1.0
176
     1
 90
        8
176
     1
 62
     8
420
  8421504
176
     1
 40
1.0
176
     1
 90
        1
176
     1
 90
        6
176
     1
 90
        2
176
     1
 62
     7
176
     1
 90
        5
176
     1
 90
        0
176
     1
 90
        0
176
     1
290
     0
176
     1
 90
        1
176
     1
 40
0.0
176
     1
 90
        0
176
     1
290
     0
176
     1
290
     1
176
     1
290
     1
176
     1
290
     0
176
     1
290
     0
176
     1
290
     0
176
     1
290
     0
176
     1
290
     0
176
     1
290
     0
176
     1
 90
       50
176
     1
 40
0.0
176
     1
 40
1.0
176
     1
 90
        0
176
     1
 62
    18
420
        0
176
     1
 90
       50
176
     1
 90
        3
176
     1
 62
     5
420
      255
176
     1
290
     0
176
     1
 90
       50
176
     1
 90
       50
176
     1
 90
       50
176
     1
290
     0
176
     1
 90
       50
176
     1
 62
   256
176
     0
 40
1.0
176
     0
 90
        2
176
     1
  1
strokes_ogs.tif
176
     1
290
     0
176
     1
 40
1.0
176
     1
 40
1.0
176
     1
  0
VISUALSTYLE
  5
34
102
{ACAD_REACTORS
330
2A
102
}
330
2A
100
AcDbVisualStyle
  2
Conceptual
 70
     9
177
     3
291
     0
 70
    58
 90
        3
176
     1
 90
        2
176
     1
 90
        0
176
     1
 90
        0
176
     1
 40
0.6
176
     1
 40
30.0
176
     1
 62
     7
420
 16777215
176
     1
 90
        2
176
     1
 90
        2
176
     1
 62
     7
176
     1
 62
   257
176
     1
 90
        1
176
     1
 90
        1
176
     1
 40
179.0
176
     1
 90
        8
176
     1
 62
     7
176
     1
 40
1.0
176
     1
 90
        1
176
     1
 90
        6
176
     1
 90
        2
176
     1
 62
     7
176
     1
 90
        3
176
     1
 90
        0
176
     1
 90
        0
176
     1
290
     0
176
     1
 90
        1
176
     1
 40
0.0
176
     1
 90
        0
176
     1
290
     0
176
     1
290
     1
176
     1
290
     1
176
     1
290
     0
176
     1
290
     0
176
     1
290
     0
176
     1
290
     0
176
     1
290
     0
176
     1
290
     0
176
     1
 90
       50
176
     1
 40
0.0
176
     1
 40
1.0
176
     1
 90
        0
176
     1
 62
    18
420
        0
176
     1
 90
       50
176
     1
 90
        3
176
     1
 62
     5
420
      255
176
     1
290
     0
176
     1
 90
       50
176
     1
 90
       50
176
     1
 90
       50
176
     1
290
     0
176
     1
 90
       50
176
     1
 62
   256
176
     0
 40
1.0
176
     0
 90
        2
176
     1
  1
strokes_ogs.tif
176
     1
290
     0
176
     1
 40
1.0
176
     1
 40
1.0
176
     1
  0
VISUALSTYLE
  5
35
102
{ACAD_REACTORS
330
2A
102
}
330
2A
100
AcDbVisualStyle
  2
Dim
 70
    11
177
     3
291
     1
 70
    58
 90
        2
176
     1
 90
        2
176
     1
 90
        0
176
     1
 90
        0
176
     1
 40
0.6
176
     1
 40
30.0
176
     1
 62
     7
420
 16777215
176
     1
 90
        1
176
     1
 90
        4
176
     1
 62
     7
176
     1
 62
   257
176
     1
 90
        1
176
     1
 90
        1
176
     1
 40
1.0
176
     1
 90
        8
176
     1
 62
     7
176
     1
 40
1.0
176
     1
 90
        1
176
     1
 90
        6
176
     1
 90
        2
176
     1
 62
     7
176
     1
 90
        5
176
     1
 90
        0
176
     1
 90
        0
176
     1
290
     0
176
     1
 90
        1
176
     1
 40
-50.0
176
     1
 90
        0
176
     1
290
     0
176
     1
290
     1
176
     1
290
     1
176
     1
290
     0
176
     1
290
     0
176
     1
290
     0
176
     1
290
     0
176
     1
290
     0
176
     1
290
     0
176
     1
 90
       50
176
     1
 40
0.0
176
     1
 40
1.0
176
     1
 90
        0
176
     1
 62
    18
420
        0
176
     1
 90
       50
176
     1
 90
        3
176
     1
 62
     5
420
      255
176
     1
290
     0
176
     1
 90
       50
176
     1
 90
       50
176
     1
 90
       50
176
     1
290
     0
176
     1
 90
       50
176
     1
 62
   256
176
     0
 40
1.0
176
     0
 90
        2
176
     1
  1
strokes_ogs.tif
176
     1
290
     0
176
     1
 40
1.0
176
     1
 40
1.0
176
     1
  0
VISUALSTYLE
  5
3D
102
{ACAD_REACTORS
330
2A
102
}
330
2A
100
AcDbVisualStyle
  2
EdgeColorOff
 70
    22
177
     3
291
     1
 70
    58
 90
        2
176
     0
 90
        2
176
     0
 90
        0
176
     0
 90
        0
176
     0
 40
0.6
176
     0
 40
30.0
176
     0
 62
     7
420
 16777215
176
     0
 90
        1
176
     0
 90
        4
176
     0
 62
     7
176
     0
 62
   257
176
     0
 90
        1
176
     0
 90
        1
176
     0
 40
1.0
176
     0
 90
        8
176
     2
 62
     7
176
     0
 40
1.0
176
     0
 90
        1
176
     0
 90
        6
176
     0
 90
        2
176
     0
 62
     7
176
     0
 90
        5
176
     0
 90
        0
176
     0
 90
        0
176
     0
290
     0
176
     0
 90
        1
176
     0
 40
0.0
176
     0
 90
        0
176
     0
290
     0
176
     0
290
     1
176
     0
290
     1
176
     0
290
     0
176
     0
290
     0
176
     0
290
     0
176
     0
290
     0
176
     0
290
     0
176
     0
290
     0
176
     0
 90
       50
176
     0
 40
0.0
176
     0
 40
1.0
176
     0
 90
        0
176
     0
 62
    18
420
        0
176
     0
 90
       50
176
     0
 90
        3
176
     0
 62
     5
420
      255
176
     0
290
     0
176
     0
 90
       50
176
     0
 90
       50
176
     0
 90
       50
176
     0
290
     0
176
     0
 90
       50
176
     0
 62
   256
176
     0
 40
1.0
176
     0
 90
        2
176
     0
  1
strokes_ogs.tif
176
     0
290
     0
176
     0
 40
1.0
176
     0
 40
1.0
176
     0
  0
VISUALSTYLE
  5
39
102
{ACAD_REACTORS
330
2A
102
}
330
2A
100
AcDbVisualStyle
  2
Facepattern
 70
    15
177
     3
291
     1
 70
    58
 90
        2
176
     1
 90
        2
176
     1
 90
        0
176
     1
 90
        0
176
     1
 40
0.6
176
     1
 40
30.0
176
     1
 62
     7
420
 16777215
176
     1
 90
        1
176
     1
 90
        4
176
     1
 62
     7
176
     1
 62
   257
176
     1
 90
        1
176
     1
 90
        1
176
     1
 40
1.0
176
     1
 90
        8
176
     1
 62
     7
176
     1
 40
1.0
176
     1
 90
        1
176
     1
 90
        6
176
     1
 90
        2
176
     1
 62
     7
176
     1
 90
        5
176
     1
 90
        0
176
     1
 90
        0
176
     1
290
     0
176
     1
 90
        1
176
     1
 40
0.0
176
     1
 90
        0
176
     1
290
     0
176
     1
290
     1
176
     1
290
     1
176
     1
290
     0
176
     1
290
     0
176
     1
290
     0
176
     1
290
     0
176
     1
290
     0
176
     1
290
     0
176
     1
 90
       50
176
     1
 40
0.0
176
     1
 40
1.0
176
     1
 90
        0
176
     1
 62
    18
420
        0
176
     1
 90
       50
176
     1
 90
        3
176
     1
 62
     5
420
      255
176
     1
290
     0
176
     1
 90
       50
176
     1
 90
       50
176
     1
 90
       50
176
     1
290
     0
176
     1
 90
       50
176
     1
 62
   256
176
     0
 40
1.0
176
     0
 90
        2
176
     1
  1
strokes_ogs.tif
176
     1
290
     0
176
     1
 40
1.0
176
     1
 40
1.0
176
     1
  0
VISUALSTYLE
  5
2B
102
{ACAD_REACTORS
330
2A
102
}
330
2A
100
AcDbVisualStyle
  2
Flat
 70
     0
177
     3
291
     1
 70
    58
 90
        2
176
     1
 90
        1
176
     1
 90
        1
176
     1
 90
        2
176
     1
 40
0.6
176
     1
 40
30.0
176
     1
 62
     7
420
 16777215
176
     1
 90
        0
176
     1
 90
        0
176
     1
 62
     7
176
     1
 62
   257
176
     1
 90
        1
176
     1
 90
        1
176
     1
 40
1.0
176
     1
 90
        8
176
     1
 62
     7
176
     1
 40
1.0
176
     1
 90
        1
176
     1
 90
        6
176
     1
 90
        2
176
     1
 62
     7
176
     1
 90
        5
176
     1
 90
        0
176
     1
 90
        0
176
     1
290
     0
176
     1
 90
       13
176
     1
 40
0.0
176
     1
 90
        0
176
     1
290
     0
176
     1
290
     1
176
     1
290
     1
176
     1
290
     0
176
     1
290
     0
176
     1
290
     0
176
     1
290
     0
176
     1
290
     0
176
     1
290
     0
176
     1
 90
       50
176
     1
 40
0.0
176
     1
 40
1.0
176
     1
 90
        0
176
     1
 62
    18
420
        0
176
     1
 90
       50
176
     1
 90
        3
176
     1
 62
     5
420
      255
176
     1
290
     0
176
     1
 90
       50
176
     1
 90
       50
176
     1
 90
       50
176
     1
290
     0
176
     1
 90
       50
176
     1
 62
   256
176
     0
 40
1.0
176
     0
 90
        2
176
     1
  1
strokes_ogs.tif
176
     1
290
     0
176
     1
 40
1.0
176
     1
 40
1.0
176
     1
  0
VISUALSTYLE
  5
2C
102
{ACAD_REACTORS
330
2A
102
}
330
2A
100
AcDbVisualStyle
  2
FlatWithEdges
 70
     1
177
     3
291
     1
 70
    58
 90
        2
176
     1
 90
        1
176
     1
 90
        1
176
     1
 90
        2
176
     1
 40
0.6
176
     1
 40
30.0
176
     1
 62
     7
420
 16777215
176
     1
 90
        1
176
     1
 90
        0
176
     1
 62
     7
176
     1
 62
   257
176
     1
 90
        1
176
     1
 90
        1
176
     1
 40
1.0
176
     1
 90
        0
176
     1
 62
   257
176
     1
 40
1.0
176
     1
 90
        1
176
     1
 90
        6
176
     1
 90
        2
176
     1
 62
     7
176
     1
 90
        5
176
     1
 90
        0
176
     1
 90
        0
176
     1
290
     0
176
     1
 90
       13
176
     1
 40
0.0
176
     1
 90
        0
176
     1
290
     0
176
     1
290
     1
176
     1
290
     1
176
     1
290
     0
176
     1
290
     0
176
     1
290
     0
176
     1
290
     0
176
     1
290
     0
176
     1
290
     0
176
     1
 90
       50
176
     1
 40
0.0
176
     1
 40
1.0
176
     1
 90
        0
176
     1
 62
    18
420
        0
176
     1
 90
       50
176
     1
 90
        3
176
     1
 62
     5
420
      255
176
     1
290
     0
176
     1
 90
       50
176
     1
 90
       50
176
     1
 90
       50
176
     1
290
     0
176
     1
 90
       50
176
     1
 62
   256
176
     0
 40
1.0
176
     0
 90
        2
176
     1
  1
strokes_ogs.tif
176
     1
290
     0
176
     1
 40
1.0
176
     1
 40
1.0
176
     1
  0
VISUALSTYLE
  5
2D
102
{ACAD_REACTORS
330
2A
102
}
330
2A
100
AcDbVisualStyle
  2
Gouraud
 70
     2
177
     3
291
     1
 70
    58
 90
        2
176
     1
 90
        2
176
     1
 90
        1
176
     1
 90
        2
176
     1
 40
0.6
176
     1
 40
30.0
176
     1
 62
     7
420
 16777215
176
     1
 90
        0
176
     1
 90
        0
176
     1
 62
     7
176
     1
 62
   257
176
     1
 90
        1
176
     1
 90
        1
176
     1
 40
1.0
176
     1
 90
        0
176
     1
 62
     7
176
     1
 40
1.0
176
     1
 90
        1
176
     1
 90
        6
176
     1
 90
        2
176
     1
 62
     7
176
     1
 90
        5
176
     1
 90
        0
176
     1
 90
        0
176
     1
290
     0
176
     1
 90
       13
176
     1
 40
0.0
176
     1
 90
        0
176
     1
290
     0
176
     1
290
     1
176
     1
290
     1
176
     1
290
     0
176
     1
290
     0
176
     1
290
     0
176
     1
290
     0
176
     1
290
     0
176
     1
290
     0
176
     1
 90
       50
176
     1
 40
0.0
176
     1
 40
1.0
176
     1
 90
        0
176
     1
 62
    18
420
        0
176
     1
 90
       50
176
     1
 90
        3
176
     1
 62
     5
420
      255
176
     1
290
     0
176
     1
 90
       50
176
     1
 90
       50
176
     1
 90
       50
176
     1
290
     0
176
     1
 90
       50
176
     1
 62
   256
176
     0
 40
1.0
176
     0
 90
        2
176
     1
  1
strokes_ogs.tif
176
     1
290
     0
176
     1
 40
1.0
176
     1
 40
1.0
176
     1
  0
VISUALSTYLE
  5
2E
102
{ACAD_REACTORS
330
2A
102
}
330
2A
100
AcDbVisualStyle
  2
GouraudWithEdges
 70
     3
177
     3
291
     1
 70
    58
 90
        2
176
     1
 90
        2
176
     1
 90
        1
176
     1
 90
        2
176
     1
 40
0.6
176
     1
 40
30.0
176
     1
 62
     7
420
 16777215
176
     1
 90
        1
176
     1
 90
        0
176
     1
 62
     7
176
     1
 62
   257
176
     1
 90
        1
176
     1
 90
        1
176
     1
 40
1.0
176
     1
 90
        0
176
     1
 62
   257
176
     1
 40
1.0
176
     1
 90
        1
176
     1
 90
        6
176
     1
 90
        2
176
     1
 62
     7
176
     1
 90
        5
176
     1
 90
        0
176
     1
 90
        0
176
     1
290
     0
176
     1
 90
       13
176
     1
 40
0.0
176
     1
 90
        0
176
     1
290
     0
176
     1
290
     1
176
     1
290
     1
176
     1
290
     0
176
     1
290
     0
176
     1
290
     0
176
     1
290
     0
176
     1
290
     0
176
     1
290
     0
176
     1
 90
       50
176
     1
 40
0.0
176
     1
 40
1.0
176
     1
 90
        0
176
     1
 62
    18
420
        0
176
     1
 90
       50
176
     1
 90
        3
176
     1
 62
     5
420
      255
176
     1
290
     0
176
     1
 90
       50
176
     1
 90
       50
176
     1
 90
       50
176
     1
290
     0
176
     1
 90
       50
176
     1
 62
   256
176
     0
 40
1.0
176
     0
 90
        2
176
     1
  1
strokes_ogs.tif
176
     1
290
     0
176
     1
 40
1.0
176
     1
 40
1.0
176
     1
  0
VISUALSTYLE
  5
31
102
{ACAD_REACTORS
330
2A
102
}
330
2A
100
AcDbVisualStyle
  2
Hidden
 70
     6
177
     3
291
     0
 70
    58
 90
        1
176
     1
 90
        2
176
     1
 90
        2
176
     1
 90
        0
176
     1
 40
0.6
176
     1
 40
30.0
176
     1
 62
     7
420
 16777215
176
     1
 90
        2
176
     1
 90
        2
176
     1
 62
     7
176
     1
 62
   257
176
     1
 90
        2
176
     1
 90
        1
176
     1
 40
40.0
176
     1
 90
        0
176
     1
 62
   257
176
     1
 40
1.0
176
     1
 90
        1
176
     1
 90
        6
176
     1
 90
        2
176
     1
 62
     7
176
     1
 90
        3
176
     1
 90
        0
176
     1
 90
        0
176
     1
290
     0
176
     1
 90
        1
176
     1
 40
0.0
176
     1
 90
        0
176
     1
290
     0
176
     1
290
     1
176
     1
290
     1
176
     1
290
     0
176
     1
290
     0
176
     1
290
     0
176
     1
290
     0
176
     1
290
     0
176
     1
290
     0
176
     1
 90
       50
176
     1
 40
0.0
176
     1
 40
1.0
176
     1
 90
        0
176
     1
 62
    18
420
        0
176
     1
 90
       50
176
     1
 90
        3
176
     1
 62
     5
420
      255
176
     1
290
     0
176
     1
 90
       50
176
     1
 90
       50
176
     1
 90
       50
176
     1
290
     0
176
     1
 90
       50
176
     1
 62
   256
176
     0
 40
1.0
176
     0
 90
        2
176
     1
  1
strokes_ogs.tif
176
     1
290
     0
176
     1
 40
1.0
176
     1
 40
1.0
176
     1
  0
VISUALSTYLE
  5
3B
102
{ACAD_REACTORS
330
2A
102
}
330
2A
100
AcDbVisualStyle
  2
JitterOff
 70
    20
177
     3
291
     1
 70
    58
 90
        2
176
     0
 90
        2
176
     0
 90
        0
176
     0
 90
        0
176
     0
 40
0.6
176
     0
 40
30.0
176
     0
 62
     7
420
 16777215
176
     0
 90
        1
176
     0
 90
        4
176
     0
 62
     7
176
     0
 62
   257
176
     0
 90
        1
176
     0
 90
        1
176
     0
 40
1.0
176
     0
 90
       10
176
     2
 62
     7
176
     0
 40
1.0
176
     0
 90
        1
176
     0
 90
        6
176
     0
 90
        2
176
     0
 62
     7
176
     0
 90
        5
176
     0
 90
        0
176
     0
 90
        0
176
     0
290
     0
176
     0
 90
        1
176
     0
 40
0.0
176
     0
 90
        0
176
     0
290
     0
176
     0
290
     1
176
     0
290
     1
176
     0
290
     0
176
     0
290
     0
176
     0
290
     0
176
     0
290
     0
176
     0
290
     0
176
     0
290
     0
176
     0
 90
       50
176
     0
 40
0.0
176
     0
 40
1.0
176
     0
 90
        0
176
     0
 62
    18
420
        0
176
     0
 90
       50
176
     0
 90
        3
176
     0
 62
     5
420
      255
176
     0
290
     0
176
     0
 90
       50
176
     0
 90
       50
176
     0
 90
       50
176
     0
290
     0
176
     0
 90
       50
176
     0
 62
   256
176
     0
 40
1.0
176
     0
 90
        2
176
     0
  1
strokes_ogs.tif
176
     0
290
     0
176
     0
 40
1.0
176
     0
 40
1.0
176
     0
  0
VISUALSTYLE
  5
38
102
{ACAD_REACTORS
330
2A
102
}
330
2A
100
AcDbVisualStyle
  2
Linepattern
 70
    14
177
     3
291
     1
 70
    58
 90
        2
176
     1
 90
        2
176
     1
 90
        0
176
     1
 90
        0
176
     1
 40
0.6
176
     1
 40
30.0
176
     1
 62
     7
420
 16777215
176
     1
 90
        1
176
     1
 90
        4
176
     1
 62
     7
176
     1
 62
   257
176
     1
 90
        7
176
     1
 90
        7
176
     1
 40
1.0
176
     1
 90
        8
176
     1
 62
     7
176
     1
 40
1.0
176
     1
 90
        1
176
     1
 90
        6
176
     1
 90
        2
176
     1
 62
     7
176
     1
 90
        5
176
     1
 90
        0
176
     1
 90
        0
176
     1
290
     0
176
     1
 90
        1
176
     1
 40
0.0
176
     1
 90
        0
176
     1
290
     0
176
     1
290
     1
176
     1
290
     1
176
     1
290
     0
176
     1
290
     0
176
     1
290
     0
176
     1
290
     0
176
     1
290
     0
176
     1
290
     0
176
     1
 90
       50
176
     1
 40
0.0
176
     1
 40
1.0
176
     1
 90
        0
176
     1
 62
    18
420
        0
176
     1
 90
       50
176
     1
 90
        3
176
     1
 62
     5
420
      255
176
     1
290
     0
176
     1
 90
       50
176
     1
 90
       50
176
     1
 90
       50
176
     1
290
     0
176
     1
 90
       50
176
     1
 62
   256
176
     0
 40
1.0
176
     0
 90
        2
176
     1
  1
strokes_ogs.tif
176
     1
290
     0
176
     1
 40
1.0
176
     1
 40
1.0
176
     1
  0
VISUALSTYLE
  5
3C
102
{ACAD_REACTORS
330
2A
102
}
330
2A
100
AcDbVisualStyle
  2
OverhangOff
 70
    21
177
     3
291
     1
 70
    58
 90
        2
176
     0
 90
        2
176
     0
 90
        0
176
     0
 90
        0
176
     0
 40
0.6
176
     0
 40
30.0
176
     0
 62
     7
420
 16777215
176
     0
 90
        1
176
     0
 90
        4
176
     0
 62
     7
176
     0
 62
   257
176
     0
 90
        1
176
     0
 90
        1
176
     0
 40
1.0
176
     0
 90
        9
176
     2
 62
     7
176
     0
 40
1.0
176
     0
 90
        1
176
     0
 90
        6
176
     0
 90
        2
176
     0
 62
     7
176
     0
 90
        5
176
     0
 90
        0
176
     0
 90
        0
176
     0
290
     0
176
     0
 90
        1
176
     0
 40
0.0
176
     0
 90
        0
176
     0
290
     0
176
     0
290
     1
176
     0
290
     1
176
     0
290
     0
176
     0
290
     0
176
     0
290
     0
176
     0
290
     0
176
     0
290
     0
176
     0
290
     0
176
     0
 90
       50
176
     0
 40
0.0
176
     0
 40
1.0
176
     0
 90
        0
176
     0
 62
    18
420
        0
176
     0
 90
       50
176
     0
 90
        3
176
     0
 62
     5
420
      255
176
     0
290
     0
176
     0
 90
       50
176
     0
 90
       50
176
     0
 90
       50
176
     0
290
     0
176
     0
 90
       50
176
     0
 62
   256
176
     0
 40
1.0
176
     0
 90
        2
176
     0
  1
strokes_ogs.tif
176
     0
290
     0
176
     0
 40
1.0
176
     0
 40
1.0
176
     0
  0
VISUALSTYLE
  5
33
102
{ACAD_REACTORS
330
2A
102
}
330
2A
100
AcDbVisualStyle
  2
Realistic
 70
     8
177
     3
291
     0
 70
    58
 90
        2
176
     1
 90
        3
176
     1
 90
        0
176
     1
 90
        2
176
     1
 40
0.6
176
     1
 40
30.0
176
     1
 62
     7
420
 16777215
176
     1
 90
        0
176
     1
 90
        0
176
     1
 62
     7
176
     1
 62
   257
176
     1
 90
        1
176
     1
 90
        1
176
     1
 40
1.0
176
     1
 90
        8
176
     1
 62
   257
176
     1
 40
1.0
176
     1
 90
        1
176
     1
 90
        6
176
     1
 90
        2
176
     1
 62
     7
176
     1
 90
        3
176
     1
 90
        0
176
     1
 90
        0
176
     1
290
     0
176
     1
 90
       13
176
     1
 40
0.0
176
     1
 90
        0
176
     1
290
     0
176
     1
290
     1
176
     1
290
     1
176
     1
290
     0
176
     1
290
     0
176
     1
290
     0
176
     1
290
     0
176
     1
290
     0
176
     1
290
     0
176
     1
 90
       50
176
     1
 40
0.0
176
     1
 40
1.0
176
     1
 90
        0
176
     1
 62
    18
420
        0
176
     1
 90
       50
176
     1
 90
        3
176
     1
 62
     5
420
      255
176
     1
290
     0
176
     1
 90
       50
176
     1
 90
       50
176
     1
 90
       50
176
     1
290
     0
176
     1
 90
       50
176
     1
 62
   256
176
     0
 40
1.0
176
     0
 90
        2
176
     1
  1
strokes_ogs.tif
176
     1
290
     0
176
     1
 40
1.0
176
     1
 40
1.0
176
     1
  0
VISUALSTYLE
  5
42
102
{ACAD_REACTORS
330
2A
102
}
330
2A
100
AcDbVisualStyle
  2
Shaded
 70
    27
177
     3
291
     0
 70
    58
 90
        2
176
     1
 90
        2
176
     1
 90
        1
176
     1
 90
        2
176
     1
 40
0.6
176
     1
 40
30.0
176
     1
 62
     7
420
 16777215
176
     1
 90
        0
176
     1
 90
        4
176
     1
 62
     7
176
     1
 62
   257
176
     1
 90
        1
176
     1
 90
        1
176
     1
 40
1.0
176
     1
 90
        8
176
     1
 62
   257
176
     1
 40
1.0
176
     1
 90
        1
176
     1
 90
        6
176
     1
 90
        2
176
     1
 62
     8
420
  7895160
176
     1
 90
        3
176
     1
 90
        0
176
     1
 90
        0
176
     1
290
     0
176
     1
 90
        5
176
     1
 40
0.0
176
     1
 90
        0
176
     1
290
     0
176
     1
290
     1
176
     1
290
     1
176
     1
290
     0
176
     1
290
     0
176
     1
290
     0
176
     1
290
     0
176
     1
290
     0
176
     1
290
     0
176
     1
 90
       50
176
     1
 40
0.0
176
     1
 40
1.0
176
     1
 90
        0
176
     1
 62
    18
420
        0
176
     1
 90
       50
176
     1
 90
        3
176
     1
 62
     5
420
      255
176
     1
290
     0
176
     1
 90
       50
176
     1
 90
       50
176
     1
 90
       50
176
     1
290
     0
176
     1
 90
       50
176
     1
 62
   256
176
     0
 40
1.0
176
     0
 90
        2
176
     1
  1
strokes_ogs.tif
176
     1
290
     0
176
     1
 40
1.0
176
     1
 40
1.0
176
     1
  0
VISUALSTYLE
  5
41
102
{ACAD_REACTORS
330
2A
102
}
330
2A
100
AcDbVisualStyle
  2
Shaded with edges
 70
    26
177
     3
291
     0
 70
    58
 90
        2
176
     1
 90
        2
176
     1
 90
        1
176
     1
 90
        2
176
     1
 40
0.6
176
     1
 40
30.0
176
     1
 62
     7
420
 16777215
176
     1
 90
        1
176
     1
 90
       10
176
     1
 62
     7
176
     1
 62
   257
176
     1
 90
        2
176
     1
 90
        1
176
     1
 40
1.0
176
     1
 90
        8
176
     1
 62
   257
176
     1
 40
1.0
176
     1
 90
        1
176
     1
 90
        6
176
     1
 90
        2
176
     1
 62
     7
176
     1
 90
        3
176
     1
 90
        0
176
     1
 90
        0
176
     1
290
     0
176
     1
 90
        5
176
     1
 40
0.0
176
     1
 90
        0
176
     1
290
     0
176
     1
290
     1
176
     1
290
     1
176
     1
290
     0
176
     1
290
     0
176
     1
290
     0
176
     1
290
     0
176
     1
290
     0
176
     1
290
     0
176
     1
 90
       50
176
     1
 40
0.0
176
     1
 40
1.0
176
     1
 90
        0
176
     1
 62
    18
420
        0
176
     1
 90
       50
176
     1
 90
        3
176
     1
 62
     5
420
      255
176
     1
290
     0
176
     1
 90
       50
176
     1
 90
       50
176
     1
 90
       50
176
     1
290
     0
176
     1
 90
       50
176
     1
 62
   256
176
     0
 40
1.0
176
     0
 90
        2
176
     1
  1
strokes_ogs.tif
176
     1
290
     0
176
     1
 40
1.0
176
     1
 40
1.0
176
     1
  0
VISUALSTYLE
  5
3E
102
{ACAD_REACTORS
330
2A
102
}
330
2A
100
AcDbVisualStyle
  2
Shades of Gray
 70
    23
177
     3
291
     0
 70
    58
 90
        2
176
     1
 90
        2
176
     1
 90
        3
176
     1
 90
        0
176
     1
 40
0.6
176
     1
 40
30.0
176
     1
 62
     7
420
 16777215
176
     1
 90
        2
176
     1
 90
        2
176
     1
 62
     7
176
     1
 62
     7
176
     1
 90
        1
176
     1
 90
        1
176
     1
 40
40.0
176
     1
 90
        8
176
     1
 62
     7
176
     1
 40
1.0
176
     1
 90
        1
176
     1
 90
        6
176
     1
 90
        2
176
     1
 62
     7
176
     1
 90
        3
176
     1
 90
        0
176
     1
 90
        0
176
     1
290
     0
176
     1
 90
        1
176
     1
 40
0.0
176
     1
 90
        0
176
     1
290
     0
176
     1
290
     1
176
     1
290
     1
176
     1
290
     0
176
     1
290
     0
176
     1
290
     0
176
     1
290
     0
176
     1
290
     0
176
     1
290
     0
176
     1
 90
       50
176
     1
 40
0.0
176
     1
 40
1.0
176
     1
 90
        0
176
     1
 62
    18
420
        0
176
     1
 90
       50
176
     1
 90
        3
176
     1
 62
     5
420
      255
176
     1
290
     0
176
     1
 90
       50
176
     1
 90
       50
176
     1
 90
       50
176
     1
290
     0
176
     1
 90
       50
176
     1
 62
   256
176
     0
 40
1.0
176
     0
 90
        2
176
     1
  1
strokes_ogs.tif
176
     1
290
     0
176
     1
 40
1.0
176
     1
 40
1.0
176
     1
  0
VISUALSTYLE
  5
3F
102
{ACAD_REACTORS
330
2A
102
}
330
2A
100
AcDbVisualStyle
  2
Sketchy
 70
    24
177
     3
291
     0
 70
    58
 90
        1
176
     1
 90
        2
176
     1
 90
        2
176
     1
 90
        0
176
     1
 40
0.6
176
     1
 40
30.0
176
     1
 62
     7
420
 16777215
176
     1
 90
        2
176
     1
 90
        2
176
     1
 62
     7
176
     1
 62
     7
176
     1
 90
        1
176
     1
 90
        1
176
     1
 40
40.0
176
     1
 90
       11
176
     1
 62
     7
176
     1
 40
1.0
176
     1
 90
        1
176
     1
 90
        6
176
     1
 90
        2
176
     1
 62
     7
176
     1
 90
        6
176
     1
 90
        0
176
     1
 90
        0
176
     1
290
     0
176
     1
 90
        1
176
     1
 40
0.0
176
     1
 90
        0
176
     1
290
     0
176
     1
290
     1
176
     1
290
     1
176
     1
290
     0
176
     1
290
     0
176
     1
290
     0
176
     1
290
     0
176
     1
290
     0
176
     1
290
     0
176
     1
 90
       50
176
     1
 40
0.0
176
     1
 40
1.0
176
     1
 90
        0
176
     1
 62
    18
420
        0
176
     1
 90
       50
176
     1
 90
        3
176
     1
 62
     5
420
      255
176
     1
290
     0
176
     1
 90
       50
176
     1
 90
       50
176
     1
 90
       50
176
     1
290
     0
176
     1
 90
       50
176
     1
 62
   256
176
     0
 40
1.0
176
     0
 90
        2
176
     1
  1
strokes_ogs.tif
176
     1
290
     0
176
     1
 40
1.0
176
     1
 40
1.0
176
     1
  0
VISUALSTYLE
  5
37
102
{ACAD_REACTORS
330
2A
102
}
330
2A
100
AcDbVisualStyle
  2
Thicken
 70
    13
177
     3
291
     1
 70
    58
 90
        2
176
     1
 90
        2
176
     1
 90
        0
176
     1
 90
        0
176
     1
 40
0.6
176
     1
 40
30.0
176
     1
 62
     7
420
 16777215
176
     1
 90
        1
176
     1
 90
        4
176
     1
 62
     7
176
     1
 62
   257
176
     1
 90
        1
176
     1
 90
        1
176
     1
 40
1.0
176
     1
 90
       12
176
     1
 62
     7
176
     1
 40
1.0
176
     1
 90
        1
176
     1
 90
        6
176
     1
 90
        2
176
     1
 62
     7
176
     1
 90
        5
176
     1
 90
        0
176
     1
 90
        0
176
     1
290
     0
176
     1
 90
        1
176
     1
 40
0.0
176
     1
 90
        0
176
     1
290
     0
176
     1
290
     1
176
     1
290
     1
176
     1
290
     0
176
     1
290
     0
176
     1
290
     0
176
     1
290
     0
176
     1
290
     0
176
     1
290
     0
176
     1
 90
       50
176
     1
 40
0.0
176
     1
 40
1.0
176
     1
 90
        0
176
     1
 62
    18
420
        0
176
     1
 90
       50
176
     1
 90
        3
176
     1
 62
     5
420
      255
176
     1
290
     0
176
     1
 90
       50
176
     1
 90
       50
176
     1
 90
       50
176
     1
290
     0
176
     1
 90
       50
176
     1
 62
   256
176
     0
 40
1.0
176
     0
 90
        2
176
     1
  1
strokes_ogs.tif
176
     1
290
     0
176
     1
 40
1.0
176
     1
 40
1.0
176
     1
  0
VISUALSTYLE
  5
30
102
{ACAD_REACTORS
330
2A
102
}
330
2A
100
AcDbVisualStyle
  2
Wireframe
 70
     5
177
     3
291
     0
 70
    58
 90
        0
176
     1
 90
        2
176
     1
 90
        0
176
     1
 90
        0
176
     1
 40
0.6
176
     1
 40
30.0
176
     1
 62
     7
420
 16777215
176
     1
 90
        1
176
     1
 90
        4
176
     1
 62
     7
176
     1
 62
   257
176
     1
 90
        1
176
     1
 90
        1
176
     1
 40
1.0
176
     1
 90
        0
176
     1
 62
   257
176
     1
 40
1.0
176
     1
 90
        1
176
     1
 90
        6
176
     1
 90
        2
176
     1
 62
     7
176
     1
 90
        3
176
     1
 90
        0
176
     1
 90
        0
176
     1
290
     0
176
     1
 90
        1
176
     1
 40
0.0
176
     1
 90
        0
176
     1
290
     0
176
     1
290
     1
176
     1
290
     1
176
     1
290
     0
176
     1
290
     0
176
     1
290
     0
176
     1
290
     0
176
     1
290
     0
176
     1
290
     0
176
     1
 90
       50
176
     1
 40
0.0
176
     1
 40
1.0
176
     1
 90
        0
176
     1
 62
    18
420
        0
176
     1
 90
       50
176
     1
 90
        3
176
     1
 62
     5
420
      255
176
     1
290
     0
176
     1
 90
       50
176
     1
 90
       50
176
     1
 90
       50
176
     1
290
     0
176
     1
 90
       50
176
     1
 62
   256
176
     0
 40
1.0
176
     0
 90
        2
176
     1
  1
strokes_ogs.tif
176
     1
290
     0
176
     1
 40
1.0
176
     1
 40
1.0
176
     1
  0
VISUALSTYLE
  5
40
102
{ACAD_REACTORS
330
2A
102
}
330
2A
100
AcDbVisualStyle
  2
X-Ray
 70
    25
177
     3
291
     0
 70
    58
 90
        2
176
     1
 90
        2
176
     1
 90
        1
176
     1
 90
        1
176
     1
 40
0.5
176
     1
 40
30.0
176
     1
 62
     7
420
 16777215
176
     1
 90
        1
176
     1
 90
        0
176
     1
 62
     7
176
     1
 62
   257
176
     1
 90
        1
176
     1
 90
        1
176
     1
 40
1.0
176
     1
 90
        8
176
     1
 62
     7
176
     1
 40
1.0
176
     1
 90
        1
176
     1
 90
        6
176
     1
 90
        2
176
     1
 62
     7
176
     1
 90
        3
176
     1
 90
        0
176
     1
 90
        0
176
     1
290
     0
176
     1
 90
       13
176
     1
 40
0.0
176
     1
 90
        0
176
     1
290
     0
176
     1
290
     1
176
     1
290
     1
176
     1
290
     0
176
     1
290
     0
176
     1
290
     0
176
     1
290
     0
176
     1
290
     0
176
     1
290
     0
176
     1
 90
       50
176
     1
 40
0.0
176
     1
 40
1.0
176
     1
 90
        0
176
     1
 62
    18
420
        0
176
     1
 90
       50
176
     1
 90
        3
176
     1
 62
     5
420
      255
176
     1
290
     0
176
     1
 90
       50
176
     1
 90
       50
176
     1
 90
       50
176
     1
290
     0
176
     1
 90
       50
176
     1
 62
   256
176
     0
 40
1.0
176
     0
 90
        2
176
     1
  1
strokes_ogs.tif
176
     1
290
     0
176
     1
 40
1.0
176
     1
 40
1.0
176
     1
  0
DICTIONARYVAR
  5
88
102
{ACAD_REACTORS
330
87
102
}
330
87
100
DictionaryVariables
280
     0
  1
1:1
  0
DICTIONARYVAR
  5
8D
102
{ACAD_REACTORS
330
87
102
}
330
87
100
DictionaryVariables
280
     0
  1
Standard
  0
DICTIONARYVAR
  5
8C
102
{ACAD_REACTORS
330
87
102
}
330
87
100
DictionaryVariables
280
     0
  1
Standard
  0
DICTIONARY
  5
89
330
5A
100
AcDbDictionary
280
     1
281
     1
  3
ACAD_ROUNDTRIP_2008_TABLESTYLE_CELLSTYLEMAP
360
8A
  0
CELLSTYLEMAP
  5
8A
102
{ACAD_REACTORS
330
89
102
}
330
89
100
AcDbCellStyleMap
 90
        3
300
CELLSTYLE
  1
TABLEFORMAT_BEGIN
 90
        5
170
     1
 91
        0
 92
    32768
 62
   257
 93
        1
300
CONTENTFORMAT
  1
CONTENTFORMAT_BEGIN
 90
        0
 91
        0
 92
        4
 93
        0
300

 40
0.0
140
1.0
 94
        5
 62
     0
340
11
144
0.25
309
CONTENTFORMAT_END
171
     1
301
MARGIN
  1
CELLMARGIN_BEGIN
 40
0.06
 40
0.06
 40
0.06
 40
0.06
 40
0.06
 40
0.06
309
CELLMARGIN_END
 94
        6
 95
        1
302
GRIDFORMAT
  1
GRIDFORMAT_BEGIN
 90
        0
 91
        1
 62
     0
 92
       -2
340
14
 93
        0
 40
0.045
309
GRIDFORMAT_END
 95
        2
302
GRIDFORMAT
  1
GRIDFORMAT_BEGIN
 90
        0
 91
        1
 62
     0
 92
       -2
340
14
 93
        0
 40
0.045
309
GRIDFORMAT_END
 95
        4
302
GRIDFORMAT
  1
GRIDFORMAT_BEGIN
 90
        0
 91
        1
 62
     0
 92
       -2
340
14
 93
        0
 40
0.045
309
GRIDFORMAT_END
 95
        8
302
GRIDFORMAT
  1
GRIDFORMAT_BEGIN
 90
        0
 91
        1
 62
     0
 92
       -2
340
14
 93
        0
 40
0.045
309
GRIDFORMAT_END
 95
       16
302
GRIDFORMAT
  1
GRIDFORMAT_BEGIN
 90
        0
 91
        1
 62
     0
 92
       -2
340
14
 93
        0
 40
0.045
309
GRIDFORMAT_END
 95
       32
302
GRIDFORMAT
  1
GRIDFORMAT_BEGIN
 90
        0
 91
        1
 62
     0
 92
       -2
340
14
 93
        0
 40
0.045
309
GRIDFORMAT_END
309
TABLEFORMAT_END
  1
CELLSTYLE_BEGIN
 90
        1
 91
        1
300
_TITLE
309
CELLSTYLE_END
300
CELLSTYLE
  1
TABLEFORMAT_BEGIN
 90
        5
170
     1
 91
        0
 92
        0
 62
   257
 93
        1
300
CONTENTFORMAT
  1
CONTENTFORMAT_BEGIN
 90
        0
 91
        0
 92
        4
 93
        0
300

 40
0.0
140
1.0
 94
        5
 62
     0
340
11
144
0.18
309
CONTENTFORMAT_END
171
     1
301
MARGIN
  1
CELLMARGIN_BEGIN
 40
0.06
 40
0.06
 40
0.06
 40
0.06
 40
0.06
 40
0.06
309
CELLMARGIN_END
 94
        6
 95
        1
302
GRIDFORMAT
  1
GRIDFORMAT_BEGIN
 90
        0
 91
        1
 62
     0
 92
       -2
340
14
 93
        0
 40
0.045
309
GRIDFORMAT_END
 95
        2
302
GRIDFORMAT
  1
GRIDFORMAT_BEGIN
 90
        0
 91
        1
 62
     0
 92
       -2
340
14
 93
        0
 40
0.045
309
GRIDFORMAT_END
 95
        4
302
GRIDFORMAT
  1
GRIDFORMAT_BEGIN
 90
        0
 91
        1
 62
     0
 92
       -2
340
14
 93
        0
 40
0.045
309
GRIDFORMAT_END
 95
        8
302
GRIDFORMAT
  1
GRIDFORMAT_BEGIN
 90
        0
 91
        1
 62
     0
 92
       -2
340
14
 93
        0
 40
0.045
309
GRIDFORMAT_END
 95
       16
302
GRIDFORMAT
  1
GRIDFORMAT_BEGIN
 90
        0
 91
        1
 62
     0
 92
       -2
340
14
 93
        0
 40
0.045
309
GRIDFORMAT_END
 95
       32
302
GRIDFORMAT
  1
GRIDFORMAT_BEGIN
 90
        0
 91
        1
 62
     0
 92
       -2
340
14
 93
        0
 40
0.045
309
GRIDFORMAT_END
309
TABLEFORMAT_END
  1
CELLSTYLE_BEGIN
 90
        2
 91
        1
300
_HEADER
309
CELLSTYLE_END
300
CELLSTYLE
  1
TABLEFORMAT_BEGIN
 90
        5
170
     1
 91
        0
 92
        0
 62
   257
 93
        1
300
CONTENTFORMAT
  1
CONTENTFORMAT_BEGIN
 90
        0
 91
        0
 92
        4
 93
        0
300

 40
0.0
140
1.0
 94
        2
 62
     0
340
11
144
0.18
309
CONTENTFORMAT_END
171
     1
301
MARGIN
  1
CELLMARGIN_BEGIN
 40
0.06
 40
0.06
 40
0.06
 40
0.06
 40
0.06
 40
0.06
309
CELLMARGIN_END
 94
        6
 95
        1
302
GRIDFORMAT
  1
GRIDFORMAT_BEGIN
 90
        0
 91
        1
 62
     0
 92
       -2
340
14
 93
        0
 40
0.045
309
GRIDFORMAT_END
 95
        2
302
GRIDFORMAT
  1
GRIDFORMAT_BEGIN
 90
        0
 91
        1
 62
     0
 92
       -2
340
14
 93
        0
 40
0.045
309
GRIDFORMAT_END
 95
        4
302
GRIDFORMAT
  1
GRIDFORMAT_BEGIN
 90
        0
 91
        1
 62
     0
 92
       -2
340
14
 93
        0
 40
0.045
309
GRIDFORMAT_END
 95
        8
302
GRIDFORMAT
  1
GRIDFORMAT_BEGIN
 90
        0
 91
        1
 62
     0
 92
       -2
340
14
 93
        0
 40
0.045
309
GRIDFORMAT_END
 95
       16
302
GRIDFORMAT
  1
GRIDFORMAT_BEGIN
 90
        0
 91
        1
 62
     0
 92
       -2
340
14
 93
        0
 40
0.045
309
GRIDFORMAT_END
 95
       32
302
GRIDFORMAT
  1
GRIDFORMAT_BEGIN
 90
        0
 91
        1
 62
     0
 92
       -2
340
14
 93
        0
 40
0.045
309
GRIDFORMAT_END
309
TABLEFORMAT_END
  1
CELLSTYLE_BEGIN
 90
        3
 91
        2
300
_DATA
309
CELLSTYLE_END
  0
ENDSEC
  0
EOF
