  0
SECTION
  2
HEADER
  9
$ACADVER
  1
AC1027
  9
$ACADMAINTVER
 70
   105
  9
$DWGCODEPAGE
  3
ANSI_1252
  9
$LASTSAVEDBY
  1
Office Desk
  9
$REQUIREDVERSIONS
160
                 0
  9
$INSBASE
 10
0.0
 20
0.0
 30
0.0
  9
$EXTMIN
 10
171.0169
 20
-430.974
 30
0.0
  9
$EXTMAX
 10
704.4755
 20
452.3952
 30
0.0
  9
$LIMMIN
 10
0.0
 20
0.0
  9
$LIMMAX
 10
12.0
 20
9.0
  9
$ORTHOMODE
 70
     0
  9
$REGENMODE
 70
     1
  9
$FILLMODE
 70
     1
  9
$QTEXTMODE
 70
     0
  9
$MIRRTEXT
 70
     1
  9
$LTSCALE
 40
1.0
  9
$ATTMODE
 70
     1
  9
$TEXTSIZE
 40
0.2
  9
$TRACEWID
 40
0.05
  9
$TEXTSTYLE
  7
Standard
  9
$CLAYER
  8
0
  9
$CELTYPE
  6
ByLayer
  9
$CECOLOR
 62
   256
  9
$CELTSCALE
 40
1.0
  9
$DISPSILH
 70
     0
  9
$DIMSCALE
 40
1.0
  9
$DIMASZ
 40
0.18
  9
$DIMEXO
 40
0.0625
  9
$DIMDLI
 40
0.38
  9
$DIMRND
 40
0.0
  9
$DIMDLE
 40
0.0
  9
$DIMEXE
 40
0.18
  9
$DIMTP
 40
0.0
  9
$DIMTM
 40
0.0
  9
$DIMTXT
 40
0.18
  9
$DIMCEN
 40
0.09
  9
$DIMTSZ
 40
0.0
  9
$DIMTOL
 70
     0
  9
$DIMLIM
 70
     0
  9
$DIMTIH
 70
     1
  9
$DIMTOH
 70
     1
  9
$DIMSE1
 70
     0
  9
$DIMSE2
 70
     0
  9
$DIMTAD
 70
     0
  9
$DIMZIN
 70
     0
  9
$DIMBLK
  1

  9
$DIMASO
 70
     1
  9
$DIMSHO
 70
     1
  9
$DIMPOST
  1

  9
$DIMAPOST
  1

  9
$DIMALT
 70
     0
  9
$DIMALTD
 70
     2
  9
$DIMALTF
 40
25.4
  9
$DIMLFAC
 40
1.0
  9
$DIMTOFL
 70
     0
  9
$DIMTVP
 40
0.0
  9
$DIMTIX
 70
     0
  9
$DIMSOXD
 70
     0
  9
$DIMSAH
 70
     0
  9
$DIMBLK1
  1

  9
$DIMBLK2
  1

  9
$DIMSTYLE
  2
Standard
  9
$DIMCLRD
 70
     0
  9
$DIMCLRE
 70
     0
  9
$DIMCLRT
 70
     0
  9
$DIMTFAC
 40
1.0
  9
$DIMGAP
 40
0.09
  9
$DIMJUST
 70
     0
  9
$DIMSD1
 70
     0
  9
$DIMSD2
 70
     0
  9
$DIMTOLJ
 70
     1
  9
$DIMTZIN
 70
     0
  9
$DIMALTZ
 70
     0
  9
$DIMALTTZ
 70
     0
  9
$DIMUPT
 70
     0
  9
$DIMDEC
 70
     4
  9
$DIMTDEC
 70
     4
  9
$DIMALTU
 70
     2
  9
$DIMALTTD
 70
     2
  9
$DIMTXSTY
  7
Standard
  9
$DIMAUNIT
 70
     0
  9
$DIMADEC
 70
     0
  9
$DIMALTRND
 40
0.0
  9
$DIMAZIN
 70
     0
  9
$DIMDSEP
 70
    46
  9
$DIMATFIT
 70
     3
  9
$DIMFRAC
 70
     0
  9
$DIMLDRBLK
  1

  9
$DIMLUNIT
 70
     2
  9
$DIMLWD
 70
    -2
  9
$DIMLWE
 70
    -2
  9
$DIMTMOVE
 70
     0
  9
$DIMFXL
 40
1.0
  9
$DIMFXLON
 70
     0
  9
$DIMJOGANG
 40
0.7853981633974483
  9
$DIMTFILL
 70
     0
  9
$DIMTFILLCLR
 70
     0
  9
$DIMARCSYM
 70
     0
  9
$DIMLTYPE
  6

  9
$DIMLTEX1
  6

  9
$DIMLTEX2
  6

  9
$DIMTXTDIRECTION
 70
     0
  9
$LUNITS
 70
     2
  9
$LUPREC
 70
     4
  9
$SKETCHINC
 40
0.1
  9
$FILLETRAD
 40
0.0
  9
$AUNITS
 70
     0
  9
$AUPREC
 70
     0
  9
$MENU
  1
.
  9
$ELEVATION
 40
0.0
  9
$PELEVATION
 40
0.0
  9
$THICKNESS
 40
0.0
  9
$LIMCHECK
 70
     0
  9
$CHAMFERA
 40
0.0
  9
$CHAMFERB
 40
0.0
  9
$CHAMFERC
 40
0.0
  9
$CHAMFERD
 40
0.0
  9
$SKPOLY
 70
     0
  9
$TDCREATE
 40
2461006.69874478
  9
$TDUCREATE
 40
2461006.469578114
  9
$TDUPDATE
 40
2461006.698744803
  9
$TDUUPDATE
 40
2461006.469578137
  9
$TDINDWG
 40
0.0000000116
  9
$TDUSRTIMER
 40
0.0000000116
  9
$USRTIMER
 70
     1
  9
$ANGBASE
 50
0.0
  9
$ANGDIR
 70
     0
  9
$PDMODE
 70
     0
  9
$PDSIZE
 40
0.0
  9
$PLINEWID
 40
0.0
  9
$SPLFRAME
 70
     0
  9
$SPLINETYPE
 70
     6
  9
$SPLINESEGS
 70
     8
  9
$HANDSEED
  5
8C
  9
$SURFTAB1
 70
     6
  9
$SURFTAB2
 70
     6
  9
$SURFTYPE
 70
     6
  9
$SURFU
 70
     6
  9
$SURFV
 70
     6
  9
$UCSBASE
  2

  9
$UCSNAME
  2

  9
$UCSORG
 10
0.0
 20
0.0
 30
0.0
  9
$UCSXDIR
 10
1.0
 20
0.0
 30
0.0
  9
$UCSYDIR
 10
0.0
 20
1.0
 30
0.0
  9
$UCSORTHOREF
  2

  9
$UCSORTHOVIEW
 70
     0
  9
$UCSORGTOP
 10
0.0
 20
0.0
 30
0.0
  9
$UCSORGBOTTOM
 10
0.0
 20
0.0
 30
0.0
  9
$UCSORGLEFT
 10
0.0
 20
0.0
 30
0.0
  9
$UCSORGRIGHT
 10
0.0
 20
0.0
 30
0.0
  9
$UCSORGFRONT
 10
0.0
 20
0.0
 30
0.0
  9
$UCSORGBACK
 10
0.0
 20
0.0
 30
0.0
  9
$PUCSBASE
  2

  9
$PUCSNAME
  2

  9
$PUCSORG
 10
0.0
 20
0.0
 30
0.0
  9
$PUCSXDIR
 10
1.0
 20
0.0
 30
0.0
  9
$PUCSYDIR
 10
0.0
 20
1.0
 30
0.0
  9
$PUCSORTHOREF
  2

  9
$PUCSORTHOVIEW
 70
     0
  9
$PUCSORGTOP
 10
0.0
 20
0.0
 30
0.0
  9
$PUCSORGBOTTOM
 10
0.0
 20
0.0
 30
0.0
  9
$PUCSORGLEFT
 10
0.0
 20
0.0
 30
0.0
  9
$PUCSORGRIGHT
 10
0.0
 20
0.0
 30
0.0
  9
$PUCSORGFRONT
 10
0.0
 20
0.0
 30
0.0
  9
$PUCSORGBACK
 10
0.0
 20
0.0
 30
0.0
  9
$USERI1
 70
     0
  9
$USERI2
 70
     0
  9
$USERI3
 70
     0
  9
$USERI4
 70
     0
  9
$USERI5
 70
     0
  9
$USERR1
 40
0.0
  9
$USERR2
 40
0.0
  9
$USERR3
 40
0.0
  9
$USERR4
 40
0.0
  9
$USERR5
 40
0.0
  9
$WORLDVIEW
 70
     1
  9
$SHADEDGE
 70
     3
  9
$SHADEDIF
 70
    70
  9
$TILEMODE
 70
     1
  9
$MAXACTVP
 70
    64
  9
$PINSBASE
 10
0.0
 20
0.0
 30
0.0
  9
$PLIMCHECK
 70
     0
  9
$PEXTMIN
 10
1.000000000000000E+20
 20
1.000000000000000E+20
 30
1.000000000000000E+20
  9
$PEXTMAX
 10
-1.000000000000000E+20
 20
-1.000000000000000E+20
 30
-1.000000000000000E+20
  9
$PLIMMIN
 10
0.0
 20
0.0
  9
$PLIMMAX
 10
12.0
 20
9.0
  9
$UNITMODE
 70
     0
  9
$VISRETAIN
 70
     1
  9
$PLINEGEN
 70
     0
  9
$PSLTSCALE
 70
     1
  9
$TREEDEPTH
 70
  3020
  9
$CMLSTYLE
  2
Standard
  9
$CMLJUST
 70
     0
  9
$CMLSCALE
 40
1.0
  9
$PROXYGRAPHICS
 70
     1
  9
$MEASUREMENT
 70
     0
  9
$CELWEIGHT
370
    -1
  9
$ENDCAPS
280
     0
  9
$JOINSTYLE
280
     0
  9
$LWDISPLAY
290
     0
  9
$INSUNITS
 70
     4
  9
$HYPERLINKBASE
  1

  9
$STYLESHEET
  1

  9
$XEDIT
290
     1
  9
$CEPSNTYPE
380
     0
  9
$PSTYLEMODE
290
     1
  9
$FINGERPRINTGUID
  2
{bc0683d5-4969-4083-9719-8402964b7313}
  9
$VERSIONGUID
  2
{FAEB1C32-E019-11D5-929B-00C0DF256EC4}
  9
$EXTNAMES
290
     1
  9
$PSVPSCALE
 40
0.0
  9
$OLESTARTUP
290
     0
  9
$SORTENTS
280
   127
  9
$INDEXCTL
280
     0
  9
$HIDETEXT
280
     1
  9
$XCLIPFRAME
280
     2
  9
$HALOGAP
280
     0
  9
$OBSCOLOR
 70
   257
  9
$OBSLTYPE
280
     0
  9
$INTERSECTIONDISPLAY
280
     0
  9
$INTERSECTIONCOLOR
 70
   257
  9
$DIMASSOC
280
     2
  9
$PROJECTNAME
  1

  9
$CAMERADISPLAY
290
     0
  9
$LENSLENGTH
 40
50.0
  9
$CAMERAHEIGHT
 40
0.0
  9
$STEPSPERSEC
 40
2.0
  9
$STEPSIZE
 40
6.0
  9
$3DDWFPREC
 40
2.0
  9
$PSOLWIDTH
 40
0.25
  9
$PSOLHEIGHT
 40
4.0
  9
$LOFTANG1
 40
1.570796326794897
  9
$LOFTANG2
 40
1.570796326794897
  9
$LOFTMAG1
 40
0.0
  9
$LOFTMAG2
 40
0.0
  9
$LOFTPARAM
 70
     7
  9
$LOFTNORMALS
280
     1
  9
$LATITUDE
 40
37.795
  9
$LONGITUDE
 40
-122.394
  9
$NORTHDIRECTION
 40
0.0
  9
$TIMEZONE
 70
 -8000
  9
$LIGHTGLYPHDISPLAY
280
     1
  9
$TILEMODELIGHTSYNCH
280
     1
  9
$CMATERIAL
347
44
  9
$SOLIDHIST
280
     0
  9
$SHOWHIST
280
     1
  9
$DWFFRAME
280
     2
  9
$DGNFRAME
280
     2
  9
$REALWORLDSCALE
290
     1
  9
$INTERFERECOLOR
 62
   256
  9
$CSHADOW
280
     0
  9
$SHADOWPLANELOCATION
 40
0.0
  0
ENDSEC
  0
SECTION
  2
CLASSES
  0
CLASS
  1
ACDBDICTIONARYWDFLT
  2
AcDbDictionaryWithDefault
  3
ObjectDBX Classes
 90
        0
 91
        3
280
     0
281
     0
  0
CLASS
  1
VISUALSTYLE
  2
AcDbVisualStyle
  3
ObjectDBX Classes
 90
     4095
 91
        3
280
     0
281
     0
  0
CLASS
  1
MATERIAL
  2
AcDbMaterial
  3
ObjectDBX Classes
 90
     1153
 91
        3
280
     0
281
     0
  0
CLASS
  1
SCALE
  2
AcDbScale
  3
ObjectDBX Classes
 90
     1153
 91
        3
280
     0
281
     0
  0
CLASS
  1
TABLESTYLE
  2
AcDbTableStyle
  3
ObjectDBX Classes
 90
     4095
 91
        3
280
     0
281
     0
  0
CLASS
  1
MLEADERSTYLE
  2
AcDbMLeaderStyle
  3
ACDB_MLEADERSTYLE_CLASS
 90
     4095
 91
        3
280
     0
281
     0
  0
CLASS
  1
SUN
  2
AcDbSun
  3
SCENEOE
 90
     1153
 91
        3
280
     0
281
     0
  0
CLASS
  1
DICTIONARYVAR
  2
AcDbDictionaryVar
  3
ObjectDBX Classes
 90
        0
 91
        3
280
     0
281
     0
  0
CLASS
  1
CELLSTYLEMAP
  2
AcDbCellStyleMap
  3
ObjectDBX Classes
 90
     1152
 91
        3
280
     0
281
     0
  0
ENDSEC
  0
SECTION
  2
TABLES
  0
TABLE
  2
VPORT
  5
8
330
0
100
AcDbSymbolTable
 70
     1
  0
VPORT
  5
29
330
8
100
AcDbSymbolTableRecord
100
AcDbViewportTableRecord
  2
*Active
 70
     0
 10
0.0
 20
0.0
 11
1.0
 21
1.0
 12
10.42990654205607
 22
4.5
 13
0.0
 23
0.0
 14
0.5
 24
0.5
 15
0.5
 25
0.5
 16
0.0
 26
0.0
 36
1.0
 17
0.0
 27
0.0
 37
0.0
 40
9.0
 41
1.972972972850329
 42
50.0
 43
0.0
 44
0.0
 50
0.0
 51
0.0
 71
     0
 72
   100
 73
     1
 74
     3
 75
     0
 76
     0
 77
     0
 78
     0
281
     0
 65
     1
110
0.0
120
0.0
130
0.0
111
1.0
121
0.0
131
0.0
112
0.0
122
1.0
132
0.0
 79
     0
146
0.0
348
2F
 60
     3
 61
     5
292
     1
282
     1
141
0.0
142
0.0
 63
   250
361
5D
  0
ENDTAB
  0
TABLE
  2
LTYPE
  5
5
330
0
100
AcDbSymbolTable
 70
     1
  0
LTYPE
  5
14
330
5
100
AcDbSymbolTableRecord
100
AcDbLinetypeTableRecord
  2
ByBlock
 70
     0
  3

 72
    65
 73
     0
 40
0.0
  0
LTYPE
  5
15
330
5
100
AcDbSymbolTableRecord
100
AcDbLinetypeTableRecord
  2
ByLayer
 70
     0
  3

 72
    65
 73
     0
 40
0.0
  0
LTYPE
  5
16
330
5
100
AcDbSymbolTableRecord
100
AcDbLinetypeTableRecord
  2
Continuous
 70
     0
  3
Solid line
 72
    65
 73
     0
 40
0.0
  0
ENDTAB
  0
TABLE
  2
LAYER
  5
2
330
0
100
AcDbSymbolTable
 70
     2
  0
LAYER
  5
10
330
2
100
AcDbSymbolTableRecord
100
AcDbLayerTableRecord
  2
0
 70
     0
 62
     7
  6
Continuous
370
    -3
390
F
347
46
348
0
  0
LAYER
  5
5F
330
2
100
AcDbSymbolTableRecord
100
AcDbLayerTableRecord
  2
Layer 1
 70
     0
 62
     7
  6
Continuous
370
    -3
390
F
347
46
348
0
  0
ENDTAB
  0
TABLE
  2
STYLE
  5
3
330
0
100
AcDbSymbolTable
 70
     1
  0
STYLE
  5
11
330
3
100
AcDbSymbolTableRecord
100
AcDbTextStyleTableRecord
  2
Standard
 70
     0
 40
0.0
 41
1.0
 50
0.0
 71
     0
 42
0.2
  3
txt
  4

  0
ENDTAB
  0
TABLE
  2
VIEW
  5
6
330
0
100
AcDbSymbolTable
 70
     0
  0
ENDTAB
  0
TABLE
  2
UCS
  5
7
330
0
100
AcDbSymbolTable
 70
     0
  0
ENDTAB
  0
TABLE
  2
APPID
  5
9
330
0
100
AcDbSymbolTable
 70
     2
  0
APPID
  5
12
330
9
100
AcDbSymbolTableRecord
100
AcDbRegAppTableRecord
  2
ACAD
 70
     0
  0
APPID
  5
5E
330
9
100
AcDbSymbolTableRecord
100
AcDbRegAppTableRecord
  2
ODA
 70
     0
  0
ENDTAB
  0
TABLE
  2
DIMSTYLE
  5
A
330
0
100
AcDbSymbolTable
 70
     1
100
AcDbDimStyleTable
  0
DIMSTYLE
105
27
330
A
100
AcDbSymbolTableRecord
100
AcDbDimStyleTableRecord
  2
Standard
 70
     0
178
     0
340
11
  0
ENDTAB
  0
TABLE
  2
BLOCK_RECORD
  5
1
330
0
100
AcDbSymbolTable
 70
     1
  0
BLOCK_RECORD
  5
1F
330
1
100
AcDbSymbolTableRecord
100
AcDbBlockTableRecord
  2
*Model_Space
340
22
 70
     0
280
     1
281
     0
  0
BLOCK_RECORD
  5
1B
330
1
100
AcDbSymbolTableRecord
100
AcDbBlockTableRecord
  2
*Paper_Space
340
1E
 70
     0
280
     1
281
     0
  0
BLOCK_RECORD
  5
23
330
1
100
AcDbSymbolTableRecord
100
AcDbBlockTableRecord
  2
*Paper_Space0
340
26
 70
     0
280
     1
281
     0
  0
ENDTAB
  0
ENDSEC
  0
SECTION
  2
BLOCKS
  0
BLOCK
  5
20
330
1F
100
AcDbEntity
  8
0
100
AcDbBlockBegin
  2
*Model_Space
 70
     0
 10
0.0
 20
0.0
 30
0.0
  3
*Model_Space
  1

  0
ENDBLK
  5
21
330
1F
100
AcDbEntity
  8
0
100
AcDbBlockEnd
  0
BLOCK
  5
1C
330
1B
100
AcDbEntity
 67
     1
  8
0
100
AcDbBlockBegin
  2
*Paper_Space
 70
     0
 10
0.0
 20
0.0
 30
0.0
  3
*Paper_Space
  1

  0
ENDBLK
  5
1D
330
1B
100
AcDbEntity
 67
     1
  8
0
100
AcDbBlockEnd
  0
BLOCK
  5
24
330
23
100
AcDbEntity
  8
0
100
AcDbBlockBegin
  2
*Paper_Space0
 70
     0
 10
0.0
 20
0.0
 30
0.0
  3
*Paper_Space0
  1

  0
ENDBLK
  5
25
330
23
100
AcDbEntity
  8
0
100
AcDbBlockEnd
  0
ENDSEC
  0
SECTION
  2
ENTITIES
  0
LWPOLYLINE
  5
60
330
1F
100
AcDbEntity
  8
Layer 1
 62
   250
370
    18
100
AcDbPolyline
 90
        5
 70
     1
 43
0.0
 10
171.1051
 20
-430.8858
 10
704.3873
 20
-430.8858
 10
704.3873
 20
452.307
 10
171.1051
 20
452.307
 10
171.1051
 20
-430.8858
  0
LWPOLYLINE
  5
61
330
1F
100
AcDbEntity
  8
Layer 1
 62
     7
370
    18
100
AcDbPolyline
 90
        2
 70
     0
 43
0.0
 10
252.7525
 20
362.0473
 10
257.5367
 20
111.5506
  0
LWPOLYLINE
  5
62
330
1F
100
AcDbEntity
  8
Layer 1
 62
     7
370
    18
100
AcDbPolyline
 90
        2
 70
     0
 43
0.0
 10
252.7525
 20
358.1412
 10
265.0879
 20
-317.1335
  0
LWPOLYLINE
  5
63
330
1F
100
AcDbEntity
  8
Layer 1
 62
     7
370
    18
100
AcDbPolyline
 90
        2
 70
     0
 43
0.0
 10
517.6137
 20
-312.6015
 10
518.7145
 20
-293.7143
  0
LWPOLYLINE
  5
64
330
1F
100
AcDbEntity
  8
Layer 1
 62
     7
370
    18
100
AcDbPolyline
 90
       26
 70
     0
 43
0.0
 10
539.4168
 20
349.0229
 10
517.6082
 20
-312.6104
 10
516.484
 20
-324.3288
 10
512.7692
 20
-338.042
 10
505.9651
 20
-352.8359
 10
495.5734
 20
-367.7965
 10
481.0953
 20
-382.0096
 10
462.0326
 20
-394.5611
 10
437.8866
 20
-404.537
 10
408.1589
 20
-411.0231
 10
377.369
 20
-411.9131
 10
350.4231
 20
-406.9007
 10
327.4017
 20
-397.7686
 10
308.3854
 20
-386.2994
 10
293.4546
 20
-374.2757
 10
282.6901
 20
-363.4802
 10
276.1723
 20
-355.6957
 10
273.9818
 20
-352.7047
 10
270.9997
 20
-345.7558
 10
268.7547
 20
-338.7257
 10
267.1303
 20
-331.5844
 10
266.0099
 20
-324.3016
 10
265.2767
 20
-316.8471
 10
264.8143
 20
-309.1907
 10
264.5059
 20
-301.3023
 10
264.235
 20
-293.1517
  0
LWPOLYLINE
  5
65
330
1F
100
AcDbEntity
  8
Layer 1
 62
     7
370
    18
100
AcDbPolyline
 90
        2
 70
     0
 43
0.0
 10
252.7525
 20
358.4937
 10
265.0879
 20
-278.2062
  0
LWPOLYLINE
  5
66
330
1F
100
AcDbEntity
  8
Layer 1
 62
     7
370
    18
100
AcDbPolyline
 90
        2
 70
     0
 43
0.0
 10
517.6137
 20
-273.9333
 10
518.7145
 20
-256.125
  0
LWPOLYLINE
  5
67
330
1F
100
AcDbEntity
  8
Layer 1
 62
     7
370
    18
100
AcDbPolyline
 90
       26
 70
     0
 43
0.0
 10
539.4168
 20
349.8962
 10
517.6082
 20
-273.9422
 10
516.484
 20
-284.991
 10
512.7692
 20
-297.9207
 10
505.9651
 20
-311.8694
 10
495.5734
 20
-325.9752
 10
481.0953
 20
-339.3763
 10
462.0326
 20
-351.2108
 10
437.8866
 20
-360.6168
 10
408.1589
 20
-366.7324
 10
377.369
 20
-367.5716
 10
350.4231
 20
-362.8455
 10
327.4017
 20
-354.235
 10
308.3854
 20
-343.4209
 10
293.4546
 20
-332.084
 10
282.6901
 20
-321.9052
 10
276.1723
 20
-314.5653
 10
273.9818
 20
-311.7452
 10
270.9997
 20
-305.1933
 10
268.7547
 20
-298.5649
 10
267.1303
 20
-291.8317
 10
266.0099
 20
-284.9652
 10
265.2767
 20
-277.9367
 10
264.8143
 20
-270.7179
 10
264.5059
 20
-263.2803
 10
264.235
 20
-255.5953
  0
LWPOLYLINE
  5
68
330
1F
100
AcDbEntity
  8
Layer 1
 62
     7
370
    18
100
AcDbPolyline
 90
        2
 70
     0
 43
0.0
 10
252.7525
 20
360.2652
 10
260.7984
 20
-82.3273
  0
LWPOLYLINE
  5
69
330
1F
100
AcDbEntity
  8
Layer 1
 62
     7
370
    18
100
AcDbPolyline
 90
        2
 70
     0
 43
0.0
 10
524.41
 20
-79.3629
 10
525.5109
 20
-66.9839
  0
LWPOLYLINE
  5
6A
330
1F
100
AcDbEntity
  8
Layer 1
 62
     7
370
    18
100
AcDbPolyline
 90
       26
 70
     0
 43
0.0
 10
539.4168
 20
354.2893
 10
524.4045
 20
-79.3692
 10
522.9883
 20
-87.0494
 10
518.5036
 20
-96.0367
 10
510.611
 20
-105.7321
 10
498.9715
 20
-115.5366
 10
483.2457
 20
-124.8511
 10
463.0945
 20
-133.0766
 10
438.1787
 20
-139.614
 10
408.1589
 20
-143.8645
 10
377.3692
 20
-144.448
 10
350.4234
 20
-141.1628
 10
327.402
 20
-135.1774
 10
308.3856
 20
-127.6602
 10
293.4548
 20
-119.7796
 10
282.6902
 20
-112.704
 10
276.1723
 20
-107.6018
 10
273.9818
 20
-105.6414
 10
270.8154
 20
-101.0868
 10
268.0845
 20
-96.4791
 10
265.7731
 20
-91.7985
 10
263.8651
 20
-87.0253
 10
262.3444
 20
-82.1395
 10
261.195
 20
-77.1214
 10
260.4007
 20
-71.9512
 10
259.9455
 20
-66.6091
  0
LWPOLYLINE
  5
6B
330
1F
100
AcDbEntity
  8
Layer 1
 62
     7
370
    18
100
AcDbPolyline
 90
        2
 70
     0
 43
0.0
 10
531.2478
 20
116.2259
 10
532.3487
 20
123.148
  0
LWPOLYLINE
  5
6C
330
1F
100
AcDbEntity
  8
Layer 1
 62
     7
370
    18
100
AcDbPolyline
 90
       26
 70
     0
 43
0.0
 10
539.4168
 20
358.7055
 10
531.2423
 20
116.2223
 10
529.5323
 20
111.9277
 10
524.273
 20
106.9018
 10
515.2853
 20
101.4796
 10
502.3904
 20
95.9964
 10
485.4093
 20
90.7872
 10
464.1629
 20
86.187
 10
438.4725
 20
82.531
 10
408.1589
 20
80.1543
 10
377.3692
 20
79.8283
 10
350.4234
 20
81.6654
 10
327.402
 20
85.0123
 10
308.3856
 20
89.2157
 10
293.4548
 20
93.6223
 10
282.6902
 20
97.5788
 10
276.1723
 20
100.4317
 10
273.9818
 20
101.5279
 10
270.6752
 20
103.945
 10
267.5748
 20
106.18
 10
264.7411
 20
108.3145
 10
262.2343
 20
110.4304
 10
260.1148
 20
112.6092
 10
258.4429
 20
114.9326
 10
257.2792
 20
117.4824
 10
256.6838
 20
120.3403
  0
LWPOLYLINE
  5
6D
330
1F
100
AcDbEntity
  8
Layer 1
 62
     7
370
    18
100
AcDbPolyline
 90
      120
 70
     1
 43
0.0
 10
396.4517
 20
363.9782
 10
425.3765
 20
363.5968
 10
452.3109
 20
363.1049
 10
476.6783
 20
362.5227
 10
497.9021
 20
361.8704
 10
515.4058
 20
361.1681
 10
528.6129
 20
360.436
 10
536.9468
 20
359.6942
 10
539.831
 20
358.9628
 10
539.5991
 20
358.7702
 10
538.9297
 20
358.5852
 10
537.8347
 20
358.4078
 10
536.3262
 20
358.2382
 10
534.416
 20
358.0767
 10
532.1162
 20
357.9233
 10
529.4387
 20
357.7783
 10
526.3954
 20
357.6418
 10
529.4532
 20
357.2791
 10
532.1415
 20
356.9152
 10
534.4481
 20
356.551
 10
536.3609
 20
356.1871
 10
537.8677
 20
355.8243
 10
538.9564
 20
355.4635
 10
539.6149
 20
355.1052
 10
539.831
 20
354.7504
 10
539.7377
 20
354.5331
 10
539.4712
 20
354.321
 10
539.0345
 20
354.1143
 10
538.4304
 20
353.9131
 10
537.6618
 20
353.7173
 10
536.7319
 20
353.527
 10
535.6434
 20
353.3423
 10
534.3993
 20
353.1632
 10
535.653
 20
352.8342
 10
536.7485
 20
352.5058
 10
537.6827
 20
352.1781
 10
538.4527
 20
351.8514
 10
539.0555
 20
351.526
 10
539.4882
 20
351.2022
 10
539.7476
 20
350.8802
 10
539.831
 20
350.5603
 10
539.8192
 20
350.4623
 10
539.7887
 20
350.3649
 10
539.7412
 20
350.2681
 10
539.6787
 20
350.1722
 10
539.7445
 20
350.0607
 10
539.7928
 20
349.9493
 10
539.8099
 20
349.8936
 10
539.8221
 20
349.838
 10
539.8292
 20
349.7825
 10
539.831
 20
349.7271
 10
536.8824
 20
347.9029
 10
528.4885
 20
346.3694
 10
515.227
 20
345.1478
 10
497.676
 20
344.2594
 10
476.4131
 20
343.7253
 10
452.0162
 20
343.5667
 10
425.0632
 20
343.8047
 10
396.1319
 20
344.4607
 10
367.207
 20
345.5009
 10
340.2726
 20
346.8425
 10
315.9051
 20
348.4304
 10
294.6812
 20
350.2097
 10
277.1774
 20
352.1253
 10
263.9703
 20
354.1225
 10
255.6365
 20
356.1461
 10
252.7525
 20
358.1412
 10
252.7873
 20
358.305
 10
252.7525
 20
358.4937
 10
252.7706
 20
358.6252
 10
252.8199
 20
358.7554
 10
252.8999
 20
358.8843
 10
253.0104
 20
359.0118
 10
253.1507
 20
359.138
 10
253.3204
 20
359.2628
 10
253.519
 20
359.3863
 10
253.7462
 20
359.5085
 10
253.515
 20
359.6039
 10
253.3135
 20
359.6991
 10
253.142
 20
359.7941
 10
253.001
 20
359.8888
 10
252.8911
 20
359.9834
 10
252.8128
 20
360.0776
 10
252.7664
 20
360.1716
 10
252.7525
 20
360.2652
 10
252.7962
 20
360.4116
 10
252.9188
 20
360.5556
 10
253.1192
 20
360.6972
 10
253.3963
 20
360.8365
 10
253.7491
 20
360.9733
 10
254.1765
 20
361.1077
 10
254.6775
 20
361.2396
 10
255.2509
 20
361.369
 10
254.6712
 20
361.4547
 10
254.1657
 20
361.5402
 10
253.7354
 20
361.6255
 10
253.3815
 20
361.7105
 10
253.1051
 20
361.7952
 10
252.9074
 20
361.8796
 10
252.7895
 20
361.9637
 10
252.7525
 20
362.0473
 10
254.3628
 20
362.5486
 10
258.9926
 20
362.9934
 10
266.4131
 20
363.3788
 10
276.3954
 20
363.7016
 10
288.7107
 20
363.9588
 10
303.1302
 20
364.1473
 10
319.4249
 20
364.264
 10
337.366
 20
364.3058
 10
340.5668
 20
364.3058
 10
340.5668
 20
364.3049
 10
340.5668
 20
364.304
 10
347.0879
 20
364.2964
 10
353.7598
 20
364.2796
 10
360.5734
 20
364.2535
 10
367.5198
 20
364.2179
 10
374.5899
 20
364.1726
 10
381.7746
 20
364.1177
 10
389.0649
 20
364.0529
 10
396.4517
 20
363.9782
  0
LWPOLYLINE
  5
6E
330
1F
100
AcDbEntity
  8
Layer 1
 62
     7
100
AcDbPolyline
 90
       65
 70
     1
 43
0.0
 10
587.2618
 20
-4.5075
 10
587.6564
 20
-4.5324
 10
588.0356
 20
-4.6071
 10
588.3994
 20
-4.7316
 10
588.7478
 20
-4.906
 10
589.0808
 20
-5.13
 10
589.3984
 20
-5.4039
 10
589.7006
 20
-5.7275
 10
589.9875
 20
-6.1009
 10
590.2462
 20
-6.5057
 10
590.4703
 20
-6.9336
 10
590.66
 20
-7.3846
 10
590.8151
 20
-7.8587
 10
590.9357
 20
-8.3559
 10
591.0218
 20
-8.8761
 10
591.0735
 20
-9.4194
 10
591.0907
 20
-9.9857
 10
591.0737
 20
-10.5471
 10
591.0226
 20
-11.0897
 10
590.9375
 20
-11.6134
 10
590.8184
 20
-12.1182
 10
590.6651
 20
-12.6042
 10
590.4778
 20
-13.0713
 10
590.2564
 20
-13.5195
 10
590.0009
 20
-13.9489
 10
589.721
 20
-14.3407
 10
589.4233
 20
-14.6802
 10
589.1078
 20
-14.9674
 10
588.7743
 20
-15.2023
 10
588.4231
 20
-15.385
 10
588.0539
 20
-15.5154
 10
587.6668
 20
-15.5937
 10
587.2618
 20
-15.6198
 10
586.857
 20
-15.5937
 10
586.47
 20
-15.5154
 10
586.1009
 20
-15.385
 10
585.7497
 20
-15.2023
 10
585.4162
 20
-14.9674
 10
585.1007
 20
-14.6802
 10
584.8031
 20
-14.3407
 10
584.5234
 20
-13.9489
 10
584.2679
 20
-13.5195
 10
584.0464
 20
-13.0713
 10
583.859
 20
-12.6042
 10
583.7056
 20
-12.1182
 10
583.5863
 20
-11.6134
 10
583.5011
 20
-11.0897
 10
583.4499
 20
-10.5471
 10
583.4329
 20
-9.9857
 10
583.4501
 20
-9.4194
 10
583.5019
 20
-8.8761
 10
583.5881
 20
-8.3559
 10
583.7088
 20
-7.8587
 10
583.864
 20
-7.3846
 10
584.0536
 20
-6.9336
 10
584.2777
 20
-6.5057
 10
584.5362
 20
-6.1009
 10
584.8231
 20
-5.7275
 10
585.1254
 20
-5.4039
 10
585.4431
 20
-5.13
 10
585.7761
 20
-4.906
 10
586.1245
 20
-4.7316
 10
586.4883
 20
-4.6071
 10
586.8674
 20
-4.5324
 10
587.2618
 20
-4.5075
  0
LWPOLYLINE
  5
6F
330
1F
100
AcDbEntity
  8
Layer 1
 62
     7
100
AcDbPolyline
 90
       65
 70
     1
 43
0.0
 10
587.2618
 20
6.2158
 10
587.5799
 20
6.1964
 10
587.886
 20
6.1382
 10
588.1799
 20
6.0411
 10
588.4618
 20
5.9052
 10
588.7316
 20
5.7305
 10
588.9894
 20
5.5169
 10
589.2352
 20
5.2644
 10
589.469
 20
4.9731
 10
589.6871
 20
4.6455
 10
589.8761
 20
4.2991
 10
590.0361
 20
3.9339
 10
590.167
 20
3.5498
 10
590.2689
 20
3.1469
 10
590.3417
 20
2.7252
 10
590.3853
 20
2.2847
 10
590.3999
 20
1.8254
 10
590.3853
 20
1.3763
 10
590.3417
 20
0.9418
 10
590.2689
 20
0.5217
 10
590.167
 20
0.1162
 10
590.0361
 20
-0.2748
 10
589.8761
 20
-0.6512
 10
589.6871
 20
-1.0132
 10
589.469
 20
-1.3606
 10
589.2368
 20
-1.6701
 10
588.9921
 20
-1.9384
 10
588.7349
 20
-2.1655
 10
588.4653
 20
-2.3513
 10
588.1831
 20
-2.4958
 10
587.8885
 20
-2.5991
 10
587.5814
 20
-2.661
 10
587.2618
 20
-2.6817
 10
586.9423
 20
-2.661
 10
586.6353
 20
-2.5991
 10
586.3407
 20
-2.4958
 10
586.0587
 20
-2.3513
 10
585.789
 20
-2.1655
 10
585.5318
 20
-1.9384
 10
585.2871
 20
-1.6701
 10
585.0547
 20
-1.3606
 10
584.8367
 20
-1.0132
 10
584.6477
 20
-0.6512
 10
584.4878
 20
-0.2748
 10
584.357
 20
0.1162
 10
584.2552
 20
0.5217
 10
584.1825
 20
0.9418
 10
584.1389
 20
1.3763
 10
584.1244
 20
1.8254
 10
584.1389
 20
2.2847
 10
584.1825
 20
2.7252
 10
584.2552
 20
3.1469
 10
584.357
 20
3.5498
 10
584.4878
 20
3.9339
 10
584.6477
 20
4.2991
 10
584.8367
 20
4.6455
 10
585.0547
 20
4.9731
 10
585.2885
 20
5.2644
 10
585.5343
 20
5.5169
 10
585.7922
 20
5.7305
 10
586.0621
 20
5.9052
 10
586.344
 20
6.0411
 10
586.6379
 20
6.1382
 10
586.9439
 20
6.1964
 10
587.2618
 20
6.2158
  0
LWPOLYLINE
  5
70
330
1F
100
AcDbEntity
  8
Layer 1
 62
     7
100
AcDbPolyline
 90
      121
 70
     1
 43
0.0
 10
587.2618
 20
-18.3393
 10
587.8712
 20
-18.3056
 10
588.456
 20
-18.2046
 10
589.0162
 20
-18.0362
 10
589.552
 20
-17.8004
 10
590.0633
 20
-17.4972
 10
590.55
 20
-17.1266
 10
591.0124
 20
-16.6886
 10
591.4502
 20
-16.1832
 10
591.6474
 20
-15.9192
 10
591.8339
 20
-15.6418
 10
592.0095
 20
-15.351
 10
592.1745
 20
-15.0469
 10
592.3286
 20
-14.7294
 10
592.472
 20
-14.3986
 10
592.6046
 20
-14.0544
 10
592.7265
 20
-13.6969
 10
592.8355
 20
-13.3257
 10
592.9299
 20
-12.9413
 10
593.0098
 20
-12.5435
 10
593.0752
 20
-12.1325
 10
593.126
 20
-11.7082
 10
593.1623
 20
-11.2705
 10
593.184
 20
-10.8195
 10
593.1913
 20
-10.3552
 10
593.1791
 20
-9.8848
 10
593.1423
 20
-9.4155
 10
593.0811
 20
-8.9474
 10
592.9953
 20
-8.4805
 10
592.8851
 20
-8.0149
 10
592.7503
 20
-7.5504
 10
592.5911
 20
-7.0872
 10
592.4073
 20
-6.6252
 10
592.2005
 20
-6.1745
 10
591.9725
 20
-5.745
 10
591.7234
 20
-5.3367
 10
591.4531
 20
-4.9496
 10
591.1617
 20
-4.5837
 10
590.8492
 20
-4.2391
 10
590.5154
 20
-3.9158
 10
590.1605
 20
-3.6137
 10
590.6653
 20
-2.9561
 10
591.1028
 20
-2.2844
 10
591.4729
 20
-1.5988
 10
591.7757
 20
-0.8992
 10
592.0112
 20
-0.1856
 10
592.1794
 20
0.542
 10
592.2804
 20
1.2835
 10
592.314
 20
2.039
 10
592.291
 20
2.7844
 10
592.2218
 20
3.4952
 10
592.1066
 20
4.1712
 10
591.9452
 20
4.8126
 10
591.7377
 20
5.4194
 10
591.4841
 20
5.9916
 10
591.1844
 20
6.5291
 10
590.8385
 20
7.0321
 10
590.4728
 20
7.4693
 10
590.0838
 20
7.8482
 10
589.6716
 20
8.1687
 10
589.2362
 20
8.431
 10
588.7774
 20
8.6349
 10
588.2955
 20
8.7806
 10
587.7903
 20
8.868
 10
587.2618
 20
8.8971
 10
586.7334
 20
8.868
 10
586.2282
 20
8.7806
 10
585.7463
 20
8.6349
 10
585.2876
 20
8.431
 10
584.8522
 20
8.1687
 10
584.4401
 20
7.8482
 10
584.0513
 20
7.4693
 10
583.6858
 20
7.0321
 10
583.3399
 20
6.5294
 10
583.0401
 20
5.9927
 10
582.7863
 20
5.4221
 10
582.5787
 20
4.8174
 10
582.4173
 20
4.1787
 10
582.3019
 20
3.5061
 10
582.2327
 20
2.7993
 10
582.2096
 20
2.0586
 10
582.2433
 20
1.2984
 10
582.3443
 20
0.5529
 10
582.5126
 20
-0.1781
 10
582.7482
 20
-0.8944
 10
583.0512
 20
-1.5961
 10
583.4214
 20
-2.2833
 10
583.859
 20
-2.9558
 10
584.3638
 20
-3.6137
 10
584.0087
 20
-3.9158
 10
583.6748
 20
-4.2391
 10
583.3621
 20
-4.5837
 10
583.0706
 20
-4.9496
 10
582.8003
 20
-5.3367
 10
582.5512
 20
-5.745
 10
582.3232
 20
-6.1745
 10
582.1164
 20
-6.6252
 10
581.9326
 20
-7.0881
 10
581.7734
 20
-7.5541
 10
581.6386
 20
-8.0231
 10
581.5284
 20
-8.4951
 10
581.4426
 20
-8.9701
 10
581.3814
 20
-9.4481
 10
581.3446
 20
-9.9291
 10
581.3324
 20
-10.413
 10
581.3596
 20
-11.281
 10
581.4413
 20
-12.107
 10
581.5773
 20
-12.8911
 10
581.7678
 20
-13.6333
 10
582.0128
 20
-14.3335
 10
582.3121
 20
-14.9919
 10
582.6659
 20
-15.6085
 10
583.0741
 20
-16.1832
 10
583.5117
 20
-16.6886
 10
583.9739
 20
-17.1266
 10
584.4606
 20
-17.4972
 10
584.9718
 20
-17.8004
 10
585.5075
 20
-18.0362
 10
586.0677
 20
-18.2046
 10
586.6525
 20
-18.3056
 10
587.2618
 20
-18.3393
  0
LWPOLYLINE
  5
71
330
1F
100
AcDbEntity
  8
Layer 1
 62
     7
100
AcDbPolyline
 90
      136
 70
     1
 43
0.0
 10
599.0148
 20
-1.3215
 10
600.2381
 20
5.7502
 10
606.7792
 20
5.7502
 10
606.7792
 20
8.4698
 10
598.8283
 20
8.4698
 10
596.7546
 20
-3.3805
 10
598.7753
 20
-4.7015
 10
599.0684
 20
-4.4102
 10
599.376
 20
-4.1577
 10
599.6982
 20
-3.9441
 10
600.035
 20
-3.7694
 10
600.3862
 20
-3.6335
 10
600.752
 20
-3.5364
 10
601.1323
 20
-3.4782
 10
601.5272
 20
-3.4588
 10
601.9244
 20
-3.4873
 10
602.3084
 20
-3.5728
 10
602.679
 20
-3.7154
 10
603.0363
 20
-3.915
 10
603.3804
 20
-4.1717
 10
603.7111
 20
-4.4856
 10
604.0285
 20
-4.8565
 10
604.3326
 20
-5.2846
 10
604.6194
 20
-5.7621
 10
604.8679
 20
-6.2572
 10
605.0781
 20
-6.7699
 10
605.2501
 20
-7.3002
 10
605.3839
 20
-7.8481
 10
605.4795
 20
-8.4137
 10
605.5368
 20
-8.9968
 10
605.5559
 20
-9.5976
 10
605.5364
 20
-10.2191
 10
605.4778
 20
-10.8156
 10
605.3801
 20
-11.3872
 10
605.2435
 20
-11.9338
 10
605.0677
 20
-12.4556
 10
604.853
 20
-12.9524
 10
604.5992
 20
-13.4243
 10
604.3064
 20
-13.8714
 10
604.1573
 20
-14.0702
 10
604.0029
 20
-14.2588
 10
603.8431
 20
-14.437
 10
603.6779
 20
-14.6049
 10
603.5074
 20
-14.7625
 10
603.3314
 20
-14.9097
 10
603.15
 20
-15.0465
 10
602.9631
 20
-15.1729
 10
602.7683
 20
-15.2868
 10
602.5627
 20
-15.3855
 10
602.3463
 20
-15.4691
 10
602.1191
 20
-15.5374
 10
601.8811
 20
-15.5906
 10
601.6322
 20
-15.6285
 10
601.3725
 20
-15.6513
 10
601.1019
 20
-15.6589
 10
600.8263
 20
-15.6419
 10
600.5511
 20
-15.5908
 10
600.2763
 20
-15.5058
 10
600.0018
 20
-15.3867
 10
599.7278
 20
-15.2337
 10
599.4541
 20
-15.0468
 10
599.1809
 20
-14.8259
 10
598.9082
 20
-14.5711
 10
598.6456
 20
-14.2887
 10
598.403
 20
-13.9857
 10
598.1803
 20
-13.6621
 10
597.9775
 20
-13.3178
 10
597.7947
 20
-12.9529
 10
597.6319
 20
-12.5673
 10
597.4891
 20
-12.161
 10
597.3662
 20
-11.7341
 10
595.5581
 20
-12.5895
 10
595.7357
 20
-13.229
 10
595.9428
 20
-13.8364
 10
596.1794
 20
-14.4115
 10
596.4455
 20
-14.9545
 10
596.7411
 20
-15.4652
 10
597.0662
 20
-15.9438
 10
597.4208
 20
-16.3903
 10
597.8049
 20
-16.8046
 10
598.2134
 20
-17.1827
 10
598.6309
 20
-17.5103
 10
599.0575
 20
-17.7876
 10
599.4933
 20
-18.0144
 10
599.9382
 20
-18.1908
 10
600.3923
 20
-18.3168
 10
600.8555
 20
-18.3924
 10
601.3279
 20
-18.4176
 10
601.9574
 20
-18.376
 10
602.5627
 20
-18.2512
 10
603.144
 20
-18.0432
 10
603.7011
 20
-17.7521
 10
604.2342
 20
-17.3778
 10
604.7431
 20
-16.9203
 10
605.228
 20
-16.3797
 10
605.6887
 20
-15.756
 10
606.1064
 20
-15.0787
 10
606.4683
 20
-14.3681
 10
606.7746
 20
-13.6241
 10
607.0252
 20
-12.8468
 10
607.22
 20
-12.0361
 10
607.3592
 20
-11.192
 10
607.4428
 20
-10.3145
 10
607.4706
 20
-9.4035
 10
607.4432
 20
-8.4973
 10
607.3609
 20
-7.6294
 10
607.2237
 20
-6.7998
 10
607.0317
 20
-6.0084
 10
606.7849
 20
-5.2554
 10
606.4832
 20
-4.5405
 10
606.1267
 20
-3.864
 10
605.7155
 20
-3.2256
 10
605.5053
 20
-2.9418
 10
605.2867
 20
-2.6731
 10
605.0598
 20
-2.4197
 10
604.8246
 20
-2.1814
 10
604.5811
 20
-1.9583
 10
604.3292
 20
-1.7504
 10
604.0691
 20
-1.5577
 10
603.8007
 20
-1.3802
 10
603.5269
 20
-1.2206
 10
603.2508
 20
-1.0824
 10
602.9722
 20
-0.9655
 10
602.6914
 20
-0.8699
 10
602.4082
 20
-0.7956
 10
602.1228
 20
-0.7425
 10
601.8352
 20
-0.7107
 10
601.5454
 20
-0.7001
 10
601.2499
 20
-0.7098
 10
600.9485
 20
-0.739
 10
600.6412
 20
-0.7876
 10
600.3281
 20
-0.8556
 10
600.0089
 20
-0.943
 10
599.6837
 20
-1.0498
 10
599.3523
 20
-1.1759
 10
599.0148
 20
-1.3215
  0
LWPOLYLINE
  5
72
330
1F
100
AcDbEntity
  8
Layer 1
 62
     7
100
AcDbPolyline
 90
      129
 70
     1
 43
0.0
 10
617.7742
 20
5.4004
 10
618.0812
 20
5.0956
 10
618.3674
 20
4.7496
 10
618.6329
 20
4.3622
 10
618.8776
 20
3.9336
 10
619.1016
 20
3.4636
 10
619.3047
 20
2.9523
 10
619.4872
 20
2.3997
 10
619.6488
 20
1.8058
 10
619.8296
 20
1.0182
 10
619.9862
 20
0.2191
 10
620.1188
 20
-0.5915
 10
620.2272
 20
-1.4137
 10
620.3116
 20
-2.2475
 10
620.3718
 20
-3.0928
 10
620.408
 20
-3.9497
 10
620.42
 20
-4.8182
 10
620.4187
 20
-5.0267
 10
620.415
 20
-5.2445
 10
620.4087
 20
-5.4713
 10
620.4
 20
-5.7073
 10
620.3887
 20
-5.9523
 10
620.375
 20
-6.2065
 10
620.3588
 20
-6.4697
 10
620.3402
 20
-6.7419
 10
620.248
 20
-7.7863
 10
620.1274
 20
-8.773
 10
619.9787
 20
-9.7021
 10
619.8016
 20
-10.5736
 10
619.5963
 20
-11.3874
 10
619.3628
 20
-12.1437
 10
619.1011
 20
-12.8423
 10
618.8111
 20
-13.4833
 10
618.5465
 20
-13.9659
 10
618.2678
 20
-14.3841
 10
617.975
 20
-14.738
 10
617.668
 20
-15.0276
 10
617.3469
 20
-15.2528
 10
617.0116
 20
-15.4136
 10
616.6622
 20
-15.5101
 10
616.2987
 20
-15.5423
 10
615.8929
 20
-15.5104
 10
615.5067
 20
-15.4148
 10
615.14
 20
-15.2554
 10
614.7928
 20
-15.0322
 10
614.4651
 20
-14.7453
 10
614.157
 20
-14.3946
 10
613.8684
 20
-13.9802
 10
613.5993
 20
-13.502
 10
613.4855
 20
-13.2703
 10
613.3767
 20
-13.0313
 10
613.2728
 20
-12.7849
 10
613.174
 20
-12.5312
 10
613.0801
 20
-12.2702
 10
612.9913
 20
-12.0018
 10
612.9075
 20
-11.7261
 10
612.8287
 20
-11.443
 10
612.7544
 20
-11.1557
 10
612.6848
 20
-10.8665
 10
612.6197
 20
-10.5754
 10
612.5592
 20
-10.2825
 10
612.5033
 20
-9.9877
 10
612.452
 20
-9.691
 10
612.4053
 20
-9.3925
 10
612.3632
 20
-9.092
 10
612.3247
 20
-8.7921
 10
612.2892
 20
-8.4947
 10
612.2566
 20
-8.1998
 10
612.2269
 20
-7.9074
 10
612.2002
 20
-7.6173
 10
612.1763
 20
-7.3296
 10
612.1553
 20
-7.0443
 10
612.1372
 20
-6.7614
 10
612.1216
 20
-6.4742
 10
612.1081
 20
-6.1762
 10
612.0966
 20
-5.8674
 10
612.0873
 20
-5.5479
 10
612.0801
 20
-5.2178
 10
612.0749
 20
-4.8772
 10
612.0718
 20
-4.5262
 10
612.0708
 20
-4.1648
 10
612.0754
 20
-3.787
 10
612.0891
 20
-3.3873
 10
612.1119
 20
-2.9657
 10
612.1439
 20
-2.522
 10
612.185
 20
-2.0562
 10
612.2353
 20
-1.5681
 10
612.2947
 20
-1.0577
 10
612.3632
 20
-0.5248
 10
612.4051
 20
-0.229
 10
612.4511
 20
0.0662
 10
612.5014
 20
0.3609
 10
612.5559
 20
0.655
 10
612.6145
 20
0.9484
 10
612.6773
 20
1.2413
 10
612.7442
 20
1.5337
 10
612.8153
 20
1.8254
 10
612.8911
 20
2.1132
 10
612.9722
 20
2.3937
 10
613.0588
 20
2.6669
 10
613.1508
 20
2.9329
 10
613.2482
 20
3.1915
 10
613.351
 20
3.4428
 10
613.4593
 20
3.6868
 10
613.5731
 20
3.9235
 10
613.6923
 20
4.1511
 10
613.8173
 20
4.367
 10
613.9482
 20
4.5714
 10
614.0848
 20
4.7642
 10
614.2273
 20
4.9455
 10
614.3757
 20
5.1152
 10
614.5298
 20
5.2734
 10
614.6898
 20
5.42
 10
614.8564
 20
5.552
 10
615.0305
 20
5.6665
 10
615.2121
 20
5.7633
 10
615.4011
 20
5.8426
 10
615.5976
 20
5.9042
 10
615.8015
 20
5.9482
 10
616.0129
 20
5.9746
 10
616.2317
 20
5.9834
 10
616.4507
 20
5.9743
 10
616.6622
 20
5.9469
 10
616.8663
 20
5.9013
 10
617.0628
 20
5.8374
 10
617.2519
 20
5.7554
 10
617.4335
 20
5.6552
 10
617.6076
 20
5.5369
 10
617.7742
 20
5.4004
  0
LWPOLYLINE
  5
73
330
1F
100
AcDbEntity
  8
Layer 1
 62
     7
100
AcDbPolyline
 90
       65
 70
     1
 43
0.0
 10
616.3249
 20
-18.301
 10
617.1012
 20
-18.2291
 10
617.828
 20
-18.0132
 10
618.5055
 20
-17.6535
 10
619.1335
 20
-17.15
 10
619.7121
 20
-16.5025
 10
620.2412
 20
-15.7112
 10
620.7209
 20
-14.776
 10
621.1511
 20
-13.6969
 10
621.4533
 20
-12.7551
 10
621.7153
 20
-11.7612
 10
621.9369
 20
-10.7151
 10
622.1183
 20
-9.6168
 10
622.2594
 20
-8.4663
 10
622.3602
 20
-7.2636
 10
622.4206
 20
-6.0087
 10
622.4408
 20
-4.7015
 10
622.4206
 20
-3.3946
 10
622.3602
 20
-2.1399
 10
622.2594
 20
-0.9374
 10
622.1183
 20
0.213
 10
621.9369
 20
1.3112
 10
621.7153
 20
2.3573
 10
621.4533
 20
3.3512
 10
621.1511
 20
4.293
 10
620.7209
 20
5.3721
 10
620.2412
 20
6.3073
 10
619.7121
 20
7.0986
 10
619.1335
 20
7.7461
 10
618.5055
 20
8.2496
 10
617.828
 20
8.6093
 10
617.1012
 20
8.8252
 10
616.3249
 20
8.8971
 10
615.5486
 20
8.8252
 10
614.8218
 20
8.6093
 10
614.1444
 20
8.2496
 10
613.5164
 20
7.7461
 10
612.9378
 20
7.0986
 10
612.4086
 20
6.3073
 10
611.929
 20
5.3721
 10
611.4987
 20
4.293
 10
611.1965
 20
3.3512
 10
610.9345
 20
2.3573
 10
610.7129
 20
1.3112
 10
610.5315
 20
0.213
 10
610.3904
 20
-0.9374
 10
610.2896
 20
-2.1399
 10
610.2292
 20
-3.3946
 10
610.209
 20
-4.7015
 10
610.2292
 20
-6.0087
 10
610.2896
 20
-7.2636
 10
610.3904
 20
-8.4663
 10
610.5315
 20
-9.6168
 10
610.7129
 20
-10.7151
 10
610.9345
 20
-11.7612
 10
611.1965
 20
-12.7551
 10
611.4987
 20
-13.6969
 10
611.929
 20
-14.776
 10
612.4086
 20
-15.7112
 10
612.9378
 20
-16.5025
 10
613.5164
 20
-17.15
 10
614.1444
 20
-17.6535
 10
614.8218
 20
-18.0132
 10
615.5486
 20
-18.2291
 10
616.3249
 20
-18.301
  0
LWPOLYLINE
  5
74
330
1F
100
AcDbEntity
  8
Layer 1
 62
     7
100
AcDbPolyline
 90
      165
 70
     1
 43
0.0
 10
640.602
 20
-17.8737
 10
642.4632
 20
-17.8737
 10
642.4632
 20
-7.1887
 10
642.448
 20
-6.4794
 10
642.4025
 20
-5.8034
 10
642.3267
 20
-5.1608
 10
642.2206
 20
-4.5516
 10
642.0841
 20
-3.9757
 10
641.9173
 20
-3.4333
 10
641.7202
 20
-2.9242
 10
641.4927
 20
-2.4485
 10
641.3656
 20
-2.2209
 10
641.2307
 20
-2.005
 10
641.088
 20
-1.8006
 10
640.9374
 20
-1.6078
 10
640.7789
 20
-1.4265
 10
640.6125
 20
-1.2568
 10
640.4382
 20
-1.0986
 10
640.256
 20
-0.952
 10
640.0624
 20
-0.8202
 10
639.8538
 20
-0.706
 10
639.6303
 20
-0.6093
 10
639.3918
 20
-0.5302
 10
639.1384
 20
-0.4686
 10
638.87
 20
-0.4246
 10
638.5866
 20
-0.3982
 10
638.2882
 20
-0.3894
 10
637.9873
 20
-0.4046
 10
637.6959
 20
-0.45
 10
637.4141
 20
-0.5258
 10
637.1418
 20
-0.632
 10
636.8791
 20
-0.7685
 10
636.6259
 20
-0.9355
 10
636.3822
 20
-1.1328
 10
636.1481
 20
-1.3606
 10
635.9448
 20
-1.5875
 10
635.7507
 20
-1.8312
 10
635.5658
 20
-2.0918
 10
635.39
 20
-2.3689
 10
635.2234
 20
-2.6624
 10
635.066
 20
-2.9721
 10
634.9177
 20
-3.2979
 10
634.7786
 20
-3.6395
 10
634.6704
 20
-3.3241
 10
634.5523
 20
-3.0196
 10
634.4243
 20
-2.7274
 10
634.2863
 20
-2.4485
 10
634.1595
 20
-2.2209
 10
634.0247
 20
-2.005
 10
633.8821
 20
-1.8006
 10
633.7316
 20
-1.6078
 10
633.5731
 20
-1.4265
 10
633.4067
 20
-1.2568
 10
633.2324
 20
-1.0986
 10
633.0502
 20
-0.952
 10
632.8565
 20
-0.8202
 10
632.6479
 20
-0.706
 10
632.4243
 20
-0.6093
 10
632.1858
 20
-0.5302
 10
631.9324
 20
-0.4686
 10
631.664
 20
-0.4246
 10
631.3807
 20
-0.3982
 10
631.0825
 20
-0.3894
 10
630.7814
 20
-0.4046
 10
630.4899
 20
-0.45
 10
630.2079
 20
-0.5258
 10
629.9356
 20
-0.632
 10
629.6728
 20
-0.7685
 10
629.4195
 20
-0.9355
 10
629.1759
 20
-1.1328
 10
628.9417
 20
-1.3606
 10
628.7482
 20
-1.5766
 10
628.563
 20
-1.8073
 10
628.3861
 20
-2.0529
 10
628.2175
 20
-2.3133
 10
628.0571
 20
-2.5885
 10
627.9051
 20
-2.8787
 10
627.7613
 20
-3.184
 10
627.6258
 20
-3.5042
 10
627.6258
 20
-0.7776
 10
625.7647
 20
-0.7776
 10
625.7647
 20
-17.8737
 10
627.6258
 20
-17.8737
 10
627.6258
 20
-9.1249
 10
627.669
 20
-8.6151
 10
627.7255
 20
-8.1253
 10
627.7953
 20
-7.6551
 10
627.8784
 20
-7.2046
 10
627.9748
 20
-6.7734
 10
628.0844
 20
-6.3616
 10
628.2073
 20
-5.969
 10
628.3435
 20
-5.5953
 10
628.4545
 20
-5.3296
 10
628.5746
 20
-5.0759
 10
628.7038
 20
-4.8343
 10
628.8421
 20
-4.6047
 10
628.9896
 20
-4.3873
 10
629.1462
 20
-4.182
 10
629.312
 20
-3.9888
 10
629.487
 20
-3.8078
 10
629.6682
 20
-3.6441
 10
629.8527
 20
-3.5022
 10
630.0406
 20
-3.3821
 10
630.2317
 20
-3.2838
 10
630.4262
 20
-3.2073
 10
630.624
 20
-3.1527
 10
630.8251
 20
-3.1199
 10
631.0295
 20
-3.109
 10
631.2289
 20
-3.1148
 10
631.415
 20
-3.132
 10
631.5878
 20
-3.1608
 10
631.7473
 20
-3.2011
 10
631.8935
 20
-3.2529
 10
632.0264
 20
-3.3163
 10
632.1459
 20
-3.3911
 10
632.2522
 20
-3.4775
 10
632.5203
 20
-3.7671
 10
632.7526
 20
-4.1066
 10
632.9492
 20
-4.4958
 10
633.11
 20
-4.9349
 10
633.235
 20
-5.4237
 10
633.3243
 20
-5.9623
 10
633.3778
 20
-6.5506
 10
633.3957
 20
-7.1887
 10
633.3957
 20
-17.8737
 10
635.2574
 20
-17.8737
 10
635.2574
 20
-7.1887
 10
635.244
 20
-6.5344
 10
635.3128
 20
-6.2868
 10
635.3866
 20
-6.0482
 10
635.4656
 20
-5.8179
 10
635.5498
 20
-5.5953
 10
635.6606
 20
-5.3296
 10
635.7806
 20
-5.0759
 10
635.9098
 20
-4.8343
 10
636.0482
 20
-4.6047
 10
636.1956
 20
-4.3873
 10
636.3522
 20
-4.182
 10
636.5179
 20
-3.9888
 10
636.6927
 20
-3.8078
 10
636.8739
 20
-3.6441
 10
637.0585
 20
-3.5022
 10
637.2463
 20
-3.3821
 10
637.4375
 20
-3.2838
 10
637.6319
 20
-3.2073
 10
637.8297
 20
-3.1527
 10
638.0308
 20
-3.1199
 10
638.2352
 20
-3.109
 10
638.4346
 20
-3.1148
 10
638.6208
 20
-3.132
 10
638.7936
 20
-3.1608
 10
638.9531
 20
-3.2011
 10
639.0994
 20
-3.2529
 10
639.2323
 20
-3.3163
 10
639.3521
 20
-3.3911
 10
639.4585
 20
-3.4775
 10
639.7265
 20
-3.7671
 10
639.9587
 20
-4.1066
 10
640.1553
 20
-4.4958
 10
640.3161
 20
-4.9349
 10
640.4412
 20
-5.4237
 10
640.5305
 20
-5.9623
 10
640.5841
 20
-6.5506
 10
640.602
 20
-7.1887
 10
640.602
 20
-17.8737
  0
LWPOLYLINE
  5
75
330
1F
100
AcDbEntity
  8
Layer 1
 62
     7
100
AcDbPolyline
 90
      165
 70
     1
 43
0.0
 10
660.8906
 20
-17.8737
 10
662.7518
 20
-17.8737
 10
662.7518
 20
-7.1887
 10
662.7366
 20
-6.4794
 10
662.6911
 20
-5.8034
 10
662.6153
 20
-5.1608
 10
662.5092
 20
-4.5516
 10
662.3727
 20
-3.9757
 10
662.2059
 20
-3.4333
 10
662.0088
 20
-2.9242
 10
661.7813
 20
-2.4485
 10
661.6542
 20
-2.2209
 10
661.5193
 20
-2.005
 10
661.3766
 20
-1.8006
 10
661.226
 20
-1.6078
 10
661.0675
 20
-1.4265
 10
660.9011
 20
-1.2568
 10
660.7268
 20
-1.0986
 10
660.5446
 20
-0.952
 10
660.351
 20
-0.8202
 10
660.1424
 20
-0.706
 10
659.9189
 20
-0.6093
 10
659.6804
 20
-0.5302
 10
659.427
 20
-0.4686
 10
659.1586
 20
-0.4246
 10
658.8752
 20
-0.3982
 10
658.5768
 20
-0.3894
 10
658.2759
 20
-0.4046
 10
657.9845
 20
-0.45
 10
657.7027
 20
-0.5258
 10
657.4304
 20
-0.632
 10
657.1677
 20
-0.7685
 10
656.9145
 20
-0.9355
 10
656.6708
 20
-1.1328
 10
656.4367
 20
-1.3606
 10
656.2334
 20
-1.5875
 10
656.0393
 20
-1.8312
 10
655.8544
 20
-2.0918
 10
655.6786
 20
-2.3689
 10
655.512
 20
-2.6624
 10
655.3546
 20
-2.9721
 10
655.2063
 20
-3.2979
 10
655.0672
 20
-3.6395
 10
654.959
 20
-3.3241
 10
654.8409
 20
-3.0196
 10
654.7129
 20
-2.7274
 10
654.5749
 20
-2.4485
 10
654.4481
 20
-2.2209
 10
654.3133
 20
-2.005
 10
654.1707
 20
-1.8006
 10
654.0202
 20
-1.6078
 10
653.8617
 20
-1.4265
 10
653.6953
 20
-1.2568
 10
653.521
 20
-1.0986
 10
653.3388
 20
-0.952
 10
653.1451
 20
-0.8202
 10
652.9365
 20
-0.706
 10
652.7129
 20
-0.6093
 10
652.4744
 20
-0.5302
 10
652.221
 20
-0.4686
 10
651.9526
 20
-0.4246
 10
651.6693
 20
-0.3982
 10
651.3711
 20
-0.3894
 10
651.07
 20
-0.4046
 10
650.7785
 20
-0.45
 10
650.4965
 20
-0.5258
 10
650.2242
 20
-0.632
 10
649.9614
 20
-0.7685
 10
649.7081
 20
-0.9355
 10
649.4645
 20
-1.1328
 10
649.2303
 20
-1.3606
 10
649.0368
 20
-1.5766
 10
648.8516
 20
-1.8073
 10
648.6747
 20
-2.0529
 10
648.5061
 20
-2.3133
 10
648.3457
 20
-2.5885
 10
648.1937
 20
-2.8787
 10
648.0499
 20
-3.184
 10
647.9144
 20
-3.5042
 10
647.9144
 20
-0.7776
 10
646.0533
 20
-0.7776
 10
646.0533
 20
-17.8737
 10
647.9144
 20
-17.8737
 10
647.9144
 20
-9.1249
 10
647.9576
 20
-8.6151
 10
648.0141
 20
-8.1253
 10
648.0839
 20
-7.6551
 10
648.167
 20
-7.2046
 10
648.2634
 20
-6.7734
 10
648.373
 20
-6.3616
 10
648.4959
 20
-5.969
 10
648.6321
 20
-5.5953
 10
648.7431
 20
-5.3296
 10
648.8632
 20
-5.0759
 10
648.9924
 20
-4.8343
 10
649.1307
 20
-4.6047
 10
649.2782
 20
-4.3873
 10
649.4348
 20
-4.182
 10
649.6005
 20
-3.9888
 10
649.7755
 20
-3.8078
 10
649.9567
 20
-3.6441
 10
650.1413
 20
-3.5022
 10
650.3292
 20
-3.3821
 10
650.5203
 20
-3.2838
 10
650.7148
 20
-3.2073
 10
650.9126
 20
-3.1527
 10
651.1137
 20
-3.1199
 10
651.3181
 20
-3.109
 10
651.5175
 20
-3.1148
 10
651.7036
 20
-3.132
 10
651.8764
 20
-3.1608
 10
652.0359
 20
-3.2011
 10
652.1821
 20
-3.2529
 10
652.3149
 20
-3.3163
 10
652.4345
 20
-3.3911
 10
652.5408
 20
-3.4775
 10
652.8089
 20
-3.7671
 10
653.0412
 20
-4.1066
 10
653.2378
 20
-4.4958
 10
653.3986
 20
-4.9349
 10
653.5236
 20
-5.4237
 10
653.6129
 20
-5.9623
 10
653.6664
 20
-6.5506
 10
653.6843
 20
-7.1887
 10
653.6843
 20
-17.8737
 10
655.546
 20
-17.8737
 10
655.546
 20
-7.1887
 10
655.5326
 20
-6.5344
 10
655.6014
 20
-6.2868
 10
655.6752
 20
-6.0482
 10
655.7542
 20
-5.8179
 10
655.8384
 20
-5.5953
 10
655.9492
 20
-5.3296
 10
656.0692
 20
-5.0759
 10
656.1984
 20
-4.8343
 10
656.3368
 20
-4.6047
 10
656.4842
 20
-4.3873
 10
656.6408
 20
-4.182
 10
656.8065
 20
-3.9888
 10
656.9813
 20
-3.8078
 10
657.1625
 20
-3.6441
 10
657.3471
 20
-3.5022
 10
657.5349
 20
-3.3821
 10
657.7261
 20
-3.2838
 10
657.9205
 20
-3.2073
 10
658.1183
 20
-3.1527
 10
658.3194
 20
-3.1199
 10
658.5238
 20
-3.109
 10
658.7232
 20
-3.1148
 10
658.9093
 20
-3.132
 10
659.0821
 20
-3.1608
 10
659.2417
 20
-3.2011
 10
659.3879
 20
-3.2529
 10
659.5209
 20
-3.3163
 10
659.6406
 20
-3.3911
 10
659.7471
 20
-3.4775
 10
660.0151
 20
-3.7671
 10
660.2473
 20
-4.1066
 10
660.4439
 20
-4.4958
 10
660.6047
 20
-4.9349
 10
660.7298
 20
-5.4237
 10
660.8191
 20
-5.9623
 10
660.8727
 20
-6.5506
 10
660.8906
 20
-7.1887
 10
660.8906
 20
-17.8737
  0
LWPOLYLINE
  5
76
330
1F
100
AcDbEntity
  8
Layer 1
 62
     7
370
    18
100
AcDbPolyline
 90
        2
 70
     0
 43
0.0
 10
632.756
 20
332.1456
 10
617.2424
 20
332.1456
  0
LWPOLYLINE
  5
77
330
1F
100
AcDbEntity
  8
Layer 1
 62
     7
370
    18
100
AcDbPolyline
 90
        2
 70
     0
 43
0.0
 10
624.9989
 20
332.1511
 10
624.9989
 20
27.4798
  0
LWPOLYLINE
  5
78
330
1F
100
AcDbEntity
  8
Layer 1
 62
     7
370
    18
100
AcDbPolyline
 90
        2
 70
     0
 43
0.0
 10
632.756
 20
-412.3588
 10
617.2424
 20
-412.3588
  0
LWPOLYLINE
  5
79
330
1F
100
AcDbEntity
  8
Layer 1
 62
     7
370
    18
100
AcDbPolyline
 90
        2
 70
     0
 43
0.0
 10
624.9989
 20
-412.3672
 10
624.9989
 20
-51.3672
  0
LWPOLYLINE
  5
7A
330
1F
100
AcDbEntity
  8
Layer 1
 62
     7
100
AcDbPolyline
 90
        4
 70
     1
 43
0.0
 10
382.4106
 20
425.0757
 10
382.4106
 20
410.2655
 10
375.705
 20
410.2655
 10
382.4106
 20
425.0757
  0
LWPOLYLINE
  5
7B
330
1F
100
AcDbEntity
  8
Layer 1
 62
     7
100
AcDbPolyline
 90
       11
 70
     1
 43
0.0
 10
384.293
 20
407.5522
 10
386.5112
 20
407.5522
 10
386.5112
 20
410.2655
 10
384.293
 20
410.2655
 10
384.2675
 20
427.9394
 10
381.7398
 20
427.9394
 10
372.5072
 20
407.5522
 10
382.4106
 20
407.5522
 10
382.4106
 20
402.3143
 10
384.293
 20
402.3143
 10
384.293
 20
407.5522
  0
LWPOLYLINE
  5
7C
330
1F
100
AcDbEntity
  8
Layer 1
 62
     7
100
AcDbPolyline
 90
        7
 70
     1
 43
0.0
 10
391.5396
 20
402.3143
 10
393.3453
 20
402.3143
 10
393.3453
 20
428.2412
 10
389.0126
 20
427.5629
 10
389.0126
 20
425.2644
 10
391.5396
 20
425.2644
 10
391.5396
 20
402.3143
  0
LWPOLYLINE
  5
7D
330
1F
100
AcDbEntity
  8
Layer 1
 62
     7
100
AcDbPolyline
 90
      129
 70
     1
 43
0.0
 10
403.7513
 20
424.9626
 10
404.0492
 20
424.6671
 10
404.3269
 20
424.3315
 10
404.5844
 20
423.9558
 10
404.8218
 20
423.5401
 10
405.0391
 20
423.0842
 10
405.2361
 20
422.5884
 10
405.4131
 20
422.0525
 10
405.5698
 20
421.4766
 10
405.745
 20
420.7126
 10
405.8969
 20
419.9375
 10
406.0255
 20
419.1512
 10
406.1307
 20
418.3538
 10
406.2126
 20
417.5452
 10
406.2711
 20
416.7254
 10
406.3062
 20
415.8944
 10
406.3179
 20
415.0521
 10
406.3167
 20
414.8497
 10
406.313
 20
414.6385
 10
406.3069
 20
414.4185
 10
406.2984
 20
414.1896
 10
406.2875
 20
413.952
 10
406.2742
 20
413.7055
 10
406.2585
 20
413.4503
 10
406.2405
 20
413.1863
 10
406.151
 20
412.1733
 10
406.0341
 20
411.2162
 10
405.8898
 20
410.315
 10
405.7181
 20
409.4697
 10
405.519
 20
408.6803
 10
405.2925
 20
407.9468
 10
405.0385
 20
407.2693
 10
404.7571
 20
406.6478
 10
404.5005
 20
406.1799
 10
404.2302
 20
405.7743
 10
403.9461
 20
405.4312
 10
403.6483
 20
405.1504
 10
403.3368
 20
404.9319
 10
403.0116
 20
404.7759
 10
402.6727
 20
404.6823
 10
402.3202
 20
404.6511
 10
401.9267
 20
404.682
 10
401.5522
 20
404.7746
 10
401.1966
 20
404.9291
 10
400.8599
 20
405.1454
 10
400.5422
 20
405.4235
 10
400.2434
 20
405.7635
 10
399.9635
 20
406.1653
 10
399.7025
 20
406.6291
 10
399.5921
 20
406.854
 10
399.4865
 20
407.0859
 10
399.3857
 20
407.325
 10
399.2898
 20
407.5712
 10
399.1987
 20
407.8244
 10
399.1124
 20
408.0848
 10
399.031
 20
408.3522
 10
398.9543
 20
408.6267
 10
398.8825
 20
408.9053
 10
398.8151
 20
409.1858
 10
398.7521
 20
409.4681
 10
398.6935
 20
409.7522
 10
398.6394
 20
410.0381
 10
398.5896
 20
410.3258
 10
398.5444
 20
410.6153
 10
398.5035
 20
410.9065
 10
398.4661
 20
411.1974
 10
398.4316
 20
411.4859
 10
398.3999
 20
411.772
 10
398.3711
 20
412.0557
 10
398.3451
 20
412.3371
 10
398.3219
 20
412.6162
 10
398.3016
 20
412.8931
 10
398.2842
 20
413.1676
 10
398.269
 20
413.446
 10
398.2559
 20
413.7349
 10
398.2448
 20
414.0344
 10
398.2357
 20
414.3443
 10
398.2286
 20
414.6645
 10
398.2236
 20
414.9949
 10
398.2206
 20
415.3354
 10
398.2196
 20
415.6859
 10
398.224
 20
416.0523
 10
398.2373
 20
416.44
 10
398.2595
 20
416.8489
 10
398.2905
 20
417.2791
 10
398.3304
 20
417.7308
 10
398.3792
 20
418.2041
 10
398.4369
 20
418.6989
 10
398.5035
 20
419.2155
 10
398.5441
 20
419.5026
 10
398.5888
 20
419.7892
 10
398.6376
 20
420.0751
 10
398.6903
 20
420.3604
 10
398.7471
 20
420.6451
 10
398.8079
 20
420.9292
 10
398.8727
 20
421.2126
 10
398.9415
 20
421.4953
 10
399.0152
 20
421.7745
 10
399.094
 20
422.0466
 10
399.1781
 20
422.3116
 10
399.2674
 20
422.5695
 10
399.3619
 20
422.8204
 10
399.4617
 20
423.0641
 10
399.5667
 20
423.3007
 10
399.6769
 20
423.5303
 10
399.7925
 20
423.751
 10
399.9138
 20
423.9604
 10
400.0407
 20
424.1586
 10
400.1732
 20
424.3456
 10
400.3114
 20
424.5213
 10
400.4553
 20
424.6858
 10
400.6048
 20
424.8392
 10
400.76
 20
424.9813
 10
400.9215
 20
425.1096
 10
401.0904
 20
425.2207
 10
401.2665
 20
425.3146
 10
401.4498
 20
425.3915
 10
401.6405
 20
425.4512
 10
401.8383
 20
425.4938
 10
402.0434
 20
425.5194
 10
402.2557
 20
425.5279
 10
402.4682
 20
425.5191
 10
402.6733
 20
425.4925
 10
402.8712
 20
425.4483
 10
403.0617
 20
425.3865
 10
403.245
 20
425.307
 10
403.421
 20
425.2098
 10
403.5898
 20
425.095
 10
403.7513
 20
424.9626
  0
LWPOLYLINE
  5
7E
330
1F
100
AcDbEntity
  8
Layer 1
 62
     7
100
AcDbPolyline
 90
       65
 70
     1
 43
0.0
 10
402.3458
 20
401.9752
 10
403.0988
 20
402.045
 10
403.8038
 20
402.2543
 10
404.4609
 20
402.6031
 10
405.07
 20
403.0915
 10
405.6311
 20
403.7194
 10
406.1443
 20
404.4869
 10
406.6096
 20
405.3939
 10
407.027
 20
406.4404
 10
407.32
 20
407.3537
 10
407.574
 20
408.3176
 10
407.789
 20
409.3322
 10
407.9649
 20
410.3975
 10
408.1017
 20
411.5134
 10
408.1995
 20
412.68
 10
408.2581
 20
413.8973
 10
408.2777
 20
415.1652
 10
408.2581
 20
416.4328
 10
408.1995
 20
417.6498
 10
408.1017
 20
418.8162
 10
407.9649
 20
419.932
 10
407.789
 20
420.9972
 10
407.574
 20
422.0118
 10
407.32
 20
422.9757
 10
407.027
 20
423.889
 10
406.6096
 20
424.9356
 10
406.1443
 20
425.8426
 10
405.6311
 20
426.6101
 10
405.07
 20
427.238
 10
404.4609
 20
427.7264
 10
403.8038
 20
428.0752
 10
403.0988
 20
428.2845
 10
402.3458
 20
428.3543
 10
401.5928
 20
428.2845
 10
400.8878
 20
428.0752
 10
400.2308
 20
427.7264
 10
399.6217
 20
427.238
 10
399.0606
 20
426.6101
 10
398.5475
 20
425.8426
 10
398.0824
 20
424.9356
 10
397.6652
 20
423.889
 10
397.372
 20
422.9757
 10
397.1179
 20
422.0118
 10
396.903
 20
420.9972
 10
396.7271
 20
419.932
 10
396.5903
 20
418.8162
 10
396.4926
 20
417.6498
 10
396.434
 20
416.4328
 10
396.4145
 20
415.1652
 10
396.434
 20
413.8973
 10
396.4926
 20
412.68
 10
396.5903
 20
411.5134
 10
396.7271
 20
410.3975
 10
396.903
 20
409.3322
 10
397.1179
 20
408.3176
 10
397.372
 20
407.3537
 10
397.6652
 20
406.4404
 10
398.0824
 20
405.3939
 10
398.5475
 20
404.4869
 10
399.0606
 20
403.7194
 10
399.6217
 20
403.0915
 10
400.2308
 20
402.6031
 10
400.8878
 20
402.2543
 10
401.5928
 20
402.045
 10
402.3458
 20
401.9752
  0
LWPOLYLINE
  5
7F
330
1F
100
AcDbEntity
  8
Layer 1
 62
     7
100
AcDbPolyline
 90
      162
 70
     1
 43
0.0
 10
425.8919
 20
402.39
 10
427.697
 20
402.39
 10
427.697
 20
412.7527
 10
427.6823
 20
413.4408
 10
427.6382
 20
414.0965
 10
427.5646
 20
414.7198
 10
427.4617
 20
415.3107
 10
427.3293
 20
415.8692
 10
427.1675
 20
416.3953
 10
426.9763
 20
416.8891
 10
426.7557
 20
417.3506
 10
426.6326
 20
417.571
 10
426.5019
 20
417.7802
 10
426.3635
 20
417.9783
 10
426.2174
 20
418.1652
 10
426.0637
 20
418.341
 10
425.9022
 20
418.5056
 10
425.7331
 20
418.6592
 10
425.5562
 20
418.8016
 10
425.3685
 20
418.9296
 10
425.1662
 20
419.0406
 10
424.9495
 20
419.1346
 10
424.7182
 20
419.2114
 10
424.4724
 20
419.2713
 10
424.2122
 20
419.314
 10
423.9374
 20
419.3396
 10
423.6481
 20
419.3482
 10
423.3562
 20
419.3335
 10
423.0736
 20
419.2893
 10
422.8002
 20
419.2156
 10
422.536
 20
419.1125
 10
422.2811
 20
418.9799
 10
422.0355
 20
418.8179
 10
421.7991
 20
418.6264
 10
421.572
 20
418.4055
 10
421.3749
 20
418.1853
 10
421.1867
 20
417.9488
 10
421.0073
 20
417.6962
 10
420.8369
 20
417.4275
 10
420.6753
 20
417.1429
 10
420.5226
 20
416.8425
 10
420.3788
 20
416.5266
 10
420.2439
 20
416.1951
 10
420.139
 20
416.5008
 10
420.0246
 20
416.7962
 10
419.9005
 20
417.0799
 10
419.7669
 20
417.3506
 10
419.6438
 20
417.571
 10
419.5129
 20
417.7802
 10
419.3745
 20
417.9783
 10
419.2283
 20
418.1652
 10
419.0745
 20
418.341
 10
418.9131
 20
418.5056
 10
418.744
 20
418.6592
 10
418.5673
 20
418.8016
 10
418.3796
 20
418.9296
 10
418.1773
 20
419.0406
 10
417.9606
 20
419.1346
 10
417.7293
 20
419.2114
 10
417.4836
 20
419.2713
 10
417.2233
 20
419.314
 10
416.9486
 20
419.3396
 10
416.6593
 20
419.3482
 10
416.3672
 20
419.3335
 10
416.0844
 20
419.2893
 10
415.8109
 20
419.2156
 10
415.5467
 20
419.1125
 10
415.2918
 20
418.9799
 10
415.0463
 20
418.8179
 10
414.81
 20
418.6264
 10
414.5831
 20
418.4055
 10
414.3952
 20
418.1958
 10
414.2155
 20
417.9719
 10
414.0438
 20
417.7338
 10
413.8802
 20
417.4813
 10
413.7246
 20
417.2145
 10
413.5771
 20
416.9332
 10
413.4377
 20
416.6373
 10
413.3062
 20
416.3269
 10
413.3062
 20
418.9707
 10
411.5011
 20
418.9707
 10
411.5011
 20
402.39
 10
413.3062
 20
402.39
 10
413.3062
 20
410.8753
 10
413.3483
 20
411.3697
 10
413.4032
 20
411.8448
 10
413.4709
 20
412.3007
 10
413.5515
 20
412.7376
 10
413.645
 20
413.1557
 10
413.7513
 20
413.555
 10
413.8705
 20
413.9358
 10
414.0025
 20
414.2981
 10
414.1102
 20
414.556
 10
414.2267
 20
414.802
 10
414.3521
 20
415.0363
 10
414.4864
 20
415.2589
 10
414.6295
 20
415.4696
 10
414.7814
 20
415.6686
 10
414.9422
 20
415.8558
 10
415.1119
 20
416.0313
 10
415.2876
 20
416.1903
 10
415.4665
 20
416.3281
 10
415.6485
 20
416.4446
 10
415.8339
 20
416.54
 10
416.0224
 20
416.6142
 10
416.2142
 20
416.6672
 10
416.4092
 20
416.699
 10
416.6075
 20
416.7096
 10
416.8009
 20
416.704
 10
416.9814
 20
416.6872
 10
417.1491
 20
416.6593
 10
417.3038
 20
416.6202
 10
417.4456
 20
416.5699
 10
417.5745
 20
416.5084
 10
417.6905
 20
416.4357
 10
417.7936
 20
416.3518
 10
418.0536
 20
416.0709
 10
418.279
 20
415.7417
 10
418.4696
 20
415.3642
 10
418.6257
 20
414.9385
 10
418.747
 20
414.4644
 10
418.8337
 20
413.9421
 10
418.8857
 20
413.3715
 10
418.903
 20
412.7527
 10
418.903
 20
402.39
 10
420.7081
 20
402.39
 10
420.7081
 20
412.7527
 10
420.6953
 20
413.3874
 10
420.992
 20
414.2981
 10
421.0995
 20
414.556
 10
421.2158
 20
414.802
 10
421.3411
 20
415.0363
 10
421.4753
 20
415.2589
 10
421.6183
 20
415.4696
 10
421.7703
 20
415.6686
 10
421.9311
 20
415.8558
 10
422.1007
 20
416.0313
 10
422.2764
 20
416.1903
 10
422.4553
 20
416.3281
 10
422.6374
 20
416.4446
 10
422.8228
 20
416.54
 10
423.0113
 20
416.6142
 10
423.2031
 20
416.6672
 10
423.3981
 20
416.699
 10
423.5964
 20
416.7096
 10
423.7898
 20
416.704
 10
423.9703
 20
416.6872
 10
424.138
 20
416.6593
 10
424.2927
 20
416.6202
 10
424.4345
 20
416.5699
 10
424.5634
 20
416.5084
 10
424.6794
 20
416.4357
 10
424.7825
 20
416.3518
 10
425.0425
 20
416.0709
 10
425.2679
 20
415.7417
 10
425.4585
 20
415.3642
 10
425.6146
 20
414.9385
 10
425.7359
 20
414.4644
 10
425.8226
 20
413.9421
 10
425.8746
 20
413.3715
 10
425.8919
 20
412.7527
 10
425.8919
 20
402.39
  0
LWPOLYLINE
  5
80
330
1F
100
AcDbEntity
  8
Layer 1
 62
     7
100
AcDbPolyline
 90
      162
 70
     1
 43
0.0
 10
445.5694
 20
402.39
 10
447.3745
 20
402.39
 10
447.3745
 20
412.7527
 10
447.3598
 20
413.4408
 10
447.3157
 20
414.0965
 10
447.2422
 20
414.7198
 10
447.1392
 20
415.3107
 10
447.0069
 20
415.8692
 10
446.8451
 20
416.3953
 10
446.6539
 20
416.8891
 10
446.4333
 20
417.3506
 10
446.3102
 20
417.571
 10
446.1795
 20
417.7802
 10
446.0411
 20
417.9783
 10
445.895
 20
418.1652
 10
445.7412
 20
418.341
 10
445.5798
 20
418.5056
 10
445.4106
 20
418.6592
 10
445.2338
 20
418.8016
 10
445.0461
 20
418.9296
 10
444.8438
 20
419.0406
 10
444.6271
 20
419.1346
 10
444.3958
 20
419.2114
 10
444.15
 20
419.2713
 10
443.8898
 20
419.314
 10
443.615
 20
419.3396
 10
443.3257
 20
419.3482
 10
443.0338
 20
419.3335
 10
442.7511
 20
419.2893
 10
442.4777
 20
419.2156
 10
442.2136
 20
419.1125
 10
441.9587
 20
418.9799
 10
441.713
 20
418.8179
 10
441.4766
 20
418.6264
 10
441.2495
 20
418.4055
 10
441.0524
 20
418.1853
 10
440.8642
 20
417.9488
 10
440.6849
 20
417.6962
 10
440.5144
 20
417.4275
 10
440.3528
 20
417.1429
 10
440.2001
 20
416.8425
 10
440.0563
 20
416.5266
 10
439.9214
 20
416.1951
 10
439.8166
 20
416.5008
 10
439.7021
 20
416.7962
 10
439.5781
 20
417.0799
 10
439.4444
 20
417.3506
 10
439.3213
 20
417.571
 10
439.1905
 20
417.7802
 10
439.052
 20
417.9783
 10
438.9059
 20
418.1652
 10
438.7521
 20
418.341
 10
438.5907
 20
418.5056
 10
438.4216
 20
418.6592
 10
438.2449
 20
418.8016
 10
438.0572
 20
418.9296
 10
437.8549
 20
419.0406
 10
437.6382
 20
419.1346
 10
437.4069
 20
419.2114
 10
437.1611
 20
419.2713
 10
436.9009
 20
419.314
 10
436.6261
 20
419.3396
 10
436.3368
 20
419.3482
 10
436.0447
 20
419.3335
 10
435.7619
 20
419.2893
 10
435.4884
 20
419.2156
 10
435.2243
 20
419.1125
 10
434.9694
 20
418.9799
 10
434.7238
 20
418.8179
 10
434.4876
 20
418.6264
 10
434.2606
 20
418.4055
 10
434.0728
 20
418.1958
 10
433.893
 20
417.9719
 10
433.7214
 20
417.7338
 10
433.5578
 20
417.4813
 10
433.4022
 20
417.2145
 10
433.2547
 20
416.9332
 10
433.1152
 20
416.6373
 10
432.9837
 20
416.3269
 10
432.9837
 20
418.9707
 10
431.1786
 20
418.9707
 10
431.1786
 20
402.39
 10
432.9837
 20
402.39
 10
432.9837
 20
410.8753
 10
433.0258
 20
411.3697
 10
433.0807
 20
411.8448
 10
433.1485
 20
412.3007
 10
433.2291
 20
412.7376
 10
433.3226
 20
413.1557
 10
433.4289
 20
413.555
 10
433.548
 20
413.9358
 10
433.68
 20
414.2981
 10
433.7877
 20
414.556
 10
433.9043
 20
414.802
 10
434.0297
 20
415.0363
 10
434.1639
 20
415.2589
 10
434.307
 20
415.4696
 10
434.459
 20
415.6686
 10
434.6198
 20
415.8558
 10
434.7894
 20
416.0313
 10
434.9651
 20
416.1903
 10
435.144
 20
416.3281
 10
435.3261
 20
416.4446
 10
435.5114
 20
416.54
 10
435.7
 20
416.6142
 10
435.8917
 20
416.6672
 10
436.0867
 20
416.699
 10
436.285
 20
416.7096
 10
436.4785
 20
416.704
 10
436.659
 20
416.6872
 10
436.8266
 20
416.6593
 10
436.9814
 20
416.6202
 10
437.1232
 20
416.5699
 10
437.2521
 20
416.5084
 10
437.3681
 20
416.4357
 10
437.4712
 20
416.3518
 10
437.7312
 20
416.0709
 10
437.9566
 20
415.7417
 10
438.1472
 20
415.3642
 10
438.3033
 20
414.9385
 10
438.4246
 20
414.4644
 10
438.5113
 20
413.9421
 10
438.5633
 20
413.3715
 10
438.5806
 20
412.7527
 10
438.5806
 20
402.39
 10
440.3856
 20
402.39
 10
440.3856
 20
412.7527
 10
440.3729
 20
413.3874
 10
440.6695
 20
414.2981
 10
440.777
 20
414.556
 10
440.8934
 20
414.802
 10
441.0187
 20
415.0363
 10
441.1529
 20
415.2589
 10
441.2959
 20
415.4696
 10
441.4479
 20
415.6686
 10
441.6087
 20
415.8558
 10
441.7783
 20
416.0313
 10
441.954
 20
416.1903
 10
442.1329
 20
416.3281
 10
442.315
 20
416.4446
 10
442.5003
 20
416.54
 10
442.6889
 20
416.6142
 10
442.8806
 20
416.6672
 10
443.0756
 20
416.699
 10
443.2739
 20
416.7096
 10
443.4674
 20
416.704
 10
443.6479
 20
416.6872
 10
443.8155
 20
416.6593
 10
443.9703
 20
416.6202
 10
444.1121
 20
416.5699
 10
444.241
 20
416.5084
 10
444.357
 20
416.4357
 10
444.4601
 20
416.3518
 10
444.7201
 20
416.0709
 10
444.9454
 20
415.7417
 10
445.1361
 20
415.3642
 10
445.2921
 20
414.9385
 10
445.4134
 20
414.4644
 10
445.5001
 20
413.9421
 10
445.5521
 20
413.3715
 10
445.5694
 20
412.7527
 10
445.5694
 20
402.39
  0
LWPOLYLINE
  5
81
330
1F
100
AcDbEntity
  8
Layer 1
 62
     7
370
    18
100
AcDbPolyline
 90
       33
 70
     1
 43
0.0
 10
336.8573
 20
428.3543
 10
338.7409
 20
428.0768
 10
340.4954
 20
427.281
 10
342.083
 20
426.0218
 10
343.4663
 20
424.3541
 10
344.6076
 20
422.3328
 10
345.4694
 20
420.0129
 10
346.014
 20
417.4493
 10
346.2039
 20
414.6969
 10
346.014
 20
411.9445
 10
345.4694
 20
409.3809
 10
344.6076
 20
407.061
 10
343.4663
 20
405.0398
 10
342.083
 20
403.3721
 10
340.4954
 20
402.1129
 10
338.7409
 20
401.3171
 10
336.8573
 20
401.0396
 10
334.9737
 20
401.3171
 10
333.2193
 20
402.1129
 10
331.6316
 20
403.3721
 10
330.2484
 20
405.0398
 10
329.1071
 20
407.061
 10
328.2453
 20
409.3809
 10
327.7007
 20
411.9445
 10
327.5108
 20
414.6969
 10
327.7007
 20
417.4493
 10
328.2453
 20
420.0129
 10
329.1071
 20
422.3328
 10
330.2484
 20
424.3541
 10
331.6316
 20
426.0218
 10
333.2193
 20
427.281
 10
334.9737
 20
428.0768
 10
336.8573
 20
428.3543
  0
LWPOLYLINE
  5
82
330
1F
100
AcDbEntity
  8
Layer 1
 62
     7
370
    18
100
AcDbPolyline
 90
        9
 70
     0
 43
0.0
 10
341.5032
 20
437.6327
 10
338.5223
 20
422.4154
 10
336.2579
 20
410.9089
 10
334.6117
 20
402.5949
 10
333.4854
 20
396.955
 10
332.7805
 20
393.4708
 10
332.3988
 20
391.6239
 10
332.2419
 20
390.896
 10
332.2115
 20
390.7685
  0
ENDSEC
  0
SECTION
  2
OBJECTS
  0
DICTIONARY
  5
C
330
0
100
AcDbDictionary
281
     1
  3
ACAD_DETAILVIEWSTYLE
350
8A
  3
ACAD_GROUP
350
D
  3
ACAD_LAYOUT
350
1A
  3
ACAD_MATERIAL
350
43
  3
ACAD_MLEADERSTYLE
350
5B
  3
ACAD_MLINESTYLE
350
17
  3
ACAD_PLOTSETTINGS
350
19
  3
ACAD_PLOTSTYLENAME
350
E
  3
ACAD_SCALELIST
350
47
  3
ACAD_SECTIONVIEWSTYLE
350
8B
  3
ACAD_TABLESTYLE
350
59
  3
ACAD_VISUALSTYLE
350
2A
  3
ACDB_RECOMPOSE_DATA
350
87
  3
AcDbVariableDictionary
350
83
  0
SUN
  5
5D
330
29
100
AcDbSun
 90
        1
290
     0
 63
     7
421
 16777215
 40
1.0
291
     1
 91
  2455826
 92
 54000000
292
     0
 70
     2
 71
   256
280
     1
  0
DICTIONARY
  5
8A
102
{ACAD_REACTORS
330
C
102
}
330
C
100
AcDbDictionary
281
     1
  0
DICTIONARY
  5
D
102
{ACAD_REACTORS
330
C
102
}
330
C
100
AcDbDictionary
281
     1
  0
DICTIONARY
  5
1A
102
{ACAD_REACTORS
330
C
102
}
330
C
100
AcDbDictionary
281
     1
  3
Layout1
350
1E
  3
Layout2
350
26
  3
Model
350
22
  0
DICTIONARY
  5
43
102
{ACAD_REACTORS
330
C
102
}
330
C
100
AcDbDictionary
281
     1
  3
ByBlock
350
45
  3
ByLayer
350
44
  3
Global
350
46
  0
DICTIONARY
  5
5B
102
{ACAD_REACTORS
330
C
102
}
330
C
100
AcDbDictionary
281
     1
  3
Standard
350
5C
  0
DICTIONARY
  5
17
102
{ACAD_REACTORS
330
C
102
}
330
C
100
AcDbDictionary
281
     1
  3
Standard
350
18
  0
DICTIONARY
  5
19
102
{ACAD_REACTORS
330
C
102
}
330
C
100
AcDbDictionary
281
     1
  0
ACDBDICTIONARYWDFLT
  5
E
102
{ACAD_REACTORS
330
C
102
}
330
C
100
AcDbDictionary
281
     1
  3
Normal
350
F
100
AcDbDictionaryWithDefault
340
F
  0
DICTIONARY
  5
47
102
{ACAD_REACTORS
330
C
102
}
330
C
100
AcDbDictionary
281
     1
  3
A0
350
48
  3
A1
350
49
  3
A2
350
4A
  3
A3
350
4B
  3
A4
350
4C
  3
A5
350
4D
  3
A6
350
4E
  3
A7
350
4F
  3
A8
350
50
  3
A9
350
51
  3
B1
350
52
  3
B2
350
53
  3
B3
350
54
  3
B4
350
55
  3
B5
350
56
  3
B6
350
57
  3
B7
350
58
  0
DICTIONARY
  5
8B
102
{ACAD_REACTORS
330
C
102
}
330
C
100
AcDbDictionary
281
     1
  0
DICTIONARY
  5
59
102
{ACAD_REACTORS
330
C
102
}
330
C
100
AcDbDictionary
281
     1
  3
Standard
350
5A
  0
DICTIONARY
  5
2A
102
{ACAD_REACTORS
330
C
102
}
330
C
100
AcDbDictionary
281
     1
  3
2dWireframe
350
2F
  3
Basic
350
32
  3
Brighten
350
36
  3
ColorChange
350
3A
  3
Conceptual
350
34
  3
Dim
350
35
  3
EdgeColorOff
350
3D
  3
Facepattern
350
39
  3
Flat
350
2B
  3
FlatWithEdges
350
2C
  3
Gouraud
350
2D
  3
GouraudWithEdges
350
2E
  3
Hidden
350
31
  3
JitterOff
350
3B
  3
Linepattern
350
38
  3
OverhangOff
350
3C
  3
Realistic
350
33
  3
Shaded
350
42
  3
Shaded with edges
350
41
  3
Shades of Gray
350
3E
  3
Sketchy
350
3F
  3
Thicken
350
37
  3
Wireframe
350
30
  3
X-Ray
350
40
  0
XRECORD
  5
87
102
{ACAD_REACTORS
330
C
102
}
330
C
100
AcDbXrecord
280
     1
 90
        1
330
5A
  0
DICTIONARY
  5
83
102
{ACAD_REACTORS
330
C
102
}
330
C
100
AcDbDictionary
281
     1
  3
CANNOSCALE
350
84
  3
CMLEADERSTYLE
350
89
  3
CTABLESTYLE
350
88
  0
LAYOUT
  5
1E
102
{ACAD_REACTORS
330
1A
102
}
330
1A
100
AcDbPlotSettings
  1

  2
none_device
  4

  6

 40
0.0
 41
0.0
 42
0.0
 43
0.0
 44
0.0
 45
0.0
 46
0.0
 47
0.0
 48
0.0
 49
0.0
140
0.0
141
0.0
142
1.0
143
1.0
 70
   688
 72
     0
 73
     0
 74
     5
  7

 75
    16
 76
     0
 77
     2
 78
   300
147
1.0
148
0.0
149
0.0
100
AcDbLayout
  1
Layout1
 70
     1
 71
     1
 10
0.0
 20
0.0
 11
12.0
 21
9.0
 12
0.0
 22
0.0
 32
0.0
 14
1.000000000000000E+20
 24
1.000000000000000E+20
 34
1.000000000000000E+20
 15
-1.000000000000000E+20
 25
-1.000000000000000E+20
 35
-1.000000000000000E+20
146
0.0
 13
0.0
 23
0.0
 33
0.0
 16
1.0
 26
0.0
 36
0.0
 17
0.0
 27
1.0
 37
0.0
 76
     0
330
1B
  0
LAYOUT
  5
26
102
{ACAD_REACTORS
330
1A
102
}
330
1A
100
AcDbPlotSettings
  1

  2
none_device
  4

  6

 40
0.0
 41
0.0
 42
0.0
 43
0.0
 44
0.0
 45
0.0
 46
0.0
 47
0.0
 48
0.0
 49
0.0
140
0.0
141
0.0
142
1.0
143
1.0
 70
   688
 72
     0
 73
     0
 74
     5
  7

 75
    16
 76
     0
 77
     2
 78
   300
147
1.0
148
0.0
149
0.0
100
AcDbLayout
  1
Layout2
 70
     1
 71
     2
 10
0.0
 20
0.0
 11
0.0
 21
0.0
 12
0.0
 22
0.0
 32
0.0
 14
0.0
 24
0.0
 34
0.0
 15
0.0
 25
0.0
 35
0.0
146
0.0
 13
0.0
 23
0.0
 33
0.0
 16
1.0
 26
0.0
 36
0.0
 17
0.0
 27
1.0
 37
0.0
 76
     0
330
23
  0
LAYOUT
  5
22
102
{ACAD_REACTORS
330
1A
102
}
330
1A
100
AcDbPlotSettings
  1

  2
none_device
  4
Letter_(8.50_x_11.00_Inches)
  6

 40
6.35
 41
6.35
 42
6.35000508
 43
6.35000508
 44
215.9
 45
279.4
 46
0.0
 47
0.0
 48
0.0
 49
0.0
140
0.0
141
0.0
142
1.0
143
1.0
 70
  1712
 72
     0
 73
     0
 74
     0
  7

 75
     0
 76
     0
 77
     2
 78
   300
147
1.0
148
0.0
149
0.0
100
AcDbLayout
  1
Model
 70
     1
 71
     0
 10
0.0
 20
0.0
 11
12.0
 21
9.0
 12
0.0
 22
0.0
 32
0.0
 14
171.0169
 24
-430.974
 34
0.0
 15
704.4755
 25
452.3952
 35
0.0
146
0.0
 13
0.0
 23
0.0
 33
0.0
 16
1.0
 26
0.0
 36
0.0
 17
0.0
 27
1.0
 37
0.0
 76
     0
330
1F
331
29
  0
MATERIAL
  5
45
102
{ACAD_REACTORS
330
43
102
}
330
43
100
AcDbMaterial
  1
ByBlock
 72
     1
 94
      127
  0
MATERIAL
  5
44
102
{ACAD_REACTORS
330
43
102
}
330
43
100
AcDbMaterial
  1
ByLayer
 72
     1
 94
      127
  0
MATERIAL
  5
46
102
{ACAD_REACTORS
330
43
102
}
330
43
100
AcDbMaterial
  1
Global
 72
     1
 94
      127
  0
MLEADERSTYLE
  5
5C
102
{ACAD_REACTORS
330
5B
102
}
330
5B
100
AcDbMLeaderStyle
179
     2
170
     2
171
     1
172
     0
 90
        2
 40
0.0
 41
0.0
173
     1
 91
-1056964608
340
14
 92
       -2
290
     1
 42
0.09
291
     1
 43
0.36
  3
Standard
341
0
 44
0.18
300

342
11
174
     1
178
     6
175
     1
176
     0
 93
-1056964608
 45
0.18
292
     0
297
     0
 46
0.18
343
0
 94
-1056964608
 47
1.0
 49
1.0
140
1.0
293
     1
141
0.0
294
     1
177
     0
142
1.0
295
     0
296
     0
143
0.125
271
     0
272
     9
273
     9
298
     0
  0
MLINESTYLE
  5
18
102
{ACAD_REACTORS
330
17
102
}
330
17
100
AcDbMlineStyle
  2
Standard
 70
     0
  3

 62
   256
 51
90.0
 52
90.0
 71
     2
 49
0.5
 62
   256
  6
BYLAYER
 49
-0.5
 62
   256
  6
BYLAYER
  0
ACDBPLACEHOLDER
  5
F
102
{ACAD_REACTORS
330
E
102
}
330
E
  0
SCALE
  5
48
102
{ACAD_REACTORS
330
47
102
}
330
47
100
AcDbScale
 70
     0
300
1:1
140
1.0
141
1.0
290
     1
  0
SCALE
  5
49
102
{ACAD_REACTORS
330
47
102
}
330
47
100
AcDbScale
 70
     0
300
1/128" = 1'-0"
140
0.0078125
141
12.0
290
     0
  0
SCALE
  5
4A
102
{ACAD_REACTORS
330
47
102
}
330
47
100
AcDbScale
 70
     0
300
1/64" = 1'-0"
140
0.015625
141
12.0
290
     0
  0
SCALE
  5
4B
102
{ACAD_REACTORS
330
47
102
}
330
47
100
AcDbScale
 70
     0
300
1/32" = 1'-0"
140
0.03125
141
12.0
290
     0
  0
SCALE
  5
4C
102
{ACAD_REACTORS
330
47
102
}
330
47
100
AcDbScale
 70
     0
300
1/16" = 1'-0"
140
0.0625
141
12.0
290
     0
  0
SCALE
  5
4D
102
{ACAD_REACTORS
330
47
102
}
330
47
100
AcDbScale
 70
     0
300
3/32" = 1'-0"
140
0.09375
141
12.0
290
     0
  0
SCALE
  5
4E
102
{ACAD_REACTORS
330
47
102
}
330
47
100
AcDbScale
 70
     0
300
1/8" = 1'-0"
140
0.125
141
12.0
290
     0
  0
SCALE
  5
4F
102
{ACAD_REACTORS
330
47
102
}
330
47
100
AcDbScale
 70
     0
300
3/16" = 1'-0"
140
0.1875
141
12.0
290
     0
  0
SCALE
  5
50
102
{ACAD_REACTORS
330
47
102
}
330
47
100
AcDbScale
 70
     0
300
1/4" = 1'-0"
140
0.25
141
12.0
290
     0
  0
SCALE
  5
51
102
{ACAD_REACTORS
330
47
102
}
330
47
100
AcDbScale
 70
     0
300
3/8" = 1'-0"
140
0.375
141
12.0
290
     0
  0
SCALE
  5
52
102
{ACAD_REACTORS
330
47
102
}
330
47
100
AcDbScale
 70
     0
300
1/2" = 1'-0"
140
0.5
141
12.0
290
     0
  0
SCALE
  5
53
102
{ACAD_REACTORS
330
47
102
}
330
47
100
AcDbScale
 70
     0
300
3/4" = 1'-0"
140
0.75
141
12.0
290
     0
  0
SCALE
  5
54
102
{ACAD_REACTORS
330
47
102
}
330
47
100
AcDbScale
 70
     0
300
1" = 1'-0"
140
1.0
141
12.0
290
     0
  0
SCALE
  5
55
102
{ACAD_REACTORS
330
47
102
}
330
47
100
AcDbScale
 70
     0
300
1-1/2" = 1'-0"
140
1.5
141
12.0
290
     0
  0
SCALE
  5
56
102
{ACAD_REACTORS
330
47
102
}
330
47
100
AcDbScale
 70
     0
300
3" = 1'-0"
140
3.0
141
12.0
290
     0
  0
SCALE
  5
57
102
{ACAD_REACTORS
330
47
102
}
330
47
100
AcDbScale
 70
     0
300
6" = 1'-0"
140
6.0
141
12.0
290
     0
  0
SCALE
  5
58
102
{ACAD_REACTORS
330
47
102
}
330
47
100
AcDbScale
 70
     0
300
1'-0" = 1'-0"
140
12.0
141
12.0
290
     0
  0
TABLESTYLE
  5
5A
102
{ACAD_REACTORS
330
59
102
}
102
{ACAD_XDICTIONARY
360
85
102
}
330
59
100
AcDbTableStyle
  3
Standard
 70
     0
 71
     0
 40
0.06
 41
0.06
280
     0
281
     0
  7
Standard
140
0.18
170
     2
 62
     0
 63
   257
283
     0
 90
        4
 91
        0
  1

274
    -2
284
     1
 64
     0
275
    -2
285
     1
 65
     0
276
    -2
286
     1
 66
     0
277
    -2
287
     1
 67
     0
278
    -2
288
     1
 68
     0
279
    -2
289
     1
 69
     0
  7
Standard
140
0.25
170
     5
 62
     0
 63
   257
283
     0
 90
        4
 91
        0
  1

274
    -2
284
     1
 64
     0
275
    -2
285
     1
 65
     0
276
    -2
286
     1
 66
     0
277
    -2
287
     1
 67
     0
278
    -2
288
     1
 68
     0
279
    -2
289
     1
 69
     0
  7
Standard
140
0.18
170
     5
 62
     0
 63
   257
283
     0
 90
        4
 91
        0
  1

274
    -2
284
     1
 64
     0
275
    -2
285
     1
 65
     0
276
    -2
286
     1
 66
     0
277
    -2
287
     1
 67
     0
278
    -2
288
     1
 68
     0
279
    -2
289
     1
 69
     0
  0
VISUALSTYLE
  5
2F
102
{ACAD_REACTORS
330
2A
102
}
330
2A
100
AcDbVisualStyle
  2
2dWireframe
 70
     4
177
     3
291
     0
 70
    58
 90
        0
176
     1
 90
        2
176
     1
 90
        0
176
     1
 90
        0
176
     1
 40
0.6
176
     1
 40
30.0
176
     1
 62
     7
420
 16777215
176
     1
 90
        1
176
     1
 90
        4
176
     1
 62
     7
176
     1
 62
   257
176
     1
 90
        1
176
     1
 90
        1
176
     1
 40
1.0
176
     1
 90
        0
176
     1
 62
   257
176
     1
 40
1.0
176
     1
 90
        1
176
     1
 90
        6
176
     1
 90
        2
176
     1
 62
     7
176
     1
 90
        5
176
     1
 90
        0
176
     1
 90
        0
176
     1
290
     0
176
     1
 90
        1
176
     1
 40
0.0
176
     1
 90
        0
176
     1
290
     1
176
     1
290
     1
176
     1
290
     0
176
     1
290
     0
176
     1
290
     0
176
     1
290
     0
176
     1
290
     0
176
     1
290
     0
176
     1
290
     0
176
     1
 90
       50
176
     1
 40
0.0
176
     1
 40
1.0
176
     1
 90
        0
176
     1
 62
    18
420
        0
176
     1
 90
       50
176
     1
 90
        3
176
     1
 62
     5
420
      255
176
     1
290
     0
176
     1
 90
       50
176
     1
 90
       50
176
     1
 90
       50
176
     1
290
     0
176
     1
 90
       50
176
     1
 62
   256
176
     0
 40
1.0
176
     0
 90
        2
176
     1
  1
strokes_ogs.tif
176
     1
290
     0
176
     1
 40
1.0
176
     1
 40
1.0
176
     1
  0
VISUALSTYLE
  5
32
102
{ACAD_REACTORS
330
2A
102
}
330
2A
100
AcDbVisualStyle
  2
Basic
 70
     7
177
     3
291
     1
 70
    58
 90
        1
176
     1
 90
        0
176
     1
 90
        1
176
     1
 90
        0
176
     1
 40
0.6
176
     1
 40
30.0
176
     1
 62
     7
420
 16777215
176
     1
 90
        0
176
     1
 90
        4
176
     1
 62
     7
176
     1
 62
   257
176
     1
 90
        1
176
     1
 90
        1
176
     1
 40
1.0
176
     1
 90
        8
176
     1
 62
     7
176
     1
 40
1.0
176
     1
 90
        1
176
     1
 90
        6
176
     1
 90
        2
176
     1
 62
     7
176
     1
 90
        5
176
     1
 90
        0
176
     1
 90
        0
176
     1
290
     0
176
     1
 90
        1
176
     1
 40
0.0
176
     1
 90
        0
176
     1
290
     0
176
     1
290
     1
176
     1
290
     1
176
     1
290
     0
176
     1
290
     0
176
     1
290
     0
176
     1
290
     0
176
     1
290
     0
176
     1
290
     0
176
     1
 90
       50
176
     1
 40
0.0
176
     1
 40
1.0
176
     1
 90
        0
176
     1
 62
    18
420
        0
176
     1
 90
       50
176
     1
 90
        3
176
     1
 62
     5
420
      255
176
     1
290
     0
176
     1
 90
       50
176
     1
 90
       50
176
     1
 90
       50
176
     1
290
     0
176
     1
 90
       50
176
     1
 62
   256
176
     0
 40
1.0
176
     0
 90
        2
176
     1
  1
strokes_ogs.tif
176
     1
290
     0
176
     1
 40
1.0
176
     1
 40
1.0
176
     1
  0
VISUALSTYLE
  5
36
102
{ACAD_REACTORS
330
2A
102
}
330
2A
100
AcDbVisualStyle
  2
Brighten
 70
    12
177
     3
291
     1
 70
    58
 90
        2
176
     1
 90
        2
176
     1
 90
        0
176
     1
 90
        0
176
     1
 40
0.6
176
     1
 40
30.0
176
     1
 62
     7
420
 16777215
176
     1
 90
        1
176
     1
 90
        4
176
     1
 62
     7
176
     1
 62
   257
176
     1
 90
        1
176
     1
 90
        1
176
     1
 40
1.0
176
     1
 90
        8
176
     1
 62
     7
176
     1
 40
1.0
176
     1
 90
        1
176
     1
 90
        6
176
     1
 90
        2
176
     1
 62
     7
176
     1
 90
        5
176
     1
 90
        0
176
     1
 90
        0
176
     1
290
     0
176
     1
 90
        1
176
     1
 40
50.0
176
     1
 90
        0
176
     1
290
     0
176
     1
290
     1
176
     1
290
     1
176
     1
290
     0
176
     1
290
     0
176
     1
290
     0
176
     1
290
     0
176
     1
290
     0
176
     1
290
     0
176
     1
 90
       50
176
     1
 40
0.0
176
     1
 40
1.0
176
     1
 90
        0
176
     1
 62
    18
420
        0
176
     1
 90
       50
176
     1
 90
        3
176
     1
 62
     5
420
      255
176
     1
290
     0
176
     1
 90
       50
176
     1
 90
       50
176
     1
 90
       50
176
     1
290
     0
176
     1
 90
       50
176
     1
 62
   256
176
     0
 40
1.0
176
     0
 90
        2
176
     1
  1
strokes_ogs.tif
176
     1
290
     0
176
     1
 40
1.0
176
     1
 40
1.0
176
     1
  0
VISUALSTYLE
  5
3A
102
{ACAD_REACTORS
330
2A
102
}
330
2A
100
AcDbVisualStyle
  2
ColorChange
 70
    16
177
     3
291
     1
 70
    58
 90
        2
176
     1
 90
        2
176
     1
 90
        3
176
     1
 90
        0
176
     1
 40
0.6
176
     1
 40
30.0
176
     1
 62
     8
420
  8421504
176
     1
 90
        1
176
     1
 90
        4
176
     1
 62
     7
176
     1
 62
   257
176
     1
 90
        1
176
     1
 90
        1
176
     1
 40
1.0
176
     1
 90
        8
176
     1
 62
     8
420
  8421504
176
     1
 40
1.0
176
     1
 90
        1
176
     1
 90
        6
176
     1
 90
        2
176
     1
 62
     7
176
     1
 90
        5
176
     1
 90
        0
176
     1
 90
        0
176
     1
290
     0
176
     1
 90
        1
176
     1
 40
0.0
176
     1
 90
        0
176
     1
290
     0
176
     1
290
     1
176
     1
290
     1
176
     1
290
     0
176
     1
290
     0
176
     1
290
     0
176
     1
290
     0
176
     1
290
     0
176
     1
290
     0
176
     1
 90
       50
176
     1
 40
0.0
176
     1
 40
1.0
176
     1
 90
        0
176
     1
 62
    18
420
        0
176
     1
 90
       50
176
     1
 90
        3
176
     1
 62
     5
420
      255
176
     1
290
     0
176
     1
 90
       50
176
     1
 90
       50
176
     1
 90
       50
176
     1
290
     0
176
     1
 90
       50
176
     1
 62
   256
176
     0
 40
1.0
176
     0
 90
        2
176
     1
  1
strokes_ogs.tif
176
     1
290
     0
176
     1
 40
1.0
176
     1
 40
1.0
176
     1
  0
VISUALSTYLE
  5
34
102
{ACAD_REACTORS
330
2A
102
}
330
2A
100
AcDbVisualStyle
  2
Conceptual
 70
     9
177
     3
291
     0
 70
    58
 90
        3
176
     1
 90
        2
176
     1
 90
        0
176
     1
 90
        0
176
     1
 40
0.6
176
     1
 40
30.0
176
     1
 62
     7
420
 16777215
176
     1
 90
        2
176
     1
 90
        2
176
     1
 62
     7
176
     1
 62
   257
176
     1
 90
        1
176
     1
 90
        1
176
     1
 40
179.0
176
     1
 90
        8
176
     1
 62
     7
176
     1
 40
1.0
176
     1
 90
        1
176
     1
 90
        6
176
     1
 90
        2
176
     1
 62
     7
176
     1
 90
        3
176
     1
 90
        0
176
     1
 90
        0
176
     1
290
     0
176
     1
 90
        1
176
     1
 40
0.0
176
     1
 90
        0
176
     1
290
     0
176
     1
290
     1
176
     1
290
     1
176
     1
290
     0
176
     1
290
     0
176
     1
290
     0
176
     1
290
     0
176
     1
290
     0
176
     1
290
     0
176
     1
 90
       50
176
     1
 40
0.0
176
     1
 40
1.0
176
     1
 90
        0
176
     1
 62
    18
420
        0
176
     1
 90
       50
176
     1
 90
        3
176
     1
 62
     5
420
      255
176
     1
290
     0
176
     1
 90
       50
176
     1
 90
       50
176
     1
 90
       50
176
     1
290
     0
176
     1
 90
       50
176
     1
 62
   256
176
     0
 40
1.0
176
     0
 90
        2
176
     1
  1
strokes_ogs.tif
176
     1
290
     0
176
     1
 40
1.0
176
     1
 40
1.0
176
     1
  0
VISUALSTYLE
  5
35
102
{ACAD_REACTORS
330
2A
102
}
330
2A
100
AcDbVisualStyle
  2
Dim
 70
    11
177
     3
291
     1
 70
    58
 90
        2
176
     1
 90
        2
176
     1
 90
        0
176
     1
 90
        0
176
     1
 40
0.6
176
     1
 40
30.0
176
     1
 62
     7
420
 16777215
176
     1
 90
        1
176
     1
 90
        4
176
     1
 62
     7
176
     1
 62
   257
176
     1
 90
        1
176
     1
 90
        1
176
     1
 40
1.0
176
     1
 90
        8
176
     1
 62
     7
176
     1
 40
1.0
176
     1
 90
        1
176
     1
 90
        6
176
     1
 90
        2
176
     1
 62
     7
176
     1
 90
        5
176
     1
 90
        0
176
     1
 90
        0
176
     1
290
     0
176
     1
 90
        1
176
     1
 40
-50.0
176
     1
 90
        0
176
     1
290
     0
176
     1
290
     1
176
     1
290
     1
176
     1
290
     0
176
     1
290
     0
176
     1
290
     0
176
     1
290
     0
176
     1
290
     0
176
     1
290
     0
176
     1
 90
       50
176
     1
 40
0.0
176
     1
 40
1.0
176
     1
 90
        0
176
     1
 62
    18
420
        0
176
     1
 90
       50
176
     1
 90
        3
176
     1
 62
     5
420
      255
176
     1
290
     0
176
     1
 90
       50
176
     1
 90
       50
176
     1
 90
       50
176
     1
290
     0
176
     1
 90
       50
176
     1
 62
   256
176
     0
 40
1.0
176
     0
 90
        2
176
     1
  1
strokes_ogs.tif
176
     1
290
     0
176
     1
 40
1.0
176
     1
 40
1.0
176
     1
  0
VISUALSTYLE
  5
3D
102
{ACAD_REACTORS
330
2A
102
}
330
2A
100
AcDbVisualStyle
  2
EdgeColorOff
 70
    22
177
     3
291
     1
 70
    58
 90
        2
176
     0
 90
        2
176
     0
 90
        0
176
     0
 90
        0
176
     0
 40
0.6
176
     0
 40
30.0
176
     0
 62
     7
420
 16777215
176
     0
 90
        1
176
     0
 90
        4
176
     0
 62
     7
176
     0
 62
   257
176
     0
 90
        1
176
     0
 90
        1
176
     0
 40
1.0
176
     0
 90
        8
176
     2
 62
     7
176
     0
 40
1.0
176
     0
 90
        1
176
     0
 90
        6
176
     0
 90
        2
176
     0
 62
     7
176
     0
 90
        5
176
     0
 90
        0
176
     0
 90
        0
176
     0
290
     0
176
     0
 90
        1
176
     0
 40
0.0
176
     0
 90
        0
176
     0
290
     0
176
     0
290
     1
176
     0
290
     1
176
     0
290
     0
176
     0
290
     0
176
     0
290
     0
176
     0
290
     0
176
     0
290
     0
176
     0
290
     0
176
     0
 90
       50
176
     0
 40
0.0
176
     0
 40
1.0
176
     0
 90
        0
176
     0
 62
    18
420
        0
176
     0
 90
       50
176
     0
 90
        3
176
     0
 62
     5
420
      255
176
     0
290
     0
176
     0
 90
       50
176
     0
 90
       50
176
     0
 90
       50
176
     0
290
     0
176
     0
 90
       50
176
     0
 62
   256
176
     0
 40
1.0
176
     0
 90
        2
176
     0
  1
strokes_ogs.tif
176
     0
290
     0
176
     0
 40
1.0
176
     0
 40
1.0
176
     0
  0
VISUALSTYLE
  5
39
102
{ACAD_REACTORS
330
2A
102
}
330
2A
100
AcDbVisualStyle
  2
Facepattern
 70
    15
177
     3
291
     1
 70
    58
 90
        2
176
     1
 90
        2
176
     1
 90
        0
176
     1
 90
        0
176
     1
 40
0.6
176
     1
 40
30.0
176
     1
 62
     7
420
 16777215
176
     1
 90
        1
176
     1
 90
        4
176
     1
 62
     7
176
     1
 62
   257
176
     1
 90
        1
176
     1
 90
        1
176
     1
 40
1.0
176
     1
 90
        8
176
     1
 62
     7
176
     1
 40
1.0
176
     1
 90
        1
176
     1
 90
        6
176
     1
 90
        2
176
     1
 62
     7
176
     1
 90
        5
176
     1
 90
        0
176
     1
 90
        0
176
     1
290
     0
176
     1
 90
        1
176
     1
 40
0.0
176
     1
 90
        0
176
     1
290
     0
176
     1
290
     1
176
     1
290
     1
176
     1
290
     0
176
     1
290
     0
176
     1
290
     0
176
     1
290
     0
176
     1
290
     0
176
     1
290
     0
176
     1
 90
       50
176
     1
 40
0.0
176
     1
 40
1.0
176
     1
 90
        0
176
     1
 62
    18
420
        0
176
     1
 90
       50
176
     1
 90
        3
176
     1
 62
     5
420
      255
176
     1
290
     0
176
     1
 90
       50
176
     1
 90
       50
176
     1
 90
       50
176
     1
290
     0
176
     1
 90
       50
176
     1
 62
   256
176
     0
 40
1.0
176
     0
 90
        2
176
     1
  1
strokes_ogs.tif
176
     1
290
     0
176
     1
 40
1.0
176
     1
 40
1.0
176
     1
  0
VISUALSTYLE
  5
2B
102
{ACAD_REACTORS
330
2A
102
}
330
2A
100
AcDbVisualStyle
  2
Flat
 70
     0
177
     3
291
     1
 70
    58
 90
        2
176
     1
 90
        1
176
     1
 90
        1
176
     1
 90
        2
176
     1
 40
0.6
176
     1
 40
30.0
176
     1
 62
     7
420
 16777215
176
     1
 90
        0
176
     1
 90
        0
176
     1
 62
     7
176
     1
 62
   257
176
     1
 90
        1
176
     1
 90
        1
176
     1
 40
1.0
176
     1
 90
        8
176
     1
 62
     7
176
     1
 40
1.0
176
     1
 90
        1
176
     1
 90
        6
176
     1
 90
        2
176
     1
 62
     7
176
     1
 90
        5
176
     1
 90
        0
176
     1
 90
        0
176
     1
290
     0
176
     1
 90
       13
176
     1
 40
0.0
176
     1
 90
        0
176
     1
290
     0
176
     1
290
     1
176
     1
290
     1
176
     1
290
     0
176
     1
290
     0
176
     1
290
     0
176
     1
290
     0
176
     1
290
     0
176
     1
290
     0
176
     1
 90
       50
176
     1
 40
0.0
176
     1
 40
1.0
176
     1
 90
        0
176
     1
 62
    18
420
        0
176
     1
 90
       50
176
     1
 90
        3
176
     1
 62
     5
420
      255
176
     1
290
     0
176
     1
 90
       50
176
     1
 90
       50
176
     1
 90
       50
176
     1
290
     0
176
     1
 90
       50
176
     1
 62
   256
176
     0
 40
1.0
176
     0
 90
        2
176
     1
  1
strokes_ogs.tif
176
     1
290
     0
176
     1
 40
1.0
176
     1
 40
1.0
176
     1
  0
VISUALSTYLE
  5
2C
102
{ACAD_REACTORS
330
2A
102
}
330
2A
100
AcDbVisualStyle
  2
FlatWithEdges
 70
     1
177
     3
291
     1
 70
    58
 90
        2
176
     1
 90
        1
176
     1
 90
        1
176
     1
 90
        2
176
     1
 40
0.6
176
     1
 40
30.0
176
     1
 62
     7
420
 16777215
176
     1
 90
        1
176
     1
 90
        0
176
     1
 62
     7
176
     1
 62
   257
176
     1
 90
        1
176
     1
 90
        1
176
     1
 40
1.0
176
     1
 90
        0
176
     1
 62
   257
176
     1
 40
1.0
176
     1
 90
        1
176
     1
 90
        6
176
     1
 90
        2
176
     1
 62
     7
176
     1
 90
        5
176
     1
 90
        0
176
     1
 90
        0
176
     1
290
     0
176
     1
 90
       13
176
     1
 40
0.0
176
     1
 90
        0
176
     1
290
     0
176
     1
290
     1
176
     1
290
     1
176
     1
290
     0
176
     1
290
     0
176
     1
290
     0
176
     1
290
     0
176
     1
290
     0
176
     1
290
     0
176
     1
 90
       50
176
     1
 40
0.0
176
     1
 40
1.0
176
     1
 90
        0
176
     1
 62
    18
420
        0
176
     1
 90
       50
176
     1
 90
        3
176
     1
 62
     5
420
      255
176
     1
290
     0
176
     1
 90
       50
176
     1
 90
       50
176
     1
 90
       50
176
     1
290
     0
176
     1
 90
       50
176
     1
 62
   256
176
     0
 40
1.0
176
     0
 90
        2
176
     1
  1
strokes_ogs.tif
176
     1
290
     0
176
     1
 40
1.0
176
     1
 40
1.0
176
     1
  0
VISUALSTYLE
  5
2D
102
{ACAD_REACTORS
330
2A
102
}
330
2A
100
AcDbVisualStyle
  2
Gouraud
 70
     2
177
     3
291
     1
 70
    58
 90
        2
176
     1
 90
        2
176
     1
 90
        1
176
     1
 90
        2
176
     1
 40
0.6
176
     1
 40
30.0
176
     1
 62
     7
420
 16777215
176
     1
 90
        0
176
     1
 90
        0
176
     1
 62
     7
176
     1
 62
   257
176
     1
 90
        1
176
     1
 90
        1
176
     1
 40
1.0
176
     1
 90
        0
176
     1
 62
     7
176
     1
 40
1.0
176
     1
 90
        1
176
     1
 90
        6
176
     1
 90
        2
176
     1
 62
     7
176
     1
 90
        5
176
     1
 90
        0
176
     1
 90
        0
176
     1
290
     0
176
     1
 90
       13
176
     1
 40
0.0
176
     1
 90
        0
176
     1
290
     0
176
     1
290
     1
176
     1
290
     1
176
     1
290
     0
176
     1
290
     0
176
     1
290
     0
176
     1
290
     0
176
     1
290
     0
176
     1
290
     0
176
     1
 90
       50
176
     1
 40
0.0
176
     1
 40
1.0
176
     1
 90
        0
176
     1
 62
    18
420
        0
176
     1
 90
       50
176
     1
 90
        3
176
     1
 62
     5
420
      255
176
     1
290
     0
176
     1
 90
       50
176
     1
 90
       50
176
     1
 90
       50
176
     1
290
     0
176
     1
 90
       50
176
     1
 62
   256
176
     0
 40
1.0
176
     0
 90
        2
176
     1
  1
strokes_ogs.tif
176
     1
290
     0
176
     1
 40
1.0
176
     1
 40
1.0
176
     1
  0
VISUALSTYLE
  5
2E
102
{ACAD_REACTORS
330
2A
102
}
330
2A
100
AcDbVisualStyle
  2
GouraudWithEdges
 70
     3
177
     3
291
     1
 70
    58
 90
        2
176
     1
 90
        2
176
     1
 90
        1
176
     1
 90
        2
176
     1
 40
0.6
176
     1
 40
30.0
176
     1
 62
     7
420
 16777215
176
     1
 90
        1
176
     1
 90
        0
176
     1
 62
     7
176
     1
 62
   257
176
     1
 90
        1
176
     1
 90
        1
176
     1
 40
1.0
176
     1
 90
        0
176
     1
 62
   257
176
     1
 40
1.0
176
     1
 90
        1
176
     1
 90
        6
176
     1
 90
        2
176
     1
 62
     7
176
     1
 90
        5
176
     1
 90
        0
176
     1
 90
        0
176
     1
290
     0
176
     1
 90
       13
176
     1
 40
0.0
176
     1
 90
        0
176
     1
290
     0
176
     1
290
     1
176
     1
290
     1
176
     1
290
     0
176
     1
290
     0
176
     1
290
     0
176
     1
290
     0
176
     1
290
     0
176
     1
290
     0
176
     1
 90
       50
176
     1
 40
0.0
176
     1
 40
1.0
176
     1
 90
        0
176
     1
 62
    18
420
        0
176
     1
 90
       50
176
     1
 90
        3
176
     1
 62
     5
420
      255
176
     1
290
     0
176
     1
 90
       50
176
     1
 90
       50
176
     1
 90
       50
176
     1
290
     0
176
     1
 90
       50
176
     1
 62
   256
176
     0
 40
1.0
176
     0
 90
        2
176
     1
  1
strokes_ogs.tif
176
     1
290
     0
176
     1
 40
1.0
176
     1
 40
1.0
176
     1
  0
VISUALSTYLE
  5
31
102
{ACAD_REACTORS
330
2A
102
}
330
2A
100
AcDbVisualStyle
  2
Hidden
 70
     6
177
     3
291
     0
 70
    58
 90
        1
176
     1
 90
        2
176
     1
 90
        2
176
     1
 90
        0
176
     1
 40
0.6
176
     1
 40
30.0
176
     1
 62
     7
420
 16777215
176
     1
 90
        2
176
     1
 90
        2
176
     1
 62
     7
176
     1
 62
   257
176
     1
 90
        2
176
     1
 90
        1
176
     1
 40
40.0
176
     1
 90
        0
176
     1
 62
   257
176
     1
 40
1.0
176
     1
 90
        1
176
     1
 90
        6
176
     1
 90
        2
176
     1
 62
     7
176
     1
 90
        3
176
     1
 90
        0
176
     1
 90
        0
176
     1
290
     0
176
     1
 90
        1
176
     1
 40
0.0
176
     1
 90
        0
176
     1
290
     0
176
     1
290
     1
176
     1
290
     1
176
     1
290
     0
176
     1
290
     0
176
     1
290
     0
176
     1
290
     0
176
     1
290
     0
176
     1
290
     0
176
     1
 90
       50
176
     1
 40
0.0
176
     1
 40
1.0
176
     1
 90
        0
176
     1
 62
    18
420
        0
176
     1
 90
       50
176
     1
 90
        3
176
     1
 62
     5
420
      255
176
     1
290
     0
176
     1
 90
       50
176
     1
 90
       50
176
     1
 90
       50
176
     1
290
     0
176
     1
 90
       50
176
     1
 62
   256
176
     0
 40
1.0
176
     0
 90
        2
176
     1
  1
strokes_ogs.tif
176
     1
290
     0
176
     1
 40
1.0
176
     1
 40
1.0
176
     1
  0
VISUALSTYLE
  5
3B
102
{ACAD_REACTORS
330
2A
102
}
330
2A
100
AcDbVisualStyle
  2
JitterOff
 70
    20
177
     3
291
     1
 70
    58
 90
        2
176
     0
 90
        2
176
     0
 90
        0
176
     0
 90
        0
176
     0
 40
0.6
176
     0
 40
30.0
176
     0
 62
     7
420
 16777215
176
     0
 90
        1
176
     0
 90
        4
176
     0
 62
     7
176
     0
 62
   257
176
     0
 90
        1
176
     0
 90
        1
176
     0
 40
1.0
176
     0
 90
       10
176
     2
 62
     7
176
     0
 40
1.0
176
     0
 90
        1
176
     0
 90
        6
176
     0
 90
        2
176
     0
 62
     7
176
     0
 90
        5
176
     0
 90
        0
176
     0
 90
        0
176
     0
290
     0
176
     0
 90
        1
176
     0
 40
0.0
176
     0
 90
        0
176
     0
290
     0
176
     0
290
     1
176
     0
290
     1
176
     0
290
     0
176
     0
290
     0
176
     0
290
     0
176
     0
290
     0
176
     0
290
     0
176
     0
290
     0
176
     0
 90
       50
176
     0
 40
0.0
176
     0
 40
1.0
176
     0
 90
        0
176
     0
 62
    18
420
        0
176
     0
 90
       50
176
     0
 90
        3
176
     0
 62
     5
420
      255
176
     0
290
     0
176
     0
 90
       50
176
     0
 90
       50
176
     0
 90
       50
176
     0
290
     0
176
     0
 90
       50
176
     0
 62
   256
176
     0
 40
1.0
176
     0
 90
        2
176
     0
  1
strokes_ogs.tif
176
     0
290
     0
176
     0
 40
1.0
176
     0
 40
1.0
176
     0
  0
VISUALSTYLE
  5
38
102
{ACAD_REACTORS
330
2A
102
}
330
2A
100
AcDbVisualStyle
  2
Linepattern
 70
    14
177
     3
291
     1
 70
    58
 90
        2
176
     1
 90
        2
176
     1
 90
        0
176
     1
 90
        0
176
     1
 40
0.6
176
     1
 40
30.0
176
     1
 62
     7
420
 16777215
176
     1
 90
        1
176
     1
 90
        4
176
     1
 62
     7
176
     1
 62
   257
176
     1
 90
        7
176
     1
 90
        7
176
     1
 40
1.0
176
     1
 90
        8
176
     1
 62
     7
176
     1
 40
1.0
176
     1
 90
        1
176
     1
 90
        6
176
     1
 90
        2
176
     1
 62
     7
176
     1
 90
        5
176
     1
 90
        0
176
     1
 90
        0
176
     1
290
     0
176
     1
 90
        1
176
     1
 40
0.0
176
     1
 90
        0
176
     1
290
     0
176
     1
290
     1
176
     1
290
     1
176
     1
290
     0
176
     1
290
     0
176
     1
290
     0
176
     1
290
     0
176
     1
290
     0
176
     1
290
     0
176
     1
 90
       50
176
     1
 40
0.0
176
     1
 40
1.0
176
     1
 90
        0
176
     1
 62
    18
420
        0
176
     1
 90
       50
176
     1
 90
        3
176
     1
 62
     5
420
      255
176
     1
290
     0
176
     1
 90
       50
176
     1
 90
       50
176
     1
 90
       50
176
     1
290
     0
176
     1
 90
       50
176
     1
 62
   256
176
     0
 40
1.0
176
     0
 90
        2
176
     1
  1
strokes_ogs.tif
176
     1
290
     0
176
     1
 40
1.0
176
     1
 40
1.0
176
     1
  0
VISUALSTYLE
  5
3C
102
{ACAD_REACTORS
330
2A
102
}
330
2A
100
AcDbVisualStyle
  2
OverhangOff
 70
    21
177
     3
291
     1
 70
    58
 90
        2
176
     0
 90
        2
176
     0
 90
        0
176
     0
 90
        0
176
     0
 40
0.6
176
     0
 40
30.0
176
     0
 62
     7
420
 16777215
176
     0
 90
        1
176
     0
 90
        4
176
     0
 62
     7
176
     0
 62
   257
176
     0
 90
        1
176
     0
 90
        1
176
     0
 40
1.0
176
     0
 90
        9
176
     2
 62
     7
176
     0
 40
1.0
176
     0
 90
        1
176
     0
 90
        6
176
     0
 90
        2
176
     0
 62
     7
176
     0
 90
        5
176
     0
 90
        0
176
     0
 90
        0
176
     0
290
     0
176
     0
 90
        1
176
     0
 40
0.0
176
     0
 90
        0
176
     0
290
     0
176
     0
290
     1
176
     0
290
     1
176
     0
290
     0
176
     0
290
     0
176
     0
290
     0
176
     0
290
     0
176
     0
290
     0
176
     0
290
     0
176
     0
 90
       50
176
     0
 40
0.0
176
     0
 40
1.0
176
     0
 90
        0
176
     0
 62
    18
420
        0
176
     0
 90
       50
176
     0
 90
        3
176
     0
 62
     5
420
      255
176
     0
290
     0
176
     0
 90
       50
176
     0
 90
       50
176
     0
 90
       50
176
     0
290
     0
176
     0
 90
       50
176
     0
 62
   256
176
     0
 40
1.0
176
     0
 90
        2
176
     0
  1
strokes_ogs.tif
176
     0
290
     0
176
     0
 40
1.0
176
     0
 40
1.0
176
     0
  0
VISUALSTYLE
  5
33
102
{ACAD_REACTORS
330
2A
102
}
330
2A
100
AcDbVisualStyle
  2
Realistic
 70
     8
177
     3
291
     0
 70
    58
 90
        2
176
     1
 90
        3
176
     1
 90
        0
176
     1
 90
        2
176
     1
 40
0.6
176
     1
 40
30.0
176
     1
 62
     7
420
 16777215
176
     1
 90
        0
176
     1
 90
        0
176
     1
 62
     7
176
     1
 62
   257
176
     1
 90
        1
176
     1
 90
        1
176
     1
 40
1.0
176
     1
 90
        8
176
     1
 62
   257
176
     1
 40
1.0
176
     1
 90
        1
176
     1
 90
        6
176
     1
 90
        2
176
     1
 62
     7
176
     1
 90
        3
176
     1
 90
        0
176
     1
 90
        0
176
     1
290
     0
176
     1
 90
       13
176
     1
 40
0.0
176
     1
 90
        0
176
     1
290
     0
176
     1
290
     1
176
     1
290
     1
176
     1
290
     0
176
     1
290
     0
176
     1
290
     0
176
     1
290
     0
176
     1
290
     0
176
     1
290
     0
176
     1
 90
       50
176
     1
 40
0.0
176
     1
 40
1.0
176
     1
 90
        0
176
     1
 62
    18
420
        0
176
     1
 90
       50
176
     1
 90
        3
176
     1
 62
     5
420
      255
176
     1
290
     0
176
     1
 90
       50
176
     1
 90
       50
176
     1
 90
       50
176
     1
290
     0
176
     1
 90
       50
176
     1
 62
   256
176
     0
 40
1.0
176
     0
 90
        2
176
     1
  1
strokes_ogs.tif
176
     1
290
     0
176
     1
 40
1.0
176
     1
 40
1.0
176
     1
  0
VISUALSTYLE
  5
42
102
{ACAD_REACTORS
330
2A
102
}
330
2A
100
AcDbVisualStyle
  2
Shaded
 70
    27
177
     3
291
     0
 70
    58
 90
        2
176
     1
 90
        2
176
     1
 90
        1
176
     1
 90
        2
176
     1
 40
0.6
176
     1
 40
30.0
176
     1
 62
     7
420
 16777215
176
     1
 90
        0
176
     1
 90
        4
176
     1
 62
     7
176
     1
 62
   257
176
     1
 90
        1
176
     1
 90
        1
176
     1
 40
1.0
176
     1
 90
        8
176
     1
 62
   257
176
     1
 40
1.0
176
     1
 90
        1
176
     1
 90
        6
176
     1
 90
        2
176
     1
 62
     8
420
  7895160
176
     1
 90
        3
176
     1
 90
        0
176
     1
 90
        0
176
     1
290
     0
176
     1
 90
        5
176
     1
 40
0.0
176
     1
 90
        0
176
     1
290
     0
176
     1
290
     1
176
     1
290
     1
176
     1
290
     0
176
     1
290
     0
176
     1
290
     0
176
     1
290
     0
176
     1
290
     0
176
     1
290
     0
176
     1
 90
       50
176
     1
 40
0.0
176
     1
 40
1.0
176
     1
 90
        0
176
     1
 62
    18
420
        0
176
     1
 90
       50
176
     1
 90
        3
176
     1
 62
     5
420
      255
176
     1
290
     0
176
     1
 90
       50
176
     1
 90
       50
176
     1
 90
       50
176
     1
290
     0
176
     1
 90
       50
176
     1
 62
   256
176
     0
 40
1.0
176
     0
 90
        2
176
     1
  1
strokes_ogs.tif
176
     1
290
     0
176
     1
 40
1.0
176
     1
 40
1.0
176
     1
  0
VISUALSTYLE
  5
41
102
{ACAD_REACTORS
330
2A
102
}
330
2A
100
AcDbVisualStyle
  2
Shaded with edges
 70
    26
177
     3
291
     0
 70
    58
 90
        2
176
     1
 90
        2
176
     1
 90
        1
176
     1
 90
        2
176
     1
 40
0.6
176
     1
 40
30.0
176
     1
 62
     7
420
 16777215
176
     1
 90
        1
176
     1
 90
       10
176
     1
 62
     7
176
     1
 62
   257
176
     1
 90
        2
176
     1
 90
        1
176
     1
 40
1.0
176
     1
 90
        8
176
     1
 62
   257
176
     1
 40
1.0
176
     1
 90
        1
176
     1
 90
        6
176
     1
 90
        2
176
     1
 62
     7
176
     1
 90
        3
176
     1
 90
        0
176
     1
 90
        0
176
     1
290
     0
176
     1
 90
        5
176
     1
 40
0.0
176
     1
 90
        0
176
     1
290
     0
176
     1
290
     1
176
     1
290
     1
176
     1
290
     0
176
     1
290
     0
176
     1
290
     0
176
     1
290
     0
176
     1
290
     0
176
     1
290
     0
176
     1
 90
       50
176
     1
 40
0.0
176
     1
 40
1.0
176
     1
 90
        0
176
     1
 62
    18
420
        0
176
     1
 90
       50
176
     1
 90
        3
176
     1
 62
     5
420
      255
176
     1
290
     0
176
     1
 90
       50
176
     1
 90
       50
176
     1
 90
       50
176
     1
290
     0
176
     1
 90
       50
176
     1
 62
   256
176
     0
 40
1.0
176
     0
 90
        2
176
     1
  1
strokes_ogs.tif
176
     1
290
     0
176
     1
 40
1.0
176
     1
 40
1.0
176
     1
  0
VISUALSTYLE
  5
3E
102
{ACAD_REACTORS
330
2A
102
}
330
2A
100
AcDbVisualStyle
  2
Shades of Gray
 70
    23
177
     3
291
     0
 70
    58
 90
        2
176
     1
 90
        2
176
     1
 90
        3
176
     1
 90
        0
176
     1
 40
0.6
176
     1
 40
30.0
176
     1
 62
     7
420
 16777215
176
     1
 90
        2
176
     1
 90
        2
176
     1
 62
     7
176
     1
 62
     7
176
     1
 90
        1
176
     1
 90
        1
176
     1
 40
40.0
176
     1
 90
        8
176
     1
 62
     7
176
     1
 40
1.0
176
     1
 90
        1
176
     1
 90
        6
176
     1
 90
        2
176
     1
 62
     7
176
     1
 90
        3
176
     1
 90
        0
176
     1
 90
        0
176
     1
290
     0
176
     1
 90
        1
176
     1
 40
0.0
176
     1
 90
        0
176
     1
290
     0
176
     1
290
     1
176
     1
290
     1
176
     1
290
     0
176
     1
290
     0
176
     1
290
     0
176
     1
290
     0
176
     1
290
     0
176
     1
290
     0
176
     1
 90
       50
176
     1
 40
0.0
176
     1
 40
1.0
176
     1
 90
        0
176
     1
 62
    18
420
        0
176
     1
 90
       50
176
     1
 90
        3
176
     1
 62
     5
420
      255
176
     1
290
     0
176
     1
 90
       50
176
     1
 90
       50
176
     1
 90
       50
176
     1
290
     0
176
     1
 90
       50
176
     1
 62
   256
176
     0
 40
1.0
176
     0
 90
        2
176
     1
  1
strokes_ogs.tif
176
     1
290
     0
176
     1
 40
1.0
176
     1
 40
1.0
176
     1
  0
VISUALSTYLE
  5
3F
102
{ACAD_REACTORS
330
2A
102
}
330
2A
100
AcDbVisualStyle
  2
Sketchy
 70
    24
177
     3
291
     0
 70
    58
 90
        1
176
     1
 90
        2
176
     1
 90
        2
176
     1
 90
        0
176
     1
 40
0.6
176
     1
 40
30.0
176
     1
 62
     7
420
 16777215
176
     1
 90
        2
176
     1
 90
        2
176
     1
 62
     7
176
     1
 62
     7
176
     1
 90
        1
176
     1
 90
        1
176
     1
 40
40.0
176
     1
 90
       11
176
     1
 62
     7
176
     1
 40
1.0
176
     1
 90
        1
176
     1
 90
        6
176
     1
 90
        2
176
     1
 62
     7
176
     1
 90
        6
176
     1
 90
        0
176
     1
 90
        0
176
     1
290
     0
176
     1
 90
        1
176
     1
 40
0.0
176
     1
 90
        0
176
     1
290
     0
176
     1
290
     1
176
     1
290
     1
176
     1
290
     0
176
     1
290
     0
176
     1
290
     0
176
     1
290
     0
176
     1
290
     0
176
     1
290
     0
176
     1
 90
       50
176
     1
 40
0.0
176
     1
 40
1.0
176
     1
 90
        0
176
     1
 62
    18
420
        0
176
     1
 90
       50
176
     1
 90
        3
176
     1
 62
     5
420
      255
176
     1
290
     0
176
     1
 90
       50
176
     1
 90
       50
176
     1
 90
       50
176
     1
290
     0
176
     1
 90
       50
176
     1
 62
   256
176
     0
 40
1.0
176
     0
 90
        2
176
     1
  1
strokes_ogs.tif
176
     1
290
     0
176
     1
 40
1.0
176
     1
 40
1.0
176
     1
  0
VISUALSTYLE
  5
37
102
{ACAD_REACTORS
330
2A
102
}
330
2A
100
AcDbVisualStyle
  2
Thicken
 70
    13
177
     3
291
     1
 70
    58
 90
        2
176
     1
 90
        2
176
     1
 90
        0
176
     1
 90
        0
176
     1
 40
0.6
176
     1
 40
30.0
176
     1
 62
     7
420
 16777215
176
     1
 90
        1
176
     1
 90
        4
176
     1
 62
     7
176
     1
 62
   257
176
     1
 90
        1
176
     1
 90
        1
176
     1
 40
1.0
176
     1
 90
       12
176
     1
 62
     7
176
     1
 40
1.0
176
     1
 90
        1
176
     1
 90
        6
176
     1
 90
        2
176
     1
 62
     7
176
     1
 90
        5
176
     1
 90
        0
176
     1
 90
        0
176
     1
290
     0
176
     1
 90
        1
176
     1
 40
0.0
176
     1
 90
        0
176
     1
290
     0
176
     1
290
     1
176
     1
290
     1
176
     1
290
     0
176
     1
290
     0
176
     1
290
     0
176
     1
290
     0
176
     1
290
     0
176
     1
290
     0
176
     1
 90
       50
176
     1
 40
0.0
176
     1
 40
1.0
176
     1
 90
        0
176
     1
 62
    18
420
        0
176
     1
 90
       50
176
     1
 90
        3
176
     1
 62
     5
420
      255
176
     1
290
     0
176
     1
 90
       50
176
     1
 90
       50
176
     1
 90
       50
176
     1
290
     0
176
     1
 90
       50
176
     1
 62
   256
176
     0
 40
1.0
176
     0
 90
        2
176
     1
  1
strokes_ogs.tif
176
     1
290
     0
176
     1
 40
1.0
176
     1
 40
1.0
176
     1
  0
VISUALSTYLE
  5
30
102
{ACAD_REACTORS
330
2A
102
}
330
2A
100
AcDbVisualStyle
  2
Wireframe
 70
     5
177
     3
291
     0
 70
    58
 90
        0
176
     1
 90
        2
176
     1
 90
        0
176
     1
 90
        0
176
     1
 40
0.6
176
     1
 40
30.0
176
     1
 62
     7
420
 16777215
176
     1
 90
        1
176
     1
 90
        4
176
     1
 62
     7
176
     1
 62
   257
176
     1
 90
        1
176
     1
 90
        1
176
     1
 40
1.0
176
     1
 90
        0
176
     1
 62
   257
176
     1
 40
1.0
176
     1
 90
        1
176
     1
 90
        6
176
     1
 90
        2
176
     1
 62
     7
176
     1
 90
        3
176
     1
 90
        0
176
     1
 90
        0
176
     1
290
     0
176
     1
 90
        1
176
     1
 40
0.0
176
     1
 90
        0
176
     1
290
     0
176
     1
290
     1
176
     1
290
     1
176
     1
290
     0
176
     1
290
     0
176
     1
290
     0
176
     1
290
     0
176
     1
290
     0
176
     1
290
     0
176
     1
 90
       50
176
     1
 40
0.0
176
     1
 40
1.0
176
     1
 90
        0
176
     1
 62
    18
420
        0
176
     1
 90
       50
176
     1
 90
        3
176
     1
 62
     5
420
      255
176
     1
290
     0
176
     1
 90
       50
176
     1
 90
       50
176
     1
 90
       50
176
     1
290
     0
176
     1
 90
       50
176
     1
 62
   256
176
     0
 40
1.0
176
     0
 90
        2
176
     1
  1
strokes_ogs.tif
176
     1
290
     0
176
     1
 40
1.0
176
     1
 40
1.0
176
     1
  0
VISUALSTYLE
  5
40
102
{ACAD_REACTORS
330
2A
102
}
330
2A
100
AcDbVisualStyle
  2
X-Ray
 70
    25
177
     3
291
     0
 70
    58
 90
        2
176
     1
 90
        2
176
     1
 90
        1
176
     1
 90
        1
176
     1
 40
0.5
176
     1
 40
30.0
176
     1
 62
     7
420
 16777215
176
     1
 90
        1
176
     1
 90
        0
176
     1
 62
     7
176
     1
 62
   257
176
     1
 90
        1
176
     1
 90
        1
176
     1
 40
1.0
176
     1
 90
        8
176
     1
 62
     7
176
     1
 40
1.0
176
     1
 90
        1
176
     1
 90
        6
176
     1
 90
        2
176
     1
 62
     7
176
     1
 90
        3
176
     1
 90
        0
176
     1
 90
        0
176
     1
290
     0
176
     1
 90
       13
176
     1
 40
0.0
176
     1
 90
        0
176
     1
290
     0
176
     1
290
     1
176
     1
290
     1
176
     1
290
     0
176
     1
290
     0
176
     1
290
     0
176
     1
290
     0
176
     1
290
     0
176
     1
290
     0
176
     1
 90
       50
176
     1
 40
0.0
176
     1
 40
1.0
176
     1
 90
        0
176
     1
 62
    18
420
        0
176
     1
 90
       50
176
     1
 90
        3
176
     1
 62
     5
420
      255
176
     1
290
     0
176
     1
 90
       50
176
     1
 90
       50
176
     1
 90
       50
176
     1
290
     0
176
     1
 90
       50
176
     1
 62
   256
176
     0
 40
1.0
176
     0
 90
        2
176
     1
  1
strokes_ogs.tif
176
     1
290
     0
176
     1
 40
1.0
176
     1
 40
1.0
176
     1
  0
DICTIONARYVAR
  5
84
102
{ACAD_REACTORS
330
83
102
}
330
83
100
DictionaryVariables
280
     0
  1
1:1
  0
DICTIONARYVAR
  5
89
102
{ACAD_REACTORS
330
83
102
}
330
83
100
DictionaryVariables
280
     0
  1
Standard
  0
DICTIONARYVAR
  5
88
102
{ACAD_REACTORS
330
83
102
}
330
83
100
DictionaryVariables
280
     0
  1
Standard
  0
DICTIONARY
  5
85
330
5A
100
AcDbDictionary
280
     1
281
     1
  3
ACAD_ROUNDTRIP_2008_TABLESTYLE_CELLSTYLEMAP
360
86
  0
CELLSTYLEMAP
  5
86
102
{ACAD_REACTORS
330
85
102
}
330
85
100
AcDbCellStyleMap
 90
        3
300
CELLSTYLE
  1
TABLEFORMAT_BEGIN
 90
        5
170
     1
 91
        0
 92
    32768
 62
   257
 93
        1
300
CONTENTFORMAT
  1
CONTENTFORMAT_BEGIN
 90
        0
 91
        0
 92
        4
 93
        0
300

 40
0.0
140
1.0
 94
        5
 62
     0
340
11
144
0.25
309
CONTENTFORMAT_END
171
     1
301
MARGIN
  1
CELLMARGIN_BEGIN
 40
0.06
 40
0.06
 40
0.06
 40
0.06
 40
0.06
 40
0.06
309
CELLMARGIN_END
 94
        6
 95
        1
302
GRIDFORMAT
  1
GRIDFORMAT_BEGIN
 90
        0
 91
        1
 62
     0
 92
       -2
340
14
 93
        0
 40
0.045
309
GRIDFORMAT_END
 95
        2
302
GRIDFORMAT
  1
GRIDFORMAT_BEGIN
 90
        0
 91
        1
 62
     0
 92
       -2
340
14
 93
        0
 40
0.045
309
GRIDFORMAT_END
 95
        4
302
GRIDFORMAT
  1
GRIDFORMAT_BEGIN
 90
        0
 91
        1
 62
     0
 92
       -2
340
14
 93
        0
 40
0.045
309
GRIDFORMAT_END
 95
        8
302
GRIDFORMAT
  1
GRIDFORMAT_BEGIN
 90
        0
 91
        1
 62
     0
 92
       -2
340
14
 93
        0
 40
0.045
309
GRIDFORMAT_END
 95
       16
302
GRIDFORMAT
  1
GRIDFORMAT_BEGIN
 90
        0
 91
        1
 62
     0
 92
       -2
340
14
 93
        0
 40
0.045
309
GRIDFORMAT_END
 95
       32
302
GRIDFORMAT
  1
GRIDFORMAT_BEGIN
 90
        0
 91
        1
 62
     0
 92
       -2
340
14
 93
        0
 40
0.045
309
GRIDFORMAT_END
309
TABLEFORMAT_END
  1
CELLSTYLE_BEGIN
 90
        1
 91
        1
300
_TITLE
309
CELLSTYLE_END
300
CELLSTYLE
  1
TABLEFORMAT_BEGIN
 90
        5
170
     1
 91
        0
 92
        0
 62
   257
 93
        1
300
CONTENTFORMAT
  1
CONTENTFORMAT_BEGIN
 90
        0
 91
        0
 92
        4
 93
        0
300

 40
0.0
140
1.0
 94
        5
 62
     0
340
11
144
0.18
309
CONTENTFORMAT_END
171
     1
301
MARGIN
  1
CELLMARGIN_BEGIN
 40
0.06
 40
0.06
 40
0.06
 40
0.06
 40
0.06
 40
0.06
309
CELLMARGIN_END
 94
        6
 95
        1
302
GRIDFORMAT
  1
GRIDFORMAT_BEGIN
 90
        0
 91
        1
 62
     0
 92
       -2
340
14
 93
        0
 40
0.045
309
GRIDFORMAT_END
 95
        2
302
GRIDFORMAT
  1
GRIDFORMAT_BEGIN
 90
        0
 91
        1
 62
     0
 92
       -2
340
14
 93
        0
 40
0.045
309
GRIDFORMAT_END
 95
        4
302
GRIDFORMAT
  1
GRIDFORMAT_BEGIN
 90
        0
 91
        1
 62
     0
 92
       -2
340
14
 93
        0
 40
0.045
309
GRIDFORMAT_END
 95
        8
302
GRIDFORMAT
  1
GRIDFORMAT_BEGIN
 90
        0
 91
        1
 62
     0
 92
       -2
340
14
 93
        0
 40
0.045
309
GRIDFORMAT_END
 95
       16
302
GRIDFORMAT
  1
GRIDFORMAT_BEGIN
 90
        0
 91
        1
 62
     0
 92
       -2
340
14
 93
        0
 40
0.045
309
GRIDFORMAT_END
 95
       32
302
GRIDFORMAT
  1
GRIDFORMAT_BEGIN
 90
        0
 91
        1
 62
     0
 92
       -2
340
14
 93
        0
 40
0.045
309
GRIDFORMAT_END
309
TABLEFORMAT_END
  1
CELLSTYLE_BEGIN
 90
        2
 91
        1
300
_HEADER
309
CELLSTYLE_END
300
CELLSTYLE
  1
TABLEFORMAT_BEGIN
 90
        5
170
     1
 91
        0
 92
        0
 62
   257
 93
        1
300
CONTENTFORMAT
  1
CONTENTFORMAT_BEGIN
 90
        0
 91
        0
 92
        4
 93
        0
300

 40
0.0
140
1.0
 94
        2
 62
     0
340
11
144
0.18
309
CONTENTFORMAT_END
171
     1
301
MARGIN
  1
CELLMARGIN_BEGIN
 40
0.06
 40
0.06
 40
0.06
 40
0.06
 40
0.06
 40
0.06
309
CELLMARGIN_END
 94
        6
 95
        1
302
GRIDFORMAT
  1
GRIDFORMAT_BEGIN
 90
        0
 91
        1
 62
     0
 92
       -2
340
14
 93
        0
 40
0.045
309
GRIDFORMAT_END
 95
        2
302
GRIDFORMAT
  1
GRIDFORMAT_BEGIN
 90
        0
 91
        1
 62
     0
 92
       -2
340
14
 93
        0
 40
0.045
309
GRIDFORMAT_END
 95
        4
302
GRIDFORMAT
  1
GRIDFORMAT_BEGIN
 90
        0
 91
        1
 62
     0
 92
       -2
340
14
 93
        0
 40
0.045
309
GRIDFORMAT_END
 95
        8
302
GRIDFORMAT
  1
GRIDFORMAT_BEGIN
 90
        0
 91
        1
 62
     0
 92
       -2
340
14
 93
        0
 40
0.045
309
GRIDFORMAT_END
 95
       16
302
GRIDFORMAT
  1
GRIDFORMAT_BEGIN
 90
        0
 91
        1
 62
     0
 92
       -2
340
14
 93
        0
 40
0.045
309
GRIDFORMAT_END
 95
       32
302
GRIDFORMAT
  1
GRIDFORMAT_BEGIN
 90
        0
 91
        1
 62
     0
 92
       -2
340
14
 93
        0
 40
0.045
309
GRIDFORMAT_END
309
TABLEFORMAT_END
  1
CELLSTYLE_BEGIN
 90
        3
 91
        2
300
_DATA
309
CELLSTYLE_END
  0
ENDSEC
  0
EOF
