  0
SECTION
  2
HEADER
  9
$ACADVER
  1
AC1027
  9
$ACADMAINTVER
 70
   105
  9
$DWGCODEPAGE
  3
ANSI_1252
  9
$LASTSAVEDBY
  1
Office Desk
  9
$REQUIREDVERSIONS
160
                 0
  9
$INSBASE
 10
0.0
 20
0.0
 30
0.0
  9
$EXTMIN
 10
171.0169
 20
-430.974
 30
0.0
  9
$EXTMAX
 10
704.4755
 20
452.3952
 30
0.0
  9
$LIMMIN
 10
0.0
 20
0.0
  9
$LIMMAX
 10
12.0
 20
9.0
  9
$ORTHOMODE
 70
     0
  9
$REGENMODE
 70
     1
  9
$FILLMODE
 70
     1
  9
$QTEXTMODE
 70
     0
  9
$MIRRTEXT
 70
     1
  9
$LTSCALE
 40
1.0
  9
$ATTMODE
 70
     1
  9
$TEXTSIZE
 40
0.2
  9
$TRACEWID
 40
0.05
  9
$TEXTSTYLE
  7
Standard
  9
$CLAYER
  8
0
  9
$CELTYPE
  6
ByLayer
  9
$CECOLOR
 62
   256
  9
$CELTSCALE
 40
1.0
  9
$DISPSILH
 70
     0
  9
$DIMSCALE
 40
1.0
  9
$DIMASZ
 40
0.18
  9
$DIMEXO
 40
0.0625
  9
$DIMDLI
 40
0.38
  9
$DIMRND
 40
0.0
  9
$DIMDLE
 40
0.0
  9
$DIMEXE
 40
0.18
  9
$DIMTP
 40
0.0
  9
$DIMTM
 40
0.0
  9
$DIMTXT
 40
0.18
  9
$DIMCEN
 40
0.09
  9
$DIMTSZ
 40
0.0
  9
$DIMTOL
 70
     0
  9
$DIMLIM
 70
     0
  9
$DIMTIH
 70
     1
  9
$DIMTOH
 70
     1
  9
$DIMSE1
 70
     0
  9
$DIMSE2
 70
     0
  9
$DIMTAD
 70
     0
  9
$DIMZIN
 70
     0
  9
$DIMBLK
  1

  9
$DIMASO
 70
     1
  9
$DIMSHO
 70
     1
  9
$DIMPOST
  1

  9
$DIMAPOST
  1

  9
$DIMALT
 70
     0
  9
$DIMALTD
 70
     2
  9
$DIMALTF
 40
25.4
  9
$DIMLFAC
 40
1.0
  9
$DIMTOFL
 70
     0
  9
$DIMTVP
 40
0.0
  9
$DIMTIX
 70
     0
  9
$DIMSOXD
 70
     0
  9
$DIMSAH
 70
     0
  9
$DIMBLK1
  1

  9
$DIMBLK2
  1

  9
$DIMSTYLE
  2
Standard
  9
$DIMCLRD
 70
     0
  9
$DIMCLRE
 70
     0
  9
$DIMCLRT
 70
     0
  9
$DIMTFAC
 40
1.0
  9
$DIMGAP
 40
0.09
  9
$DIMJUST
 70
     0
  9
$DIMSD1
 70
     0
  9
$DIMSD2
 70
     0
  9
$DIMTOLJ
 70
     1
  9
$DIMTZIN
 70
     0
  9
$DIMALTZ
 70
     0
  9
$DIMALTTZ
 70
     0
  9
$DIMUPT
 70
     0
  9
$DIMDEC
 70
     4
  9
$DIMTDEC
 70
     4
  9
$DIMALTU
 70
     2
  9
$DIMALTTD
 70
     2
  9
$DIMTXSTY
  7
Standard
  9
$DIMAUNIT
 70
     0
  9
$DIMADEC
 70
     0
  9
$DIMALTRND
 40
0.0
  9
$DIMAZIN
 70
     0
  9
$DIMDSEP
 70
    46
  9
$DIMATFIT
 70
     3
  9
$DIMFRAC
 70
     0
  9
$DIMLDRBLK
  1

  9
$DIMLUNIT
 70
     2
  9
$DIMLWD
 70
    -2
  9
$DIMLWE
 70
    -2
  9
$DIMTMOVE
 70
     0
  9
$DIMFXL
 40
1.0
  9
$DIMFXLON
 70
     0
  9
$DIMJOGANG
 40
0.7853981633974483
  9
$DIMTFILL
 70
     0
  9
$DIMTFILLCLR
 70
     0
  9
$DIMARCSYM
 70
     0
  9
$DIMLTYPE
  6

  9
$DIMLTEX1
  6

  9
$DIMLTEX2
  6

  9
$DIMTXTDIRECTION
 70
     0
  9
$LUNITS
 70
     2
  9
$LUPREC
 70
     4
  9
$SKETCHINC
 40
0.1
  9
$FILLETRAD
 40
0.0
  9
$AUNITS
 70
     0
  9
$AUPREC
 70
     0
  9
$MENU
  1
.
  9
$ELEVATION
 40
0.0
  9
$PELEVATION
 40
0.0
  9
$THICKNESS
 40
0.0
  9
$LIMCHECK
 70
     0
  9
$CHAMFERA
 40
0.0
  9
$CHAMFERB
 40
0.0
  9
$CHAMFERC
 40
0.0
  9
$CHAMFERD
 40
0.0
  9
$SKPOLY
 70
     0
  9
$TDCREATE
 40
2461006.699319919
  9
$TDUCREATE
 40
2461006.470153252
  9
$TDUPDATE
 40
2461006.699319919
  9
$TDUUPDATE
 40
2461006.470153252
  9
$TDINDWG
 40
0.0000000116
  9
$TDUSRTIMER
 40
0.0000000116
  9
$USRTIMER
 70
     1
  9
$ANGBASE
 50
0.0
  9
$ANGDIR
 70
     0
  9
$PDMODE
 70
     0
  9
$PDSIZE
 40
0.0
  9
$PLINEWID
 40
0.0
  9
$SPLFRAME
 70
     0
  9
$SPLINETYPE
 70
     6
  9
$SPLINESEGS
 70
     8
  9
$HANDSEED
  5
83
  9
$SURFTAB1
 70
     6
  9
$SURFTAB2
 70
     6
  9
$SURFTYPE
 70
     6
  9
$SURFU
 70
     6
  9
$SURFV
 70
     6
  9
$UCSBASE
  2

  9
$UCSNAME
  2

  9
$UCSORG
 10
0.0
 20
0.0
 30
0.0
  9
$UCSXDIR
 10
1.0
 20
0.0
 30
0.0
  9
$UCSYDIR
 10
0.0
 20
1.0
 30
0.0
  9
$UCSORTHOREF
  2

  9
$UCSORTHOVIEW
 70
     0
  9
$UCSORGTOP
 10
0.0
 20
0.0
 30
0.0
  9
$UCSORGBOTTOM
 10
0.0
 20
0.0
 30
0.0
  9
$UCSORGLEFT
 10
0.0
 20
0.0
 30
0.0
  9
$UCSORGRIGHT
 10
0.0
 20
0.0
 30
0.0
  9
$UCSORGFRONT
 10
0.0
 20
0.0
 30
0.0
  9
$UCSORGBACK
 10
0.0
 20
0.0
 30
0.0
  9
$PUCSBASE
  2

  9
$PUCSNAME
  2

  9
$PUCSORG
 10
0.0
 20
0.0
 30
0.0
  9
$PUCSXDIR
 10
1.0
 20
0.0
 30
0.0
  9
$PUCSYDIR
 10
0.0
 20
1.0
 30
0.0
  9
$PUCSORTHOREF
  2

  9
$PUCSORTHOVIEW
 70
     0
  9
$PUCSORGTOP
 10
0.0
 20
0.0
 30
0.0
  9
$PUCSORGBOTTOM
 10
0.0
 20
0.0
 30
0.0
  9
$PUCSORGLEFT
 10
0.0
 20
0.0
 30
0.0
  9
$PUCSORGRIGHT
 10
0.0
 20
0.0
 30
0.0
  9
$PUCSORGFRONT
 10
0.0
 20
0.0
 30
0.0
  9
$PUCSORGBACK
 10
0.0
 20
0.0
 30
0.0
  9
$USERI1
 70
     0
  9
$USERI2
 70
     0
  9
$USERI3
 70
     0
  9
$USERI4
 70
     0
  9
$USERI5
 70
     0
  9
$USERR1
 40
0.0
  9
$USERR2
 40
0.0
  9
$USERR3
 40
0.0
  9
$USERR4
 40
0.0
  9
$USERR5
 40
0.0
  9
$WORLDVIEW
 70
     1
  9
$SHADEDGE
 70
     3
  9
$SHADEDIF
 70
    70
  9
$TILEMODE
 70
     1
  9
$MAXACTVP
 70
    64
  9
$PINSBASE
 10
0.0
 20
0.0
 30
0.0
  9
$PLIMCHECK
 70
     0
  9
$PEXTMIN
 10
1.000000000000000E+20
 20
1.000000000000000E+20
 30
1.000000000000000E+20
  9
$PEXTMAX
 10
-1.000000000000000E+20
 20
-1.000000000000000E+20
 30
-1.000000000000000E+20
  9
$PLIMMIN
 10
0.0
 20
0.0
  9
$PLIMMAX
 10
12.0
 20
9.0
  9
$UNITMODE
 70
     0
  9
$VISRETAIN
 70
     1
  9
$PLINEGEN
 70
     0
  9
$PSLTSCALE
 70
     1
  9
$TREEDEPTH
 70
  3020
  9
$CMLSTYLE
  2
Standard
  9
$CMLJUST
 70
     0
  9
$CMLSCALE
 40
1.0
  9
$PROXYGRAPHICS
 70
     1
  9
$MEASUREMENT
 70
     0
  9
$CELWEIGHT
370
    -1
  9
$ENDCAPS
280
     0
  9
$JOINSTYLE
280
     0
  9
$LWDISPLAY
290
     0
  9
$INSUNITS
 70
     4
  9
$HYPERLINKBASE
  1

  9
$STYLESHEET
  1

  9
$XEDIT
290
     1
  9
$CEPSNTYPE
380
     0
  9
$PSTYLEMODE
290
     1
  9
$FINGERPRINTGUID
  2
{099b261e-924f-4a96-abcd-977c15b105e5}
  9
$VERSIONGUID
  2
{FAEB1C32-E019-11D5-929B-00C0DF256EC4}
  9
$EXTNAMES
290
     1
  9
$PSVPSCALE
 40
0.0
  9
$OLESTARTUP
290
     0
  9
$SORTENTS
280
   127
  9
$INDEXCTL
280
     0
  9
$HIDETEXT
280
     1
  9
$XCLIPFRAME
280
     2
  9
$HALOGAP
280
     0
  9
$OBSCOLOR
 70
   257
  9
$OBSLTYPE
280
     0
  9
$INTERSECTIONDISPLAY
280
     0
  9
$INTERSECTIONCOLOR
 70
   257
  9
$DIMASSOC
280
     2
  9
$PROJECTNAME
  1

  9
$CAMERADISPLAY
290
     0
  9
$LENSLENGTH
 40
50.0
  9
$CAMERAHEIGHT
 40
0.0
  9
$STEPSPERSEC
 40
2.0
  9
$STEPSIZE
 40
6.0
  9
$3DDWFPREC
 40
2.0
  9
$PSOLWIDTH
 40
0.25
  9
$PSOLHEIGHT
 40
4.0
  9
$LOFTANG1
 40
1.570796326794897
  9
$LOFTANG2
 40
1.570796326794897
  9
$LOFTMAG1
 40
0.0
  9
$LOFTMAG2
 40
0.0
  9
$LOFTPARAM
 70
     7
  9
$LOFTNORMALS
280
     1
  9
$LATITUDE
 40
37.795
  9
$LONGITUDE
 40
-122.394
  9
$NORTHDIRECTION
 40
0.0
  9
$TIMEZONE
 70
 -8000
  9
$LIGHTGLYPHDISPLAY
280
     1
  9
$TILEMODELIGHTSYNCH
280
     1
  9
$CMATERIAL
347
44
  9
$SOLIDHIST
280
     0
  9
$SHOWHIST
280
     1
  9
$DWFFRAME
280
     2
  9
$DGNFRAME
280
     2
  9
$REALWORLDSCALE
290
     1
  9
$INTERFERECOLOR
 62
   256
  9
$CSHADOW
280
     0
  9
$SHADOWPLANELOCATION
 40
0.0
  0
ENDSEC
  0
SECTION
  2
CLASSES
  0
CLASS
  1
ACDBDICTIONARYWDFLT
  2
AcDbDictionaryWithDefault
  3
ObjectDBX Classes
 90
        0
 91
        3
280
     0
281
     0
  0
CLASS
  1
VISUALSTYLE
  2
AcDbVisualStyle
  3
ObjectDBX Classes
 90
     4095
 91
        3
280
     0
281
     0
  0
CLASS
  1
MATERIAL
  2
AcDbMaterial
  3
ObjectDBX Classes
 90
     1153
 91
        3
280
     0
281
     0
  0
CLASS
  1
SCALE
  2
AcDbScale
  3
ObjectDBX Classes
 90
     1153
 91
        3
280
     0
281
     0
  0
CLASS
  1
TABLESTYLE
  2
AcDbTableStyle
  3
ObjectDBX Classes
 90
     4095
 91
        3
280
     0
281
     0
  0
CLASS
  1
MLEADERSTYLE
  2
AcDbMLeaderStyle
  3
ACDB_MLEADERSTYLE_CLASS
 90
     4095
 91
        3
280
     0
281
     0
  0
CLASS
  1
SUN
  2
AcDbSun
  3
SCENEOE
 90
     1153
 91
        3
280
     0
281
     0
  0
CLASS
  1
DICTIONARYVAR
  2
AcDbDictionaryVar
  3
ObjectDBX Classes
 90
        0
 91
        3
280
     0
281
     0
  0
CLASS
  1
CELLSTYLEMAP
  2
AcDbCellStyleMap
  3
ObjectDBX Classes
 90
     1152
 91
        3
280
     0
281
     0
  0
ENDSEC
  0
SECTION
  2
TABLES
  0
TABLE
  2
VPORT
  5
8
330
0
100
AcDbSymbolTable
 70
     1
  0
VPORT
  5
29
330
8
100
AcDbSymbolTableRecord
100
AcDbViewportTableRecord
  2
*Active
 70
     0
 10
0.0
 20
0.0
 11
1.0
 21
1.0
 12
10.42990654205607
 22
4.5
 13
0.0
 23
0.0
 14
0.5
 24
0.5
 15
0.5
 25
0.5
 16
0.0
 26
0.0
 36
1.0
 17
0.0
 27
0.0
 37
0.0
 40
9.0
 41
1.972972972850329
 42
50.0
 43
0.0
 44
0.0
 50
0.0
 51
0.0
 71
     0
 72
   100
 73
     1
 74
     3
 75
     0
 76
     0
 77
     0
 78
     0
281
     0
 65
     1
110
0.0
120
0.0
130
0.0
111
1.0
121
0.0
131
0.0
112
0.0
122
1.0
132
0.0
 79
     0
146
0.0
348
2F
 60
     3
 61
     5
292
     1
282
     1
141
0.0
142
0.0
 63
   250
361
5D
  0
ENDTAB
  0
TABLE
  2
LTYPE
  5
5
330
0
100
AcDbSymbolTable
 70
     1
  0
LTYPE
  5
14
330
5
100
AcDbSymbolTableRecord
100
AcDbLinetypeTableRecord
  2
ByBlock
 70
     0
  3

 72
    65
 73
     0
 40
0.0
  0
LTYPE
  5
15
330
5
100
AcDbSymbolTableRecord
100
AcDbLinetypeTableRecord
  2
ByLayer
 70
     0
  3

 72
    65
 73
     0
 40
0.0
  0
LTYPE
  5
16
330
5
100
AcDbSymbolTableRecord
100
AcDbLinetypeTableRecord
  2
Continuous
 70
     0
  3
Solid line
 72
    65
 73
     0
 40
0.0
  0
ENDTAB
  0
TABLE
  2
LAYER
  5
2
330
0
100
AcDbSymbolTable
 70
     2
  0
LAYER
  5
10
330
2
100
AcDbSymbolTableRecord
100
AcDbLayerTableRecord
  2
0
 70
     0
 62
     7
  6
Continuous
370
    -3
390
F
347
46
348
0
  0
LAYER
  5
5F
330
2
100
AcDbSymbolTableRecord
100
AcDbLayerTableRecord
  2
Layer 1
 70
     0
 62
     7
  6
Continuous
370
    -3
390
F
347
46
348
0
  0
ENDTAB
  0
TABLE
  2
STYLE
  5
3
330
0
100
AcDbSymbolTable
 70
     1
  0
STYLE
  5
11
330
3
100
AcDbSymbolTableRecord
100
AcDbTextStyleTableRecord
  2
Standard
 70
     0
 40
0.0
 41
1.0
 50
0.0
 71
     0
 42
0.2
  3
txt
  4

  0
ENDTAB
  0
TABLE
  2
VIEW
  5
6
330
0
100
AcDbSymbolTable
 70
     0
  0
ENDTAB
  0
TABLE
  2
UCS
  5
7
330
0
100
AcDbSymbolTable
 70
     0
  0
ENDTAB
  0
TABLE
  2
APPID
  5
9
330
0
100
AcDbSymbolTable
 70
     2
  0
APPID
  5
12
330
9
100
AcDbSymbolTableRecord
100
AcDbRegAppTableRecord
  2
ACAD
 70
     0
  0
APPID
  5
5E
330
9
100
AcDbSymbolTableRecord
100
AcDbRegAppTableRecord
  2
ODA
 70
     0
  0
ENDTAB
  0
TABLE
  2
DIMSTYLE
  5
A
330
0
100
AcDbSymbolTable
 70
     1
100
AcDbDimStyleTable
  0
DIMSTYLE
105
27
330
A
100
AcDbSymbolTableRecord
100
AcDbDimStyleTableRecord
  2
Standard
 70
     0
178
     0
340
11
  0
ENDTAB
  0
TABLE
  2
BLOCK_RECORD
  5
1
330
0
100
AcDbSymbolTable
 70
     1
  0
BLOCK_RECORD
  5
1F
330
1
100
AcDbSymbolTableRecord
100
AcDbBlockTableRecord
  2
*Model_Space
340
22
 70
     0
280
     1
281
     0
  0
BLOCK_RECORD
  5
1B
330
1
100
AcDbSymbolTableRecord
100
AcDbBlockTableRecord
  2
*Paper_Space
340
1E
 70
     0
280
     1
281
     0
  0
BLOCK_RECORD
  5
23
330
1
100
AcDbSymbolTableRecord
100
AcDbBlockTableRecord
  2
*Paper_Space0
340
26
 70
     0
280
     1
281
     0
  0
ENDTAB
  0
ENDSEC
  0
SECTION
  2
BLOCKS
  0
BLOCK
  5
20
330
1F
100
AcDbEntity
  8
0
100
AcDbBlockBegin
  2
*Model_Space
 70
     0
 10
0.0
 20
0.0
 30
0.0
  3
*Model_Space
  1

  0
ENDBLK
  5
21
330
1F
100
AcDbEntity
  8
0
100
AcDbBlockEnd
  0
BLOCK
  5
1C
330
1B
100
AcDbEntity
 67
     1
  8
0
100
AcDbBlockBegin
  2
*Paper_Space
 70
     0
 10
0.0
 20
0.0
 30
0.0
  3
*Paper_Space
  1

  0
ENDBLK
  5
1D
330
1B
100
AcDbEntity
 67
     1
  8
0
100
AcDbBlockEnd
  0
BLOCK
  5
24
330
23
100
AcDbEntity
  8
0
100
AcDbBlockBegin
  2
*Paper_Space0
 70
     0
 10
0.0
 20
0.0
 30
0.0
  3
*Paper_Space0
  1

  0
ENDBLK
  5
25
330
23
100
AcDbEntity
  8
0
100
AcDbBlockEnd
  0
ENDSEC
  0
SECTION
  2
ENTITIES
  0
LWPOLYLINE
  5
60
330
1F
100
AcDbEntity
  8
Layer 1
 62
   250
370
    18
100
AcDbPolyline
 90
        5
 70
     1
 43
0.0
 10
171.1051
 20
-430.8858
 10
704.3873
 20
-430.8858
 10
704.3873
 20
452.307
 10
171.1051
 20
452.307
 10
171.1051
 20
-430.8858
  0
LWPOLYLINE
  5
61
330
1F
100
AcDbEntity
  8
Layer 1
 62
     7
370
    18
100
AcDbPolyline
 90
      122
 70
     1
 43
0.0
 10
557.2482
 20
310.1997
 10
553.0816
 20
319.106
 10
542.8173
 20
327.3067
 10
527.0984
 20
334.6356
 10
506.5682
 20
340.9266
 10
481.8702
 20
346.0135
 10
453.6475
 20
349.7302
 10
422.5435
 20
351.9105
 10
389.2014
 20
352.3884
 10
355.3215
 20
351.0392
 10
323.7657
 20
347.9916
 10
295.21
 20
343.4369
 10
270.3303
 20
337.5666
 10
249.8027
 20
330.5723
 10
234.3031
 20
322.6454
 10
224.5077
 20
313.9773
 10
221.0923
 20
304.7595
 10
221.0073
 20
304.4562
 10
220.792
 20
303.488
 10
220.5055
 20
301.7673
 10
220.2072
 20
299.2064
 10
219.9563
 20
295.7179
 10
219.8121
 20
291.2141
 10
219.8338
 20
285.6074
 10
220.0808
 20
278.8103
 10
220.6366
 20
267.1902
 10
221.4726
 20
248.8678
 10
222.4796
 20
226.3865
 10
223.5484
 20
202.2894
 10
224.5698
 20
179.12
 10
225.4345
 20
159.4216
 10
226.0335
 20
145.7375
 10
226.2574
 20
140.6109
 10
226.3592
 20
139.6287
 10
226.7618
 20
136.9935
 10
227.6113
 20
133.1725
 10
229.0537
 20
128.6326
 10
231.235
 20
123.841
 10
234.3014
 20
119.2647
 10
238.3987
 20
115.371
 10
243.6731
 20
112.6267
 10
243.7849
 20
112.6383
 10
244.077
 20
112.6026
 10
244.4843
 20
112.4135
 10
244.9417
 20
111.9652
 10
245.3841
 20
111.1518
 10
245.7463
 20
109.8673
 10
245.9634
 20
108.0058
 10
245.9701
 20
105.4614
 10
246.5982
 20
81.5217
 10
248.4535
 20
23.2546
 10
251.1319
 20
-57.7758
 10
254.2293
 20
-150.0053
 10
257.3418
 20
-241.8696
 10
260.0652
 20
-321.8046
 10
261.9956
 20
-378.246
 10
262.7288
 20
-399.6296
 10
262.6642
 20
-400.3044
 10
262.5876
 20
-402.082
 10
262.6746
 20
-404.5919
 10
263.1008
 20
-407.4636
 10
264.042
 20
-410.3269
 10
265.6738
 20
-412.8111
 10
268.1718
 20
-414.546
 10
271.7118
 20
-415.1611
 10
280.3906
 20
-414.6211
 10
297.3737
 20
-413.36
 10
321.4389
 20
-411.7116
 10
351.3641
 20
-410.0102
 10
385.927
 20
-408.5896
 10
423.9055
 20
-407.7839
 10
464.0774
 20
-407.9272
 10
505.2206
 20
-409.3534
 10
505.4199
 20
-409.3464
 10
505.9535
 20
-409.2381
 10
506.7251
 20
-408.8973
 10
507.6384
 20
-408.1928
 10
508.5971
 20
-406.9935
 10
509.505
 20
-405.1683
 10
510.2656
 20
-402.586
 10
510.7828
 20
-399.1155
 10
512.1395
 20
-373.8206
 10
515.1133
 20
-313.7013
 10
519.1502
 20
-230.5307
 10
523.6958
 20
-136.0818
 10
528.196
 20
-42.1277
 10
532.0966
 20
39.5585
 10
534.8434
 20
97.2039
 10
535.8821
 20
119.0352
 10
535.8998
 20
119.122
 10
535.9595
 20
119.3546
 10
536.0709
 20
119.6908
 10
536.2438
 20
120.0888
 10
536.4881
 20
120.5066
 10
536.8136
 20
120.9022
 10
537.23
 20
121.2336
 10
537.7472
 20
121.4588
 10
538.8886
 20
122.2309
 10
540.9553
 20
124.195
 10
543.6234
 20
127.2961
 10
546.569
 20
131.4795
 10
549.4682
 20
136.6904
 10
551.9971
 20
142.8738
 10
553.8319
 20
149.975
 10
554.6486
 20
157.9392
 10
554.977
 20
170.6616
 10
555.5118
 20
190.3041
 10
556.176
 20
214.211
 10
556.8923
 20
239.7264
 10
557.5836
 20
264.1948
 10
558.1729
 20
284.9602
 10
558.5831
 20
299.3671
 10
558.7369
 20
304.7595
 10
558.7457
 20
304.8531
 10
558.7544
 20
305.1287
 10
558.7363
 20
305.5785
 10
558.6648
 20
306.1949
 10
558.5132
 20
306.97
 10
558.2548
 20
307.8961
 10
557.863
 20
308.9656
 10
557.3111
 20
310.1706
 10
557.2482
 20
310.1997
  0
LWPOLYLINE
  5
62
330
1F
100
AcDbEntity
  8
Layer 1
 62
     7
370
    18
100
AcDbPolyline
 90
       33
 70
     1
 43
0.0
 10
388.3942
 20
266.3317
 10
421.0707
 20
267.5644
 10
451.5057
 20
270.3494
 10
479.0471
 20
274.5118
 10
503.0429
 20
279.8764
 10
522.8413
 20
286.2683
 10
537.7902
 20
293.5126
 10
547.2377
 20
301.4343
 10
550.5317
 20
309.8583
 10
547.2377
 20
318.2039
 10
537.7902
 20
325.9012
 10
522.8413
 20
332.7906
 10
503.0429
 20
338.7127
 10
479.0471
 20
343.5079
 10
451.5057
 20
347.0168
 10
421.0707
 20
349.0798
 10
388.3942
 20
349.5374
 10
355.7179
 20
348.3044
 10
325.2831
 20
345.5193
 10
297.7418
 20
341.357
 10
273.7461
 20
335.9924
 10
253.9477
 20
329.6005
 10
238.9989
 20
322.3563
 10
229.5514
 20
314.4347
 10
226.2574
 20
306.0107
 10
229.5514
 20
297.6649
 10
238.9989
 20
289.9674
 10
253.9477
 20
283.0779
 10
273.7461
 20
277.1558
 10
297.7418
 20
272.3606
 10
325.2831
 20
268.8519
 10
355.7179
 20
266.789
 10
388.3942
 20
266.3317
  0
LWPOLYLINE
  5
63
330
1F
100
AcDbEntity
  8
Layer 1
 62
     7
370
    18
100
AcDbPolyline
 90
       25
 70
     0
 43
0.0
 10
222.9348
 20
297.3276
 10
222.9244
 20
295.9888
 10
223.9306
 20
292.4051
 10
227.5093
 20
287.2254
 10
235.2164
 20
281.099
 10
248.6078
 20
274.6747
 10
269.2394
 20
268.6016
 10
298.6672
 20
263.5289
 10
338.447
 20
260.1054
 10
380.3402
 20
258.7778
 10
415.3392
 20
259.2309
 10
443.8473
 20
260.9705
 10
466.2678
 20
263.5023
 10
483.0039
 20
266.3319
 10
494.4589
 20
268.965
 10
501.0362
 20
270.9074
 10
503.139
 20
271.6647
 10
504.6314
 20
272.0869
 10
508.6293
 20
273.2797
 10
514.4143
 20
275.1328
 10
521.2676
 20
277.5357
 10
528.4705
 20
280.3779
 10
535.3044
 20
283.549
 10
541.0508
 20
286.9385
 10
544.9908
 20
290.4359
  0
LWPOLYLINE
  5
64
330
1F
100
AcDbEntity
  8
Layer 1
 62
     7
370
    18
100
AcDbPolyline
 90
       17
 70
     0
 43
0.0
 10
235.5137
 20
278.0345
 10
236.0611
 20
274.6018
 10
237.9236
 20
265.2186
 10
241.4318
 20
251.2573
 10
246.9163
 20
234.0902
 10
254.7078
 20
215.0895
 10
265.1368
 20
195.6277
 10
278.5339
 20
177.0771
 10
295.2298
 20
160.8099
 10
328.8065
 20
141.3332
 10
366.0018
 20
132.1004
 10
404.6698
 20
132.8651
 10
442.6644
 20
143.3812
 10
477.8398
 20
163.4025
 10
508.0499
 20
192.6826
 10
531.1489
 20
230.9753
 10
544.9908
 20
278.0345
  0
LWPOLYLINE
  5
65
330
1F
100
AcDbEntity
  8
Layer 1
 62
     7
100
AcDbPolyline
 90
       65
 70
     1
 43
0.0
 10
588.9413
 20
-7.8969
 10
589.3638
 20
-7.9205
 10
589.7698
 20
-7.9913
 10
590.1595
 20
-8.1092
 10
590.5327
 20
-8.2744
 10
590.8894
 20
-8.4866
 10
591.2296
 20
-8.7461
 10
591.5534
 20
-9.0526
 10
591.8607
 20
-9.4063
 10
592.1376
 20
-9.7898
 10
592.3776
 20
-10.1952
 10
592.5807
 20
-10.6224
 10
592.747
 20
-11.0716
 10
592.8762
 20
-11.5427
 10
592.9686
 20
-12.0357
 10
593.024
 20
-12.5505
 10
593.0425
 20
-13.0873
 10
593.0242
 20
-13.6189
 10
592.9695
 20
-14.1326
 10
592.8782
 20
-14.6285
 10
592.7504
 20
-15.1067
 10
592.5861
 20
-15.5669
 10
592.3853
 20
-16.0094
 10
592.1481
 20
-16.434
 10
591.8744
 20
-16.8407
 10
591.5748
 20
-17.2118
 10
591.2561
 20
-17.5334
 10
590.9181
 20
-17.8055
 10
590.561
 20
-18.0281
 10
590.1848
 20
-18.2011
 10
589.7894
 20
-18.3247
 10
589.3749
 20
-18.3989
 10
588.9413
 20
-18.4236
 10
588.5077
 20
-18.3989
 10
588.0932
 20
-18.3247
 10
587.6978
 20
-18.2011
 10
587.3215
 20
-18.0281
 10
586.9643
 20
-17.8055
 10
586.6262
 20
-17.5334
 10
586.3073
 20
-17.2118
 10
586.0075
 20
-16.8407
 10
585.7339
 20
-16.434
 10
585.4967
 20
-16.0094
 10
585.2961
 20
-15.5669
 10
585.1319
 20
-15.1067
 10
585.0042
 20
-14.6285
 10
584.913
 20
-14.1326
 10
584.8583
 20
-13.6189
 10
584.8401
 20
-13.0873
 10
584.8586
 20
-12.5505
 10
584.914
 20
-12.0357
 10
585.0064
 20
-11.5427
 10
585.1357
 20
-11.0716
 10
585.3019
 20
-10.6224
 10
585.505
 20
-10.1952
 10
585.745
 20
-9.7898
 10
586.0219
 20
-9.4063
 10
586.3292
 20
-9.0526
 10
586.653
 20
-8.7461
 10
586.9932
 20
-8.4866
 10
587.35
 20
-8.2744
 10
587.7232
 20
-8.1092
 10
588.1128
 20
-7.9913
 10
588.5188
 20
-7.9205
 10
588.9413
 20
-7.8969
  0
LWPOLYLINE
  5
66
330
1F
100
AcDbEntity
  8
Layer 1
 62
     7
100
AcDbPolyline
 90
       65
 70
     1
 43
0.0
 10
588.9413
 20
2.2613
 10
589.2819
 20
2.2429
 10
589.6096
 20
2.1876
 10
589.9244
 20
2.0956
 10
590.2264
 20
1.9667
 10
590.5155
 20
1.801
 10
590.7917
 20
1.5985
 10
591.055
 20
1.3593
 10
591.3054
 20
1.0833
 10
591.5389
 20
0.773
 10
591.7413
 20
0.4449
 10
591.9126
 20
0.0991
 10
592.0527
 20
-0.2646
 10
592.1617
 20
-0.6462
 10
592.2395
 20
-1.0455
 10
592.2862
 20
-1.4627
 10
592.3018
 20
-1.8978
 10
592.2862
 20
-2.3235
 10
592.2395
 20
-2.7353
 10
592.1617
 20
-3.1333
 10
592.0527
 20
-3.5175
 10
591.9126
 20
-3.8879
 10
591.7413
 20
-4.2444
 10
591.5389
 20
-4.587
 10
591.3054
 20
-4.9159
 10
591.0565
 20
-5.2091
 10
590.7943
 20
-5.4633
 10
590.5188
 20
-5.6784
 10
590.23
 20
-5.8544
 10
589.9279
 20
-5.9913
 10
589.6124
 20
-6.0891
 10
589.2835
 20
-6.1477
 10
588.9413
 20
-6.1673
 10
588.5991
 20
-6.1477
 10
588.2702
 20
-6.0891
 10
587.9547
 20
-5.9913
 10
587.6526
 20
-5.8544
 10
587.3638
 20
-5.6784
 10
587.0883
 20
-5.4633
 10
586.8261
 20
-5.2091
 10
586.5772
 20
-4.9159
 10
586.3437
 20
-4.587
 10
586.1413
 20
-4.2444
 10
585.97
 20
-3.8879
 10
585.8299
 20
-3.5175
 10
585.7209
 20
-3.1333
 10
585.6431
 20
-2.7353
 10
585.5964
 20
-2.3235
 10
585.5808
 20
-1.8978
 10
585.5964
 20
-1.4627
 10
585.6431
 20
-1.0455
 10
585.7209
 20
-0.6462
 10
585.8299
 20
-0.2646
 10
585.97
 20
0.0991
 10
586.1413
 20
0.4449
 10
586.3437
 20
0.773
 10
586.5772
 20
1.0833
 10
586.8276
 20
1.3593
 10
587.0909
 20
1.5985
 10
587.367
 20
1.801
 10
587.656
 20
1.9667
 10
587.9579
 20
2.0956
 10
588.2728
 20
2.1876
 10
588.6006
 20
2.2429
 10
588.9413
 20
2.2613
  0
LWPOLYLINE
  5
67
330
1F
100
AcDbEntity
  8
Layer 1
 62
     7
100
AcDbPolyline
 90
      121
 70
     1
 43
0.0
 10
588.9413
 20
-20.9998
 10
589.5938
 20
-20.9679
 10
590.2201
 20
-20.8722
 10
590.8202
 20
-20.7127
 10
591.394
 20
-20.4893
 10
591.9416
 20
-20.2021
 10
592.463
 20
-19.8511
 10
592.958
 20
-19.4362
 10
593.4268
 20
-18.9574
 10
593.6383
 20
-18.7073
 10
593.8382
 20
-18.4445
 10
594.0264
 20
-18.169
 10
594.2031
 20
-17.8809
 10
594.3682
 20
-17.5802
 10
594.5216
 20
-17.2668
 10
594.6635
 20
-16.9408
 10
594.7939
 20
-16.6021
 10
594.9107
 20
-16.2507
 10
595.0119
 20
-15.8867
 10
595.0976
 20
-15.5099
 10
595.1677
 20
-15.1205
 10
595.2222
 20
-14.7184
 10
595.2612
 20
-14.3037
 10
595.2846
 20
-13.8763
 10
595.2924
 20
-13.4364
 10
595.2793
 20
-12.9907
 10
595.2399
 20
-12.5462
 10
595.1743
 20
-12.1028
 10
595.0824
 20
-11.6606
 10
594.9642
 20
-11.2194
 10
594.8197
 20
-10.7795
 10
594.649
 20
-10.3406
 10
594.4519
 20
-9.903
 10
594.2306
 20
-9.4761
 10
593.9866
 20
-9.0693
 10
593.7199
 20
-8.6826
 10
593.4305
 20
-8.3161
 10
593.1183
 20
-7.9697
 10
592.7834
 20
-7.6434
 10
592.4258
 20
-7.3372
 10
592.0454
 20
-7.0511
 10
592.5861
 20
-6.4278
 10
593.0548
 20
-5.7914
 10
593.4514
 20
-5.1417
 10
593.7759
 20
-4.4789
 10
594.0283
 20
-3.8028
 10
594.2086
 20
-3.1135
 10
594.3167
 20
-2.4111
 10
594.3528
 20
-1.6954
 10
594.3281
 20
-0.9895
 10
594.2539
 20
-0.3163
 10
594.1304
 20
0.3241
 10
593.9574
 20
0.9317
 10
593.7351
 20
1.5065
 10
593.4633
 20
2.0484
 10
593.1422
 20
2.5575
 10
592.7717
 20
3.0338
 10
592.3802
 20
3.4479
 10
591.9637
 20
3.8068
 10
591.5223
 20
4.1104
 10
591.0559
 20
4.3589
 10
590.5646
 20
4.552
 10
590.0484
 20
4.69
 10
589.5073
 20
4.7728
 10
588.9413
 20
4.8004
 10
588.3753
 20
4.7728
 10
587.8342
 20
4.69
 10
587.318
 20
4.552
 10
586.8267
 20
4.3589
 10
586.3603
 20
4.1104
 10
585.9189
 20
3.8068
 10
585.5024
 20
3.4479
 10
585.1109
 20
3.0338
 10
584.7404
 20
2.5578
 10
584.4193
 20
2.0495
 10
584.1476
 20
1.509
 10
583.9252
 20
0.9362
 10
583.7523
 20
0.3312
 10
583.6287
 20
-0.306
 10
583.5546
 20
-0.9753
 10
583.5299
 20
-1.6768
 10
583.566
 20
-2.3969
 10
583.6741
 20
-3.1032
 10
583.8544
 20
-3.7956
 10
584.1067
 20
-4.4743
 10
584.4311
 20
-5.1392
 10
584.8276
 20
-5.7903
 10
585.2961
 20
-6.4276
 10
585.8366
 20
-7.0511
 10
585.4564
 20
-7.3372
 10
585.0989
 20
-7.6434
 10
584.7641
 20
-7.9697
 10
584.452
 20
-8.3161
 10
584.1625
 20
-8.6826
 10
583.8957
 20
-9.0693
 10
583.6515
 20
-9.4761
 10
583.43
 20
-9.903
 10
583.2332
 20
-10.3415
 10
583.0626
 20
-10.7829
 10
582.9183
 20
-11.2273
 10
582.8002
 20
-11.6745
 10
582.7083
 20
-12.1246
 10
582.6427
 20
-12.5776
 10
582.6033
 20
-13.0334
 10
582.5902
 20
-13.4921
 10
582.6194
 20
-14.3141
 10
582.7068
 20
-15.0965
 10
582.8526
 20
-15.8392
 10
583.0566
 20
-16.5422
 10
583.319
 20
-17.2056
 10
583.6396
 20
-17.8293
 10
584.0186
 20
-18.4132
 10
584.4558
 20
-18.9574
 10
584.9246
 20
-19.4362
 10
585.4196
 20
-19.8511
 10
585.9408
 20
-20.2021
 10
586.4884
 20
-20.4893
 10
587.0622
 20
-20.7127
 10
587.6623
 20
-20.8722
 10
588.2886
 20
-20.9679
 10
588.9413
 20
-20.9998
  0
LWPOLYLINE
  5
68
330
1F
100
AcDbEntity
  8
Layer 1
 62
     7
100
AcDbPolyline
 90
      136
 70
     1
 43
0.0
 10
601.5299
 20
-4.8796
 10
602.8396
 20
1.8194
 10
609.8458
 20
1.8194
 10
609.8458
 20
4.3957
 10
601.3303
 20
4.3957
 10
599.1091
 20
-6.8301
 10
601.2735
 20
-8.0816
 10
601.5874
 20
-7.8056
 10
601.9169
 20
-7.5663
 10
602.262
 20
-7.3638
 10
602.6227
 20
-7.1981
 10
602.9989
 20
-7.0692
 10
603.3907
 20
-6.9772
 10
603.7981
 20
-6.9219
 10
604.221
 20
-6.9035
 10
604.6465
 20
-6.9305
 10
605.0578
 20
-7.0116
 10
605.4548
 20
-7.1468
 10
605.8375
 20
-7.336
 10
606.206
 20
-7.5792
 10
606.5602
 20
-7.8765
 10
606.9002
 20
-8.2278
 10
607.2259
 20
-8.6331
 10
607.5329
 20
-9.0854
 10
607.799
 20
-9.5544
 10
608.0242
 20
-10.0401
 10
608.2085
 20
-10.5425
 10
608.3518
 20
-11.0615
 10
608.4542
 20
-11.5973
 10
608.5157
 20
-12.1497
 10
608.5362
 20
-12.7188
 10
608.5153
 20
-13.3075
 10
608.4525
 20
-13.8726
 10
608.3479
 20
-14.414
 10
608.2014
 20
-14.9319
 10
608.0131
 20
-15.4261
 10
607.783
 20
-15.8968
 10
607.511
 20
-16.3439
 10
607.1972
 20
-16.7674
 10
607.0377
 20
-16.9557
 10
606.8724
 20
-17.1343
 10
606.7013
 20
-17.3032
 10
606.5244
 20
-17.4622
 10
606.3417
 20
-17.6115
 10
606.1532
 20
-17.7509
 10
605.959
 20
-17.8805
 10
605.759
 20
-18.0002
 10
605.5503
 20
-18.1081
 10
605.3301
 20
-18.2017
 10
605.0982
 20
-18.2808
 10
604.8548
 20
-18.3456
 10
604.5997
 20
-18.3959
 10
604.3332
 20
-18.4319
 10
604.0551
 20
-18.4535
 10
603.7655
 20
-18.4607
 10
603.4702
 20
-18.4446
 10
603.1753
 20
-18.3963
 10
602.8809
 20
-18.3159
 10
602.587
 20
-18.2032
 10
602.2935
 20
-18.0583
 10
602.0005
 20
-17.8812
 10
601.7079
 20
-17.6718
 10
601.4158
 20
-17.4302
 10
601.1345
 20
-17.1627
 10
600.8746
 20
-16.8757
 10
600.6361
 20
-16.5691
 10
600.4189
 20
-16.243
 10
600.2231
 20
-15.8974
 10
600.0488
 20
-15.5323
 10
599.8958
 20
-15.1477
 10
599.7642
 20
-14.7435
 10
597.8275
 20
-15.553
 10
598.0177
 20
-16.1588
 10
598.2396
 20
-16.7341
 10
598.493
 20
-17.279
 10
598.778
 20
-17.7933
 10
599.0946
 20
-18.2771
 10
599.4428
 20
-18.7305
 10
599.8226
 20
-19.1535
 10
600.234
 20
-19.546
 10
600.6713
 20
-19.9041
 10
601.1184
 20
-20.2145
 10
601.5754
 20
-20.4771
 10
602.0422
 20
-20.692
 10
602.5189
 20
-20.8591
 10
603.0053
 20
-20.9785
 10
603.5016
 20
-21.0501
 10
604.0076
 20
-21.074
 10
604.6818
 20
-21.0346
 10
605.3302
 20
-20.9164
 10
605.9528
 20
-20.7194
 10
606.5496
 20
-20.4436
 10
607.1205
 20
-20.089
 10
607.6656
 20
-19.6556
 10
608.1849
 20
-19.1435
 10
608.6784
 20
-18.5526
 10
609.1255
 20
-17.911
 10
609.5131
 20
-17.2378
 10
609.841
 20
-16.5331
 10
610.1093
 20
-15.7967
 10
610.318
 20
-15.0288
 10
610.4671
 20
-14.2291
 10
610.5566
 20
-13.3979
 10
610.5864
 20
-12.5349
 10
610.557
 20
-11.6764
 10
610.4689
 20
-10.8543
 10
610.3221
 20
-10.0684
 10
610.1165
 20
-9.3187
 10
609.8522
 20
-8.6053
 10
609.5291
 20
-7.9282
 10
609.1472
 20
-7.2872
 10
608.7065
 20
-6.6825
 10
608.4813
 20
-6.4136
 10
608.2473
 20
-6.1592
 10
608.0044
 20
-5.9191
 10
607.7526
 20
-5.6934
 10
607.4918
 20
-5.482
 10
607.2222
 20
-5.2851
 10
606.9437
 20
-5.1025
 10
606.6562
 20
-4.9344
 10
606.363
 20
-4.7835
 10
606.0671
 20
-4.6527
 10
605.7686
 20
-4.5419
 10
605.4677
 20
-4.4513
 10
605.1642
 20
-4.3808
 10
604.8584
 20
-4.3304
 10
604.5503
 20
-4.3002
 10
604.2399
 20
-4.2901
 10
603.9236
 20
-4.2993
 10
603.6009
 20
-4.3269
 10
603.272
 20
-4.373
 10
602.9366
 20
-4.4375
 10
602.5947
 20
-4.5204
 10
602.2464
 20
-4.6217
 10
601.8914
 20
-4.7414
 10
601.5299
 20
-4.8796
  0
LWPOLYLINE
  5
69
330
1F
100
AcDbEntity
  8
Layer 1
 62
     7
100
AcDbPolyline
 90
      129
 70
     1
 43
0.0
 10
621.6227
 20
1.488
 10
621.9515
 20
1.1993
 10
622.2581
 20
0.8715
 10
622.5424
 20
0.5046
 10
622.8045
 20
0.0986
 10
623.0444
 20
-0.3465
 10
623.262
 20
-0.8307
 10
623.4574
 20
-1.354
 10
623.6305
 20
-1.9163
 10
623.8239
 20
-2.6624
 10
623.9916
 20
-3.4195
 10
624.1334
 20
-4.1876
 10
624.2495
 20
-4.9666
 10
624.3399
 20
-5.7565
 10
624.4044
 20
-6.5574
 10
624.4431
 20
-7.3693
 10
624.456
 20
-8.192
 10
624.4547
 20
-8.3895
 10
624.4507
 20
-8.5957
 10
624.4441
 20
-8.8105
 10
624.4348
 20
-9.0338
 10
624.4228
 20
-9.2658
 10
624.4081
 20
-9.5064
 10
624.3907
 20
-9.7556
 10
624.3705
 20
-10.0135
 10
624.2719
 20
-11.0029
 10
624.143
 20
-11.9378
 10
623.9837
 20
-12.818
 10
623.7942
 20
-13.6437
 10
623.5743
 20
-14.4147
 10
623.3242
 20
-15.131
 10
623.0439
 20
-15.7927
 10
622.7333
 20
-16.3997
 10
622.4497
 20
-16.8568
 10
622.151
 20
-17.253
 10
621.8372
 20
-17.5883
 10
621.5083
 20
-17.8626
 10
621.1643
 20
-18.0759
 10
620.8052
 20
-18.2283
 10
620.4309
 20
-18.3197
 10
620.0416
 20
-18.3502
 10
619.6072
 20
-18.32
 10
619.1936
 20
-18.2294
 10
618.8009
 20
-18.0784
 10
618.4291
 20
-17.8671
 10
618.0782
 20
-17.5954
 10
617.7482
 20
-17.2633
 10
617.4391
 20
-16.8709
 10
617.1509
 20
-16.4182
 10
617.029
 20
-16.1985
 10
616.9125
 20
-15.9718
 10
616.8012
 20
-15.7383
 10
616.6953
 20
-15.4979
 10
616.5947
 20
-15.2506
 10
616.4994
 20
-14.9963
 10
616.4094
 20
-14.7351
 10
616.3248
 20
-14.4669
 10
616.2455
 20
-14.1947
 10
616.171
 20
-13.9208
 10
616.1014
 20
-13.6451
 10
616.0367
 20
-13.3677
 10
615.9769
 20
-13.0885
 10
615.922
 20
-12.8076
 10
615.872
 20
-12.525
 10
615.8269
 20
-12.2406
 10
615.7856
 20
-11.9565
 10
615.7475
 20
-11.6747
 10
615.7125
 20
-11.3952
 10
615.6807
 20
-11.118
 10
615.6519
 20
-10.8431
 10
615.6264
 20
-10.5705
 10
615.604
 20
-10.3001
 10
615.5848
 20
-10.0321
 10
615.5681
 20
-9.76
 10
615.5536
 20
-9.4777
 10
615.5414
 20
-9.1851
 10
615.5314
 20
-8.8824
 10
615.5236
 20
-8.5697
 10
615.5181
 20
-8.2471
 10
615.5148
 20
-7.9145
 10
615.5137
 20
-7.5722
 10
615.5186
 20
-7.2146
 10
615.5333
 20
-6.8361
 10
615.5577
 20
-6.4368
 10
615.592
 20
-6.0165
 10
615.636
 20
-5.5752
 10
615.6899
 20
-5.1129
 10
615.7535
 20
-4.6295
 10
615.8269
 20
-4.1249
 10
615.8718
 20
-3.8444
 10
615.9211
 20
-3.5645
 10
615.975
 20
-3.2852
 10
616.0333
 20
-3.0066
 10
616.0961
 20
-2.7285
 10
616.1633
 20
-2.451
 10
616.235
 20
-2.1741
 10
616.3111
 20
-1.8978
 10
616.3923
 20
-1.6252
 10
616.4792
 20
-1.3595
 10
616.5719
 20
-1.1008
 10
616.6705
 20
-0.8489
 10
616.7748
 20
-0.604
 10
616.8849
 20
-0.3658
 10
617.0009
 20
-0.1346
 10
617.1228
 20
0.0899
 10
617.2505
 20
0.3052
 10
617.3844
 20
0.5095
 10
617.5246
 20
0.703
 10
617.671
 20
0.8855
 10
617.8236
 20
1.0571
 10
617.9825
 20
1.2179
 10
618.1476
 20
1.3677
 10
618.3189
 20
1.5066
 10
618.4974
 20
1.6317
 10
618.6838
 20
1.7401
 10
618.8782
 20
1.8319
 10
619.0806
 20
1.9069
 10
619.291
 20
1.9653
 10
619.5095
 20
2.007
 10
619.736
 20
2.0321
 10
619.9705
 20
2.0404
 10
620.2051
 20
2.0318
 10
620.4316
 20
2.0059
 10
620.6502
 20
1.9628
 10
620.8607
 20
1.9024
 10
621.0632
 20
1.8247
 10
621.2577
 20
1.7298
 10
621.4442
 20
1.6175
 10
621.6227
 20
1.488
  0
LWPOLYLINE
  5
6A
330
1F
100
AcDbEntity
  8
Layer 1
 62
     7
100
AcDbPolyline
 90
       65
 70
     1
 43
0.0
 10
620.0703
 20
-20.9635
 10
620.9018
 20
-20.8954
 10
621.6803
 20
-20.6909
 10
622.4059
 20
-20.3502
 10
623.0786
 20
-19.8732
 10
623.6983
 20
-19.2598
 10
624.265
 20
-18.5102
 10
624.7789
 20
-17.6243
 10
625.2397
 20
-16.6021
 10
625.5634
 20
-15.71
 10
625.8439
 20
-14.7684
 10
626.0812
 20
-13.7775
 10
626.2753
 20
-12.7371
 10
626.4263
 20
-11.6474
 10
626.5341
 20
-10.5082
 10
626.5988
 20
-9.3196
 10
626.6204
 20
-8.0816
 10
626.5988
 20
-6.8433
 10
626.5341
 20
-5.6545
 10
626.4263
 20
-4.5152
 10
626.2753
 20
-3.4254
 10
626.0812
 20
-2.385
 10
625.8439
 20
-1.3942
 10
625.5634
 20
-0.4529
 10
625.2397
 20
0.439
 10
624.7789
 20
1.4612
 10
624.265
 20
2.3471
 10
623.6983
 20
3.0967
 10
623.0786
 20
3.7101
 10
622.4059
 20
4.1871
 10
621.6803
 20
4.5278
 10
620.9018
 20
4.7323
 10
620.0703
 20
4.8004
 10
619.2388
 20
4.7323
 10
618.4603
 20
4.5278
 10
617.7347
 20
4.1871
 10
617.0621
 20
3.7101
 10
616.4423
 20
3.0967
 10
615.8756
 20
2.3471
 10
615.3618
 20
1.4612
 10
614.901
 20
0.439
 10
614.5773
 20
-0.4529
 10
614.2967
 20
-1.3942
 10
614.0593
 20
-2.385
 10
613.865
 20
-3.4254
 10
613.7139
 20
-4.5152
 10
613.606
 20
-5.6545
 10
613.5412
 20
-6.8433
 10
613.5196
 20
-8.0816
 10
613.5412
 20
-9.3196
 10
613.606
 20
-10.5082
 10
613.7139
 20
-11.6474
 10
613.865
 20
-12.7371
 10
614.0593
 20
-13.7775
 10
614.2967
 20
-14.7684
 10
614.5773
 20
-15.71
 10
614.901
 20
-16.6021
 10
615.3618
 20
-17.6243
 10
615.8756
 20
-18.5102
 10
616.4423
 20
-19.2598
 10
617.0621
 20
-19.8732
 10
617.7347
 20
-20.3502
 10
618.4603
 20
-20.6909
 10
619.2388
 20
-20.8954
 10
620.0703
 20
-20.9635
  0
LWPOLYLINE
  5
6B
330
1F
100
AcDbEntity
  8
Layer 1
 62
     7
100
AcDbPolyline
 90
      165
 70
     1
 43
0.0
 10
646.073
 20
-20.5588
 10
648.0665
 20
-20.5588
 10
648.0665
 20
-10.4368
 10
648.0503
 20
-9.7648
 10
648.0015
 20
-9.1245
 10
647.9203
 20
-8.5157
 10
647.8066
 20
-7.9386
 10
647.6605
 20
-7.3931
 10
647.4818
 20
-6.8793
 10
647.2707
 20
-6.397
 10
647.0271
 20
-5.9464
 10
646.8912
 20
-5.7311
 10
646.7468
 20
-5.5267
 10
646.5939
 20
-5.3333
 10
646.4326
 20
-5.1507
 10
646.2628
 20
-4.9791
 10
646.0847
 20
-4.8183
 10
645.8981
 20
-4.6685
 10
645.7031
 20
-4.5296
 10
645.4957
 20
-4.4045
 10
645.2722
 20
-4.2961
 10
645.0327
 20
-4.2043
 10
644.7772
 20
-4.1293
 10
644.5058
 20
-4.0709
 10
644.2183
 20
-4.0292
 10
643.9148
 20
-4.0041
 10
643.5954
 20
-3.9958
 10
643.2729
 20
-4.0102
 10
642.9606
 20
-4.0533
 10
642.6586
 20
-4.1253
 10
642.3669
 20
-4.2259
 10
642.0854
 20
-4.3553
 10
641.8142
 20
-4.5135
 10
641.5532
 20
-4.7003
 10
641.3024
 20
-4.9159
 10
641.0848
 20
-5.131
 10
640.8771
 20
-5.3621
 10
640.6791
 20
-5.6089
 10
640.4909
 20
-5.8714
 10
640.3124
 20
-6.1495
 10
640.1437
 20
-6.4429
 10
639.9847
 20
-6.7516
 10
639.8355
 20
-7.0755
 10
639.72
 20
-6.7767
 10
639.5938
 20
-6.4882
 10
639.4567
 20
-6.211
 10
639.3089
 20
-5.9464
 10
639.173
 20
-5.7311
 10
639.0286
 20
-5.5267
 10
638.8757
 20
-5.3333
 10
638.7144
 20
-5.1507
 10
638.5445
 20
-4.9791
 10
638.3662
 20
-4.8183
 10
638.1795
 20
-4.6685
 10
637.9843
 20
-4.5296
 10
637.7771
 20
-4.4045
 10
637.5537
 20
-4.2961
 10
637.3144
 20
-4.2043
 10
637.059
 20
-4.1293
 10
636.7875
 20
-4.0709
 10
636.5001
 20
-4.0292
 10
636.1966
 20
-4.0041
 10
635.8772
 20
-3.9958
 10
635.5547
 20
-4.0102
 10
635.2425
 20
-4.0533
 10
634.9405
 20
-4.1253
 10
634.6488
 20
-4.2259
 10
634.3673
 20
-4.3553
 10
634.096
 20
-4.5135
 10
633.835
 20
-4.7003
 10
633.5842
 20
-4.9159
 10
633.377
 20
-5.1208
 10
633.1785
 20
-5.3394
 10
632.989
 20
-5.572
 10
632.8083
 20
-5.8186
 10
632.6365
 20
-6.0793
 10
632.4736
 20
-6.3541
 10
632.3197
 20
-6.6431
 10
632.1748
 20
-6.9465
 10
632.1748
 20
-4.3635
 10
630.1806
 20
-4.3635
 10
630.1806
 20
-20.5588
 10
632.1748
 20
-20.5588
 10
632.1748
 20
-12.271
 10
632.2211
 20
-11.7881
 10
632.2816
 20
-11.3241
 10
632.3563
 20
-10.8789
 10
632.4453
 20
-10.4522
 10
632.5486
 20
-10.044
 10
632.666
 20
-9.654
 10
632.7976
 20
-9.2821
 10
632.9435
 20
-8.9282
 10
633.0624
 20
-8.6762
 10
633.191
 20
-8.4358
 10
633.3294
 20
-8.2069
 10
633.4776
 20
-7.9895
 10
633.6355
 20
-7.7836
 10
633.8033
 20
-7.5893
 10
633.9809
 20
-7.4063
 10
634.1683
 20
-7.2349
 10
634.3624
 20
-7.0795
 10
634.56
 20
-6.9449
 10
634.761
 20
-6.831
 10
634.9657
 20
-6.7378
 10
635.1738
 20
-6.6653
 10
635.3856
 20
-6.6135
 10
635.6009
 20
-6.5825
 10
635.8198
 20
-6.5721
 10
636.0334
 20
-6.5776
 10
636.2328
 20
-6.5939
 10
636.418
 20
-6.6212
 10
636.589
 20
-6.6595
 10
636.7457
 20
-6.7086
 10
636.8881
 20
-6.7688
 10
637.0163
 20
-6.8399
 10
637.1301
 20
-6.922
 10
637.4171
 20
-7.1964
 10
637.6659
 20
-7.5178
 10
637.8764
 20
-7.8864
 10
638.0486
 20
-8.3022
 10
638.1826
 20
-8.7651
 10
638.2783
 20
-9.2751
 10
638.3358
 20
-9.8324
 10
638.3549
 20
-10.4368
 10
638.3549
 20
-20.5588
 10
640.3484
 20
-20.5588
 10
640.3484
 20
-10.4368
 10
640.334
 20
-9.817
 10
640.4081
 20
-9.5825
 10
640.4873
 20
-9.3565
 10
640.5718
 20
-9.1386
 10
640.6616
 20
-8.9282
 10
640.7805
 20
-8.6762
 10
640.9091
 20
-8.4358
 10
641.0475
 20
-8.2069
 10
641.1957
 20
-7.9895
 10
641.3537
 20
-7.7836
 10
641.5214
 20
-7.5893
 10
641.699
 20
-7.4063
 10
641.8864
 20
-7.2349
 10
642.0805
 20
-7.0795
 10
642.2781
 20
-6.9449
 10
642.4792
 20
-6.831
 10
642.6838
 20
-6.7378
 10
642.892
 20
-6.6653
 10
643.1037
 20
-6.6135
 10
643.3191
 20
-6.5825
 10
643.538
 20
-6.5721
 10
643.7516
 20
-6.5776
 10
643.951
 20
-6.5939
 10
644.1362
 20
-6.6212
 10
644.3071
 20
-6.6595
 10
644.4638
 20
-6.7086
 10
644.6062
 20
-6.7688
 10
644.7344
 20
-6.8399
 10
644.8482
 20
-6.922
 10
645.1352
 20
-7.1964
 10
645.384
 20
-7.5178
 10
645.5945
 20
-7.8864
 10
645.7668
 20
-8.3022
 10
645.9007
 20
-8.7651
 10
645.9964
 20
-9.2751
 10
646.0539
 20
-9.8324
 10
646.073
 20
-10.4368
 10
646.073
 20
-20.5588
  0
LWPOLYLINE
  5
6C
330
1F
100
AcDbEntity
  8
Layer 1
 62
     7
100
AcDbPolyline
 90
      165
 70
     1
 43
0.0
 10
667.8037
 20
-20.5588
 10
669.7971
 20
-20.5588
 10
669.7971
 20
-10.4368
 10
669.7809
 20
-9.7648
 10
669.7321
 20
-9.1245
 10
669.6509
 20
-8.5157
 10
669.5372
 20
-7.9386
 10
669.3911
 20
-7.3931
 10
669.2124
 20
-6.8793
 10
669.0013
 20
-6.397
 10
668.7577
 20
-5.9464
 10
668.6218
 20
-5.7311
 10
668.4774
 20
-5.5267
 10
668.3245
 20
-5.3333
 10
668.1632
 20
-5.1507
 10
667.9934
 20
-4.9791
 10
667.8153
 20
-4.8183
 10
667.6287
 20
-4.6685
 10
667.4337
 20
-4.5296
 10
667.2263
 20
-4.4045
 10
667.0028
 20
-4.2961
 10
666.7633
 20
-4.2043
 10
666.5078
 20
-4.1293
 10
666.2364
 20
-4.0709
 10
665.9489
 20
-4.0292
 10
665.6454
 20
-4.0041
 10
665.326
 20
-3.9958
 10
665.0035
 20
-4.0102
 10
664.6913
 20
-4.0533
 10
664.3893
 20
-4.1253
 10
664.0975
 20
-4.2259
 10
663.816
 20
-4.3553
 10
663.5448
 20
-4.5135
 10
663.2838
 20
-4.7003
 10
663.033
 20
-4.9159
 10
662.8154
 20
-5.131
 10
662.6077
 20
-5.3621
 10
662.4097
 20
-5.6089
 10
662.2215
 20
-5.8714
 10
662.043
 20
-6.1495
 10
661.8743
 20
-6.4429
 10
661.7153
 20
-6.7516
 10
661.5661
 20
-7.0755
 10
661.4506
 20
-6.7767
 10
661.3244
 20
-6.4882
 10
661.1873
 20
-6.211
 10
661.0395
 20
-5.9464
 10
660.9036
 20
-5.7311
 10
660.7592
 20
-5.5267
 10
660.6063
 20
-5.3333
 10
660.445
 20
-5.1507
 10
660.2751
 20
-4.9791
 10
660.0968
 20
-4.8183
 10
659.9101
 20
-4.6685
 10
659.7149
 20
-4.5296
 10
659.5077
 20
-4.4045
 10
659.2843
 20
-4.2961
 10
659.045
 20
-4.2043
 10
658.7896
 20
-4.1293
 10
658.5181
 20
-4.0709
 10
658.2307
 20
-4.0292
 10
657.9272
 20
-4.0041
 10
657.6078
 20
-3.9958
 10
657.2853
 20
-4.0102
 10
656.9731
 20
-4.0533
 10
656.6711
 20
-4.1253
 10
656.3794
 20
-4.2259
 10
656.0979
 20
-4.3553
 10
655.8267
 20
-4.5135
 10
655.5657
 20
-4.7003
 10
655.3149
 20
-4.9159
 10
655.1076
 20
-5.1208
 10
654.9092
 20
-5.3394
 10
654.7196
 20
-5.572
 10
654.5389
 20
-5.8186
 10
654.3671
 20
-6.0793
 10
654.2042
 20
-6.3541
 10
654.0503
 20
-6.6431
 10
653.9054
 20
-6.9465
 10
653.9054
 20
-4.3635
 10
651.9112
 20
-4.3635
 10
651.9112
 20
-20.5588
 10
653.9054
 20
-20.5588
 10
653.9054
 20
-12.271
 10
653.9517
 20
-11.7881
 10
654.0122
 20
-11.3241
 10
654.0869
 20
-10.8789
 10
654.1759
 20
-10.4522
 10
654.2792
 20
-10.044
 10
654.3966
 20
-9.654
 10
654.5282
 20
-9.2821
 10
654.6741
 20
-8.9282
 10
654.793
 20
-8.6762
 10
654.9216
 20
-8.4358
 10
655.06
 20
-8.2069
 10
655.2082
 20
-7.9895
 10
655.3661
 20
-7.7836
 10
655.5339
 20
-7.5893
 10
655.7115
 20
-7.4063
 10
655.8989
 20
-7.2349
 10
656.093
 20
-7.0795
 10
656.2906
 20
-6.9449
 10
656.4916
 20
-6.831
 10
656.6963
 20
-6.7378
 10
656.9044
 20
-6.6653
 10
657.1162
 20
-6.6135
 10
657.3315
 20
-6.5825
 10
657.5504
 20
-6.5721
 10
657.764
 20
-6.5776
 10
657.9634
 20
-6.5939
 10
658.1486
 20
-6.6212
 10
658.3196
 20
-6.6595
 10
658.4763
 20
-6.7086
 10
658.6187
 20
-6.7688
 10
658.7469
 20
-6.8399
 10
658.8607
 20
-6.922
 10
659.1477
 20
-7.1964
 10
659.3965
 20
-7.5178
 10
659.607
 20
-7.8864
 10
659.7792
 20
-8.3022
 10
659.9132
 20
-8.7651
 10
660.0089
 20
-9.2751
 10
660.0664
 20
-9.8324
 10
660.0855
 20
-10.4368
 10
660.0855
 20
-20.5588
 10
662.079
 20
-20.5588
 10
662.079
 20
-10.4368
 10
662.0646
 20
-9.817
 10
662.1387
 20
-9.5825
 10
662.2179
 20
-9.3565
 10
662.3024
 20
-9.1386
 10
662.3922
 20
-8.9282
 10
662.5111
 20
-8.6762
 10
662.6397
 20
-8.4358
 10
662.7781
 20
-8.2069
 10
662.9263
 20
-7.9895
 10
663.0843
 20
-7.7836
 10
663.252
 20
-7.5893
 10
663.4296
 20
-7.4063
 10
663.617
 20
-7.2349
 10
663.8111
 20
-7.0795
 10
664.0087
 20
-6.9449
 10
664.2098
 20
-6.831
 10
664.4144
 20
-6.7378
 10
664.6226
 20
-6.6653
 10
664.8343
 20
-6.6135
 10
665.0497
 20
-6.5825
 10
665.2686
 20
-6.5721
 10
665.4822
 20
-6.5776
 10
665.6816
 20
-6.5939
 10
665.8668
 20
-6.6212
 10
666.0378
 20
-6.6595
 10
666.1944
 20
-6.7086
 10
666.3369
 20
-6.7688
 10
666.465
 20
-6.8399
 10
666.5789
 20
-6.922
 10
666.8659
 20
-7.1964
 10
667.1147
 20
-7.5178
 10
667.3252
 20
-7.8864
 10
667.4974
 20
-8.3022
 10
667.6314
 20
-8.7651
 10
667.7271
 20
-9.2751
 10
667.7846
 20
-9.8324
 10
667.8037
 20
-10.4368
 10
667.8037
 20
-20.5588
  0
LWPOLYLINE
  5
6D
330
1F
100
AcDbEntity
  8
Layer 1
 62
     7
370
    18
100
AcDbPolyline
 90
        2
 70
     0
 43
0.0
 10
637.6704
 20
311.0159
 10
621.0537
 20
311.0159
  0
LWPOLYLINE
  5
6E
330
1F
100
AcDbEntity
  8
Layer 1
 62
     7
370
    18
100
AcDbPolyline
 90
        2
 70
     0
 43
0.0
 10
629.3617
 20
311.0211
 10
629.3617
 20
22.4048
  0
LWPOLYLINE
  5
6F
330
1F
100
AcDbEntity
  8
Layer 1
 62
     7
370
    18
100
AcDbPolyline
 90
        2
 70
     0
 43
0.0
 10
637.6704
 20
-394.256
 10
621.0537
 20
-394.256
  0
LWPOLYLINE
  5
70
330
1F
100
AcDbEntity
  8
Layer 1
 62
     7
370
    18
100
AcDbPolyline
 90
        2
 70
     0
 43
0.0
 10
629.3617
 20
-394.264
 10
629.3617
 20
-52.2873
  0
LWPOLYLINE
  5
71
330
1F
100
AcDbEntity
  8
Layer 1
 62
     7
370
    18
100
AcDbPolyline
 90
       33
 70
     1
 43
0.0
 10
336.3694
 20
426.0466
 10
338.387
 20
425.7837
 10
340.2661
 20
425.0299
 10
341.9667
 20
423.837
 10
343.4483
 20
422.2572
 10
344.6707
 20
420.3424
 10
345.5938
 20
418.1448
 10
346.1771
 20
415.7163
 10
346.3805
 20
413.1089
 10
346.1771
 20
410.5016
 10
345.5938
 20
408.0731
 10
344.6707
 20
405.8754
 10
343.4483
 20
403.9607
 10
341.9667
 20
402.3809
 10
340.2661
 20
401.188
 10
338.387
 20
400.4342
 10
336.3694
 20
400.1713
 10
334.3518
 20
400.4342
 10
332.4726
 20
401.188
 10
330.7721
 20
402.3809
 10
329.2905
 20
403.9607
 10
328.068
 20
405.8754
 10
327.1449
 20
408.0731
 10
326.5616
 20
410.5016
 10
326.3582
 20
413.1089
 10
326.5616
 20
415.7163
 10
327.1449
 20
418.1448
 10
328.068
 20
420.3424
 10
329.2905
 20
422.2572
 10
330.7721
 20
423.837
 10
332.4726
 20
425.0299
 10
334.3518
 20
425.7837
 10
336.3694
 20
426.0466
  0
LWPOLYLINE
  5
72
330
1F
100
AcDbEntity
  8
Layer 1
 62
     7
370
    18
100
AcDbPolyline
 90
        9
 70
     0
 43
0.0
 10
341.3456
 20
434.8361
 10
338.1527
 20
420.4207
 10
335.7273
 20
409.5205
 10
333.964
 20
401.6447
 10
332.7576
 20
396.302
 10
332.0027
 20
393.0014
 10
331.5938
 20
391.2519
 10
331.4258
 20
390.5622
 10
331.3932
 20
390.4415
  0
LWPOLYLINE
  5
73
330
1F
100
AcDbEntity
  8
Layer 1
 62
     7
100
AcDbPolyline
 90
        4
 70
     1
 43
0.0
 10
372.8518
 20
422.3873
 10
372.8518
 20
407.9021
 10
365.4366
 20
407.9021
 10
372.8518
 20
422.3873
  0
LWPOLYLINE
  5
74
330
1F
100
AcDbEntity
  8
Layer 1
 62
     7
100
AcDbPolyline
 90
       11
 70
     1
 43
0.0
 10
374.9331
 20
405.2487
 10
377.3864
 20
405.2487
 10
377.3864
 20
407.9021
 10
374.9331
 20
407.9021
 10
374.905
 20
425.1872
 10
372.1106
 20
425.1872
 10
361.9
 20
405.2487
 10
372.8518
 20
405.2487
 10
372.8518
 20
400.1261
 10
374.9331
 20
400.1261
 10
374.9331
 20
405.2487
  0
LWPOLYLINE
  5
75
330
1F
100
AcDbEntity
  8
Layer 1
 62
     7
100
AcDbPolyline
 90
      136
 70
     1
 43
0.0
 10
383.8318
 20
415.8998
 10
385.1428
 20
422.6077
 10
392.1588
 20
422.6077
 10
392.1588
 20
425.1872
 10
383.6312
 20
425.1872
 10
381.4075
 20
413.9464
 10
383.575
 20
412.6942
 10
383.8892
 20
412.9705
 10
384.2191
 20
413.21
 10
384.5646
 20
413.4128
 10
384.9257
 20
413.5787
 10
385.3024
 20
413.7077
 10
385.6947
 20
413.7999
 10
386.1025
 20
413.8553
 10
386.5259
 20
413.8737
 10
386.952
 20
413.8466
 10
387.3638
 20
413.7654
 10
387.7614
 20
413.63
 10
388.1446
 20
413.4405
 10
388.5135
 20
413.1968
 10
388.8682
 20
412.8989
 10
389.2087
 20
412.5469
 10
389.5349
 20
412.1407
 10
389.8423
 20
411.6878
 10
390.1087
 20
411.2181
 10
390.3342
 20
410.7318
 10
390.5188
 20
410.2288
 10
390.6623
 20
409.7091
 10
390.7648
 20
409.1727
 10
390.8264
 20
408.6197
 10
390.8469
 20
408.0499
 10
390.8259
 20
407.4604
 10
390.7631
 20
406.8945
 10
390.6584
 20
406.3523
 10
390.5118
 20
405.8336
 10
390.3233
 20
405.3386
 10
390.093
 20
404.8672
 10
389.8208
 20
404.4195
 10
389.5068
 20
403.9953
 10
389.3469
 20
403.8068
 10
389.1812
 20
403.6281
 10
389.0098
 20
403.4592
 10
388.8327
 20
403.3002
 10
388.6498
 20
403.1509
 10
388.4611
 20
403.0113
 10
388.2667
 20
402.8815
 10
388.0665
 20
402.7613
 10
387.8575
 20
402.6532
 10
387.6369
 20
402.5596
 10
387.4046
 20
402.4805
 10
387.1608
 20
402.4159
 10
386.9053
 20
402.3656
 10
386.6383
 20
402.3298
 10
386.3596
 20
402.3083
 10
386.0695
 20
402.3011
 10
385.7741
 20
402.3172
 10
385.4792
 20
402.3656
 10
385.1845
 20
402.4462
 10
384.8903
 20
402.559
 10
384.5965
 20
402.7041
 10
384.303
 20
402.8815
 10
384.01
 20
403.0911
 10
383.7174
 20
403.3329
 10
383.4358
 20
403.6006
 10
383.1755
 20
403.8878
 10
382.9367
 20
404.1947
 10
382.7193
 20
404.521
 10
382.5233
 20
404.867
 10
382.3487
 20
405.2326
 10
382.1954
 20
405.6178
 10
382.0635
 20
406.0226
 10
380.1237
 20
405.2124
 10
380.3142
 20
404.6056
 10
380.5363
 20
404.0293
 10
380.79
 20
403.4837
 10
381.0754
 20
402.9687
 10
381.3925
 20
402.4842
 10
381.7413
 20
402.0302
 10
382.1217
 20
401.6067
 10
382.5339
 20
401.2136
 10
382.9718
 20
400.8551
 10
383.4194
 20
400.5444
 10
383.877
 20
400.2815
 10
384.3443
 20
400.0664
 10
384.8215
 20
399.8991
 10
385.3086
 20
399.7796
 10
385.8055
 20
399.7079
 10
386.3122
 20
399.684
 10
386.9874
 20
399.7235
 10
387.6367
 20
399.8418
 10
388.2602
 20
400.039
 10
388.8578
 20
400.3151
 10
389.4295
 20
400.67
 10
389.9753
 20
401.1038
 10
390.4953
 20
401.6164
 10
390.9893
 20
402.2078
 10
391.4373
 20
402.8504
 10
391.8255
 20
403.5246
 10
392.1539
 20
404.2305
 10
392.4226
 20
404.968
 10
392.6315
 20
405.7371
 10
392.7807
 20
406.5378
 10
392.8702
 20
407.37
 10
392.9
 20
408.2339
 10
392.8706
 20
409.0936
 10
392.7824
 20
409.917
 10
392.6355
 20
410.704
 10
392.4297
 20
411.4547
 10
392.1651
 20
412.1691
 10
391.8417
 20
412.8471
 10
391.4594
 20
413.4888
 10
391.0183
 20
414.0941
 10
390.7928
 20
414.3635
 10
390.5583
 20
414.6184
 10
390.3149
 20
414.8589
 10
390.0626
 20
415.0851
 10
389.8014
 20
415.2967
 10
389.5312
 20
415.494
 10
389.2521
 20
415.6769
 10
388.9642
 20
415.8453
 10
388.6708
 20
415.9964
 10
388.3747
 20
416.1273
 10
388.0759
 20
416.238
 10
387.7746
 20
416.3286
 10
387.4708
 20
416.399
 10
387.1647
 20
416.4493
 10
386.8562
 20
416.4795
 10
386.5456
 20
416.4895
 10
386.2287
 20
416.4803
 10
385.9055
 20
416.4527
 10
385.5759
 20
416.4067
 10
385.24
 20
416.3423
 10
384.8977
 20
416.2594
 10
384.5489
 20
416.158
 10
384.1936
 20
416.0381
 10
383.8318
 20
415.8998
  0
LWPOLYLINE
  5
76
330
1F
100
AcDbEntity
  8
Layer 1
 62
     7
100
AcDbPolyline
 90
      129
 70
     1
 43
0.0
 10
403.9512
 20
422.2759
 10
404.2805
 20
421.9869
 10
404.5876
 20
421.6587
 10
404.8723
 20
421.2913
 10
405.1348
 20
420.8847
 10
405.3749
 20
420.4389
 10
405.5927
 20
419.954
 10
405.7881
 20
419.4299
 10
405.9613
 20
418.8668
 10
406.1553
 20
418.1197
 10
406.3234
 20
417.3616
 10
406.4656
 20
416.5925
 10
406.582
 20
415.8124
 10
406.6724
 20
415.0214
 10
406.737
 20
414.2195
 10
406.7758
 20
413.4066
 10
406.7887
 20
412.5828
 10
406.7873
 20
412.385
 10
406.7833
 20
412.1786
 10
406.7766
 20
411.9636
 10
406.7672
 20
411.7399
 10
406.7552
 20
411.5076
 10
406.7405
 20
411.2666
 10
406.7233
 20
411.0171
 10
406.7035
 20
410.7589
 10
406.6044
 20
409.7681
 10
406.4751
 20
408.832
 10
406.3155
 20
407.9507
 10
406.1256
 20
407.124
 10
405.9055
 20
406.3521
 10
405.6552
 20
405.6349
 10
405.3745
 20
404.9724
 10
405.0635
 20
404.3647
 10
404.7797
 20
403.9066
 10
404.4807
 20
403.5097
 10
404.1666
 20
403.174
 10
403.8372
 20
402.8993
 10
403.4927
 20
402.6858
 10
403.1331
 20
402.5333
 10
402.7583
 20
402.4418
 10
402.3684
 20
402.4113
 10
401.9333
 20
402.4415
 10
401.5191
 20
402.5321
 10
401.1258
 20
402.6832
 10
400.7535
 20
402.8948
 10
400.4021
 20
403.1669
 10
400.0717
 20
403.4995
 10
399.7622
 20
403.8927
 10
399.4738
 20
404.3465
 10
399.3517
 20
404.5662
 10
399.235
 20
404.7929
 10
399.1236
 20
405.0266
 10
399.0175
 20
405.2674
 10
398.9168
 20
405.5151
 10
398.8213
 20
405.7697
 10
398.7312
 20
406.0313
 10
398.6463
 20
406.2999
 10
398.5669
 20
406.5724
 10
398.4923
 20
406.8467
 10
398.4225
 20
407.1227
 10
398.3577
 20
407.4006
 10
398.2978
 20
407.6802
 10
398.2428
 20
407.9615
 10
398.1928
 20
408.2446
 10
398.1478
 20
408.5294
 10
398.1065
 20
408.8139
 10
398.0683
 20
409.096
 10
398.0333
 20
409.3758
 10
398.0015
 20
409.6533
 10
397.9727
 20
409.9285
 10
397.9471
 20
410.2015
 10
397.9246
 20
410.4722
 10
397.9051
 20
410.7408
 10
397.8883
 20
411.013
 10
397.8738
 20
411.2956
 10
397.8615
 20
411.5885
 10
397.8515
 20
411.8916
 10
397.8438
 20
412.2048
 10
397.8382
 20
412.5279
 10
397.8349
 20
412.861
 10
397.8338
 20
413.204
 10
397.8387
 20
413.5622
 10
397.8535
 20
413.9412
 10
397.878
 20
414.341
 10
397.9124
 20
414.7617
 10
397.9566
 20
415.2034
 10
398.0106
 20
415.6662
 10
398.0743
 20
416.1502
 10
398.1478
 20
416.6555
 10
398.1926
 20
416.9363
 10
398.242
 20
417.2166
 10
398.2958
 20
417.4962
 10
398.3542
 20
417.7752
 10
398.417
 20
418.0537
 10
398.4843
 20
418.3314
 10
398.5561
 20
418.6085
 10
398.6322
 20
418.885
 10
398.7135
 20
419.1581
 10
398.8005
 20
419.4243
 10
398.8934
 20
419.6835
 10
398.9921
 20
419.9358
 10
399.0965
 20
420.1812
 10
399.2068
 20
420.4197
 10
399.3228
 20
420.6513
 10
399.4447
 20
420.8759
 10
399.5726
 20
421.0916
 10
399.7068
 20
421.2962
 10
399.8473
 20
421.4899
 10
399.9941
 20
421.6726
 10
400.1471
 20
421.8444
 10
400.3063
 20
422.0052
 10
400.4717
 20
422.155
 10
400.6433
 20
422.294
 10
400.8219
 20
422.4196
 10
401.0086
 20
422.5284
 10
401.2032
 20
422.6204
 10
401.4059
 20
422.6956
 10
401.6167
 20
422.7541
 10
401.8354
 20
422.7959
 10
402.0623
 20
422.821
 10
402.2972
 20
422.8293
 10
402.5319
 20
422.8207
 10
402.7586
 20
422.7948
 10
402.9774
 20
422.7516
 10
403.1882
 20
422.6911
 10
403.391
 20
422.6133
 10
403.5858
 20
422.5182
 10
403.7725
 20
422.4057
 10
403.9512
 20
422.2759
  0
LWPOLYLINE
  5
77
330
1F
100
AcDbEntity
  8
Layer 1
 62
     7
100
AcDbPolyline
 90
       65
 70
     1
 43
0.0
 10
402.3966
 20
399.7942
 10
403.2293
 20
399.8624
 10
404.0089
 20
400.0671
 10
404.7355
 20
400.4083
 10
405.409
 20
400.886
 10
406.0295
 20
401.5001
 10
406.5971
 20
402.2507
 10
407.1116
 20
403.1377
 10
407.5731
 20
404.1612
 10
407.8973
 20
405.0547
 10
408.1782
 20
405.9975
 10
408.4159
 20
406.9899
 10
408.6104
 20
408.0317
 10
408.7617
 20
409.123
 10
408.8698
 20
410.2638
 10
408.9346
 20
411.4542
 10
408.9562
 20
412.6942
 10
408.9346
 20
413.9338
 10
408.8698
 20
415.124
 10
408.7617
 20
416.2648
 10
408.6104
 20
417.3561
 10
408.4159
 20
418.3978
 10
408.1782
 20
419.3901
 10
407.8973
 20
420.3328
 10
407.5731
 20
421.2259
 10
407.1116
 20
422.2494
 10
406.5971
 20
423.1364
 10
406.0295
 20
423.887
 10
405.409
 20
424.5011
 10
404.7355
 20
424.9788
 10
404.0089
 20
425.32
 10
403.2293
 20
425.5247
 10
402.3966
 20
425.5929
 10
401.5639
 20
425.5247
 10
400.7843
 20
425.32
 10
400.0578
 20
424.9788
 10
399.3843
 20
424.5011
 10
398.7639
 20
423.887
 10
398.1965
 20
423.1364
 10
397.6822
 20
422.2494
 10
397.221
 20
421.2259
 10
396.8968
 20
420.3328
 10
396.6159
 20
419.3901
 10
396.3781
 20
418.3978
 10
396.1836
 20
417.3561
 10
396.0323
 20
416.2648
 10
395.9243
 20
415.124
 10
395.8594
 20
413.9338
 10
395.8378
 20
412.6942
 10
395.8594
 20
411.4542
 10
395.9243
 20
410.2638
 10
396.0323
 20
409.123
 10
396.1836
 20
408.0317
 10
396.3781
 20
406.9899
 10
396.6159
 20
405.9975
 10
396.8968
 20
405.0547
 10
397.221
 20
404.1612
 10
397.6822
 20
403.1377
 10
398.1965
 20
402.2507
 10
398.7639
 20
401.5001
 10
399.3843
 20
400.886
 10
400.0578
 20
400.4083
 10
400.7843
 20
400.0671
 10
401.5639
 20
399.8624
 10
402.3966
 20
399.7942
  0
LWPOLYLINE
  5
78
330
1F
100
AcDbEntity
  8
Layer 1
 62
     7
100
AcDbPolyline
 90
      165
 70
     1
 43
0.0
 10
428.4338
 20
400.1999
 10
430.4298
 20
400.1999
 10
430.4298
 20
410.3351
 10
430.4135
 20
411.0081
 10
430.3648
 20
411.6494
 10
430.2835
 20
412.2589
 10
430.1698
 20
412.8368
 10
430.0235
 20
413.3829
 10
429.8447
 20
413.8974
 10
429.6334
 20
414.3803
 10
429.3896
 20
414.8316
 10
429.2533
 20
415.0473
 10
429.1086
 20
415.2519
 10
428.9555
 20
415.4456
 10
428.794
 20
415.6283
 10
428.624
 20
415.8001
 10
428.4454
 20
415.9609
 10
428.2584
 20
416.1108
 10
428.0627
 20
416.2498
 10
427.8551
 20
416.3754
 10
427.6315
 20
416.4841
 10
427.3918
 20
416.5761
 10
427.1361
 20
416.6514
 10
426.8643
 20
416.7098
 10
426.5765
 20
416.7516
 10
426.2725
 20
416.7767
 10
425.9523
 20
416.785
 10
425.6296
 20
416.7706
 10
425.3171
 20
416.7273
 10
425.0149
 20
416.6553
 10
424.723
 20
416.5545
 10
424.4413
 20
416.4248
 10
424.1698
 20
416.2664
 10
423.9085
 20
416.0793
 10
423.6574
 20
415.8634
 10
423.4395
 20
415.6479
 10
423.2313
 20
415.4165
 10
423.033
 20
415.1693
 10
422.8444
 20
414.9064
 10
422.6656
 20
414.628
 10
422.4966
 20
414.3341
 10
422.3374
 20
414.0249
 10
422.188
 20
413.7005
 10
422.0722
 20
414.0
 10
421.9457
 20
414.2892
 10
421.8083
 20
414.5668
 10
421.6604
 20
414.8316
 10
421.5244
 20
415.0473
 10
421.3798
 20
415.2519
 10
421.2268
 20
415.4456
 10
421.0652
 20
415.6283
 10
420.8952
 20
415.8001
 10
420.7167
 20
415.9609
 10
420.5298
 20
416.1108
 10
420.3344
 20
416.2498
 10
420.1268
 20
416.3754
 10
419.9031
 20
416.4841
 10
419.6633
 20
416.5761
 10
419.4075
 20
416.6514
 10
419.1357
 20
416.7098
 10
418.8478
 20
416.7516
 10
418.544
 20
416.7767
 10
418.2241
 20
416.785
 10
417.9013
 20
416.7706
 10
417.5888
 20
416.7273
 10
417.2864
 20
416.6553
 10
416.9943
 20
416.5545
 10
416.7124
 20
416.4248
 10
416.4407
 20
416.2664
 10
416.1793
 20
416.0793
 10
415.9282
 20
415.8634
 10
415.7207
 20
415.6585
 10
415.522
 20
415.4396
 10
415.3322
 20
415.2068
 10
415.1513
 20
414.9599
 10
414.9792
 20
414.6988
 10
414.8162
 20
414.4235
 10
414.6621
 20
414.134
 10
414.517
 20
413.8301
 10
414.517
 20
416.4157
 10
412.52
 20
416.4157
 10
412.52
 20
400.1999
 10
414.517
 20
400.1999
 10
414.517
 20
408.4979
 10
414.5632
 20
408.9816
 10
414.6236
 20
409.4464
 10
414.6984
 20
409.8924
 10
414.7874
 20
410.3198
 10
414.8908
 20
410.7287
 10
415.0083
 20
411.1193
 10
415.1402
 20
411.4919
 10
415.2863
 20
411.8464
 10
415.4054
 20
412.0986
 10
415.5343
 20
412.3392
 10
415.6729
 20
412.5683
 10
415.8213
 20
412.7859
 10
415.9795
 20
412.992
 10
416.1475
 20
413.1867
 10
416.3253
 20
413.37
 10
416.513
 20
413.5419
 10
416.7073
 20
413.6973
 10
416.9052
 20
413.8319
 10
417.1066
 20
413.9457
 10
417.3115
 20
414.0389
 10
417.52
 20
414.1113
 10
417.732
 20
414.163
 10
417.9477
 20
414.194
 10
418.1669
 20
414.2043
 10
418.3808
 20
414.1989
 10
418.5805
 20
414.1825
 10
418.766
 20
414.1552
 10
418.9371
 20
414.117
 10
419.094
 20
414.0678
 10
419.2366
 20
414.0076
 10
419.3649
 20
413.9365
 10
419.4789
 20
413.8543
 10
419.7665
 20
413.5796
 10
420.0157
 20
413.2578
 10
420.2265
 20
412.8888
 10
420.399
 20
412.4726
 10
420.5331
 20
412.0091
 10
420.6289
 20
411.4984
 10
420.6863
 20
410.9404
 10
420.7055
 20
410.3351
 10
420.7055
 20
400.1999
 10
422.7016
 20
400.1999
 10
422.7016
 20
410.3351
 10
422.6875
 20
410.9551
 10
422.7613
 20
411.1902
 10
422.8406
 20
411.4167
 10
422.9254
 20
411.6351
 10
423.0155
 20
411.8464
 10
423.1343
 20
412.0986
 10
423.263
 20
412.3392
 10
423.4016
 20
412.5683
 10
423.55
 20
412.7859
 10
423.7082
 20
412.992
 10
423.8761
 20
413.1867
 10
424.0538
 20
413.37
 10
424.2412
 20
413.5419
 10
424.4356
 20
413.6973
 10
424.6335
 20
413.8319
 10
424.8351
 20
413.9457
 10
425.0402
 20
414.0389
 10
425.2489
 20
414.1113
 10
425.4611
 20
414.163
 10
425.6768
 20
414.194
 10
425.8961
 20
414.2043
 10
426.11
 20
414.1989
 10
426.3095
 20
414.1825
 10
426.4948
 20
414.1552
 10
426.6658
 20
414.117
 10
426.8225
 20
414.0678
 10
426.9649
 20
414.0076
 10
427.0931
 20
413.9365
 10
427.2071
 20
413.8543
 10
427.4947
 20
413.5796
 10
427.7439
 20
413.2578
 10
427.9548
 20
412.8888
 10
428.1272
 20
412.4726
 10
428.2614
 20
412.0091
 10
428.3572
 20
411.4984
 10
428.4146
 20
410.9404
 10
428.4338
 20
410.3351
 10
428.4338
 20
400.1999
  0
LWPOLYLINE
  5
79
330
1F
100
AcDbEntity
  8
Layer 1
 62
     7
100
AcDbPolyline
 90
      165
 70
     1
 43
0.0
 10
450.1931
 20
400.1999
 10
452.1891
 20
400.1999
 10
452.1891
 20
410.3351
 10
452.1728
 20
411.0081
 10
452.1241
 20
411.6494
 10
452.0428
 20
412.2589
 10
451.9291
 20
412.8368
 10
451.7828
 20
413.3829
 10
451.604
 20
413.8974
 10
451.3928
 20
414.3803
 10
451.149
 20
414.8316
 10
451.0127
 20
415.0473
 10
450.868
 20
415.2519
 10
450.7149
 20
415.4456
 10
450.5533
 20
415.6283
 10
450.3833
 20
415.8001
 10
450.2048
 20
415.9609
 10
450.0177
 20
416.1108
 10
449.822
 20
416.2498
 10
449.6144
 20
416.3754
 10
449.3908
 20
416.4841
 10
449.1512
 20
416.5761
 10
448.8955
 20
416.6514
 10
448.6237
 20
416.7098
 10
448.3359
 20
416.7516
 10
448.0319
 20
416.7767
 10
447.7117
 20
416.785
 10
447.389
 20
416.7706
 10
447.0765
 20
416.7273
 10
446.7743
 20
416.6553
 10
446.4824
 20
416.5545
 10
446.2006
 20
416.4248
 10
445.9291
 20
416.2664
 10
445.6679
 20
416.0793
 10
445.4168
 20
415.8634
 10
445.1989
 20
415.6479
 10
444.9907
 20
415.4165
 10
444.7923
 20
415.1693
 10
444.6037
 20
414.9064
 10
444.4249
 20
414.628
 10
444.2559
 20
414.3341
 10
444.0967
 20
414.0249
 10
443.9474
 20
413.7005
 10
443.8316
 20
414.0
 10
443.7051
 20
414.2892
 10
443.5677
 20
414.5668
 10
443.4198
 20
414.8316
 10
443.2838
 20
415.0473
 10
443.1392
 20
415.2519
 10
442.9862
 20
415.4456
 10
442.8246
 20
415.6283
 10
442.6546
 20
415.8001
 10
442.4761
 20
415.9609
 10
442.2892
 20
416.1108
 10
442.0938
 20
416.2498
 10
441.8862
 20
416.3754
 10
441.6625
 20
416.4841
 10
441.4227
 20
416.5761
 10
441.1669
 20
416.6514
 10
440.8951
 20
416.7098
 10
440.6072
 20
416.7516
 10
440.3034
 20
416.7767
 10
439.9835
 20
416.785
 10
439.6607
 20
416.7706
 10
439.3482
 20
416.7273
 10
439.0458
 20
416.6553
 10
438.7537
 20
416.5545
 10
438.4718
 20
416.4248
 10
438.2001
 20
416.2664
 10
437.9387
 20
416.0793
 10
437.6876
 20
415.8634
 10
437.4801
 20
415.6585
 10
437.2814
 20
415.4396
 10
437.0916
 20
415.2068
 10
436.9106
 20
414.9599
 10
436.7386
 20
414.6988
 10
436.5755
 20
414.4235
 10
436.4214
 20
414.134
 10
436.2763
 20
413.8301
 10
436.2763
 20
416.4157
 10
434.2794
 20
416.4157
 10
434.2794
 20
400.1999
 10
436.2763
 20
400.1999
 10
436.2763
 20
408.4979
 10
436.3225
 20
408.9816
 10
436.3829
 20
409.4464
 10
436.4577
 20
409.8924
 10
436.5468
 20
410.3198
 10
436.6501
 20
410.7287
 10
436.7677
 20
411.1193
 10
436.8996
 20
411.4919
 10
437.0457
 20
411.8464
 10
437.1648
 20
412.0986
 10
437.2936
 20
412.3392
 10
437.4322
 20
412.5683
 10
437.5806
 20
412.7859
 10
437.7388
 20
412.992
 10
437.9068
 20
413.1867
 10
438.0847
 20
413.37
 10
438.2723
 20
413.5419
 10
438.4667
 20
413.6973
 10
438.6645
 20
413.8319
 10
438.8659
 20
413.9457
 10
439.0709
 20
414.0389
 10
439.2794
 20
414.1113
 10
439.4914
 20
414.163
 10
439.7071
 20
414.194
 10
439.9263
 20
414.2043
 10
440.1402
 20
414.1989
 10
440.3399
 20
414.1825
 10
440.5253
 20
414.1552
 10
440.6965
 20
414.117
 10
440.8534
 20
414.0678
 10
440.996
 20
414.0076
 10
441.1242
 20
413.9365
 10
441.2382
 20
413.8543
 10
441.5258
 20
413.5796
 10
441.775
 20
413.2578
 10
441.9859
 20
412.8888
 10
442.1583
 20
412.4726
 10
442.2925
 20
412.0091
 10
442.3883
 20
411.4984
 10
442.4457
 20
410.9404
 10
442.4649
 20
410.3351
 10
442.4649
 20
400.1999
 10
444.4609
 20
400.1999
 10
444.4609
 20
410.3351
 10
444.4469
 20
410.9551
 10
444.5207
 20
411.1902
 10
444.6
 20
411.4167
 10
444.6847
 20
411.6351
 10
444.7748
 20
411.8464
 10
444.8936
 20
412.0986
 10
445.0224
 20
412.3392
 10
445.161
 20
412.5683
 10
445.3094
 20
412.7859
 10
445.4676
 20
412.992
 10
445.6355
 20
413.1867
 10
445.8132
 20
413.37
 10
446.0006
 20
413.5419
 10
446.195
 20
413.6973
 10
446.3929
 20
413.8319
 10
446.5944
 20
413.9457
 10
446.7996
 20
414.0389
 10
447.0082
 20
414.1113
 10
447.2204
 20
414.163
 10
447.4362
 20
414.194
 10
447.6555
 20
414.2043
 10
447.8694
 20
414.1989
 10
448.0689
 20
414.1825
 10
448.2542
 20
414.1552
 10
448.4252
 20
414.117
 10
448.5819
 20
414.0678
 10
448.7243
 20
414.0076
 10
448.8525
 20
413.9365
 10
448.9665
 20
413.8543
 10
449.2541
 20
413.5796
 10
449.5033
 20
413.2578
 10
449.7141
 20
412.8888
 10
449.8866
 20
412.4726
 10
450.0207
 20
412.0091
 10
450.1165
 20
411.4984
 10
450.1739
 20
410.9404
 10
450.1931
 20
410.3351
 10
450.1931
 20
400.1999
  0
ENDSEC
  0
SECTION
  2
OBJECTS
  0
DICTIONARY
  5
C
330
0
100
AcDbDictionary
281
     1
  3
ACAD_DETAILVIEWSTYLE
350
81
  3
ACAD_GROUP
350
D
  3
ACAD_LAYOUT
350
1A
  3
ACAD_MATERIAL
350
43
  3
ACAD_MLEADERSTYLE
350
5B
  3
ACAD_MLINESTYLE
350
17
  3
ACAD_PLOTSETTINGS
350
19
  3
ACAD_PLOTSTYLENAME
350
E
  3
ACAD_SCALELIST
350
47
  3
ACAD_SECTIONVIEWSTYLE
350
82
  3
ACAD_TABLESTYLE
350
59
  3
ACAD_VISUALSTYLE
350
2A
  3
ACDB_RECOMPOSE_DATA
350
7E
  3
AcDbVariableDictionary
350
7A
  0
SUN
  5
5D
330
29
100
AcDbSun
 90
        1
290
     0
 63
     7
421
 16777215
 40
1.0
291
     1
 91
  2455826
 92
 54000000
292
     0
 70
     2
 71
   256
280
     1
  0
DICTIONARY
  5
81
102
{ACAD_REACTORS
330
C
102
}
330
C
100
AcDbDictionary
281
     1
  0
DICTIONARY
  5
D
102
{ACAD_REACTORS
330
C
102
}
330
C
100
AcDbDictionary
281
     1
  0
DICTIONARY
  5
1A
102
{ACAD_REACTORS
330
C
102
}
330
C
100
AcDbDictionary
281
     1
  3
Layout1
350
1E
  3
Layout2
350
26
  3
Model
350
22
  0
DICTIONARY
  5
43
102
{ACAD_REACTORS
330
C
102
}
330
C
100
AcDbDictionary
281
     1
  3
ByBlock
350
45
  3
ByLayer
350
44
  3
Global
350
46
  0
DICTIONARY
  5
5B
102
{ACAD_REACTORS
330
C
102
}
330
C
100
AcDbDictionary
281
     1
  3
Standard
350
5C
  0
DICTIONARY
  5
17
102
{ACAD_REACTORS
330
C
102
}
330
C
100
AcDbDictionary
281
     1
  3
Standard
350
18
  0
DICTIONARY
  5
19
102
{ACAD_REACTORS
330
C
102
}
330
C
100
AcDbDictionary
281
     1
  0
ACDBDICTIONARYWDFLT
  5
E
102
{ACAD_REACTORS
330
C
102
}
330
C
100
AcDbDictionary
281
     1
  3
Normal
350
F
100
AcDbDictionaryWithDefault
340
F
  0
DICTIONARY
  5
47
102
{ACAD_REACTORS
330
C
102
}
330
C
100
AcDbDictionary
281
     1
  3
A0
350
48
  3
A1
350
49
  3
A2
350
4A
  3
A3
350
4B
  3
A4
350
4C
  3
A5
350
4D
  3
A6
350
4E
  3
A7
350
4F
  3
A8
350
50
  3
A9
350
51
  3
B1
350
52
  3
B2
350
53
  3
B3
350
54
  3
B4
350
55
  3
B5
350
56
  3
B6
350
57
  3
B7
350
58
  0
DICTIONARY
  5
82
102
{ACAD_REACTORS
330
C
102
}
330
C
100
AcDbDictionary
281
     1
  0
DICTIONARY
  5
59
102
{ACAD_REACTORS
330
C
102
}
330
C
100
AcDbDictionary
281
     1
  3
Standard
350
5A
  0
DICTIONARY
  5
2A
102
{ACAD_REACTORS
330
C
102
}
330
C
100
AcDbDictionary
281
     1
  3
2dWireframe
350
2F
  3
Basic
350
32
  3
Brighten
350
36
  3
ColorChange
350
3A
  3
Conceptual
350
34
  3
Dim
350
35
  3
EdgeColorOff
350
3D
  3
Facepattern
350
39
  3
Flat
350
2B
  3
FlatWithEdges
350
2C
  3
Gouraud
350
2D
  3
GouraudWithEdges
350
2E
  3
Hidden
350
31
  3
JitterOff
350
3B
  3
Linepattern
350
38
  3
OverhangOff
350
3C
  3
Realistic
350
33
  3
Shaded
350
42
  3
Shaded with edges
350
41
  3
Shades of Gray
350
3E
  3
Sketchy
350
3F
  3
Thicken
350
37
  3
Wireframe
350
30
  3
X-Ray
350
40
  0
XRECORD
  5
7E
102
{ACAD_REACTORS
330
C
102
}
330
C
100
AcDbXrecord
280
     1
 90
        1
330
5A
  0
DICTIONARY
  5
7A
102
{ACAD_REACTORS
330
C
102
}
330
C
100
AcDbDictionary
281
     1
  3
CANNOSCALE
350
7B
  3
CMLEADERSTYLE
350
80
  3
CTABLESTYLE
350
7F
  0
LAYOUT
  5
1E
102
{ACAD_REACTORS
330
1A
102
}
330
1A
100
AcDbPlotSettings
  1

  2
none_device
  4

  6

 40
0.0
 41
0.0
 42
0.0
 43
0.0
 44
0.0
 45
0.0
 46
0.0
 47
0.0
 48
0.0
 49
0.0
140
0.0
141
0.0
142
1.0
143
1.0
 70
   688
 72
     0
 73
     0
 74
     5
  7

 75
    16
 76
     0
 77
     2
 78
   300
147
1.0
148
0.0
149
0.0
100
AcDbLayout
  1
Layout1
 70
     1
 71
     1
 10
0.0
 20
0.0
 11
12.0
 21
9.0
 12
0.0
 22
0.0
 32
0.0
 14
1.000000000000000E+20
 24
1.000000000000000E+20
 34
1.000000000000000E+20
 15
-1.000000000000000E+20
 25
-1.000000000000000E+20
 35
-1.000000000000000E+20
146
0.0
 13
0.0
 23
0.0
 33
0.0
 16
1.0
 26
0.0
 36
0.0
 17
0.0
 27
1.0
 37
0.0
 76
     0
330
1B
  0
LAYOUT
  5
26
102
{ACAD_REACTORS
330
1A
102
}
330
1A
100
AcDbPlotSettings
  1

  2
none_device
  4

  6

 40
0.0
 41
0.0
 42
0.0
 43
0.0
 44
0.0
 45
0.0
 46
0.0
 47
0.0
 48
0.0
 49
0.0
140
0.0
141
0.0
142
1.0
143
1.0
 70
   688
 72
     0
 73
     0
 74
     5
  7

 75
    16
 76
     0
 77
     2
 78
   300
147
1.0
148
0.0
149
0.0
100
AcDbLayout
  1
Layout2
 70
     1
 71
     2
 10
0.0
 20
0.0
 11
0.0
 21
0.0
 12
0.0
 22
0.0
 32
0.0
 14
0.0
 24
0.0
 34
0.0
 15
0.0
 25
0.0
 35
0.0
146
0.0
 13
0.0
 23
0.0
 33
0.0
 16
1.0
 26
0.0
 36
0.0
 17
0.0
 27
1.0
 37
0.0
 76
     0
330
23
  0
LAYOUT
  5
22
102
{ACAD_REACTORS
330
1A
102
}
330
1A
100
AcDbPlotSettings
  1

  2
none_device
  4
Letter_(8.50_x_11.00_Inches)
  6

 40
6.35
 41
6.35
 42
6.35000508
 43
6.35000508
 44
215.9
 45
279.4
 46
0.0
 47
0.0
 48
0.0
 49
0.0
140
0.0
141
0.0
142
1.0
143
1.0
 70
  1712
 72
     0
 73
     0
 74
     0
  7

 75
     0
 76
     0
 77
     2
 78
   300
147
1.0
148
0.0
149
0.0
100
AcDbLayout
  1
Model
 70
     1
 71
     0
 10
0.0
 20
0.0
 11
12.0
 21
9.0
 12
0.0
 22
0.0
 32
0.0
 14
171.0169
 24
-430.974
 34
0.0
 15
704.4755
 25
452.3952
 35
0.0
146
0.0
 13
0.0
 23
0.0
 33
0.0
 16
1.0
 26
0.0
 36
0.0
 17
0.0
 27
1.0
 37
0.0
 76
     0
330
1F
331
29
  0
MATERIAL
  5
45
102
{ACAD_REACTORS
330
43
102
}
330
43
100
AcDbMaterial
  1
ByBlock
 72
     1
 94
      127
  0
MATERIAL
  5
44
102
{ACAD_REACTORS
330
43
102
}
330
43
100
AcDbMaterial
  1
ByLayer
 72
     1
 94
      127
  0
MATERIAL
  5
46
102
{ACAD_REACTORS
330
43
102
}
330
43
100
AcDbMaterial
  1
Global
 72
     1
 94
      127
  0
MLEADERSTYLE
  5
5C
102
{ACAD_REACTORS
330
5B
102
}
330
5B
100
AcDbMLeaderStyle
179
     2
170
     2
171
     1
172
     0
 90
        2
 40
0.0
 41
0.0
173
     1
 91
-1056964608
340
14
 92
       -2
290
     1
 42
0.09
291
     1
 43
0.36
  3
Standard
341
0
 44
0.18
300

342
11
174
     1
178
     6
175
     1
176
     0
 93
-1056964608
 45
0.18
292
     0
297
     0
 46
0.18
343
0
 94
-1056964608
 47
1.0
 49
1.0
140
1.0
293
     1
141
0.0
294
     1
177
     0
142
1.0
295
     0
296
     0
143
0.125
271
     0
272
     9
273
     9
298
     0
  0
MLINESTYLE
  5
18
102
{ACAD_REACTORS
330
17
102
}
330
17
100
AcDbMlineStyle
  2
Standard
 70
     0
  3

 62
   256
 51
90.0
 52
90.0
 71
     2
 49
0.5
 62
   256
  6
BYLAYER
 49
-0.5
 62
   256
  6
BYLAYER
  0
ACDBPLACEHOLDER
  5
F
102
{ACAD_REACTORS
330
E
102
}
330
E
  0
SCALE
  5
48
102
{ACAD_REACTORS
330
47
102
}
330
47
100
AcDbScale
 70
     0
300
1:1
140
1.0
141
1.0
290
     1
  0
SCALE
  5
49
102
{ACAD_REACTORS
330
47
102
}
330
47
100
AcDbScale
 70
     0
300
1/128" = 1'-0"
140
0.0078125
141
12.0
290
     0
  0
SCALE
  5
4A
102
{ACAD_REACTORS
330
47
102
}
330
47
100
AcDbScale
 70
     0
300
1/64" = 1'-0"
140
0.015625
141
12.0
290
     0
  0
SCALE
  5
4B
102
{ACAD_REACTORS
330
47
102
}
330
47
100
AcDbScale
 70
     0
300
1/32" = 1'-0"
140
0.03125
141
12.0
290
     0
  0
SCALE
  5
4C
102
{ACAD_REACTORS
330
47
102
}
330
47
100
AcDbScale
 70
     0
300
1/16" = 1'-0"
140
0.0625
141
12.0
290
     0
  0
SCALE
  5
4D
102
{ACAD_REACTORS
330
47
102
}
330
47
100
AcDbScale
 70
     0
300
3/32" = 1'-0"
140
0.09375
141
12.0
290
     0
  0
SCALE
  5
4E
102
{ACAD_REACTORS
330
47
102
}
330
47
100
AcDbScale
 70
     0
300
1/8" = 1'-0"
140
0.125
141
12.0
290
     0
  0
SCALE
  5
4F
102
{ACAD_REACTORS
330
47
102
}
330
47
100
AcDbScale
 70
     0
300
3/16" = 1'-0"
140
0.1875
141
12.0
290
     0
  0
SCALE
  5
50
102
{ACAD_REACTORS
330
47
102
}
330
47
100
AcDbScale
 70
     0
300
1/4" = 1'-0"
140
0.25
141
12.0
290
     0
  0
SCALE
  5
51
102
{ACAD_REACTORS
330
47
102
}
330
47
100
AcDbScale
 70
     0
300
3/8" = 1'-0"
140
0.375
141
12.0
290
     0
  0
SCALE
  5
52
102
{ACAD_REACTORS
330
47
102
}
330
47
100
AcDbScale
 70
     0
300
1/2" = 1'-0"
140
0.5
141
12.0
290
     0
  0
SCALE
  5
53
102
{ACAD_REACTORS
330
47
102
}
330
47
100
AcDbScale
 70
     0
300
3/4" = 1'-0"
140
0.75
141
12.0
290
     0
  0
SCALE
  5
54
102
{ACAD_REACTORS
330
47
102
}
330
47
100
AcDbScale
 70
     0
300
1" = 1'-0"
140
1.0
141
12.0
290
     0
  0
SCALE
  5
55
102
{ACAD_REACTORS
330
47
102
}
330
47
100
AcDbScale
 70
     0
300
1-1/2" = 1'-0"
140
1.5
141
12.0
290
     0
  0
SCALE
  5
56
102
{ACAD_REACTORS
330
47
102
}
330
47
100
AcDbScale
 70
     0
300
3" = 1'-0"
140
3.0
141
12.0
290
     0
  0
SCALE
  5
57
102
{ACAD_REACTORS
330
47
102
}
330
47
100
AcDbScale
 70
     0
300
6" = 1'-0"
140
6.0
141
12.0
290
     0
  0
SCALE
  5
58
102
{ACAD_REACTORS
330
47
102
}
330
47
100
AcDbScale
 70
     0
300
1'-0" = 1'-0"
140
12.0
141
12.0
290
     0
  0
TABLESTYLE
  5
5A
102
{ACAD_REACTORS
330
59
102
}
102
{ACAD_XDICTIONARY
360
7C
102
}
330
59
100
AcDbTableStyle
  3
Standard
 70
     0
 71
     0
 40
0.06
 41
0.06
280
     0
281
     0
  7
Standard
140
0.18
170
     2
 62
     0
 63
   257
283
     0
 90
        4
 91
        0
  1

274
    -2
284
     1
 64
     0
275
    -2
285
     1
 65
     0
276
    -2
286
     1
 66
     0
277
    -2
287
     1
 67
     0
278
    -2
288
     1
 68
     0
279
    -2
289
     1
 69
     0
  7
Standard
140
0.25
170
     5
 62
     0
 63
   257
283
     0
 90
        4
 91
        0
  1

274
    -2
284
     1
 64
     0
275
    -2
285
     1
 65
     0
276
    -2
286
     1
 66
     0
277
    -2
287
     1
 67
     0
278
    -2
288
     1
 68
     0
279
    -2
289
     1
 69
     0
  7
Standard
140
0.18
170
     5
 62
     0
 63
   257
283
     0
 90
        4
 91
        0
  1

274
    -2
284
     1
 64
     0
275
    -2
285
     1
 65
     0
276
    -2
286
     1
 66
     0
277
    -2
287
     1
 67
     0
278
    -2
288
     1
 68
     0
279
    -2
289
     1
 69
     0
  0
VISUALSTYLE
  5
2F
102
{ACAD_REACTORS
330
2A
102
}
330
2A
100
AcDbVisualStyle
  2
2dWireframe
 70
     4
177
     3
291
     0
 70
    58
 90
        0
176
     1
 90
        2
176
     1
 90
        0
176
     1
 90
        0
176
     1
 40
0.6
176
     1
 40
30.0
176
     1
 62
     7
420
 16777215
176
     1
 90
        1
176
     1
 90
        4
176
     1
 62
     7
176
     1
 62
   257
176
     1
 90
        1
176
     1
 90
        1
176
     1
 40
1.0
176
     1
 90
        0
176
     1
 62
   257
176
     1
 40
1.0
176
     1
 90
        1
176
     1
 90
        6
176
     1
 90
        2
176
     1
 62
     7
176
     1
 90
        5
176
     1
 90
        0
176
     1
 90
        0
176
     1
290
     0
176
     1
 90
        1
176
     1
 40
0.0
176
     1
 90
        0
176
     1
290
     1
176
     1
290
     1
176
     1
290
     0
176
     1
290
     0
176
     1
290
     0
176
     1
290
     0
176
     1
290
     0
176
     1
290
     0
176
     1
290
     0
176
     1
 90
       50
176
     1
 40
0.0
176
     1
 40
1.0
176
     1
 90
        0
176
     1
 62
    18
420
        0
176
     1
 90
       50
176
     1
 90
        3
176
     1
 62
     5
420
      255
176
     1
290
     0
176
     1
 90
       50
176
     1
 90
       50
176
     1
 90
       50
176
     1
290
     0
176
     1
 90
       50
176
     1
 62
   256
176
     0
 40
1.0
176
     0
 90
        2
176
     1
  1
strokes_ogs.tif
176
     1
290
     0
176
     1
 40
1.0
176
     1
 40
1.0
176
     1
  0
VISUALSTYLE
  5
32
102
{ACAD_REACTORS
330
2A
102
}
330
2A
100
AcDbVisualStyle
  2
Basic
 70
     7
177
     3
291
     1
 70
    58
 90
        1
176
     1
 90
        0
176
     1
 90
        1
176
     1
 90
        0
176
     1
 40
0.6
176
     1
 40
30.0
176
     1
 62
     7
420
 16777215
176
     1
 90
        0
176
     1
 90
        4
176
     1
 62
     7
176
     1
 62
   257
176
     1
 90
        1
176
     1
 90
        1
176
     1
 40
1.0
176
     1
 90
        8
176
     1
 62
     7
176
     1
 40
1.0
176
     1
 90
        1
176
     1
 90
        6
176
     1
 90
        2
176
     1
 62
     7
176
     1
 90
        5
176
     1
 90
        0
176
     1
 90
        0
176
     1
290
     0
176
     1
 90
        1
176
     1
 40
0.0
176
     1
 90
        0
176
     1
290
     0
176
     1
290
     1
176
     1
290
     1
176
     1
290
     0
176
     1
290
     0
176
     1
290
     0
176
     1
290
     0
176
     1
290
     0
176
     1
290
     0
176
     1
 90
       50
176
     1
 40
0.0
176
     1
 40
1.0
176
     1
 90
        0
176
     1
 62
    18
420
        0
176
     1
 90
       50
176
     1
 90
        3
176
     1
 62
     5
420
      255
176
     1
290
     0
176
     1
 90
       50
176
     1
 90
       50
176
     1
 90
       50
176
     1
290
     0
176
     1
 90
       50
176
     1
 62
   256
176
     0
 40
1.0
176
     0
 90
        2
176
     1
  1
strokes_ogs.tif
176
     1
290
     0
176
     1
 40
1.0
176
     1
 40
1.0
176
     1
  0
VISUALSTYLE
  5
36
102
{ACAD_REACTORS
330
2A
102
}
330
2A
100
AcDbVisualStyle
  2
Brighten
 70
    12
177
     3
291
     1
 70
    58
 90
        2
176
     1
 90
        2
176
     1
 90
        0
176
     1
 90
        0
176
     1
 40
0.6
176
     1
 40
30.0
176
     1
 62
     7
420
 16777215
176
     1
 90
        1
176
     1
 90
        4
176
     1
 62
     7
176
     1
 62
   257
176
     1
 90
        1
176
     1
 90
        1
176
     1
 40
1.0
176
     1
 90
        8
176
     1
 62
     7
176
     1
 40
1.0
176
     1
 90
        1
176
     1
 90
        6
176
     1
 90
        2
176
     1
 62
     7
176
     1
 90
        5
176
     1
 90
        0
176
     1
 90
        0
176
     1
290
     0
176
     1
 90
        1
176
     1
 40
50.0
176
     1
 90
        0
176
     1
290
     0
176
     1
290
     1
176
     1
290
     1
176
     1
290
     0
176
     1
290
     0
176
     1
290
     0
176
     1
290
     0
176
     1
290
     0
176
     1
290
     0
176
     1
 90
       50
176
     1
 40
0.0
176
     1
 40
1.0
176
     1
 90
        0
176
     1
 62
    18
420
        0
176
     1
 90
       50
176
     1
 90
        3
176
     1
 62
     5
420
      255
176
     1
290
     0
176
     1
 90
       50
176
     1
 90
       50
176
     1
 90
       50
176
     1
290
     0
176
     1
 90
       50
176
     1
 62
   256
176
     0
 40
1.0
176
     0
 90
        2
176
     1
  1
strokes_ogs.tif
176
     1
290
     0
176
     1
 40
1.0
176
     1
 40
1.0
176
     1
  0
VISUALSTYLE
  5
3A
102
{ACAD_REACTORS
330
2A
102
}
330
2A
100
AcDbVisualStyle
  2
ColorChange
 70
    16
177
     3
291
     1
 70
    58
 90
        2
176
     1
 90
        2
176
     1
 90
        3
176
     1
 90
        0
176
     1
 40
0.6
176
     1
 40
30.0
176
     1
 62
     8
420
  8421504
176
     1
 90
        1
176
     1
 90
        4
176
     1
 62
     7
176
     1
 62
   257
176
     1
 90
        1
176
     1
 90
        1
176
     1
 40
1.0
176
     1
 90
        8
176
     1
 62
     8
420
  8421504
176
     1
 40
1.0
176
     1
 90
        1
176
     1
 90
        6
176
     1
 90
        2
176
     1
 62
     7
176
     1
 90
        5
176
     1
 90
        0
176
     1
 90
        0
176
     1
290
     0
176
     1
 90
        1
176
     1
 40
0.0
176
     1
 90
        0
176
     1
290
     0
176
     1
290
     1
176
     1
290
     1
176
     1
290
     0
176
     1
290
     0
176
     1
290
     0
176
     1
290
     0
176
     1
290
     0
176
     1
290
     0
176
     1
 90
       50
176
     1
 40
0.0
176
     1
 40
1.0
176
     1
 90
        0
176
     1
 62
    18
420
        0
176
     1
 90
       50
176
     1
 90
        3
176
     1
 62
     5
420
      255
176
     1
290
     0
176
     1
 90
       50
176
     1
 90
       50
176
     1
 90
       50
176
     1
290
     0
176
     1
 90
       50
176
     1
 62
   256
176
     0
 40
1.0
176
     0
 90
        2
176
     1
  1
strokes_ogs.tif
176
     1
290
     0
176
     1
 40
1.0
176
     1
 40
1.0
176
     1
  0
VISUALSTYLE
  5
34
102
{ACAD_REACTORS
330
2A
102
}
330
2A
100
AcDbVisualStyle
  2
Conceptual
 70
     9
177
     3
291
     0
 70
    58
 90
        3
176
     1
 90
        2
176
     1
 90
        0
176
     1
 90
        0
176
     1
 40
0.6
176
     1
 40
30.0
176
     1
 62
     7
420
 16777215
176
     1
 90
        2
176
     1
 90
        2
176
     1
 62
     7
176
     1
 62
   257
176
     1
 90
        1
176
     1
 90
        1
176
     1
 40
179.0
176
     1
 90
        8
176
     1
 62
     7
176
     1
 40
1.0
176
     1
 90
        1
176
     1
 90
        6
176
     1
 90
        2
176
     1
 62
     7
176
     1
 90
        3
176
     1
 90
        0
176
     1
 90
        0
176
     1
290
     0
176
     1
 90
        1
176
     1
 40
0.0
176
     1
 90
        0
176
     1
290
     0
176
     1
290
     1
176
     1
290
     1
176
     1
290
     0
176
     1
290
     0
176
     1
290
     0
176
     1
290
     0
176
     1
290
     0
176
     1
290
     0
176
     1
 90
       50
176
     1
 40
0.0
176
     1
 40
1.0
176
     1
 90
        0
176
     1
 62
    18
420
        0
176
     1
 90
       50
176
     1
 90
        3
176
     1
 62
     5
420
      255
176
     1
290
     0
176
     1
 90
       50
176
     1
 90
       50
176
     1
 90
       50
176
     1
290
     0
176
     1
 90
       50
176
     1
 62
   256
176
     0
 40
1.0
176
     0
 90
        2
176
     1
  1
strokes_ogs.tif
176
     1
290
     0
176
     1
 40
1.0
176
     1
 40
1.0
176
     1
  0
VISUALSTYLE
  5
35
102
{ACAD_REACTORS
330
2A
102
}
330
2A
100
AcDbVisualStyle
  2
Dim
 70
    11
177
     3
291
     1
 70
    58
 90
        2
176
     1
 90
        2
176
     1
 90
        0
176
     1
 90
        0
176
     1
 40
0.6
176
     1
 40
30.0
176
     1
 62
     7
420
 16777215
176
     1
 90
        1
176
     1
 90
        4
176
     1
 62
     7
176
     1
 62
   257
176
     1
 90
        1
176
     1
 90
        1
176
     1
 40
1.0
176
     1
 90
        8
176
     1
 62
     7
176
     1
 40
1.0
176
     1
 90
        1
176
     1
 90
        6
176
     1
 90
        2
176
     1
 62
     7
176
     1
 90
        5
176
     1
 90
        0
176
     1
 90
        0
176
     1
290
     0
176
     1
 90
        1
176
     1
 40
-50.0
176
     1
 90
        0
176
     1
290
     0
176
     1
290
     1
176
     1
290
     1
176
     1
290
     0
176
     1
290
     0
176
     1
290
     0
176
     1
290
     0
176
     1
290
     0
176
     1
290
     0
176
     1
 90
       50
176
     1
 40
0.0
176
     1
 40
1.0
176
     1
 90
        0
176
     1
 62
    18
420
        0
176
     1
 90
       50
176
     1
 90
        3
176
     1
 62
     5
420
      255
176
     1
290
     0
176
     1
 90
       50
176
     1
 90
       50
176
     1
 90
       50
176
     1
290
     0
176
     1
 90
       50
176
     1
 62
   256
176
     0
 40
1.0
176
     0
 90
        2
176
     1
  1
strokes_ogs.tif
176
     1
290
     0
176
     1
 40
1.0
176
     1
 40
1.0
176
     1
  0
VISUALSTYLE
  5
3D
102
{ACAD_REACTORS
330
2A
102
}
330
2A
100
AcDbVisualStyle
  2
EdgeColorOff
 70
    22
177
     3
291
     1
 70
    58
 90
        2
176
     0
 90
        2
176
     0
 90
        0
176
     0
 90
        0
176
     0
 40
0.6
176
     0
 40
30.0
176
     0
 62
     7
420
 16777215
176
     0
 90
        1
176
     0
 90
        4
176
     0
 62
     7
176
     0
 62
   257
176
     0
 90
        1
176
     0
 90
        1
176
     0
 40
1.0
176
     0
 90
        8
176
     2
 62
     7
176
     0
 40
1.0
176
     0
 90
        1
176
     0
 90
        6
176
     0
 90
        2
176
     0
 62
     7
176
     0
 90
        5
176
     0
 90
        0
176
     0
 90
        0
176
     0
290
     0
176
     0
 90
        1
176
     0
 40
0.0
176
     0
 90
        0
176
     0
290
     0
176
     0
290
     1
176
     0
290
     1
176
     0
290
     0
176
     0
290
     0
176
     0
290
     0
176
     0
290
     0
176
     0
290
     0
176
     0
290
     0
176
     0
 90
       50
176
     0
 40
0.0
176
     0
 40
1.0
176
     0
 90
        0
176
     0
 62
    18
420
        0
176
     0
 90
       50
176
     0
 90
        3
176
     0
 62
     5
420
      255
176
     0
290
     0
176
     0
 90
       50
176
     0
 90
       50
176
     0
 90
       50
176
     0
290
     0
176
     0
 90
       50
176
     0
 62
   256
176
     0
 40
1.0
176
     0
 90
        2
176
     0
  1
strokes_ogs.tif
176
     0
290
     0
176
     0
 40
1.0
176
     0
 40
1.0
176
     0
  0
VISUALSTYLE
  5
39
102
{ACAD_REACTORS
330
2A
102
}
330
2A
100
AcDbVisualStyle
  2
Facepattern
 70
    15
177
     3
291
     1
 70
    58
 90
        2
176
     1
 90
        2
176
     1
 90
        0
176
     1
 90
        0
176
     1
 40
0.6
176
     1
 40
30.0
176
     1
 62
     7
420
 16777215
176
     1
 90
        1
176
     1
 90
        4
176
     1
 62
     7
176
     1
 62
   257
176
     1
 90
        1
176
     1
 90
        1
176
     1
 40
1.0
176
     1
 90
        8
176
     1
 62
     7
176
     1
 40
1.0
176
     1
 90
        1
176
     1
 90
        6
176
     1
 90
        2
176
     1
 62
     7
176
     1
 90
        5
176
     1
 90
        0
176
     1
 90
        0
176
     1
290
     0
176
     1
 90
        1
176
     1
 40
0.0
176
     1
 90
        0
176
     1
290
     0
176
     1
290
     1
176
     1
290
     1
176
     1
290
     0
176
     1
290
     0
176
     1
290
     0
176
     1
290
     0
176
     1
290
     0
176
     1
290
     0
176
     1
 90
       50
176
     1
 40
0.0
176
     1
 40
1.0
176
     1
 90
        0
176
     1
 62
    18
420
        0
176
     1
 90
       50
176
     1
 90
        3
176
     1
 62
     5
420
      255
176
     1
290
     0
176
     1
 90
       50
176
     1
 90
       50
176
     1
 90
       50
176
     1
290
     0
176
     1
 90
       50
176
     1
 62
   256
176
     0
 40
1.0
176
     0
 90
        2
176
     1
  1
strokes_ogs.tif
176
     1
290
     0
176
     1
 40
1.0
176
     1
 40
1.0
176
     1
  0
VISUALSTYLE
  5
2B
102
{ACAD_REACTORS
330
2A
102
}
330
2A
100
AcDbVisualStyle
  2
Flat
 70
     0
177
     3
291
     1
 70
    58
 90
        2
176
     1
 90
        1
176
     1
 90
        1
176
     1
 90
        2
176
     1
 40
0.6
176
     1
 40
30.0
176
     1
 62
     7
420
 16777215
176
     1
 90
        0
176
     1
 90
        0
176
     1
 62
     7
176
     1
 62
   257
176
     1
 90
        1
176
     1
 90
        1
176
     1
 40
1.0
176
     1
 90
        8
176
     1
 62
     7
176
     1
 40
1.0
176
     1
 90
        1
176
     1
 90
        6
176
     1
 90
        2
176
     1
 62
     7
176
     1
 90
        5
176
     1
 90
        0
176
     1
 90
        0
176
     1
290
     0
176
     1
 90
       13
176
     1
 40
0.0
176
     1
 90
        0
176
     1
290
     0
176
     1
290
     1
176
     1
290
     1
176
     1
290
     0
176
     1
290
     0
176
     1
290
     0
176
     1
290
     0
176
     1
290
     0
176
     1
290
     0
176
     1
 90
       50
176
     1
 40
0.0
176
     1
 40
1.0
176
     1
 90
        0
176
     1
 62
    18
420
        0
176
     1
 90
       50
176
     1
 90
        3
176
     1
 62
     5
420
      255
176
     1
290
     0
176
     1
 90
       50
176
     1
 90
       50
176
     1
 90
       50
176
     1
290
     0
176
     1
 90
       50
176
     1
 62
   256
176
     0
 40
1.0
176
     0
 90
        2
176
     1
  1
strokes_ogs.tif
176
     1
290
     0
176
     1
 40
1.0
176
     1
 40
1.0
176
     1
  0
VISUALSTYLE
  5
2C
102
{ACAD_REACTORS
330
2A
102
}
330
2A
100
AcDbVisualStyle
  2
FlatWithEdges
 70
     1
177
     3
291
     1
 70
    58
 90
        2
176
     1
 90
        1
176
     1
 90
        1
176
     1
 90
        2
176
     1
 40
0.6
176
     1
 40
30.0
176
     1
 62
     7
420
 16777215
176
     1
 90
        1
176
     1
 90
        0
176
     1
 62
     7
176
     1
 62
   257
176
     1
 90
        1
176
     1
 90
        1
176
     1
 40
1.0
176
     1
 90
        0
176
     1
 62
   257
176
     1
 40
1.0
176
     1
 90
        1
176
     1
 90
        6
176
     1
 90
        2
176
     1
 62
     7
176
     1
 90
        5
176
     1
 90
        0
176
     1
 90
        0
176
     1
290
     0
176
     1
 90
       13
176
     1
 40
0.0
176
     1
 90
        0
176
     1
290
     0
176
     1
290
     1
176
     1
290
     1
176
     1
290
     0
176
     1
290
     0
176
     1
290
     0
176
     1
290
     0
176
     1
290
     0
176
     1
290
     0
176
     1
 90
       50
176
     1
 40
0.0
176
     1
 40
1.0
176
     1
 90
        0
176
     1
 62
    18
420
        0
176
     1
 90
       50
176
     1
 90
        3
176
     1
 62
     5
420
      255
176
     1
290
     0
176
     1
 90
       50
176
     1
 90
       50
176
     1
 90
       50
176
     1
290
     0
176
     1
 90
       50
176
     1
 62
   256
176
     0
 40
1.0
176
     0
 90
        2
176
     1
  1
strokes_ogs.tif
176
     1
290
     0
176
     1
 40
1.0
176
     1
 40
1.0
176
     1
  0
VISUALSTYLE
  5
2D
102
{ACAD_REACTORS
330
2A
102
}
330
2A
100
AcDbVisualStyle
  2
Gouraud
 70
     2
177
     3
291
     1
 70
    58
 90
        2
176
     1
 90
        2
176
     1
 90
        1
176
     1
 90
        2
176
     1
 40
0.6
176
     1
 40
30.0
176
     1
 62
     7
420
 16777215
176
     1
 90
        0
176
     1
 90
        0
176
     1
 62
     7
176
     1
 62
   257
176
     1
 90
        1
176
     1
 90
        1
176
     1
 40
1.0
176
     1
 90
        0
176
     1
 62
     7
176
     1
 40
1.0
176
     1
 90
        1
176
     1
 90
        6
176
     1
 90
        2
176
     1
 62
     7
176
     1
 90
        5
176
     1
 90
        0
176
     1
 90
        0
176
     1
290
     0
176
     1
 90
       13
176
     1
 40
0.0
176
     1
 90
        0
176
     1
290
     0
176
     1
290
     1
176
     1
290
     1
176
     1
290
     0
176
     1
290
     0
176
     1
290
     0
176
     1
290
     0
176
     1
290
     0
176
     1
290
     0
176
     1
 90
       50
176
     1
 40
0.0
176
     1
 40
1.0
176
     1
 90
        0
176
     1
 62
    18
420
        0
176
     1
 90
       50
176
     1
 90
        3
176
     1
 62
     5
420
      255
176
     1
290
     0
176
     1
 90
       50
176
     1
 90
       50
176
     1
 90
       50
176
     1
290
     0
176
     1
 90
       50
176
     1
 62
   256
176
     0
 40
1.0
176
     0
 90
        2
176
     1
  1
strokes_ogs.tif
176
     1
290
     0
176
     1
 40
1.0
176
     1
 40
1.0
176
     1
  0
VISUALSTYLE
  5
2E
102
{ACAD_REACTORS
330
2A
102
}
330
2A
100
AcDbVisualStyle
  2
GouraudWithEdges
 70
     3
177
     3
291
     1
 70
    58
 90
        2
176
     1
 90
        2
176
     1
 90
        1
176
     1
 90
        2
176
     1
 40
0.6
176
     1
 40
30.0
176
     1
 62
     7
420
 16777215
176
     1
 90
        1
176
     1
 90
        0
176
     1
 62
     7
176
     1
 62
   257
176
     1
 90
        1
176
     1
 90
        1
176
     1
 40
1.0
176
     1
 90
        0
176
     1
 62
   257
176
     1
 40
1.0
176
     1
 90
        1
176
     1
 90
        6
176
     1
 90
        2
176
     1
 62
     7
176
     1
 90
        5
176
     1
 90
        0
176
     1
 90
        0
176
     1
290
     0
176
     1
 90
       13
176
     1
 40
0.0
176
     1
 90
        0
176
     1
290
     0
176
     1
290
     1
176
     1
290
     1
176
     1
290
     0
176
     1
290
     0
176
     1
290
     0
176
     1
290
     0
176
     1
290
     0
176
     1
290
     0
176
     1
 90
       50
176
     1
 40
0.0
176
     1
 40
1.0
176
     1
 90
        0
176
     1
 62
    18
420
        0
176
     1
 90
       50
176
     1
 90
        3
176
     1
 62
     5
420
      255
176
     1
290
     0
176
     1
 90
       50
176
     1
 90
       50
176
     1
 90
       50
176
     1
290
     0
176
     1
 90
       50
176
     1
 62
   256
176
     0
 40
1.0
176
     0
 90
        2
176
     1
  1
strokes_ogs.tif
176
     1
290
     0
176
     1
 40
1.0
176
     1
 40
1.0
176
     1
  0
VISUALSTYLE
  5
31
102
{ACAD_REACTORS
330
2A
102
}
330
2A
100
AcDbVisualStyle
  2
Hidden
 70
     6
177
     3
291
     0
 70
    58
 90
        1
176
     1
 90
        2
176
     1
 90
        2
176
     1
 90
        0
176
     1
 40
0.6
176
     1
 40
30.0
176
     1
 62
     7
420
 16777215
176
     1
 90
        2
176
     1
 90
        2
176
     1
 62
     7
176
     1
 62
   257
176
     1
 90
        2
176
     1
 90
        1
176
     1
 40
40.0
176
     1
 90
        0
176
     1
 62
   257
176
     1
 40
1.0
176
     1
 90
        1
176
     1
 90
        6
176
     1
 90
        2
176
     1
 62
     7
176
     1
 90
        3
176
     1
 90
        0
176
     1
 90
        0
176
     1
290
     0
176
     1
 90
        1
176
     1
 40
0.0
176
     1
 90
        0
176
     1
290
     0
176
     1
290
     1
176
     1
290
     1
176
     1
290
     0
176
     1
290
     0
176
     1
290
     0
176
     1
290
     0
176
     1
290
     0
176
     1
290
     0
176
     1
 90
       50
176
     1
 40
0.0
176
     1
 40
1.0
176
     1
 90
        0
176
     1
 62
    18
420
        0
176
     1
 90
       50
176
     1
 90
        3
176
     1
 62
     5
420
      255
176
     1
290
     0
176
     1
 90
       50
176
     1
 90
       50
176
     1
 90
       50
176
     1
290
     0
176
     1
 90
       50
176
     1
 62
   256
176
     0
 40
1.0
176
     0
 90
        2
176
     1
  1
strokes_ogs.tif
176
     1
290
     0
176
     1
 40
1.0
176
     1
 40
1.0
176
     1
  0
VISUALSTYLE
  5
3B
102
{ACAD_REACTORS
330
2A
102
}
330
2A
100
AcDbVisualStyle
  2
JitterOff
 70
    20
177
     3
291
     1
 70
    58
 90
        2
176
     0
 90
        2
176
     0
 90
        0
176
     0
 90
        0
176
     0
 40
0.6
176
     0
 40
30.0
176
     0
 62
     7
420
 16777215
176
     0
 90
        1
176
     0
 90
        4
176
     0
 62
     7
176
     0
 62
   257
176
     0
 90
        1
176
     0
 90
        1
176
     0
 40
1.0
176
     0
 90
       10
176
     2
 62
     7
176
     0
 40
1.0
176
     0
 90
        1
176
     0
 90
        6
176
     0
 90
        2
176
     0
 62
     7
176
     0
 90
        5
176
     0
 90
        0
176
     0
 90
        0
176
     0
290
     0
176
     0
 90
        1
176
     0
 40
0.0
176
     0
 90
        0
176
     0
290
     0
176
     0
290
     1
176
     0
290
     1
176
     0
290
     0
176
     0
290
     0
176
     0
290
     0
176
     0
290
     0
176
     0
290
     0
176
     0
290
     0
176
     0
 90
       50
176
     0
 40
0.0
176
     0
 40
1.0
176
     0
 90
        0
176
     0
 62
    18
420
        0
176
     0
 90
       50
176
     0
 90
        3
176
     0
 62
     5
420
      255
176
     0
290
     0
176
     0
 90
       50
176
     0
 90
       50
176
     0
 90
       50
176
     0
290
     0
176
     0
 90
       50
176
     0
 62
   256
176
     0
 40
1.0
176
     0
 90
        2
176
     0
  1
strokes_ogs.tif
176
     0
290
     0
176
     0
 40
1.0
176
     0
 40
1.0
176
     0
  0
VISUALSTYLE
  5
38
102
{ACAD_REACTORS
330
2A
102
}
330
2A
100
AcDbVisualStyle
  2
Linepattern
 70
    14
177
     3
291
     1
 70
    58
 90
        2
176
     1
 90
        2
176
     1
 90
        0
176
     1
 90
        0
176
     1
 40
0.6
176
     1
 40
30.0
176
     1
 62
     7
420
 16777215
176
     1
 90
        1
176
     1
 90
        4
176
     1
 62
     7
176
     1
 62
   257
176
     1
 90
        7
176
     1
 90
        7
176
     1
 40
1.0
176
     1
 90
        8
176
     1
 62
     7
176
     1
 40
1.0
176
     1
 90
        1
176
     1
 90
        6
176
     1
 90
        2
176
     1
 62
     7
176
     1
 90
        5
176
     1
 90
        0
176
     1
 90
        0
176
     1
290
     0
176
     1
 90
        1
176
     1
 40
0.0
176
     1
 90
        0
176
     1
290
     0
176
     1
290
     1
176
     1
290
     1
176
     1
290
     0
176
     1
290
     0
176
     1
290
     0
176
     1
290
     0
176
     1
290
     0
176
     1
290
     0
176
     1
 90
       50
176
     1
 40
0.0
176
     1
 40
1.0
176
     1
 90
        0
176
     1
 62
    18
420
        0
176
     1
 90
       50
176
     1
 90
        3
176
     1
 62
     5
420
      255
176
     1
290
     0
176
     1
 90
       50
176
     1
 90
       50
176
     1
 90
       50
176
     1
290
     0
176
     1
 90
       50
176
     1
 62
   256
176
     0
 40
1.0
176
     0
 90
        2
176
     1
  1
strokes_ogs.tif
176
     1
290
     0
176
     1
 40
1.0
176
     1
 40
1.0
176
     1
  0
VISUALSTYLE
  5
3C
102
{ACAD_REACTORS
330
2A
102
}
330
2A
100
AcDbVisualStyle
  2
OverhangOff
 70
    21
177
     3
291
     1
 70
    58
 90
        2
176
     0
 90
        2
176
     0
 90
        0
176
     0
 90
        0
176
     0
 40
0.6
176
     0
 40
30.0
176
     0
 62
     7
420
 16777215
176
     0
 90
        1
176
     0
 90
        4
176
     0
 62
     7
176
     0
 62
   257
176
     0
 90
        1
176
     0
 90
        1
176
     0
 40
1.0
176
     0
 90
        9
176
     2
 62
     7
176
     0
 40
1.0
176
     0
 90
        1
176
     0
 90
        6
176
     0
 90
        2
176
     0
 62
     7
176
     0
 90
        5
176
     0
 90
        0
176
     0
 90
        0
176
     0
290
     0
176
     0
 90
        1
176
     0
 40
0.0
176
     0
 90
        0
176
     0
290
     0
176
     0
290
     1
176
     0
290
     1
176
     0
290
     0
176
     0
290
     0
176
     0
290
     0
176
     0
290
     0
176
     0
290
     0
176
     0
290
     0
176
     0
 90
       50
176
     0
 40
0.0
176
     0
 40
1.0
176
     0
 90
        0
176
     0
 62
    18
420
        0
176
     0
 90
       50
176
     0
 90
        3
176
     0
 62
     5
420
      255
176
     0
290
     0
176
     0
 90
       50
176
     0
 90
       50
176
     0
 90
       50
176
     0
290
     0
176
     0
 90
       50
176
     0
 62
   256
176
     0
 40
1.0
176
     0
 90
        2
176
     0
  1
strokes_ogs.tif
176
     0
290
     0
176
     0
 40
1.0
176
     0
 40
1.0
176
     0
  0
VISUALSTYLE
  5
33
102
{ACAD_REACTORS
330
2A
102
}
330
2A
100
AcDbVisualStyle
  2
Realistic
 70
     8
177
     3
291
     0
 70
    58
 90
        2
176
     1
 90
        3
176
     1
 90
        0
176
     1
 90
        2
176
     1
 40
0.6
176
     1
 40
30.0
176
     1
 62
     7
420
 16777215
176
     1
 90
        0
176
     1
 90
        0
176
     1
 62
     7
176
     1
 62
   257
176
     1
 90
        1
176
     1
 90
        1
176
     1
 40
1.0
176
     1
 90
        8
176
     1
 62
   257
176
     1
 40
1.0
176
     1
 90
        1
176
     1
 90
        6
176
     1
 90
        2
176
     1
 62
     7
176
     1
 90
        3
176
     1
 90
        0
176
     1
 90
        0
176
     1
290
     0
176
     1
 90
       13
176
     1
 40
0.0
176
     1
 90
        0
176
     1
290
     0
176
     1
290
     1
176
     1
290
     1
176
     1
290
     0
176
     1
290
     0
176
     1
290
     0
176
     1
290
     0
176
     1
290
     0
176
     1
290
     0
176
     1
 90
       50
176
     1
 40
0.0
176
     1
 40
1.0
176
     1
 90
        0
176
     1
 62
    18
420
        0
176
     1
 90
       50
176
     1
 90
        3
176
     1
 62
     5
420
      255
176
     1
290
     0
176
     1
 90
       50
176
     1
 90
       50
176
     1
 90
       50
176
     1
290
     0
176
     1
 90
       50
176
     1
 62
   256
176
     0
 40
1.0
176
     0
 90
        2
176
     1
  1
strokes_ogs.tif
176
     1
290
     0
176
     1
 40
1.0
176
     1
 40
1.0
176
     1
  0
VISUALSTYLE
  5
42
102
{ACAD_REACTORS
330
2A
102
}
330
2A
100
AcDbVisualStyle
  2
Shaded
 70
    27
177
     3
291
     0
 70
    58
 90
        2
176
     1
 90
        2
176
     1
 90
        1
176
     1
 90
        2
176
     1
 40
0.6
176
     1
 40
30.0
176
     1
 62
     7
420
 16777215
176
     1
 90
        0
176
     1
 90
        4
176
     1
 62
     7
176
     1
 62
   257
176
     1
 90
        1
176
     1
 90
        1
176
     1
 40
1.0
176
     1
 90
        8
176
     1
 62
   257
176
     1
 40
1.0
176
     1
 90
        1
176
     1
 90
        6
176
     1
 90
        2
176
     1
 62
     8
420
  7895160
176
     1
 90
        3
176
     1
 90
        0
176
     1
 90
        0
176
     1
290
     0
176
     1
 90
        5
176
     1
 40
0.0
176
     1
 90
        0
176
     1
290
     0
176
     1
290
     1
176
     1
290
     1
176
     1
290
     0
176
     1
290
     0
176
     1
290
     0
176
     1
290
     0
176
     1
290
     0
176
     1
290
     0
176
     1
 90
       50
176
     1
 40
0.0
176
     1
 40
1.0
176
     1
 90
        0
176
     1
 62
    18
420
        0
176
     1
 90
       50
176
     1
 90
        3
176
     1
 62
     5
420
      255
176
     1
290
     0
176
     1
 90
       50
176
     1
 90
       50
176
     1
 90
       50
176
     1
290
     0
176
     1
 90
       50
176
     1
 62
   256
176
     0
 40
1.0
176
     0
 90
        2
176
     1
  1
strokes_ogs.tif
176
     1
290
     0
176
     1
 40
1.0
176
     1
 40
1.0
176
     1
  0
VISUALSTYLE
  5
41
102
{ACAD_REACTORS
330
2A
102
}
330
2A
100
AcDbVisualStyle
  2
Shaded with edges
 70
    26
177
     3
291
     0
 70
    58
 90
        2
176
     1
 90
        2
176
     1
 90
        1
176
     1
 90
        2
176
     1
 40
0.6
176
     1
 40
30.0
176
     1
 62
     7
420
 16777215
176
     1
 90
        1
176
     1
 90
       10
176
     1
 62
     7
176
     1
 62
   257
176
     1
 90
        2
176
     1
 90
        1
176
     1
 40
1.0
176
     1
 90
        8
176
     1
 62
   257
176
     1
 40
1.0
176
     1
 90
        1
176
     1
 90
        6
176
     1
 90
        2
176
     1
 62
     7
176
     1
 90
        3
176
     1
 90
        0
176
     1
 90
        0
176
     1
290
     0
176
     1
 90
        5
176
     1
 40
0.0
176
     1
 90
        0
176
     1
290
     0
176
     1
290
     1
176
     1
290
     1
176
     1
290
     0
176
     1
290
     0
176
     1
290
     0
176
     1
290
     0
176
     1
290
     0
176
     1
290
     0
176
     1
 90
       50
176
     1
 40
0.0
176
     1
 40
1.0
176
     1
 90
        0
176
     1
 62
    18
420
        0
176
     1
 90
       50
176
     1
 90
        3
176
     1
 62
     5
420
      255
176
     1
290
     0
176
     1
 90
       50
176
     1
 90
       50
176
     1
 90
       50
176
     1
290
     0
176
     1
 90
       50
176
     1
 62
   256
176
     0
 40
1.0
176
     0
 90
        2
176
     1
  1
strokes_ogs.tif
176
     1
290
     0
176
     1
 40
1.0
176
     1
 40
1.0
176
     1
  0
VISUALSTYLE
  5
3E
102
{ACAD_REACTORS
330
2A
102
}
330
2A
100
AcDbVisualStyle
  2
Shades of Gray
 70
    23
177
     3
291
     0
 70
    58
 90
        2
176
     1
 90
        2
176
     1
 90
        3
176
     1
 90
        0
176
     1
 40
0.6
176
     1
 40
30.0
176
     1
 62
     7
420
 16777215
176
     1
 90
        2
176
     1
 90
        2
176
     1
 62
     7
176
     1
 62
     7
176
     1
 90
        1
176
     1
 90
        1
176
     1
 40
40.0
176
     1
 90
        8
176
     1
 62
     7
176
     1
 40
1.0
176
     1
 90
        1
176
     1
 90
        6
176
     1
 90
        2
176
     1
 62
     7
176
     1
 90
        3
176
     1
 90
        0
176
     1
 90
        0
176
     1
290
     0
176
     1
 90
        1
176
     1
 40
0.0
176
     1
 90
        0
176
     1
290
     0
176
     1
290
     1
176
     1
290
     1
176
     1
290
     0
176
     1
290
     0
176
     1
290
     0
176
     1
290
     0
176
     1
290
     0
176
     1
290
     0
176
     1
 90
       50
176
     1
 40
0.0
176
     1
 40
1.0
176
     1
 90
        0
176
     1
 62
    18
420
        0
176
     1
 90
       50
176
     1
 90
        3
176
     1
 62
     5
420
      255
176
     1
290
     0
176
     1
 90
       50
176
     1
 90
       50
176
     1
 90
       50
176
     1
290
     0
176
     1
 90
       50
176
     1
 62
   256
176
     0
 40
1.0
176
     0
 90
        2
176
     1
  1
strokes_ogs.tif
176
     1
290
     0
176
     1
 40
1.0
176
     1
 40
1.0
176
     1
  0
VISUALSTYLE
  5
3F
102
{ACAD_REACTORS
330
2A
102
}
330
2A
100
AcDbVisualStyle
  2
Sketchy
 70
    24
177
     3
291
     0
 70
    58
 90
        1
176
     1
 90
        2
176
     1
 90
        2
176
     1
 90
        0
176
     1
 40
0.6
176
     1
 40
30.0
176
     1
 62
     7
420
 16777215
176
     1
 90
        2
176
     1
 90
        2
176
     1
 62
     7
176
     1
 62
     7
176
     1
 90
        1
176
     1
 90
        1
176
     1
 40
40.0
176
     1
 90
       11
176
     1
 62
     7
176
     1
 40
1.0
176
     1
 90
        1
176
     1
 90
        6
176
     1
 90
        2
176
     1
 62
     7
176
     1
 90
        6
176
     1
 90
        0
176
     1
 90
        0
176
     1
290
     0
176
     1
 90
        1
176
     1
 40
0.0
176
     1
 90
        0
176
     1
290
     0
176
     1
290
     1
176
     1
290
     1
176
     1
290
     0
176
     1
290
     0
176
     1
290
     0
176
     1
290
     0
176
     1
290
     0
176
     1
290
     0
176
     1
 90
       50
176
     1
 40
0.0
176
     1
 40
1.0
176
     1
 90
        0
176
     1
 62
    18
420
        0
176
     1
 90
       50
176
     1
 90
        3
176
     1
 62
     5
420
      255
176
     1
290
     0
176
     1
 90
       50
176
     1
 90
       50
176
     1
 90
       50
176
     1
290
     0
176
     1
 90
       50
176
     1
 62
   256
176
     0
 40
1.0
176
     0
 90
        2
176
     1
  1
strokes_ogs.tif
176
     1
290
     0
176
     1
 40
1.0
176
     1
 40
1.0
176
     1
  0
VISUALSTYLE
  5
37
102
{ACAD_REACTORS
330
2A
102
}
330
2A
100
AcDbVisualStyle
  2
Thicken
 70
    13
177
     3
291
     1
 70
    58
 90
        2
176
     1
 90
        2
176
     1
 90
        0
176
     1
 90
        0
176
     1
 40
0.6
176
     1
 40
30.0
176
     1
 62
     7
420
 16777215
176
     1
 90
        1
176
     1
 90
        4
176
     1
 62
     7
176
     1
 62
   257
176
     1
 90
        1
176
     1
 90
        1
176
     1
 40
1.0
176
     1
 90
       12
176
     1
 62
     7
176
     1
 40
1.0
176
     1
 90
        1
176
     1
 90
        6
176
     1
 90
        2
176
     1
 62
     7
176
     1
 90
        5
176
     1
 90
        0
176
     1
 90
        0
176
     1
290
     0
176
     1
 90
        1
176
     1
 40
0.0
176
     1
 90
        0
176
     1
290
     0
176
     1
290
     1
176
     1
290
     1
176
     1
290
     0
176
     1
290
     0
176
     1
290
     0
176
     1
290
     0
176
     1
290
     0
176
     1
290
     0
176
     1
 90
       50
176
     1
 40
0.0
176
     1
 40
1.0
176
     1
 90
        0
176
     1
 62
    18
420
        0
176
     1
 90
       50
176
     1
 90
        3
176
     1
 62
     5
420
      255
176
     1
290
     0
176
     1
 90
       50
176
     1
 90
       50
176
     1
 90
       50
176
     1
290
     0
176
     1
 90
       50
176
     1
 62
   256
176
     0
 40
1.0
176
     0
 90
        2
176
     1
  1
strokes_ogs.tif
176
     1
290
     0
176
     1
 40
1.0
176
     1
 40
1.0
176
     1
  0
VISUALSTYLE
  5
30
102
{ACAD_REACTORS
330
2A
102
}
330
2A
100
AcDbVisualStyle
  2
Wireframe
 70
     5
177
     3
291
     0
 70
    58
 90
        0
176
     1
 90
        2
176
     1
 90
        0
176
     1
 90
        0
176
     1
 40
0.6
176
     1
 40
30.0
176
     1
 62
     7
420
 16777215
176
     1
 90
        1
176
     1
 90
        4
176
     1
 62
     7
176
     1
 62
   257
176
     1
 90
        1
176
     1
 90
        1
176
     1
 40
1.0
176
     1
 90
        0
176
     1
 62
   257
176
     1
 40
1.0
176
     1
 90
        1
176
     1
 90
        6
176
     1
 90
        2
176
     1
 62
     7
176
     1
 90
        3
176
     1
 90
        0
176
     1
 90
        0
176
     1
290
     0
176
     1
 90
        1
176
     1
 40
0.0
176
     1
 90
        0
176
     1
290
     0
176
     1
290
     1
176
     1
290
     1
176
     1
290
     0
176
     1
290
     0
176
     1
290
     0
176
     1
290
     0
176
     1
290
     0
176
     1
290
     0
176
     1
 90
       50
176
     1
 40
0.0
176
     1
 40
1.0
176
     1
 90
        0
176
     1
 62
    18
420
        0
176
     1
 90
       50
176
     1
 90
        3
176
     1
 62
     5
420
      255
176
     1
290
     0
176
     1
 90
       50
176
     1
 90
       50
176
     1
 90
       50
176
     1
290
     0
176
     1
 90
       50
176
     1
 62
   256
176
     0
 40
1.0
176
     0
 90
        2
176
     1
  1
strokes_ogs.tif
176
     1
290
     0
176
     1
 40
1.0
176
     1
 40
1.0
176
     1
  0
VISUALSTYLE
  5
40
102
{ACAD_REACTORS
330
2A
102
}
330
2A
100
AcDbVisualStyle
  2
X-Ray
 70
    25
177
     3
291
     0
 70
    58
 90
        2
176
     1
 90
        2
176
     1
 90
        1
176
     1
 90
        1
176
     1
 40
0.5
176
     1
 40
30.0
176
     1
 62
     7
420
 16777215
176
     1
 90
        1
176
     1
 90
        0
176
     1
 62
     7
176
     1
 62
   257
176
     1
 90
        1
176
     1
 90
        1
176
     1
 40
1.0
176
     1
 90
        8
176
     1
 62
     7
176
     1
 40
1.0
176
     1
 90
        1
176
     1
 90
        6
176
     1
 90
        2
176
     1
 62
     7
176
     1
 90
        3
176
     1
 90
        0
176
     1
 90
        0
176
     1
290
     0
176
     1
 90
       13
176
     1
 40
0.0
176
     1
 90
        0
176
     1
290
     0
176
     1
290
     1
176
     1
290
     1
176
     1
290
     0
176
     1
290
     0
176
     1
290
     0
176
     1
290
     0
176
     1
290
     0
176
     1
290
     0
176
     1
 90
       50
176
     1
 40
0.0
176
     1
 40
1.0
176
     1
 90
        0
176
     1
 62
    18
420
        0
176
     1
 90
       50
176
     1
 90
        3
176
     1
 62
     5
420
      255
176
     1
290
     0
176
     1
 90
       50
176
     1
 90
       50
176
     1
 90
       50
176
     1
290
     0
176
     1
 90
       50
176
     1
 62
   256
176
     0
 40
1.0
176
     0
 90
        2
176
     1
  1
strokes_ogs.tif
176
     1
290
     0
176
     1
 40
1.0
176
     1
 40
1.0
176
     1
  0
DICTIONARYVAR
  5
7B
102
{ACAD_REACTORS
330
7A
102
}
330
7A
100
DictionaryVariables
280
     0
  1
1:1
  0
DICTIONARYVAR
  5
80
102
{ACAD_REACTORS
330
7A
102
}
330
7A
100
DictionaryVariables
280
     0
  1
Standard
  0
DICTIONARYVAR
  5
7F
102
{ACAD_REACTORS
330
7A
102
}
330
7A
100
DictionaryVariables
280
     0
  1
Standard
  0
DICTIONARY
  5
7C
330
5A
100
AcDbDictionary
280
     1
281
     1
  3
ACAD_ROUNDTRIP_2008_TABLESTYLE_CELLSTYLEMAP
360
7D
  0
CELLSTYLEMAP
  5
7D
102
{ACAD_REACTORS
330
7C
102
}
330
7C
100
AcDbCellStyleMap
 90
        3
300
CELLSTYLE
  1
TABLEFORMAT_BEGIN
 90
        5
170
     1
 91
        0
 92
    32768
 62
   257
 93
        1
300
CONTENTFORMAT
  1
CONTENTFORMAT_BEGIN
 90
        0
 91
        0
 92
        4
 93
        0
300

 40
0.0
140
1.0
 94
        5
 62
     0
340
11
144
0.25
309
CONTENTFORMAT_END
171
     1
301
MARGIN
  1
CELLMARGIN_BEGIN
 40
0.06
 40
0.06
 40
0.06
 40
0.06
 40
0.06
 40
0.06
309
CELLMARGIN_END
 94
        6
 95
        1
302
GRIDFORMAT
  1
GRIDFORMAT_BEGIN
 90
        0
 91
        1
 62
     0
 92
       -2
340
14
 93
        0
 40
0.045
309
GRIDFORMAT_END
 95
        2
302
GRIDFORMAT
  1
GRIDFORMAT_BEGIN
 90
        0
 91
        1
 62
     0
 92
       -2
340
14
 93
        0
 40
0.045
309
GRIDFORMAT_END
 95
        4
302
GRIDFORMAT
  1
GRIDFORMAT_BEGIN
 90
        0
 91
        1
 62
     0
 92
       -2
340
14
 93
        0
 40
0.045
309
GRIDFORMAT_END
 95
        8
302
GRIDFORMAT
  1
GRIDFORMAT_BEGIN
 90
        0
 91
        1
 62
     0
 92
       -2
340
14
 93
        0
 40
0.045
309
GRIDFORMAT_END
 95
       16
302
GRIDFORMAT
  1
GRIDFORMAT_BEGIN
 90
        0
 91
        1
 62
     0
 92
       -2
340
14
 93
        0
 40
0.045
309
GRIDFORMAT_END
 95
       32
302
GRIDFORMAT
  1
GRIDFORMAT_BEGIN
 90
        0
 91
        1
 62
     0
 92
       -2
340
14
 93
        0
 40
0.045
309
GRIDFORMAT_END
309
TABLEFORMAT_END
  1
CELLSTYLE_BEGIN
 90
        1
 91
        1
300
_TITLE
309
CELLSTYLE_END
300
CELLSTYLE
  1
TABLEFORMAT_BEGIN
 90
        5
170
     1
 91
        0
 92
        0
 62
   257
 93
        1
300
CONTENTFORMAT
  1
CONTENTFORMAT_BEGIN
 90
        0
 91
        0
 92
        4
 93
        0
300

 40
0.0
140
1.0
 94
        5
 62
     0
340
11
144
0.18
309
CONTENTFORMAT_END
171
     1
301
MARGIN
  1
CELLMARGIN_BEGIN
 40
0.06
 40
0.06
 40
0.06
 40
0.06
 40
0.06
 40
0.06
309
CELLMARGIN_END
 94
        6
 95
        1
302
GRIDFORMAT
  1
GRIDFORMAT_BEGIN
 90
        0
 91
        1
 62
     0
 92
       -2
340
14
 93
        0
 40
0.045
309
GRIDFORMAT_END
 95
        2
302
GRIDFORMAT
  1
GRIDFORMAT_BEGIN
 90
        0
 91
        1
 62
     0
 92
       -2
340
14
 93
        0
 40
0.045
309
GRIDFORMAT_END
 95
        4
302
GRIDFORMAT
  1
GRIDFORMAT_BEGIN
 90
        0
 91
        1
 62
     0
 92
       -2
340
14
 93
        0
 40
0.045
309
GRIDFORMAT_END
 95
        8
302
GRIDFORMAT
  1
GRIDFORMAT_BEGIN
 90
        0
 91
        1
 62
     0
 92
       -2
340
14
 93
        0
 40
0.045
309
GRIDFORMAT_END
 95
       16
302
GRIDFORMAT
  1
GRIDFORMAT_BEGIN
 90
        0
 91
        1
 62
     0
 92
       -2
340
14
 93
        0
 40
0.045
309
GRIDFORMAT_END
 95
       32
302
GRIDFORMAT
  1
GRIDFORMAT_BEGIN
 90
        0
 91
        1
 62
     0
 92
       -2
340
14
 93
        0
 40
0.045
309
GRIDFORMAT_END
309
TABLEFORMAT_END
  1
CELLSTYLE_BEGIN
 90
        2
 91
        1
300
_HEADER
309
CELLSTYLE_END
300
CELLSTYLE
  1
TABLEFORMAT_BEGIN
 90
        5
170
     1
 91
        0
 92
        0
 62
   257
 93
        1
300
CONTENTFORMAT
  1
CONTENTFORMAT_BEGIN
 90
        0
 91
        0
 92
        4
 93
        0
300

 40
0.0
140
1.0
 94
        2
 62
     0
340
11
144
0.18
309
CONTENTFORMAT_END
171
     1
301
MARGIN
  1
CELLMARGIN_BEGIN
 40
0.06
 40
0.06
 40
0.06
 40
0.06
 40
0.06
 40
0.06
309
CELLMARGIN_END
 94
        6
 95
        1
302
GRIDFORMAT
  1
GRIDFORMAT_BEGIN
 90
        0
 91
        1
 62
     0
 92
       -2
340
14
 93
        0
 40
0.045
309
GRIDFORMAT_END
 95
        2
302
GRIDFORMAT
  1
GRIDFORMAT_BEGIN
 90
        0
 91
        1
 62
     0
 92
       -2
340
14
 93
        0
 40
0.045
309
GRIDFORMAT_END
 95
        4
302
GRIDFORMAT
  1
GRIDFORMAT_BEGIN
 90
        0
 91
        1
 62
     0
 92
       -2
340
14
 93
        0
 40
0.045
309
GRIDFORMAT_END
 95
        8
302
GRIDFORMAT
  1
GRIDFORMAT_BEGIN
 90
        0
 91
        1
 62
     0
 92
       -2
340
14
 93
        0
 40
0.045
309
GRIDFORMAT_END
 95
       16
302
GRIDFORMAT
  1
GRIDFORMAT_BEGIN
 90
        0
 91
        1
 62
     0
 92
       -2
340
14
 93
        0
 40
0.045
309
GRIDFORMAT_END
 95
       32
302
GRIDFORMAT
  1
GRIDFORMAT_BEGIN
 90
        0
 91
        1
 62
     0
 92
       -2
340
14
 93
        0
 40
0.045
309
GRIDFORMAT_END
309
TABLEFORMAT_END
  1
CELLSTYLE_BEGIN
 90
        3
 91
        2
300
_DATA
309
CELLSTYLE_END
  0
ENDSEC
  0
EOF
