  0
SECTION
  2
HEADER
  9
$ACADVER
  1
AC1027
  9
$ACADMAINTVER
 70
   105
  9
$DWGCODEPAGE
  3
ANSI_1252
  9
$LASTSAVEDBY
  1
Office Desk
  9
$REQUIREDVERSIONS
160
                 0
  9
$INSBASE
 10
0.0
 20
0.0
 30
0.0
  9
$EXTMIN
 10
356.2766
 20
-680.9496
 30
0.0
  9
$EXTMAX
 10
908.2744
 20
231.7626
 30
0.0
  9
$LIMMIN
 10
0.0
 20
0.0
  9
$LIMMAX
 10
12.0
 20
9.0
  9
$ORTHOMODE
 70
     0
  9
$REGENMODE
 70
     1
  9
$FILLMODE
 70
     1
  9
$QTEXTMODE
 70
     0
  9
$MIRRTEXT
 70
     1
  9
$LTSCALE
 40
1.0
  9
$ATTMODE
 70
     1
  9
$TEXTSIZE
 40
0.2
  9
$TRACEWID
 40
0.05
  9
$TEXTSTYLE
  7
Standard
  9
$CLAYER
  8
0
  9
$CELTYPE
  6
ByLayer
  9
$CECOLOR
 62
   256
  9
$CELTSCALE
 40
1.0
  9
$DISPSILH
 70
     0
  9
$DIMSCALE
 40
1.0
  9
$DIMASZ
 40
0.18
  9
$DIMEXO
 40
0.0625
  9
$DIMDLI
 40
0.38
  9
$DIMRND
 40
0.0
  9
$DIMDLE
 40
0.0
  9
$DIMEXE
 40
0.18
  9
$DIMTP
 40
0.0
  9
$DIMTM
 40
0.0
  9
$DIMTXT
 40
0.18
  9
$DIMCEN
 40
0.09
  9
$DIMTSZ
 40
0.0
  9
$DIMTOL
 70
     0
  9
$DIMLIM
 70
     0
  9
$DIMTIH
 70
     1
  9
$DIMTOH
 70
     1
  9
$DIMSE1
 70
     0
  9
$DIMSE2
 70
     0
  9
$DIMTAD
 70
     0
  9
$DIMZIN
 70
     0
  9
$DIMBLK
  1

  9
$DIMASO
 70
     1
  9
$DIMSHO
 70
     1
  9
$DIMPOST
  1

  9
$DIMAPOST
  1

  9
$DIMALT
 70
     0
  9
$DIMALTD
 70
     2
  9
$DIMALTF
 40
25.4
  9
$DIMLFAC
 40
1.0
  9
$DIMTOFL
 70
     0
  9
$DIMTVP
 40
0.0
  9
$DIMTIX
 70
     0
  9
$DIMSOXD
 70
     0
  9
$DIMSAH
 70
     0
  9
$DIMBLK1
  1

  9
$DIMBLK2
  1

  9
$DIMSTYLE
  2
Standard
  9
$DIMCLRD
 70
     0
  9
$DIMCLRE
 70
     0
  9
$DIMCLRT
 70
     0
  9
$DIMTFAC
 40
1.0
  9
$DIMGAP
 40
0.09
  9
$DIMJUST
 70
     0
  9
$DIMSD1
 70
     0
  9
$DIMSD2
 70
     0
  9
$DIMTOLJ
 70
     1
  9
$DIMTZIN
 70
     0
  9
$DIMALTZ
 70
     0
  9
$DIMALTTZ
 70
     0
  9
$DIMUPT
 70
     0
  9
$DIMDEC
 70
     4
  9
$DIMTDEC
 70
     4
  9
$DIMALTU
 70
     2
  9
$DIMALTTD
 70
     2
  9
$DIMTXSTY
  7
Standard
  9
$DIMAUNIT
 70
     0
  9
$DIMADEC
 70
     0
  9
$DIMALTRND
 40
0.0
  9
$DIMAZIN
 70
     0
  9
$DIMDSEP
 70
    46
  9
$DIMATFIT
 70
     3
  9
$DIMFRAC
 70
     0
  9
$DIMLDRBLK
  1

  9
$DIMLUNIT
 70
     2
  9
$DIMLWD
 70
    -2
  9
$DIMLWE
 70
    -2
  9
$DIMTMOVE
 70
     0
  9
$DIMFXL
 40
1.0
  9
$DIMFXLON
 70
     0
  9
$DIMJOGANG
 40
0.7853981633974483
  9
$DIMTFILL
 70
     0
  9
$DIMTFILLCLR
 70
     0
  9
$DIMARCSYM
 70
     0
  9
$DIMLTYPE
  6

  9
$DIMLTEX1
  6

  9
$DIMLTEX2
  6

  9
$DIMTXTDIRECTION
 70
     0
  9
$LUNITS
 70
     2
  9
$LUPREC
 70
     4
  9
$SKETCHINC
 40
0.1
  9
$FILLETRAD
 40
0.0
  9
$AUNITS
 70
     0
  9
$AUPREC
 70
     0
  9
$MENU
  1
.
  9
$ELEVATION
 40
0.0
  9
$PELEVATION
 40
0.0
  9
$THICKNESS
 40
0.0
  9
$LIMCHECK
 70
     0
  9
$CHAMFERA
 40
0.0
  9
$CHAMFERB
 40
0.0
  9
$CHAMFERC
 40
0.0
  9
$CHAMFERD
 40
0.0
  9
$SKPOLY
 70
     0
  9
$TDCREATE
 40
2461007.698817257
  9
$TDUCREATE
 40
2461007.469650591
  9
$TDUPDATE
 40
2461007.698817477
  9
$TDUUPDATE
 40
2461007.46965081
  9
$TDINDWG
 40
0.0000000116
  9
$TDUSRTIMER
 40
0.0000000116
  9
$USRTIMER
 70
     1
  9
$ANGBASE
 50
0.0
  9
$ANGDIR
 70
     0
  9
$PDMODE
 70
     0
  9
$PDSIZE
 40
0.0
  9
$PLINEWID
 40
0.0
  9
$SPLFRAME
 70
     0
  9
$SPLINETYPE
 70
     6
  9
$SPLINESEGS
 70
     8
  9
$HANDSEED
  5
83
  9
$SURFTAB1
 70
     6
  9
$SURFTAB2
 70
     6
  9
$SURFTYPE
 70
     6
  9
$SURFU
 70
     6
  9
$SURFV
 70
     6
  9
$UCSBASE
  2

  9
$UCSNAME
  2

  9
$UCSORG
 10
0.0
 20
0.0
 30
0.0
  9
$UCSXDIR
 10
1.0
 20
0.0
 30
0.0
  9
$UCSYDIR
 10
0.0
 20
1.0
 30
0.0
  9
$UCSORTHOREF
  2

  9
$UCSORTHOVIEW
 70
     0
  9
$UCSORGTOP
 10
0.0
 20
0.0
 30
0.0
  9
$UCSORGBOTTOM
 10
0.0
 20
0.0
 30
0.0
  9
$UCSORGLEFT
 10
0.0
 20
0.0
 30
0.0
  9
$UCSORGRIGHT
 10
0.0
 20
0.0
 30
0.0
  9
$UCSORGFRONT
 10
0.0
 20
0.0
 30
0.0
  9
$UCSORGBACK
 10
0.0
 20
0.0
 30
0.0
  9
$PUCSBASE
  2

  9
$PUCSNAME
  2

  9
$PUCSORG
 10
0.0
 20
0.0
 30
0.0
  9
$PUCSXDIR
 10
1.0
 20
0.0
 30
0.0
  9
$PUCSYDIR
 10
0.0
 20
1.0
 30
0.0
  9
$PUCSORTHOREF
  2

  9
$PUCSORTHOVIEW
 70
     0
  9
$PUCSORGTOP
 10
0.0
 20
0.0
 30
0.0
  9
$PUCSORGBOTTOM
 10
0.0
 20
0.0
 30
0.0
  9
$PUCSORGLEFT
 10
0.0
 20
0.0
 30
0.0
  9
$PUCSORGRIGHT
 10
0.0
 20
0.0
 30
0.0
  9
$PUCSORGFRONT
 10
0.0
 20
0.0
 30
0.0
  9
$PUCSORGBACK
 10
0.0
 20
0.0
 30
0.0
  9
$USERI1
 70
     0
  9
$USERI2
 70
     0
  9
$USERI3
 70
     0
  9
$USERI4
 70
     0
  9
$USERI5
 70
     0
  9
$USERR1
 40
0.0
  9
$USERR2
 40
0.0
  9
$USERR3
 40
0.0
  9
$USERR4
 40
0.0
  9
$USERR5
 40
0.0
  9
$WORLDVIEW
 70
     1
  9
$SHADEDGE
 70
     3
  9
$SHADEDIF
 70
    70
  9
$TILEMODE
 70
     1
  9
$MAXACTVP
 70
    64
  9
$PINSBASE
 10
0.0
 20
0.0
 30
0.0
  9
$PLIMCHECK
 70
     0
  9
$PEXTMIN
 10
1.000000000000000E+20
 20
1.000000000000000E+20
 30
1.000000000000000E+20
  9
$PEXTMAX
 10
-1.000000000000000E+20
 20
-1.000000000000000E+20
 30
-1.000000000000000E+20
  9
$PLIMMIN
 10
0.0
 20
0.0
  9
$PLIMMAX
 10
12.0
 20
9.0
  9
$UNITMODE
 70
     0
  9
$VISRETAIN
 70
     1
  9
$PLINEGEN
 70
     0
  9
$PSLTSCALE
 70
     1
  9
$TREEDEPTH
 70
  3020
  9
$CMLSTYLE
  2
Standard
  9
$CMLJUST
 70
     0
  9
$CMLSCALE
 40
1.0
  9
$PROXYGRAPHICS
 70
     1
  9
$MEASUREMENT
 70
     0
  9
$CELWEIGHT
370
    -1
  9
$ENDCAPS
280
     0
  9
$JOINSTYLE
280
     0
  9
$LWDISPLAY
290
     0
  9
$INSUNITS
 70
     4
  9
$HYPERLINKBASE
  1

  9
$STYLESHEET
  1

  9
$XEDIT
290
     1
  9
$CEPSNTYPE
380
     0
  9
$PSTYLEMODE
290
     1
  9
$FINGERPRINTGUID
  2
{e20bece1-3fc6-4760-aafc-a685a49030fb}
  9
$VERSIONGUID
  2
{FAEB1C32-E019-11D5-929B-00C0DF256EC4}
  9
$EXTNAMES
290
     1
  9
$PSVPSCALE
 40
0.0
  9
$OLESTARTUP
290
     0
  9
$SORTENTS
280
   127
  9
$INDEXCTL
280
     0
  9
$HIDETEXT
280
     1
  9
$XCLIPFRAME
280
     2
  9
$HALOGAP
280
     0
  9
$OBSCOLOR
 70
   257
  9
$OBSLTYPE
280
     0
  9
$INTERSECTIONDISPLAY
280
     0
  9
$INTERSECTIONCOLOR
 70
   257
  9
$DIMASSOC
280
     2
  9
$PROJECTNAME
  1

  9
$CAMERADISPLAY
290
     0
  9
$LENSLENGTH
 40
50.0
  9
$CAMERAHEIGHT
 40
0.0
  9
$STEPSPERSEC
 40
2.0
  9
$STEPSIZE
 40
6.0
  9
$3DDWFPREC
 40
2.0
  9
$PSOLWIDTH
 40
0.25
  9
$PSOLHEIGHT
 40
4.0
  9
$LOFTANG1
 40
1.570796326794897
  9
$LOFTANG2
 40
1.570796326794897
  9
$LOFTMAG1
 40
0.0
  9
$LOFTMAG2
 40
0.0
  9
$LOFTPARAM
 70
     7
  9
$LOFTNORMALS
280
     1
  9
$LATITUDE
 40
37.795
  9
$LONGITUDE
 40
-122.394
  9
$NORTHDIRECTION
 40
0.0
  9
$TIMEZONE
 70
 -8000
  9
$LIGHTGLYPHDISPLAY
280
     1
  9
$TILEMODELIGHTSYNCH
280
     1
  9
$CMATERIAL
347
44
  9
$SOLIDHIST
280
     0
  9
$SHOWHIST
280
     1
  9
$DWFFRAME
280
     2
  9
$DGNFRAME
280
     2
  9
$REALWORLDSCALE
290
     1
  9
$INTERFERECOLOR
 62
   256
  9
$CSHADOW
280
     0
  9
$SHADOWPLANELOCATION
 40
0.0
  0
ENDSEC
  0
SECTION
  2
CLASSES
  0
CLASS
  1
ACDBDICTIONARYWDFLT
  2
AcDbDictionaryWithDefault
  3
ObjectDBX Classes
 90
        0
 91
        3
280
     0
281
     0
  0
CLASS
  1
VISUALSTYLE
  2
AcDbVisualStyle
  3
ObjectDBX Classes
 90
     4095
 91
        3
280
     0
281
     0
  0
CLASS
  1
MATERIAL
  2
AcDbMaterial
  3
ObjectDBX Classes
 90
     1153
 91
        3
280
     0
281
     0
  0
CLASS
  1
SCALE
  2
AcDbScale
  3
ObjectDBX Classes
 90
     1153
 91
        3
280
     0
281
     0
  0
CLASS
  1
TABLESTYLE
  2
AcDbTableStyle
  3
ObjectDBX Classes
 90
     4095
 91
        3
280
     0
281
     0
  0
CLASS
  1
MLEADERSTYLE
  2
AcDbMLeaderStyle
  3
ACDB_MLEADERSTYLE_CLASS
 90
     4095
 91
        3
280
     0
281
     0
  0
CLASS
  1
SUN
  2
AcDbSun
  3
SCENEOE
 90
     1153
 91
        3
280
     0
281
     0
  0
CLASS
  1
DICTIONARYVAR
  2
AcDbDictionaryVar
  3
ObjectDBX Classes
 90
        0
 91
        3
280
     0
281
     0
  0
CLASS
  1
CELLSTYLEMAP
  2
AcDbCellStyleMap
  3
ObjectDBX Classes
 90
     1152
 91
        3
280
     0
281
     0
  0
ENDSEC
  0
SECTION
  2
TABLES
  0
TABLE
  2
VPORT
  5
8
330
0
100
AcDbSymbolTable
 70
     1
  0
VPORT
  5
29
330
8
100
AcDbSymbolTableRecord
100
AcDbViewportTableRecord
  2
*Active
 70
     0
 10
0.0
 20
0.0
 11
1.0
 21
1.0
 12
10.42990654205607
 22
4.5
 13
0.0
 23
0.0
 14
0.5
 24
0.5
 15
0.5
 25
0.5
 16
0.0
 26
0.0
 36
1.0
 17
0.0
 27
0.0
 37
0.0
 40
9.0
 41
1.972972972850329
 42
50.0
 43
0.0
 44
0.0
 50
0.0
 51
0.0
 71
     0
 72
   100
 73
     1
 74
     3
 75
     0
 76
     0
 77
     0
 78
     0
281
     0
 65
     1
110
0.0
120
0.0
130
0.0
111
1.0
121
0.0
131
0.0
112
0.0
122
1.0
132
0.0
 79
     0
146
0.0
348
2F
 60
     3
 61
     5
292
     1
282
     1
141
0.0
142
0.0
 63
   250
361
5D
  0
ENDTAB
  0
TABLE
  2
LTYPE
  5
5
330
0
100
AcDbSymbolTable
 70
     1
  0
LTYPE
  5
14
330
5
100
AcDbSymbolTableRecord
100
AcDbLinetypeTableRecord
  2
ByBlock
 70
     0
  3

 72
    65
 73
     0
 40
0.0
  0
LTYPE
  5
15
330
5
100
AcDbSymbolTableRecord
100
AcDbLinetypeTableRecord
  2
ByLayer
 70
     0
  3

 72
    65
 73
     0
 40
0.0
  0
LTYPE
  5
16
330
5
100
AcDbSymbolTableRecord
100
AcDbLinetypeTableRecord
  2
Continuous
 70
     0
  3
Solid line
 72
    65
 73
     0
 40
0.0
  0
ENDTAB
  0
TABLE
  2
LAYER
  5
2
330
0
100
AcDbSymbolTable
 70
     2
  0
LAYER
  5
10
330
2
100
AcDbSymbolTableRecord
100
AcDbLayerTableRecord
  2
0
 70
     0
 62
     7
  6
Continuous
370
    -3
390
F
347
46
348
0
  0
LAYER
  5
5F
330
2
100
AcDbSymbolTableRecord
100
AcDbLayerTableRecord
  2
Layer 1
 70
     0
 62
     7
  6
Continuous
370
    -3
390
F
347
46
348
0
  0
ENDTAB
  0
TABLE
  2
STYLE
  5
3
330
0
100
AcDbSymbolTable
 70
     1
  0
STYLE
  5
11
330
3
100
AcDbSymbolTableRecord
100
AcDbTextStyleTableRecord
  2
Standard
 70
     0
 40
0.0
 41
1.0
 50
0.0
 71
     0
 42
0.2
  3
txt
  4

  0
ENDTAB
  0
TABLE
  2
VIEW
  5
6
330
0
100
AcDbSymbolTable
 70
     0
  0
ENDTAB
  0
TABLE
  2
UCS
  5
7
330
0
100
AcDbSymbolTable
 70
     0
  0
ENDTAB
  0
TABLE
  2
APPID
  5
9
330
0
100
AcDbSymbolTable
 70
     2
  0
APPID
  5
12
330
9
100
AcDbSymbolTableRecord
100
AcDbRegAppTableRecord
  2
ACAD
 70
     0
  0
APPID
  5
5E
330
9
100
AcDbSymbolTableRecord
100
AcDbRegAppTableRecord
  2
ODA
 70
     0
  0
ENDTAB
  0
TABLE
  2
DIMSTYLE
  5
A
330
0
100
AcDbSymbolTable
 70
     1
100
AcDbDimStyleTable
  0
DIMSTYLE
105
27
330
A
100
AcDbSymbolTableRecord
100
AcDbDimStyleTableRecord
  2
Standard
 70
     0
178
     0
340
11
  0
ENDTAB
  0
TABLE
  2
BLOCK_RECORD
  5
1
330
0
100
AcDbSymbolTable
 70
     1
  0
BLOCK_RECORD
  5
1F
330
1
100
AcDbSymbolTableRecord
100
AcDbBlockTableRecord
  2
*Model_Space
340
22
 70
     0
280
     1
281
     0
  0
BLOCK_RECORD
  5
1B
330
1
100
AcDbSymbolTableRecord
100
AcDbBlockTableRecord
  2
*Paper_Space
340
1E
 70
     0
280
     1
281
     0
  0
BLOCK_RECORD
  5
23
330
1
100
AcDbSymbolTableRecord
100
AcDbBlockTableRecord
  2
*Paper_Space0
340
26
 70
     0
280
     1
281
     0
  0
ENDTAB
  0
ENDSEC
  0
SECTION
  2
BLOCKS
  0
BLOCK
  5
20
330
1F
100
AcDbEntity
  8
0
100
AcDbBlockBegin
  2
*Model_Space
 70
     0
 10
0.0
 20
0.0
 30
0.0
  3
*Model_Space
  1

  0
ENDBLK
  5
21
330
1F
100
AcDbEntity
  8
0
100
AcDbBlockEnd
  0
BLOCK
  5
1C
330
1B
100
AcDbEntity
 67
     1
  8
0
100
AcDbBlockBegin
  2
*Paper_Space
 70
     0
 10
0.0
 20
0.0
 30
0.0
  3
*Paper_Space
  1

  0
ENDBLK
  5
1D
330
1B
100
AcDbEntity
 67
     1
  8
0
100
AcDbBlockEnd
  0
BLOCK
  5
24
330
23
100
AcDbEntity
  8
0
100
AcDbBlockBegin
  2
*Paper_Space0
 70
     0
 10
0.0
 20
0.0
 30
0.0
  3
*Paper_Space0
  1

  0
ENDBLK
  5
25
330
23
100
AcDbEntity
  8
0
100
AcDbBlockEnd
  0
ENDSEC
  0
SECTION
  2
ENTITIES
  0
LWPOLYLINE
  5
60
330
1F
100
AcDbEntity
  8
Layer 1
 62
   250
370
    18
100
AcDbPolyline
 90
        5
 70
     1
 43
0.0
 10
356.3648
 20
-680.8614
 10
908.1862
 20
-680.8614
 10
908.1862
 20
231.6744
 10
356.3648
 20
231.6744
 10
356.3648
 20
-680.8614
  0
LWPOLYLINE
  5
61
330
1F
100
AcDbEntity
  8
Layer 1
 62
     7
370
    18
100
AcDbPolyline
 90
       33
 70
     1
 43
0.0
 10
578.8432
 20
133.1336
 10
607.7679
 20
132.0876
 10
634.7023
 20
130.7386
 10
659.0696
 20
129.1419
 10
680.2935
 20
127.3529
 10
697.7972
 20
125.4269
 10
711.0043
 20
123.4191
 10
719.3381
 20
121.3849
 10
722.2221
 20
119.3796
 10
719.2736
 20
117.546
 10
710.8797
 20
116.0046
 10
697.6183
 20
114.7767
 10
680.0673
 20
113.8836
 10
658.8044
 20
113.3466
 10
634.4075
 20
113.1869
 10
607.4545
 20
113.4258
 10
578.5231
 20
114.0846
 10
549.5982
 20
115.1306
 10
522.6637
 20
116.4795
 10
498.2963
 20
118.076
 10
477.0724
 20
119.865
 10
459.5686
 20
121.791
 10
446.3615
 20
123.7988
 10
438.0277
 20
125.8331
 10
435.1437
 20
127.8386
 10
438.0922
 20
129.672
 10
446.4861
 20
131.2133
 10
459.7475
 20
132.4411
 10
477.2986
 20
133.3343
 10
498.5615
 20
133.8714
 10
522.9585
 20
134.0311
 10
549.9117
 20
133.7923
 10
578.8432
 20
133.1336
  0
LWPOLYLINE
  5
62
330
1F
100
AcDbEntity
  8
Layer 1
 62
     7
370
    18
100
AcDbPolyline
 90
        2
 70
     0
 43
0.0
 10
435.1437
 20
127.8386
 10
447.4795
 20
-550.933
  0
LWPOLYLINE
  5
63
330
1F
100
AcDbEntity
  8
Layer 1
 62
     7
370
    18
100
AcDbPolyline
 90
        2
 70
     0
 43
0.0
 10
700.005
 20
-546.3781
 10
701.106
 20
-527.3933
  0
LWPOLYLINE
  5
64
330
1F
100
AcDbEntity
  8
Layer 1
 62
     7
370
    18
100
AcDbPolyline
 90
       26
 70
     0
 43
0.0
 10
721.8078
 20
118.6724
 10
699.9995
 20
-546.3875
 10
698.8753
 20
-558.1664
 10
695.1605
 20
-571.9507
 10
688.3565
 20
-586.8214
 10
677.9647
 20
-601.8596
 10
663.4868
 20
-616.1463
 10
644.424
 20
-628.7627
 10
620.278
 20
-638.7898
 10
590.5502
 20
-645.3087
 10
559.7603
 20
-646.2037
 10
532.8144
 20
-641.1656
 10
509.793
 20
-631.9865
 10
490.7767
 20
-620.4582
 10
475.846
 20
-608.3725
 10
465.0815
 20
-597.5213
 10
458.5638
 20
-589.6965
 10
456.3733
 20
-586.6901
 10
453.3911
 20
-579.7052
 10
451.1461
 20
-572.6387
 10
449.5217
 20
-565.4603
 10
448.4012
 20
-558.1395
 10
447.6681
 20
-550.6462
 10
447.2057
 20
-542.9499
 10
446.8974
 20
-535.0203
 10
446.6266
 20
-526.8271
  0
LWPOLYLINE
  5
65
330
1F
100
AcDbEntity
  8
Layer 1
 62
     7
100
AcDbPolyline
 90
       65
 70
     1
 43
0.0
 10
769.6531
 20
-214.5626
 10
770.0477
 20
-214.5861
 10
770.4269
 20
-214.6568
 10
770.7906
 20
-214.7745
 10
771.139
 20
-214.9392
 10
771.472
 20
-215.151
 10
771.7896
 20
-215.4099
 10
772.0918
 20
-215.7158
 10
772.3787
 20
-216.0687
 10
772.6374
 20
-216.4513
 10
772.8615
 20
-216.8558
 10
773.0512
 20
-217.2821
 10
773.2063
 20
-217.7302
 10
773.3269
 20
-218.2001
 10
773.4131
 20
-218.6918
 10
773.4648
 20
-219.2052
 10
773.482
 20
-219.7405
 10
773.465
 20
-220.2711
 10
773.4139
 20
-220.784
 10
773.3288
 20
-221.2789
 10
773.2096
 20
-221.7561
 10
773.0563
 20
-222.2154
 10
772.869
 20
-222.6569
 10
772.6476
 20
-223.0806
 10
772.3921
 20
-223.4864
 10
772.1122
 20
-223.8567
 10
771.8146
 20
-224.1776
 10
771.499
 20
-224.4491
 10
771.1656
 20
-224.6711
 10
770.8143
 20
-224.8438
 10
770.4452
 20
-224.9671
 10
770.0581
 20
-225.041
 10
769.6531
 20
-225.0657
 10
769.2483
 20
-225.041
 10
768.8613
 20
-224.9671
 10
768.4921
 20
-224.8438
 10
768.1409
 20
-224.6711
 10
767.8075
 20
-224.4491
 10
767.492
 20
-224.1776
 10
767.1944
 20
-223.8567
 10
766.9147
 20
-223.4864
 10
766.6592
 20
-223.0806
 10
766.4377
 20
-222.6569
 10
766.2503
 20
-222.2154
 10
766.0969
 20
-221.7561
 10
765.9776
 20
-221.2789
 10
765.8924
 20
-220.784
 10
765.8412
 20
-220.2711
 10
765.8242
 20
-219.7405
 10
765.8414
 20
-219.2052
 10
765.8932
 20
-218.6918
 10
765.9794
 20
-218.2001
 10
766.1001
 20
-217.7302
 10
766.2552
 20
-217.2821
 10
766.4449
 20
-216.8558
 10
766.669
 20
-216.4513
 10
766.9275
 20
-216.0687
 10
767.2144
 20
-215.7158
 10
767.5166
 20
-215.4099
 10
767.8343
 20
-215.151
 10
768.1674
 20
-214.9392
 10
768.5158
 20
-214.7745
 10
768.8796
 20
-214.6568
 10
769.2587
 20
-214.5861
 10
769.6531
 20
-214.5626
  0
LWPOLYLINE
  5
66
330
1F
100
AcDbEntity
  8
Layer 1
 62
     7
100
AcDbPolyline
 90
       65
 70
     1
 43
0.0
 10
769.6531
 20
-204.4272
 10
769.9712
 20
-204.4455
 10
770.2772
 20
-204.5006
 10
770.5712
 20
-204.5923
 10
770.8531
 20
-204.7207
 10
771.1229
 20
-204.8859
 10
771.3807
 20
-205.0878
 10
771.6265
 20
-205.3264
 10
771.8602
 20
-205.6018
 10
772.0783
 20
-205.9114
 10
772.2673
 20
-206.2388
 10
772.4273
 20
-206.584
 10
772.5582
 20
-206.947
 10
772.6601
 20
-207.3278
 10
772.7329
 20
-207.7264
 10
772.7765
 20
-208.1428
 10
772.7911
 20
-208.5769
 10
772.7765
 20
-209.0014
 10
772.7329
 20
-209.4121
 10
772.6601
 20
-209.8091
 10
772.5582
 20
-210.1924
 10
772.4273
 20
-210.562
 10
772.2673
 20
-210.9178
 10
772.0783
 20
-211.2599
 10
771.8602
 20
-211.5883
 10
771.628
 20
-211.8809
 10
771.3833
 20
-212.1344
 10
771.1261
 20
-212.349
 10
770.8565
 20
-212.5246
 10
770.5743
 20
-212.6612
 10
770.2797
 20
-212.7588
 10
769.9726
 20
-212.8174
 10
769.6531
 20
-212.8369
 10
769.3336
 20
-212.8174
 10
769.0265
 20
-212.7588
 10
768.732
 20
-212.6612
 10
768.4499
 20
-212.5246
 10
768.1802
 20
-212.349
 10
767.923
 20
-212.1344
 10
767.6783
 20
-211.8809
 10
767.4459
 20
-211.5883
 10
767.2279
 20
-211.2599
 10
767.0389
 20
-210.9178
 10
766.879
 20
-210.562
 10
766.7482
 20
-210.1924
 10
766.6464
 20
-209.8091
 10
766.5737
 20
-209.4121
 10
766.5301
 20
-209.0014
 10
766.5156
 20
-208.5769
 10
766.5301
 20
-208.1428
 10
766.5737
 20
-207.7264
 10
766.6464
 20
-207.3278
 10
766.7482
 20
-206.947
 10
766.879
 20
-206.584
 10
767.0389
 20
-206.2388
 10
767.2279
 20
-205.9114
 10
767.4459
 20
-205.6018
 10
767.6797
 20
-205.3264
 10
767.9255
 20
-205.0878
 10
768.1834
 20
-204.8859
 10
768.4533
 20
-204.7207
 10
768.7352
 20
-204.5923
 10
769.0292
 20
-204.5006
 10
769.3351
 20
-204.4455
 10
769.6531
 20
-204.4272
  0
LWPOLYLINE
  5
67
330
1F
100
AcDbEntity
  8
Layer 1
 62
     7
100
AcDbPolyline
 90
      121
 70
     1
 43
0.0
 10
769.6531
 20
-227.6362
 10
770.2624
 20
-227.6044
 10
770.8472
 20
-227.5089
 10
771.4075
 20
-227.3497
 10
771.9432
 20
-227.1268
 10
772.4545
 20
-226.8403
 10
772.9413
 20
-226.49
 10
773.4036
 20
-226.076
 10
773.8414
 20
-225.5983
 10
774.0387
 20
-225.3487
 10
774.2251
 20
-225.0865
 10
774.4008
 20
-224.8117
 10
774.5657
 20
-224.5243
 10
774.7198
 20
-224.2242
 10
774.8632
 20
-223.9115
 10
774.9958
 20
-223.5862
 10
775.1177
 20
-223.2483
 10
775.2267
 20
-222.8975
 10
775.3211
 20
-222.5341
 10
775.401
 20
-222.1582
 10
775.4664
 20
-221.7697
 10
775.5172
 20
-221.3686
 10
775.5535
 20
-220.9549
 10
775.5752
 20
-220.5286
 10
775.5825
 20
-220.0897
 10
775.5703
 20
-219.6451
 10
775.5335
 20
-219.2015
 10
775.4723
 20
-218.7591
 10
775.3865
 20
-218.3179
 10
775.2763
 20
-217.8777
 10
775.1415
 20
-217.4388
 10
774.9823
 20
-217.0009
 10
774.7985
 20
-216.5643
 10
774.5917
 20
-216.1383
 10
774.3637
 20
-215.7323
 10
774.1146
 20
-215.3464
 10
773.8444
 20
-214.9805
 10
773.553
 20
-214.6347
 10
773.2404
 20
-214.309
 10
772.9066
 20
-214.0034
 10
772.5517
 20
-213.7179
 10
773.0565
 20
-213.0963
 10
773.494
 20
-212.4615
 10
773.8641
 20
-211.8134
 10
774.167
 20
-211.1521
 10
774.4025
 20
-210.4776
 10
774.5707
 20
-209.7899
 10
774.6717
 20
-209.0891
 10
774.7053
 20
-208.375
 10
774.6823
 20
-207.6704
 10
774.6131
 20
-206.9987
 10
774.4978
 20
-206.3597
 10
774.3365
 20
-205.7534
 10
774.129
 20
-205.1799
 10
773.8754
 20
-204.6391
 10
773.5757
 20
-204.131
 10
773.2298
 20
-203.6556
 10
772.8641
 20
-203.2424
 10
772.4751
 20
-202.8843
 10
772.0628
 20
-202.5813
 10
771.6274
 20
-202.3335
 10
771.1687
 20
-202.1407
 10
770.6867
 20
-202.003
 10
770.1815
 20
-201.9204
 10
769.6531
 20
-201.8929
 10
769.1247
 20
-201.9204
 10
768.6195
 20
-202.003
 10
768.1375
 20
-202.1407
 10
767.6789
 20
-202.3335
 10
767.2435
 20
-202.5813
 10
766.8314
 20
-202.8843
 10
766.4425
 20
-203.2424
 10
766.077
 20
-203.6556
 10
765.7311
 20
-204.1308
 10
765.4313
 20
-204.638
 10
765.1776
 20
-205.1774
 10
764.97
 20
-205.7489
 10
764.8085
 20
-206.3526
 10
764.6932
 20
-206.9884
 10
764.624
 20
-207.6563
 10
764.6009
 20
-208.3565
 10
764.6346
 20
-209.075
 10
764.7356
 20
-209.7797
 10
764.9039
 20
-210.4706
 10
765.1395
 20
-211.1476
 10
765.4424
 20
-211.8109
 10
765.8127
 20
-212.4604
 10
766.2502
 20
-213.096
 10
766.755
 20
-213.7179
 10
766.3999
 20
-214.0034
 10
766.066
 20
-214.309
 10
765.7533
 20
-214.6347
 10
765.4619
 20
-214.9805
 10
765.1916
 20
-215.3464
 10
764.9425
 20
-215.7323
 10
764.7145
 20
-216.1383
 10
764.5077
 20
-216.5643
 10
764.3239
 20
-217.0018
 10
764.1647
 20
-217.4422
 10
764.0299
 20
-217.8855
 10
763.9196
 20
-218.3316
 10
763.8339
 20
-218.7806
 10
763.7726
 20
-219.2324
 10
763.7359
 20
-219.687
 10
763.7236
 20
-220.1444
 10
763.7508
 20
-220.9648
 10
763.8325
 20
-221.7455
 10
763.9685
 20
-222.4867
 10
764.159
 20
-223.1882
 10
764.404
 20
-223.85
 10
764.7033
 20
-224.4724
 10
765.0571
 20
-225.0551
 10
765.4653
 20
-225.5983
 10
765.9029
 20
-226.076
 10
766.3651
 20
-226.49
 10
766.8518
 20
-226.8403
 10
767.363
 20
-227.1268
 10
767.8987
 20
-227.3497
 10
768.4589
 20
-227.5089
 10
769.0437
 20
-227.6044
 10
769.6531
 20
-227.6362
  0
LWPOLYLINE
  5
68
330
1F
100
AcDbEntity
  8
Layer 1
 62
     7
100
AcDbPolyline
 90
      136
 70
     1
 43
0.0
 10
781.406
 20
-211.5513
 10
782.6293
 20
-204.8672
 10
789.1704
 20
-204.8672
 10
789.1704
 20
-202.2968
 10
781.2196
 20
-202.2968
 10
779.1458
 20
-213.4974
 10
781.1666
 20
-214.746
 10
781.4597
 20
-214.4706
 10
781.7673
 20
-214.232
 10
782.0895
 20
-214.0301
 10
782.4262
 20
-213.865
 10
782.7775
 20
-213.7365
 10
783.1433
 20
-213.6448
 10
783.5236
 20
-213.5897
 10
783.9184
 20
-213.5714
 10
784.3157
 20
-213.5983
 10
784.6996
 20
-213.6792
 10
785.0702
 20
-213.8139
 10
785.4276
 20
-214.0026
 10
785.7716
 20
-214.2453
 10
786.1023
 20
-214.5419
 10
786.4197
 20
-214.8925
 10
786.7238
 20
-215.2971
 10
787.0106
 20
-215.7484
 10
787.2591
 20
-216.2164
 10
787.4693
 20
-216.701
 10
787.6413
 20
-217.2023
 10
787.7751
 20
-217.7202
 10
787.8707
 20
-218.2547
 10
787.928
 20
-218.8059
 10
787.9471
 20
-219.3737
 10
787.9276
 20
-219.9611
 10
787.869
 20
-220.5249
 10
787.7713
 20
-221.0651
 10
787.6347
 20
-221.5818
 10
787.4589
 20
-222.075
 10
787.2442
 20
-222.5446
 10
786.9904
 20
-222.9906
 10
786.6976
 20
-223.4132
 10
786.5485
 20
-223.6011
 10
786.3941
 20
-223.7793
 10
786.2343
 20
-223.9478
 10
786.0691
 20
-224.1065
 10
785.8986
 20
-224.2554
 10
785.7226
 20
-224.3946
 10
785.5412
 20
-224.5238
 10
785.3543
 20
-224.6433
 10
785.1595
 20
-224.751
 10
784.9539
 20
-224.8443
 10
784.7375
 20
-224.9233
 10
784.5103
 20
-224.9879
 10
784.2723
 20
-225.0381
 10
784.0234
 20
-225.074
 10
783.7637
 20
-225.0955
 10
783.4931
 20
-225.1027
 10
783.2175
 20
-225.0866
 10
782.9423
 20
-225.0384
 10
782.6675
 20
-224.958
 10
782.3931
 20
-224.8455
 10
782.119
 20
-224.7009
 10
781.8454
 20
-224.5242
 10
781.5722
 20
-224.3154
 10
781.2994
 20
-224.0746
 10
781.0368
 20
-223.8077
 10
780.7942
 20
-223.5213
 10
780.5715
 20
-223.2154
 10
780.3687
 20
-222.89
 10
780.186
 20
-222.5451
 10
780.0232
 20
-222.1806
 10
779.8803
 20
-221.7966
 10
779.7575
 20
-221.393
 10
777.9493
 20
-222.2016
 10
778.1269
 20
-222.8061
 10
778.334
 20
-223.3801
 10
778.5706
 20
-223.9237
 10
778.8367
 20
-224.4369
 10
779.1323
 20
-224.9196
 10
779.4574
 20
-225.372
 10
779.812
 20
-225.794
 10
780.1961
 20
-226.1856
 10
780.6046
 20
-226.5429
 10
781.0221
 20
-226.8526
 10
781.4487
 20
-227.1147
 10
781.8845
 20
-227.3291
 10
782.3294
 20
-227.4958
 10
782.7835
 20
-227.6149
 10
783.2468
 20
-227.6864
 10
783.7192
 20
-227.7102
 10
784.3486
 20
-227.6709
 10
784.954
 20
-227.5529
 10
785.5352
 20
-227.3564
 10
786.0923
 20
-227.0812
 10
786.6254
 20
-226.7274
 10
787.1343
 20
-226.295
 10
787.6192
 20
-225.7841
 10
788.0799
 20
-225.1945
 10
788.4976
 20
-224.5543
 10
788.8595
 20
-223.8826
 10
789.1658
 20
-223.1795
 10
789.4164
 20
-222.4448
 10
789.6113
 20
-221.6785
 10
789.7505
 20
-220.8807
 10
789.8341
 20
-220.0513
 10
789.8619
 20
-219.1903
 10
789.8345
 20
-218.3338
 10
789.7521
 20
-217.5134
 10
789.615
 20
-216.7293
 10
789.4229
 20
-215.9813
 10
789.1761
 20
-215.2695
 10
788.8744
 20
-214.5939
 10
788.518
 20
-213.9544
 10
788.1067
 20
-213.351
 10
787.8965
 20
-213.0827
 10
787.6779
 20
-212.8288
 10
787.451
 20
-212.5893
 10
787.2158
 20
-212.3641
 10
786.9723
 20
-212.1532
 10
786.7205
 20
-211.9567
 10
786.4604
 20
-211.7746
 10
786.192
 20
-211.6068
 10
785.9182
 20
-211.456
 10
785.642
 20
-211.3253
 10
785.3635
 20
-211.2148
 10
785.0826
 20
-211.1245
 10
784.7995
 20
-211.0542
 10
784.514
 20
-211.0041
 10
784.2265
 20
-210.974
 10
783.9367
 20
-210.964
 10
783.6412
 20
-210.9732
 10
783.3398
 20
-211.0007
 10
783.0325
 20
-211.0467
 10
782.7193
 20
-211.1109
 10
782.4001
 20
-211.1935
 10
782.0749
 20
-211.2945
 10
781.7435
 20
-211.4137
 10
781.406
 20
-211.5513
  0
LWPOLYLINE
  5
69
330
1F
100
AcDbEntity
  8
Layer 1
 62
     7
100
AcDbPolyline
 90
      129
 70
     1
 43
0.0
 10
800.1655
 20
-205.1979
 10
800.4724
 20
-205.4859
 10
800.7586
 20
-205.813
 10
801.0241
 20
-206.1791
 10
801.2688
 20
-206.5843
 10
801.4928
 20
-207.0285
 10
801.696
 20
-207.5117
 10
801.8784
 20
-208.034
 10
802.04
 20
-208.5954
 10
802.2208
 20
-209.3398
 10
802.3774
 20
-210.0951
 10
802.51
 20
-210.8613
 10
802.6185
 20
-211.6384
 10
802.7028
 20
-212.4265
 10
802.7631
 20
-213.2255
 10
802.7992
 20
-214.0354
 10
802.8113
 20
-214.8563
 10
802.81
 20
-215.0534
 10
802.8063
 20
-215.2592
 10
802.8
 20
-215.4736
 10
802.7913
 20
-215.6966
 10
802.78
 20
-215.9282
 10
802.7663
 20
-216.1684
 10
802.7501
 20
-216.4172
 10
802.7315
 20
-216.6745
 10
802.6392
 20
-217.6617
 10
802.5187
 20
-218.5943
 10
802.3699
 20
-219.4725
 10
802.1928
 20
-220.2962
 10
801.9876
 20
-221.0654
 10
801.754
 20
-221.7802
 10
801.4923
 20
-222.4405
 10
801.2023
 20
-223.0464
 10
800.9378
 20
-223.5025
 10
800.6591
 20
-223.8978
 10
800.3662
 20
-224.2323
 10
800.0592
 20
-224.506
 10
799.7381
 20
-224.7188
 10
799.4028
 20
-224.8709
 10
799.0534
 20
-224.9621
 10
798.6899
 20
-224.9925
 10
798.2841
 20
-224.9624
 10
797.8979
 20
-224.872
 10
797.5312
 20
-224.7213
 10
797.184
 20
-224.5104
 10
796.8563
 20
-224.2392
 10
796.5482
 20
-223.9078
 10
796.2596
 20
-223.5161
 10
795.9905
 20
-223.0641
 10
795.8767
 20
-222.8451
 10
795.7679
 20
-222.6192
 10
795.664
 20
-222.3863
 10
795.5652
 20
-222.1465
 10
795.4713
 20
-221.8998
 10
795.3825
 20
-221.6461
 10
795.2987
 20
-221.3855
 10
795.2199
 20
-221.1179
 10
795.1456
 20
-220.8463
 10
795.076
 20
-220.573
 10
795.0109
 20
-220.2979
 10
794.9504
 20
-220.0211
 10
794.8945
 20
-219.7424
 10
794.8432
 20
-219.462
 10
794.7965
 20
-219.1798
 10
794.7544
 20
-218.8958
 10
794.7159
 20
-218.6124
 10
794.6804
 20
-218.3313
 10
794.6478
 20
-218.0525
 10
794.6181
 20
-217.7761
 10
794.5914
 20
-217.502
 10
794.5675
 20
-217.2301
 10
794.5465
 20
-216.9604
 10
794.5284
 20
-216.693
 10
794.5128
 20
-216.4216
 10
794.4993
 20
-216.1399
 10
794.4878
 20
-215.848
 10
794.4785
 20
-215.546
 10
794.4713
 20
-215.234
 10
794.4661
 20
-214.9121
 10
794.463
 20
-214.5803
 10
794.462
 20
-214.2387
 10
794.4666
 20
-213.8816
 10
794.4803
 20
-213.5039
 10
794.5031
 20
-213.1054
 10
794.5351
 20
-212.686
 10
794.5762
 20
-212.2457
 10
794.6265
 20
-211.7843
 10
794.6859
 20
-211.3019
 10
794.7544
 20
-210.7982
 10
794.7963
 20
-210.5186
 10
794.8423
 20
-210.2396
 10
794.8926
 20
-209.9611
 10
794.9471
 20
-209.6832
 10
795.0057
 20
-209.4058
 10
795.0685
 20
-209.1289
 10
795.1354
 20
-208.8526
 10
795.2065
 20
-208.5769
 10
795.2823
 20
-208.3049
 10
795.3634
 20
-208.0398
 10
795.45
 20
-207.7815
 10
795.542
 20
-207.5302
 10
795.6394
 20
-207.2857
 10
795.7422
 20
-207.0481
 10
795.8505
 20
-206.8175
 10
795.9643
 20
-206.5938
 10
796.0835
 20
-206.3787
 10
796.2085
 20
-206.1746
 10
796.3394
 20
-205.9814
 10
796.476
 20
-205.7992
 10
796.6185
 20
-205.6279
 10
796.7669
 20
-205.4675
 10
796.921
 20
-205.318
 10
797.081
 20
-205.1794
 10
797.2476
 20
-205.0546
 10
797.4218
 20
-204.9464
 10
797.6033
 20
-204.8548
 10
797.7924
 20
-204.7799
 10
797.9888
 20
-204.7217
 10
798.1928
 20
-204.6801
 10
798.4041
 20
-204.6551
 10
798.6229
 20
-204.6468
 10
798.8419
 20
-204.6554
 10
799.0534
 20
-204.6813
 10
799.2575
 20
-204.7245
 10
799.4541
 20
-204.7848
 10
799.6431
 20
-204.8623
 10
799.8247
 20
-204.957
 10
799.9989
 20
-205.0689
 10
800.1655
 20
-205.1979
  0
LWPOLYLINE
  5
6A
330
1F
100
AcDbEntity
  8
Layer 1
 62
     7
100
AcDbPolyline
 90
       65
 70
     1
 43
0.0
 10
798.7161
 20
-227.6
 10
799.4924
 20
-227.532
 10
800.2192
 20
-227.328
 10
800.8967
 20
-226.988
 10
801.5247
 20
-226.5121
 10
802.1033
 20
-225.9001
 10
802.6324
 20
-225.1522
 10
803.1121
 20
-224.2682
 10
803.5423
 20
-223.2483
 10
803.8445
 20
-222.3582
 10
804.1065
 20
-221.4188
 10
804.3281
 20
-220.43
 10
804.5095
 20
-219.3919
 10
804.6506
 20
-218.3045
 10
804.7514
 20
-217.1677
 10
804.8118
 20
-215.9815
 10
804.832
 20
-214.746
 10
804.8118
 20
-213.5108
 10
804.7514
 20
-212.3248
 10
804.6506
 20
-211.1882
 10
804.5095
 20
-210.1009
 10
804.3281
 20
-209.0629
 10
804.1065
 20
-208.0741
 10
803.8445
 20
-207.1347
 10
803.5423
 20
-206.2446
 10
803.1121
 20
-205.2247
 10
802.6324
 20
-204.3407
 10
802.1033
 20
-203.5928
 10
801.5247
 20
-202.9808
 10
800.8967
 20
-202.5049
 10
800.2192
 20
-202.1649
 10
799.4924
 20
-201.9609
 10
798.7161
 20
-201.8929
 10
797.9398
 20
-201.9609
 10
797.213
 20
-202.1649
 10
796.5356
 20
-202.5049
 10
795.9076
 20
-202.9808
 10
795.329
 20
-203.5928
 10
794.7999
 20
-204.3407
 10
794.3202
 20
-205.2247
 10
793.89
 20
-206.2446
 10
793.5878
 20
-207.1347
 10
793.3258
 20
-208.0741
 10
793.1042
 20
-209.0629
 10
792.9228
 20
-210.1009
 10
792.7817
 20
-211.1882
 10
792.6809
 20
-212.3248
 10
792.6205
 20
-213.5108
 10
792.6003
 20
-214.746
 10
792.6205
 20
-215.9815
 10
792.6809
 20
-217.1677
 10
792.7817
 20
-218.3045
 10
792.9228
 20
-219.3919
 10
793.1042
 20
-220.43
 10
793.3258
 20
-221.4188
 10
793.5878
 20
-222.3582
 10
793.89
 20
-223.2483
 10
794.3202
 20
-224.2682
 10
794.7999
 20
-225.1522
 10
795.329
 20
-225.9001
 10
795.9076
 20
-226.5121
 10
796.5356
 20
-226.988
 10
797.213
 20
-227.328
 10
797.9398
 20
-227.532
 10
798.7161
 20
-227.6
  0
LWPOLYLINE
  5
6B
330
1F
100
AcDbEntity
  8
Layer 1
 62
     7
100
AcDbPolyline
 90
      165
 70
     1
 43
0.0
 10
822.9932
 20
-227.1961
 10
824.8544
 20
-227.1961
 10
824.8544
 20
-217.0969
 10
824.8392
 20
-216.4264
 10
824.7937
 20
-215.7875
 10
824.7179
 20
-215.1801
 10
824.6118
 20
-214.6043
 10
824.4753
 20
-214.06
 10
824.3085
 20
-213.5473
 10
824.1114
 20
-213.0661
 10
823.8839
 20
-212.6165
 10
823.7568
 20
-212.4014
 10
823.6219
 20
-212.1973
 10
823.4792
 20
-212.0041
 10
823.3286
 20
-211.8219
 10
823.1701
 20
-211.6506
 10
823.0037
 20
-211.4902
 10
822.8294
 20
-211.3407
 10
822.6472
 20
-211.2021
 10
822.4536
 20
-211.0776
 10
822.245
 20
-210.9696
 10
822.0215
 20
-210.8782
 10
821.783
 20
-210.8034
 10
821.5296
 20
-210.7452
 10
821.2612
 20
-210.7036
 10
820.9778
 20
-210.6786
 10
820.6794
 20
-210.6703
 10
820.3785
 20
-210.6846
 10
820.0871
 20
-210.7276
 10
819.8053
 20
-210.7992
 10
819.533
 20
-210.8996
 10
819.2703
 20
-211.0286
 10
819.0171
 20
-211.1864
 10
818.7734
 20
-211.373
 10
818.5393
 20
-211.5883
 10
818.336
 20
-211.8027
 10
818.1419
 20
-212.0331
 10
817.957
 20
-212.2794
 10
817.7812
 20
-212.5413
 10
817.6146
 20
-212.8187
 10
817.4572
 20
-213.1115
 10
817.3089
 20
-213.4194
 10
817.1698
 20
-213.7423
 10
817.0616
 20
-213.4441
 10
816.9435
 20
-213.1563
 10
816.8155
 20
-212.8801
 10
816.6775
 20
-212.6165
 10
816.5507
 20
-212.4014
 10
816.4159
 20
-212.1973
 10
816.2733
 20
-212.0041
 10
816.1228
 20
-211.8219
 10
815.9643
 20
-211.6506
 10
815.798
 20
-211.4902
 10
815.6237
 20
-211.3407
 10
815.4414
 20
-211.2021
 10
815.2477
 20
-211.0776
 10
815.0391
 20
-210.9696
 10
814.8155
 20
-210.8782
 10
814.577
 20
-210.8034
 10
814.3236
 20
-210.7452
 10
814.0552
 20
-210.7036
 10
813.7719
 20
-210.6786
 10
813.4737
 20
-210.6703
 10
813.1726
 20
-210.6846
 10
812.8811
 20
-210.7276
 10
812.5992
 20
-210.7992
 10
812.3268
 20
-210.8996
 10
812.064
 20
-211.0286
 10
811.8108
 20
-211.1864
 10
811.5671
 20
-211.373
 10
811.3329
 20
-211.5883
 10
811.1394
 20
-211.7925
 10
810.9543
 20
-212.0105
 10
810.7774
 20
-212.2426
 10
810.6087
 20
-212.4887
 10
810.4484
 20
-212.7489
 10
810.2963
 20
-213.0232
 10
810.1525
 20
-213.3117
 10
810.017
 20
-213.6144
 10
810.017
 20
-211.0372
 10
808.1559
 20
-211.0372
 10
808.1559
 20
-227.1961
 10
810.017
 20
-227.1961
 10
810.017
 20
-218.9269
 10
810.0602
 20
-218.4451
 10
810.1167
 20
-217.9821
 10
810.1865
 20
-217.5377
 10
810.2696
 20
-217.1119
 10
810.366
 20
-216.7044
 10
810.4756
 20
-216.3151
 10
810.5985
 20
-215.944
 10
810.7347
 20
-215.5908
 10
810.8457
 20
-215.3396
 10
810.9658
 20
-215.0999
 10
811.095
 20
-214.8715
 10
811.2333
 20
-214.6546
 10
811.3808
 20
-214.449
 10
811.5374
 20
-214.255
 10
811.7032
 20
-214.0724
 10
811.8782
 20
-213.9013
 10
812.0594
 20
-213.7466
 10
812.2439
 20
-213.6124
 10
812.4318
 20
-213.4989
 10
812.6229
 20
-213.406
 10
812.8174
 20
-213.3337
 10
813.0152
 20
-213.2821
 10
813.2163
 20
-213.2511
 10
813.4207
 20
-213.2408
 10
813.6201
 20
-213.2462
 10
813.8062
 20
-213.2626
 10
813.979
 20
-213.2898
 10
814.1385
 20
-213.3279
 10
814.2847
 20
-213.3769
 10
814.4176
 20
-213.4367
 10
814.5371
 20
-213.5075
 10
814.6434
 20
-213.5891
 10
814.9115
 20
-213.8628
 10
815.1438
 20
-214.1837
 10
815.3404
 20
-214.5516
 10
815.5012
 20
-214.9666
 10
815.6262
 20
-215.4286
 10
815.7155
 20
-215.9377
 10
815.769
 20
-216.4938
 10
815.7869
 20
-217.0969
 10
815.7869
 20
-227.1961
 10
817.6486
 20
-227.1961
 10
817.6486
 20
-217.0969
 10
817.6352
 20
-216.4785
 10
817.704
 20
-216.2444
 10
817.7779
 20
-216.0189
 10
817.8568
 20
-215.8012
 10
817.941
 20
-215.5908
 10
818.0518
 20
-215.3396
 10
818.1718
 20
-215.0999
 10
818.301
 20
-214.8715
 10
818.4394
 20
-214.6546
 10
818.5868
 20
-214.449
 10
818.7434
 20
-214.255
 10
818.9091
 20
-214.0724
 10
819.0839
 20
-213.9013
 10
819.2651
 20
-213.7466
 10
819.4497
 20
-213.6124
 10
819.6375
 20
-213.4989
 10
819.8287
 20
-213.406
 10
820.0231
 20
-213.3337
 10
820.2209
 20
-213.2821
 10
820.422
 20
-213.2511
 10
820.6264
 20
-213.2408
 10
820.8258
 20
-213.2462
 10
821.012
 20
-213.2626
 10
821.1848
 20
-213.2898
 10
821.3443
 20
-213.3279
 10
821.4906
 20
-213.3769
 10
821.6235
 20
-213.4367
 10
821.7433
 20
-213.5075
 10
821.8497
 20
-213.5891
 10
822.1177
 20
-213.8628
 10
822.3499
 20
-214.1837
 10
822.5465
 20
-214.5516
 10
822.7073
 20
-214.9666
 10
822.8324
 20
-215.4286
 10
822.9217
 20
-215.9377
 10
822.9753
 20
-216.4938
 10
822.9932
 20
-217.0969
 10
822.9932
 20
-227.1961
  0
LWPOLYLINE
  5
6C
330
1F
100
AcDbEntity
  8
Layer 1
 62
     7
100
AcDbPolyline
 90
      165
 70
     1
 43
0.0
 10
843.2818
 20
-227.1961
 10
845.143
 20
-227.1961
 10
845.143
 20
-217.0969
 10
845.1278
 20
-216.4264
 10
845.0823
 20
-215.7875
 10
845.0065
 20
-215.1801
 10
844.9004
 20
-214.6043
 10
844.7639
 20
-214.06
 10
844.5971
 20
-213.5473
 10
844.4
 20
-213.0661
 10
844.1725
 20
-212.6165
 10
844.0454
 20
-212.4014
 10
843.9105
 20
-212.1973
 10
843.7678
 20
-212.0041
 10
843.6172
 20
-211.8219
 10
843.4587
 20
-211.6506
 10
843.2923
 20
-211.4902
 10
843.118
 20
-211.3407
 10
842.9358
 20
-211.2021
 10
842.7422
 20
-211.0776
 10
842.5336
 20
-210.9696
 10
842.3101
 20
-210.8782
 10
842.0716
 20
-210.8034
 10
841.8182
 20
-210.7452
 10
841.5498
 20
-210.7036
 10
841.2664
 20
-210.6786
 10
840.968
 20
-210.6703
 10
840.6671
 20
-210.6846
 10
840.3757
 20
-210.7276
 10
840.0939
 20
-210.7992
 10
839.8216
 20
-210.8996
 10
839.5589
 20
-211.0286
 10
839.3057
 20
-211.1864
 10
839.062
 20
-211.373
 10
838.8279
 20
-211.5883
 10
838.6246
 20
-211.8027
 10
838.4305
 20
-212.0331
 10
838.2456
 20
-212.2794
 10
838.0698
 20
-212.5413
 10
837.9032
 20
-212.8187
 10
837.7458
 20
-213.1115
 10
837.5975
 20
-213.4194
 10
837.4584
 20
-213.7423
 10
837.3502
 20
-213.4441
 10
837.2321
 20
-213.1563
 10
837.1041
 20
-212.8801
 10
836.9661
 20
-212.6165
 10
836.8393
 20
-212.4014
 10
836.7045
 20
-212.1973
 10
836.5619
 20
-212.0041
 10
836.4114
 20
-211.8219
 10
836.2529
 20
-211.6506
 10
836.0865
 20
-211.4902
 10
835.9122
 20
-211.3407
 10
835.73
 20
-211.2021
 10
835.5363
 20
-211.0776
 10
835.3277
 20
-210.9696
 10
835.1041
 20
-210.8782
 10
834.8656
 20
-210.8034
 10
834.6122
 20
-210.7452
 10
834.3438
 20
-210.7036
 10
834.0605
 20
-210.6786
 10
833.7623
 20
-210.6703
 10
833.4612
 20
-210.6846
 10
833.1697
 20
-210.7276
 10
832.8877
 20
-210.7992
 10
832.6154
 20
-210.8996
 10
832.3526
 20
-211.0286
 10
832.0993
 20
-211.1864
 10
831.8557
 20
-211.373
 10
831.6215
 20
-211.5883
 10
831.428
 20
-211.7925
 10
831.2428
 20
-212.0105
 10
831.0659
 20
-212.2426
 10
830.8973
 20
-212.4887
 10
830.7369
 20
-212.7489
 10
830.5849
 20
-213.0232
 10
830.4411
 20
-213.3117
 10
830.3056
 20
-213.6144
 10
830.3056
 20
-211.0372
 10
828.4445
 20
-211.0372
 10
828.4445
 20
-227.1961
 10
830.3056
 20
-227.1961
 10
830.3056
 20
-218.9269
 10
830.3488
 20
-218.4451
 10
830.4053
 20
-217.9821
 10
830.4751
 20
-217.5377
 10
830.5582
 20
-217.1119
 10
830.6546
 20
-216.7044
 10
830.7642
 20
-216.3151
 10
830.8871
 20
-215.944
 10
831.0233
 20
-215.5908
 10
831.1343
 20
-215.3396
 10
831.2544
 20
-215.0999
 10
831.3836
 20
-214.8715
 10
831.5219
 20
-214.6546
 10
831.6694
 20
-214.449
 10
831.826
 20
-214.255
 10
831.9918
 20
-214.0724
 10
832.1668
 20
-213.9013
 10
832.348
 20
-213.7466
 10
832.5325
 20
-213.6124
 10
832.7204
 20
-213.4989
 10
832.9115
 20
-213.406
 10
833.106
 20
-213.3337
 10
833.3038
 20
-213.2821
 10
833.5049
 20
-213.2511
 10
833.7093
 20
-213.2408
 10
833.9087
 20
-213.2462
 10
834.0948
 20
-213.2626
 10
834.2676
 20
-213.2898
 10
834.4271
 20
-213.3279
 10
834.5733
 20
-213.3769
 10
834.7061
 20
-213.4367
 10
834.8257
 20
-213.5075
 10
834.932
 20
-213.5891
 10
835.2001
 20
-213.8628
 10
835.4324
 20
-214.1837
 10
835.629
 20
-214.5516
 10
835.7898
 20
-214.9666
 10
835.9148
 20
-215.4286
 10
836.0041
 20
-215.9377
 10
836.0576
 20
-216.4938
 10
836.0755
 20
-217.0969
 10
836.0755
 20
-227.1961
 10
837.9372
 20
-227.1961
 10
837.9372
 20
-217.0969
 10
837.9238
 20
-216.4785
 10
837.9926
 20
-216.2444
 10
838.0664
 20
-216.0189
 10
838.1454
 20
-215.8012
 10
838.2296
 20
-215.5908
 10
838.3404
 20
-215.3396
 10
838.4604
 20
-215.0999
 10
838.5896
 20
-214.8715
 10
838.728
 20
-214.6546
 10
838.8754
 20
-214.449
 10
839.032
 20
-214.255
 10
839.1977
 20
-214.0724
 10
839.3725
 20
-213.9013
 10
839.5537
 20
-213.7466
 10
839.7383
 20
-213.6124
 10
839.9261
 20
-213.4989
 10
840.1173
 20
-213.406
 10
840.3117
 20
-213.3337
 10
840.5095
 20
-213.2821
 10
840.7106
 20
-213.2511
 10
840.915
 20
-213.2408
 10
841.1144
 20
-213.2462
 10
841.3005
 20
-213.2626
 10
841.4733
 20
-213.2898
 10
841.6329
 20
-213.3279
 10
841.7791
 20
-213.3769
 10
841.9121
 20
-213.4367
 10
842.0318
 20
-213.5075
 10
842.1383
 20
-213.5891
 10
842.4063
 20
-213.8628
 10
842.6385
 20
-214.1837
 10
842.8351
 20
-214.5516
 10
842.9959
 20
-214.9666
 10
843.121
 20
-215.4286
 10
843.2103
 20
-215.9377
 10
843.2639
 20
-216.4938
 10
843.2818
 20
-217.0969
 10
843.2818
 20
-227.1961
  0
LWPOLYLINE
  5
6D
330
1F
100
AcDbEntity
  8
Layer 1
 62
     7
370
    18
100
AcDbPolyline
 90
        2
 70
     0
 43
0.0
 10
815.1472
 20
103.6355
 10
799.6336
 20
103.6355
  0
LWPOLYLINE
  5
6E
330
1F
100
AcDbEntity
  8
Layer 1
 62
     7
370
    18
100
AcDbPolyline
 90
        2
 70
     0
 43
0.0
 10
807.3901
 20
103.6407
 10
807.3901
 20
-184.3288
  0
LWPOLYLINE
  5
6F
330
1F
100
AcDbEntity
  8
Layer 1
 62
     7
370
    18
100
AcDbPolyline
 90
        2
 70
     0
 43
0.0
 10
815.1472
 20
-600.056
 10
799.6336
 20
-600.056
  0
LWPOLYLINE
  5
70
330
1F
100
AcDbEntity
  8
Layer 1
 62
     7
370
    18
100
AcDbPolyline
 90
        2
 70
     0
 43
0.0
 10
807.3901
 20
-600.0639
 10
807.3901
 20
-258.8536
  0
LWPOLYLINE
  5
71
330
1F
100
AcDbEntity
  8
Layer 1
 62
     7
100
AcDbPolyline
 90
        4
 70
     1
 43
0.0
 10
564.8019
 20
191.4712
 10
564.8019
 20
177.473
 10
558.0963
 20
177.473
 10
564.8019
 20
191.4712
  0
LWPOLYLINE
  5
72
330
1F
100
AcDbEntity
  8
Layer 1
 62
     7
100
AcDbPolyline
 90
       11
 70
     1
 43
0.0
 10
566.6843
 20
174.9084
 10
568.9025
 20
174.9084
 10
568.9025
 20
177.473
 10
566.6843
 20
177.473
 10
566.6588
 20
194.178
 10
564.1311
 20
194.178
 10
554.8985
 20
174.9084
 10
564.8019
 20
174.9084
 10
564.8019
 20
169.9576
 10
566.6843
 20
169.9576
 10
566.6843
 20
174.9084
  0
LWPOLYLINE
  5
73
330
1F
100
AcDbEntity
  8
Layer 1
 62
     7
100
AcDbPolyline
 90
        7
 70
     1
 43
0.0
 10
573.9309
 20
169.9576
 10
575.7366
 20
169.9576
 10
575.7366
 20
194.4632
 10
571.4039
 20
193.8221
 10
571.4039
 20
191.6496
 10
573.9309
 20
191.6496
 10
573.9309
 20
169.9576
  0
LWPOLYLINE
  5
74
330
1F
100
AcDbEntity
  8
Layer 1
 62
     7
100
AcDbPolyline
 90
      129
 70
     1
 43
0.0
 10
586.1426
 20
191.3644
 10
586.4405
 20
191.0851
 10
586.7182
 20
190.7679
 10
586.9757
 20
190.4128
 10
587.2131
 20
190.0198
 10
587.4304
 20
189.589
 10
587.6274
 20
189.1203
 10
587.8044
 20
188.6138
 10
587.9611
 20
188.0695
 10
588.1363
 20
187.3474
 10
588.2882
 20
186.6147
 10
588.4168
 20
185.8716
 10
588.522
 20
185.1179
 10
588.6039
 20
184.3536
 10
588.6624
 20
183.5787
 10
588.6975
 20
182.7932
 10
588.7092
 20
181.9971
 10
588.708
 20
181.8058
 10
588.7043
 20
181.6062
 10
588.6982
 20
181.3982
 10
588.6897
 20
181.182
 10
588.6788
 20
180.9573
 10
588.6655
 20
180.7244
 10
588.6498
 20
180.4831
 10
588.6318
 20
180.2336
 10
588.5423
 20
179.2762
 10
588.4254
 20
178.3715
 10
588.2811
 20
177.5197
 10
588.1094
 20
176.7208
 10
587.9103
 20
175.9746
 10
587.6838
 20
175.2814
 10
587.4298
 20
174.641
 10
587.1484
 20
174.0536
 10
586.8918
 20
173.6114
 10
586.6215
 20
173.228
 10
586.3374
 20
172.9037
 10
586.0396
 20
172.6382
 10
585.7281
 20
172.4318
 10
585.4029
 20
172.2843
 10
585.064
 20
172.1958
 10
584.7115
 20
172.1663
 10
584.318
 20
172.1955
 10
583.9435
 20
172.2831
 10
583.5879
 20
172.4291
 10
583.2512
 20
172.6335
 10
582.9335
 20
172.8963
 10
582.6347
 20
173.2177
 10
582.3548
 20
173.5975
 10
582.0938
 20
174.0359
 10
581.9834
 20
174.2484
 10
581.8778
 20
174.4677
 10
581.777
 20
174.6936
 10
581.6811
 20
174.9263
 10
581.59
 20
175.1657
 10
581.5037
 20
175.4117
 10
581.4223
 20
175.6645
 10
581.3456
 20
175.924
 10
581.2738
 20
176.1874
 10
581.2064
 20
176.4525
 10
581.1434
 20
176.7193
 10
581.0848
 20
176.9878
 10
581.0307
 20
177.2581
 10
580.9809
 20
177.53
 10
580.9357
 20
177.8036
 10
580.8948
 20
178.0788
 10
580.8574
 20
178.3537
 10
580.8229
 20
178.6264
 10
580.7912
 20
178.8968
 10
580.7624
 20
179.165
 10
580.7364
 20
179.431
 10
580.7132
 20
179.6948
 10
580.6929
 20
179.9564
 10
580.6755
 20
180.2159
 10
580.6603
 20
180.479
 10
580.6472
 20
180.7522
 10
580.6361
 20
181.0352
 10
580.627
 20
181.3281
 10
580.6199
 20
181.6307
 10
580.6149
 20
181.943
 10
580.6119
 20
182.2649
 10
580.6109
 20
182.5962
 10
580.6153
 20
182.9425
 10
580.6286
 20
183.3089
 10
580.6508
 20
183.6954
 10
580.6818
 20
184.1021
 10
580.7217
 20
184.529
 10
580.7705
 20
184.9763
 10
580.8282
 20
185.4441
 10
580.8948
 20
185.9323
 10
580.9354
 20
186.2037
 10
580.9801
 20
186.4745
 10
581.0289
 20
186.7448
 10
581.0816
 20
187.0145
 10
581.1384
 20
187.2836
 10
581.1992
 20
187.552
 10
581.264
 20
187.8199
 10
581.3328
 20
188.0872
 10
581.4065
 20
188.3511
 10
581.4853
 20
188.6083
 10
581.5694
 20
188.8587
 10
581.6587
 20
189.1025
 10
581.7532
 20
189.3396
 10
581.853
 20
189.57
 10
581.958
 20
189.7936
 10
582.0682
 20
190.0106
 10
582.1838
 20
190.2192
 10
582.3051
 20
190.4171
 10
582.432
 20
190.6045
 10
582.5645
 20
190.7812
 10
582.7027
 20
190.9473
 10
582.8466
 20
191.1028
 10
582.9961
 20
191.2477
 10
583.1513
 20
191.3821
 10
583.3128
 20
191.5033
 10
583.4817
 20
191.6083
 10
583.6578
 20
191.6971
 10
583.8411
 20
191.7697
 10
584.0318
 20
191.8262
 10
584.2296
 20
191.8665
 10
584.4347
 20
191.8906
 10
584.647
 20
191.8987
 10
584.8595
 20
191.8903
 10
585.0646
 20
191.8653
 10
585.2625
 20
191.8235
 10
585.453
 20
191.765
 10
585.6363
 20
191.6899
 10
585.8123
 20
191.598
 10
585.9811
 20
191.4895
 10
586.1426
 20
191.3644
  0
LWPOLYLINE
  5
75
330
1F
100
AcDbEntity
  8
Layer 1
 62
     7
100
AcDbPolyline
 90
       65
 70
     1
 43
0.0
 10
584.7371
 20
169.6371
 10
585.4901
 20
169.703
 10
586.1951
 20
169.9009
 10
586.8522
 20
170.2306
 10
587.4613
 20
170.6922
 10
588.0224
 20
171.2857
 10
588.5356
 20
172.0111
 10
589.0009
 20
172.8683
 10
589.4183
 20
173.8575
 10
589.7113
 20
174.7207
 10
589.9653
 20
175.6318
 10
590.1803
 20
176.5908
 10
590.3562
 20
177.5977
 10
590.493
 20
178.6524
 10
590.5908
 20
179.7551
 10
590.6494
 20
180.9056
 10
590.669
 20
182.104
 10
590.6494
 20
183.3021
 10
590.5908
 20
184.4524
 10
590.493
 20
185.5549
 10
590.3562
 20
186.6096
 10
590.1803
 20
187.6164
 10
589.9653
 20
188.5754
 10
589.7113
 20
189.4865
 10
589.4183
 20
190.3497
 10
589.0009
 20
191.3389
 10
588.5356
 20
192.1961
 10
588.0224
 20
192.9215
 10
587.4613
 20
193.515
 10
586.8522
 20
193.9766
 10
586.1951
 20
194.3063
 10
585.4901
 20
194.5042
 10
584.7371
 20
194.5701
 10
583.9841
 20
194.5042
 10
583.2791
 20
194.3063
 10
582.6221
 20
193.9766
 10
582.013
 20
193.515
 10
581.4519
 20
192.9215
 10
580.9388
 20
192.1961
 10
580.4737
 20
191.3389
 10
580.0565
 20
190.3497
 10
579.7633
 20
189.4865
 10
579.5092
 20
188.5754
 10
579.2943
 20
187.6164
 10
579.1184
 20
186.6096
 10
578.9816
 20
185.5549
 10
578.8839
 20
184.4524
 10
578.8253
 20
183.3021
 10
578.8058
 20
182.104
 10
578.8253
 20
180.9056
 10
578.8839
 20
179.7551
 10
578.9816
 20
178.6524
 10
579.1184
 20
177.5977
 10
579.2943
 20
176.5908
 10
579.5092
 20
175.6318
 10
579.7633
 20
174.7207
 10
580.0565
 20
173.8575
 10
580.4737
 20
172.8683
 10
580.9388
 20
172.0111
 10
581.4519
 20
171.2857
 10
582.013
 20
170.6922
 10
582.6221
 20
170.2306
 10
583.2791
 20
169.9009
 10
583.9841
 20
169.703
 10
584.7371
 20
169.6371
  0
LWPOLYLINE
  5
76
330
1F
100
AcDbEntity
  8
Layer 1
 62
     7
100
AcDbPolyline
 90
      162
 70
     1
 43
0.0
 10
608.2832
 20
170.0292
 10
610.0883
 20
170.0292
 10
610.0883
 20
179.8238
 10
610.0736
 20
180.4742
 10
610.0295
 20
181.094
 10
609.9559
 20
181.6831
 10
609.853
 20
182.2416
 10
609.7206
 20
182.7694
 10
609.5588
 20
183.2667
 10
609.3676
 20
183.7334
 10
609.147
 20
184.1696
 10
609.0239
 20
184.3779
 10
608.8932
 20
184.5757
 10
608.7548
 20
184.7629
 10
608.6087
 20
184.9396
 10
608.455
 20
185.1058
 10
608.2935
 20
185.2614
 10
608.1244
 20
185.4065
 10
607.9475
 20
185.5411
 10
607.7598
 20
185.6621
 10
607.5575
 20
185.767
 10
607.3408
 20
185.8558
 10
607.1095
 20
185.9284
 10
606.8637
 20
185.985
 10
606.6035
 20
186.0254
 10
606.3287
 20
186.0496
 10
606.0394
 20
186.0577
 10
605.7475
 20
186.0438
 10
605.4649
 20
186.002
 10
605.1915
 20
185.9324
 10
604.9273
 20
185.835
 10
604.6724
 20
185.7097
 10
604.4268
 20
185.5565
 10
604.1904
 20
185.3755
 10
603.9632
 20
185.1667
 10
603.7661
 20
184.9586
 10
603.5779
 20
184.7351
 10
603.3986
 20
184.4963
 10
603.2281
 20
184.2423
 10
603.0666
 20
183.9733
 10
602.9139
 20
183.6895
 10
602.7701
 20
183.3908
 10
602.6352
 20
183.0775
 10
602.5303
 20
183.3664
 10
602.4158
 20
183.6456
 10
602.2918
 20
183.9138
 10
602.1581
 20
184.1696
 10
602.035
 20
184.3779
 10
601.9042
 20
184.5757
 10
601.7657
 20
184.7629
 10
601.6196
 20
184.9396
 10
601.4658
 20
185.1058
 10
601.3044
 20
185.2614
 10
601.1353
 20
185.4065
 10
600.9586
 20
185.5411
 10
600.7709
 20
185.6621
 10
600.5686
 20
185.767
 10
600.3519
 20
185.8558
 10
600.1206
 20
185.9284
 10
599.8749
 20
185.985
 10
599.6146
 20
186.0254
 10
599.3399
 20
186.0496
 10
599.0506
 20
186.0577
 10
598.7585
 20
186.0438
 10
598.4757
 20
186.002
 10
598.2022
 20
185.9324
 10
597.938
 20
185.835
 10
597.6831
 20
185.7097
 10
597.4376
 20
185.5565
 10
597.2013
 20
185.3755
 10
596.9744
 20
185.1667
 10
596.7865
 20
184.9685
 10
596.6068
 20
184.7569
 10
596.4351
 20
184.5318
 10
596.2715
 20
184.2932
 10
596.1159
 20
184.041
 10
595.9684
 20
183.7751
 10
595.829
 20
183.4954
 10
595.6975
 20
183.202
 10
595.6975
 20
185.701
 10
593.8924
 20
185.701
 10
593.8924
 20
170.0292
 10
595.6975
 20
170.0292
 10
595.6975
 20
178.0493
 10
595.7396
 20
178.5166
 10
595.7945
 20
178.9656
 10
595.8622
 20
179.3965
 10
595.9428
 20
179.8095
 10
596.0363
 20
180.2047
 10
596.1426
 20
180.5821
 10
596.2618
 20
180.942
 10
596.3938
 20
181.2845
 10
596.5015
 20
181.5282
 10
596.618
 20
181.7608
 10
596.7434
 20
181.9822
 10
596.8776
 20
182.1926
 10
597.0207
 20
182.3918
 10
597.1727
 20
182.5799
 10
597.3335
 20
182.7569
 10
597.5032
 20
182.9227
 10
597.6789
 20
183.073
 10
597.8578
 20
183.2032
 10
598.0398
 20
183.3134
 10
598.2252
 20
183.4035
 10
598.4137
 20
183.4736
 10
598.6055
 20
183.5237
 10
598.8005
 20
183.5538
 10
598.9988
 20
183.5638
 10
599.1922
 20
183.5585
 10
599.3727
 20
183.5427
 10
599.5404
 20
183.5162
 10
599.6951
 20
183.4793
 10
599.8369
 20
183.4317
 10
599.9658
 20
183.3736
 10
600.0818
 20
183.3049
 10
600.1849
 20
183.2256
 10
600.4449
 20
182.9601
 10
600.6703
 20
182.649
 10
600.8609
 20
182.2922
 10
601.017
 20
181.8898
 10
601.1383
 20
181.4417
 10
601.225
 20
180.948
 10
601.277
 20
180.4087
 10
601.2943
 20
179.8238
 10
601.2943
 20
170.0292
 10
603.0994
 20
170.0292
 10
603.0994
 20
179.8238
 10
603.0866
 20
180.4237
 10
603.3833
 20
181.2845
 10
603.4908
 20
181.5282
 10
603.6071
 20
181.7608
 10
603.7324
 20
181.9822
 10
603.8666
 20
182.1926
 10
604.0096
 20
182.3918
 10
604.1616
 20
182.5799
 10
604.3224
 20
182.7569
 10
604.492
 20
182.9227
 10
604.6677
 20
183.073
 10
604.8466
 20
183.2032
 10
605.0287
 20
183.3134
 10
605.2141
 20
183.4035
 10
605.4026
 20
183.4736
 10
605.5944
 20
183.5237
 10
605.7894
 20
183.5538
 10
605.9877
 20
183.5638
 10
606.1811
 20
183.5585
 10
606.3616
 20
183.5427
 10
606.5293
 20
183.5162
 10
606.684
 20
183.4793
 10
606.8258
 20
183.4317
 10
606.9547
 20
183.3736
 10
607.0707
 20
183.3049
 10
607.1738
 20
183.2256
 10
607.4338
 20
182.9601
 10
607.6592
 20
182.649
 10
607.8498
 20
182.2922
 10
608.0059
 20
181.8898
 10
608.1272
 20
181.4417
 10
608.2139
 20
180.948
 10
608.2659
 20
180.4087
 10
608.2832
 20
179.8238
 10
608.2832
 20
170.0292
  0
LWPOLYLINE
  5
77
330
1F
100
AcDbEntity
  8
Layer 1
 62
     7
100
AcDbPolyline
 90
      162
 70
     1
 43
0.0
 10
627.9607
 20
170.0292
 10
629.7658
 20
170.0292
 10
629.7658
 20
179.8238
 10
629.7511
 20
180.4742
 10
629.707
 20
181.094
 10
629.6335
 20
181.6831
 10
629.5305
 20
182.2416
 10
629.3982
 20
182.7694
 10
629.2364
 20
183.2667
 10
629.0452
 20
183.7334
 10
628.8246
 20
184.1696
 10
628.7015
 20
184.3779
 10
628.5708
 20
184.5757
 10
628.4324
 20
184.7629
 10
628.2863
 20
184.9396
 10
628.1325
 20
185.1058
 10
627.971
 20
185.2614
 10
627.8019
 20
185.4065
 10
627.625
 20
185.5411
 10
627.4373
 20
185.6621
 10
627.2351
 20
185.767
 10
627.0183
 20
185.8558
 10
626.7871
 20
185.9284
 10
626.5413
 20
185.985
 10
626.281
 20
186.0254
 10
626.0063
 20
186.0496
 10
625.717
 20
186.0577
 10
625.4251
 20
186.0438
 10
625.1424
 20
186.002
 10
624.869
 20
185.9324
 10
624.6049
 20
185.835
 10
624.35
 20
185.7097
 10
624.1043
 20
185.5565
 10
623.8679
 20
185.3755
 10
623.6408
 20
185.1667
 10
623.4437
 20
184.9586
 10
623.2555
 20
184.7351
 10
623.0762
 20
184.4963
 10
622.9057
 20
184.2423
 10
622.7441
 20
183.9733
 10
622.5914
 20
183.6895
 10
622.4476
 20
183.3908
 10
622.3127
 20
183.0775
 10
622.2079
 20
183.3664
 10
622.0934
 20
183.6456
 10
621.9694
 20
183.9138
 10
621.8357
 20
184.1696
 10
621.7126
 20
184.3779
 10
621.5818
 20
184.5757
 10
621.4433
 20
184.7629
 10
621.2972
 20
184.9396
 10
621.1433
 20
185.1058
 10
620.9819
 20
185.2614
 10
620.8129
 20
185.4065
 10
620.6362
 20
185.5411
 10
620.4485
 20
185.6621
 10
620.2462
 20
185.767
 10
620.0295
 20
185.8558
 10
619.7982
 20
185.9284
 10
619.5524
 20
185.985
 10
619.2922
 20
186.0254
 10
619.0174
 20
186.0496
 10
618.7281
 20
186.0577
 10
618.436
 20
186.0438
 10
618.1532
 20
186.002
 10
617.8797
 20
185.9324
 10
617.6155
 20
185.835
 10
617.3607
 20
185.7097
 10
617.1151
 20
185.5565
 10
616.8789
 20
185.3755
 10
616.6519
 20
185.1667
 10
616.4641
 20
184.9685
 10
616.2843
 20
184.7569
 10
616.1126
 20
184.5318
 10
615.949
 20
184.2932
 10
615.7935
 20
184.041
 10
615.646
 20
183.7751
 10
615.5065
 20
183.4954
 10
615.375
 20
183.202
 10
615.375
 20
185.701
 10
613.5699
 20
185.701
 10
613.5699
 20
170.0292
 10
615.375
 20
170.0292
 10
615.375
 20
178.0493
 10
615.4171
 20
178.5166
 10
615.472
 20
178.9656
 10
615.5397
 20
179.3965
 10
615.6204
 20
179.8095
 10
615.7138
 20
180.2047
 10
615.8201
 20
180.5821
 10
615.9393
 20
180.942
 10
616.0713
 20
181.2845
 10
616.179
 20
181.5282
 10
616.2956
 20
181.7608
 10
616.421
 20
181.9822
 10
616.5552
 20
182.1926
 10
616.6983
 20
182.3918
 10
616.8503
 20
182.5799
 10
617.0111
 20
182.7569
 10
617.1807
 20
182.9227
 10
617.3564
 20
183.073
 10
617.5353
 20
183.2032
 10
617.7174
 20
183.3134
 10
617.9027
 20
183.4035
 10
618.0913
 20
183.4736
 10
618.283
 20
183.5237
 10
618.478
 20
183.5538
 10
618.6763
 20
183.5638
 10
618.8698
 20
183.5585
 10
619.0503
 20
183.5427
 10
619.2179
 20
183.5162
 10
619.3727
 20
183.4793
 10
619.5145
 20
183.4317
 10
619.6434
 20
183.3736
 10
619.7594
 20
183.3049
 10
619.8625
 20
183.2256
 10
620.1225
 20
182.9601
 10
620.3478
 20
182.649
 10
620.5385
 20
182.2922
 10
620.6945
 20
181.8898
 10
620.8158
 20
181.4417
 10
620.9025
 20
180.948
 10
620.9545
 20
180.4087
 10
620.9718
 20
179.8238
 10
620.9718
 20
170.0292
 10
622.7769
 20
170.0292
 10
622.7769
 20
179.8238
 10
622.7641
 20
180.4237
 10
623.0608
 20
181.2845
 10
623.1683
 20
181.5282
 10
623.2847
 20
181.7608
 10
623.41
 20
181.9822
 10
623.5442
 20
182.1926
 10
623.6872
 20
182.3918
 10
623.8392
 20
182.5799
 10
624.0
 20
182.7569
 10
624.1696
 20
182.9227
 10
624.3453
 20
183.073
 10
624.5242
 20
183.2032
 10
624.7062
 20
183.3134
 10
624.8916
 20
183.4035
 10
625.0801
 20
183.4736
 10
625.2719
 20
183.5237
 10
625.4669
 20
183.5538
 10
625.6652
 20
183.5638
 10
625.8587
 20
183.5585
 10
626.0392
 20
183.5427
 10
626.2068
 20
183.5162
 10
626.3615
 20
183.4793
 10
626.5033
 20
183.4317
 10
626.6322
 20
183.3736
 10
626.7482
 20
183.3049
 10
626.8513
 20
183.2256
 10
627.1113
 20
182.9601
 10
627.3367
 20
182.649
 10
627.5273
 20
182.2922
 10
627.6834
 20
181.8898
 10
627.8047
 20
181.4417
 10
627.8914
 20
180.948
 10
627.9434
 20
180.4087
 10
627.9607
 20
179.8238
 10
627.9607
 20
170.0292
  0
LWPOLYLINE
  5
78
330
1F
100
AcDbEntity
  8
Layer 1
 62
     7
370
    18
100
AcDbPolyline
 90
       33
 70
     1
 43
0.0
 10
519.2487
 20
194.5701
 10
521.1323
 20
194.3078
 10
522.8867
 20
193.5557
 10
524.4744
 20
192.3655
 10
525.8576
 20
190.7892
 10
526.9989
 20
188.8787
 10
527.8607
 20
186.686
 10
528.4053
 20
184.2629
 10
528.5952
 20
181.6614
 10
528.4053
 20
179.0599
 10
527.8607
 20
176.6368
 10
526.9989
 20
174.4441
 10
525.8576
 20
172.5337
 10
524.4744
 20
170.9574
 10
522.8867
 20
169.7672
 10
521.1323
 20
169.0151
 10
519.2487
 20
168.7528
 10
517.3651
 20
169.0151
 10
515.6106
 20
169.7672
 10
514.023
 20
170.9574
 10
512.6397
 20
172.5337
 10
511.4984
 20
174.4441
 10
510.6366
 20
176.6368
 10
510.092
 20
179.0599
 10
509.9021
 20
181.6614
 10
510.092
 20
184.2629
 10
510.6366
 20
186.686
 10
511.4984
 20
188.8787
 10
512.6397
 20
190.7892
 10
514.023
 20
192.3655
 10
515.6106
 20
193.5557
 10
517.3651
 20
194.3078
 10
519.2487
 20
194.5701
  0
LWPOLYLINE
  5
79
330
1F
100
AcDbEntity
  8
Layer 1
 62
     7
370
    18
100
AcDbPolyline
 90
        9
 70
     0
 43
0.0
 10
523.8945
 20
203.3399
 10
520.9136
 20
188.9568
 10
518.6492
 20
178.0811
 10
517.003
 20
170.2229
 10
515.8767
 20
164.8922
 10
515.1718
 20
161.599
 10
514.7901
 20
159.8533
 10
514.6332
 20
159.1653
 10
514.6028
 20
159.0448
  0
ENDSEC
  0
SECTION
  2
OBJECTS
  0
DICTIONARY
  5
C
330
0
100
AcDbDictionary
281
     1
  3
ACAD_DETAILVIEWSTYLE
350
81
  3
ACAD_GROUP
350
D
  3
ACAD_LAYOUT
350
1A
  3
ACAD_MATERIAL
350
43
  3
ACAD_MLEADERSTYLE
350
5B
  3
ACAD_MLINESTYLE
350
17
  3
ACAD_PLOTSETTINGS
350
19
  3
ACAD_PLOTSTYLENAME
350
E
  3
ACAD_SCALELIST
350
47
  3
ACAD_SECTIONVIEWSTYLE
350
82
  3
ACAD_TABLESTYLE
350
59
  3
ACAD_VISUALSTYLE
350
2A
  3
ACDB_RECOMPOSE_DATA
350
7E
  3
AcDbVariableDictionary
350
7A
  0
SUN
  5
5D
330
29
100
AcDbSun
 90
        1
290
     0
 63
     7
421
 16777215
 40
1.0
291
     1
 91
  2455826
 92
 54000000
292
     0
 70
     2
 71
   256
280
     1
  0
DICTIONARY
  5
81
102
{ACAD_REACTORS
330
C
102
}
330
C
100
AcDbDictionary
281
     1
  0
DICTIONARY
  5
D
102
{ACAD_REACTORS
330
C
102
}
330
C
100
AcDbDictionary
281
     1
  0
DICTIONARY
  5
1A
102
{ACAD_REACTORS
330
C
102
}
330
C
100
AcDbDictionary
281
     1
  3
Layout1
350
1E
  3
Layout2
350
26
  3
Model
350
22
  0
DICTIONARY
  5
43
102
{ACAD_REACTORS
330
C
102
}
330
C
100
AcDbDictionary
281
     1
  3
ByBlock
350
45
  3
ByLayer
350
44
  3
Global
350
46
  0
DICTIONARY
  5
5B
102
{ACAD_REACTORS
330
C
102
}
330
C
100
AcDbDictionary
281
     1
  3
Standard
350
5C
  0
DICTIONARY
  5
17
102
{ACAD_REACTORS
330
C
102
}
330
C
100
AcDbDictionary
281
     1
  3
Standard
350
18
  0
DICTIONARY
  5
19
102
{ACAD_REACTORS
330
C
102
}
330
C
100
AcDbDictionary
281
     1
  0
ACDBDICTIONARYWDFLT
  5
E
102
{ACAD_REACTORS
330
C
102
}
330
C
100
AcDbDictionary
281
     1
  3
Normal
350
F
100
AcDbDictionaryWithDefault
340
F
  0
DICTIONARY
  5
47
102
{ACAD_REACTORS
330
C
102
}
330
C
100
AcDbDictionary
281
     1
  3
A0
350
48
  3
A1
350
49
  3
A2
350
4A
  3
A3
350
4B
  3
A4
350
4C
  3
A5
350
4D
  3
A6
350
4E
  3
A7
350
4F
  3
A8
350
50
  3
A9
350
51
  3
B1
350
52
  3
B2
350
53
  3
B3
350
54
  3
B4
350
55
  3
B5
350
56
  3
B6
350
57
  3
B7
350
58
  0
DICTIONARY
  5
82
102
{ACAD_REACTORS
330
C
102
}
330
C
100
AcDbDictionary
281
     1
  0
DICTIONARY
  5
59
102
{ACAD_REACTORS
330
C
102
}
330
C
100
AcDbDictionary
281
     1
  3
Standard
350
5A
  0
DICTIONARY
  5
2A
102
{ACAD_REACTORS
330
C
102
}
330
C
100
AcDbDictionary
281
     1
  3
2dWireframe
350
2F
  3
Basic
350
32
  3
Brighten
350
36
  3
ColorChange
350
3A
  3
Conceptual
350
34
  3
Dim
350
35
  3
EdgeColorOff
350
3D
  3
Facepattern
350
39
  3
Flat
350
2B
  3
FlatWithEdges
350
2C
  3
Gouraud
350
2D
  3
GouraudWithEdges
350
2E
  3
Hidden
350
31
  3
JitterOff
350
3B
  3
Linepattern
350
38
  3
OverhangOff
350
3C
  3
Realistic
350
33
  3
Shaded
350
42
  3
Shaded with edges
350
41
  3
Shades of Gray
350
3E
  3
Sketchy
350
3F
  3
Thicken
350
37
  3
Wireframe
350
30
  3
X-Ray
350
40
  0
XRECORD
  5
7E
102
{ACAD_REACTORS
330
C
102
}
330
C
100
AcDbXrecord
280
     1
 90
        1
330
5A
  0
DICTIONARY
  5
7A
102
{ACAD_REACTORS
330
C
102
}
330
C
100
AcDbDictionary
281
     1
  3
CANNOSCALE
350
7B
  3
CMLEADERSTYLE
350
80
  3
CTABLESTYLE
350
7F
  0
LAYOUT
  5
1E
102
{ACAD_REACTORS
330
1A
102
}
330
1A
100
AcDbPlotSettings
  1

  2
none_device
  4

  6

 40
0.0
 41
0.0
 42
0.0
 43
0.0
 44
0.0
 45
0.0
 46
0.0
 47
0.0
 48
0.0
 49
0.0
140
0.0
141
0.0
142
1.0
143
1.0
 70
   688
 72
     0
 73
     0
 74
     5
  7

 75
    16
 76
     0
 77
     2
 78
   300
147
1.0
148
0.0
149
0.0
100
AcDbLayout
  1
Layout1
 70
     1
 71
     1
 10
0.0
 20
0.0
 11
12.0
 21
9.0
 12
0.0
 22
0.0
 32
0.0
 14
1.000000000000000E+20
 24
1.000000000000000E+20
 34
1.000000000000000E+20
 15
-1.000000000000000E+20
 25
-1.000000000000000E+20
 35
-1.000000000000000E+20
146
0.0
 13
0.0
 23
0.0
 33
0.0
 16
1.0
 26
0.0
 36
0.0
 17
0.0
 27
1.0
 37
0.0
 76
     0
330
1B
  0
LAYOUT
  5
26
102
{ACAD_REACTORS
330
1A
102
}
330
1A
100
AcDbPlotSettings
  1

  2
none_device
  4

  6

 40
0.0
 41
0.0
 42
0.0
 43
0.0
 44
0.0
 45
0.0
 46
0.0
 47
0.0
 48
0.0
 49
0.0
140
0.0
141
0.0
142
1.0
143
1.0
 70
   688
 72
     0
 73
     0
 74
     5
  7

 75
    16
 76
     0
 77
     2
 78
   300
147
1.0
148
0.0
149
0.0
100
AcDbLayout
  1
Layout2
 70
     1
 71
     2
 10
0.0
 20
0.0
 11
0.0
 21
0.0
 12
0.0
 22
0.0
 32
0.0
 14
0.0
 24
0.0
 34
0.0
 15
0.0
 25
0.0
 35
0.0
146
0.0
 13
0.0
 23
0.0
 33
0.0
 16
1.0
 26
0.0
 36
0.0
 17
0.0
 27
1.0
 37
0.0
 76
     0
330
23
  0
LAYOUT
  5
22
102
{ACAD_REACTORS
330
1A
102
}
330
1A
100
AcDbPlotSettings
  1

  2
none_device
  4
Letter_(8.50_x_11.00_Inches)
  6

 40
6.35
 41
6.35
 42
6.35000508
 43
6.35000508
 44
215.9
 45
279.4
 46
0.0
 47
0.0
 48
0.0
 49
0.0
140
0.0
141
0.0
142
1.0
143
1.0
 70
  1712
 72
     0
 73
     0
 74
     0
  7

 75
     0
 76
     0
 77
     2
 78
   300
147
1.0
148
0.0
149
0.0
100
AcDbLayout
  1
Model
 70
     1
 71
     0
 10
0.0
 20
0.0
 11
12.0
 21
9.0
 12
0.0
 22
0.0
 32
0.0
 14
356.2766
 24
-680.9496
 34
0.0
 15
908.2744
 25
231.7626
 35
0.0
146
0.0
 13
0.0
 23
0.0
 33
0.0
 16
1.0
 26
0.0
 36
0.0
 17
0.0
 27
1.0
 37
0.0
 76
     0
330
1F
331
29
  0
MATERIAL
  5
45
102
{ACAD_REACTORS
330
43
102
}
330
43
100
AcDbMaterial
  1
ByBlock
 72
     1
 94
      127
  0
MATERIAL
  5
44
102
{ACAD_REACTORS
330
43
102
}
330
43
100
AcDbMaterial
  1
ByLayer
 72
     1
 94
      127
  0
MATERIAL
  5
46
102
{ACAD_REACTORS
330
43
102
}
330
43
100
AcDbMaterial
  1
Global
 72
     1
 94
      127
  0
MLEADERSTYLE
  5
5C
102
{ACAD_REACTORS
330
5B
102
}
330
5B
100
AcDbMLeaderStyle
179
     2
170
     2
171
     1
172
     0
 90
        2
 40
0.0
 41
0.0
173
     1
 91
-1056964608
340
14
 92
       -2
290
     1
 42
0.09
291
     1
 43
0.36
  3
Standard
341
0
 44
0.18
300

342
11
174
     1
178
     6
175
     1
176
     0
 93
-1056964608
 45
0.18
292
     0
297
     0
 46
0.18
343
0
 94
-1056964608
 47
1.0
 49
1.0
140
1.0
293
     1
141
0.0
294
     1
177
     0
142
1.0
295
     0
296
     0
143
0.125
271
     0
272
     9
273
     9
298
     0
  0
MLINESTYLE
  5
18
102
{ACAD_REACTORS
330
17
102
}
330
17
100
AcDbMlineStyle
  2
Standard
 70
     0
  3

 62
   256
 51
90.0
 52
90.0
 71
     2
 49
0.5
 62
   256
  6
BYLAYER
 49
-0.5
 62
   256
  6
BYLAYER
  0
ACDBPLACEHOLDER
  5
F
102
{ACAD_REACTORS
330
E
102
}
330
E
  0
SCALE
  5
48
102
{ACAD_REACTORS
330
47
102
}
330
47
100
AcDbScale
 70
     0
300
1:1
140
1.0
141
1.0
290
     1
  0
SCALE
  5
49
102
{ACAD_REACTORS
330
47
102
}
330
47
100
AcDbScale
 70
     0
300
1/128" = 1'-0"
140
0.0078125
141
12.0
290
     0
  0
SCALE
  5
4A
102
{ACAD_REACTORS
330
47
102
}
330
47
100
AcDbScale
 70
     0
300
1/64" = 1'-0"
140
0.015625
141
12.0
290
     0
  0
SCALE
  5
4B
102
{ACAD_REACTORS
330
47
102
}
330
47
100
AcDbScale
 70
     0
300
1/32" = 1'-0"
140
0.03125
141
12.0
290
     0
  0
SCALE
  5
4C
102
{ACAD_REACTORS
330
47
102
}
330
47
100
AcDbScale
 70
     0
300
1/16" = 1'-0"
140
0.0625
141
12.0
290
     0
  0
SCALE
  5
4D
102
{ACAD_REACTORS
330
47
102
}
330
47
100
AcDbScale
 70
     0
300
3/32" = 1'-0"
140
0.09375
141
12.0
290
     0
  0
SCALE
  5
4E
102
{ACAD_REACTORS
330
47
102
}
330
47
100
AcDbScale
 70
     0
300
1/8" = 1'-0"
140
0.125
141
12.0
290
     0
  0
SCALE
  5
4F
102
{ACAD_REACTORS
330
47
102
}
330
47
100
AcDbScale
 70
     0
300
3/16" = 1'-0"
140
0.1875
141
12.0
290
     0
  0
SCALE
  5
50
102
{ACAD_REACTORS
330
47
102
}
330
47
100
AcDbScale
 70
     0
300
1/4" = 1'-0"
140
0.25
141
12.0
290
     0
  0
SCALE
  5
51
102
{ACAD_REACTORS
330
47
102
}
330
47
100
AcDbScale
 70
     0
300
3/8" = 1'-0"
140
0.375
141
12.0
290
     0
  0
SCALE
  5
52
102
{ACAD_REACTORS
330
47
102
}
330
47
100
AcDbScale
 70
     0
300
1/2" = 1'-0"
140
0.5
141
12.0
290
     0
  0
SCALE
  5
53
102
{ACAD_REACTORS
330
47
102
}
330
47
100
AcDbScale
 70
     0
300
3/4" = 1'-0"
140
0.75
141
12.0
290
     0
  0
SCALE
  5
54
102
{ACAD_REACTORS
330
47
102
}
330
47
100
AcDbScale
 70
     0
300
1" = 1'-0"
140
1.0
141
12.0
290
     0
  0
SCALE
  5
55
102
{ACAD_REACTORS
330
47
102
}
330
47
100
AcDbScale
 70
     0
300
1-1/2" = 1'-0"
140
1.5
141
12.0
290
     0
  0
SCALE
  5
56
102
{ACAD_REACTORS
330
47
102
}
330
47
100
AcDbScale
 70
     0
300
3" = 1'-0"
140
3.0
141
12.0
290
     0
  0
SCALE
  5
57
102
{ACAD_REACTORS
330
47
102
}
330
47
100
AcDbScale
 70
     0
300
6" = 1'-0"
140
6.0
141
12.0
290
     0
  0
SCALE
  5
58
102
{ACAD_REACTORS
330
47
102
}
330
47
100
AcDbScale
 70
     0
300
1'-0" = 1'-0"
140
12.0
141
12.0
290
     0
  0
TABLESTYLE
  5
5A
102
{ACAD_REACTORS
330
59
102
}
102
{ACAD_XDICTIONARY
360
7C
102
}
330
59
100
AcDbTableStyle
  3
Standard
 70
     0
 71
     0
 40
0.06
 41
0.06
280
     0
281
     0
  7
Standard
140
0.18
170
     2
 62
     0
 63
   257
283
     0
 90
        4
 91
        0
  1

274
    -2
284
     1
 64
     0
275
    -2
285
     1
 65
     0
276
    -2
286
     1
 66
     0
277
    -2
287
     1
 67
     0
278
    -2
288
     1
 68
     0
279
    -2
289
     1
 69
     0
  7
Standard
140
0.25
170
     5
 62
     0
 63
   257
283
     0
 90
        4
 91
        0
  1

274
    -2
284
     1
 64
     0
275
    -2
285
     1
 65
     0
276
    -2
286
     1
 66
     0
277
    -2
287
     1
 67
     0
278
    -2
288
     1
 68
     0
279
    -2
289
     1
 69
     0
  7
Standard
140
0.18
170
     5
 62
     0
 63
   257
283
     0
 90
        4
 91
        0
  1

274
    -2
284
     1
 64
     0
275
    -2
285
     1
 65
     0
276
    -2
286
     1
 66
     0
277
    -2
287
     1
 67
     0
278
    -2
288
     1
 68
     0
279
    -2
289
     1
 69
     0
  0
VISUALSTYLE
  5
2F
102
{ACAD_REACTORS
330
2A
102
}
330
2A
100
AcDbVisualStyle
  2
2dWireframe
 70
     4
177
     3
291
     0
 70
    58
 90
        0
176
     1
 90
        2
176
     1
 90
        0
176
     1
 90
        0
176
     1
 40
0.6
176
     1
 40
30.0
176
     1
 62
     7
420
 16777215
176
     1
 90
        1
176
     1
 90
        4
176
     1
 62
     7
176
     1
 62
   257
176
     1
 90
        1
176
     1
 90
        1
176
     1
 40
1.0
176
     1
 90
        0
176
     1
 62
   257
176
     1
 40
1.0
176
     1
 90
        1
176
     1
 90
        6
176
     1
 90
        2
176
     1
 62
     7
176
     1
 90
        5
176
     1
 90
        0
176
     1
 90
        0
176
     1
290
     0
176
     1
 90
        1
176
     1
 40
0.0
176
     1
 90
        0
176
     1
290
     1
176
     1
290
     1
176
     1
290
     0
176
     1
290
     0
176
     1
290
     0
176
     1
290
     0
176
     1
290
     0
176
     1
290
     0
176
     1
290
     0
176
     1
 90
       50
176
     1
 40
0.0
176
     1
 40
1.0
176
     1
 90
        0
176
     1
 62
    18
420
        0
176
     1
 90
       50
176
     1
 90
        3
176
     1
 62
     5
420
      255
176
     1
290
     0
176
     1
 90
       50
176
     1
 90
       50
176
     1
 90
       50
176
     1
290
     0
176
     1
 90
       50
176
     1
 62
   256
176
     0
 40
1.0
176
     0
 90
        2
176
     1
  1
strokes_ogs.tif
176
     1
290
     0
176
     1
 40
1.0
176
     1
 40
1.0
176
     1
  0
VISUALSTYLE
  5
32
102
{ACAD_REACTORS
330
2A
102
}
330
2A
100
AcDbVisualStyle
  2
Basic
 70
     7
177
     3
291
     1
 70
    58
 90
        1
176
     1
 90
        0
176
     1
 90
        1
176
     1
 90
        0
176
     1
 40
0.6
176
     1
 40
30.0
176
     1
 62
     7
420
 16777215
176
     1
 90
        0
176
     1
 90
        4
176
     1
 62
     7
176
     1
 62
   257
176
     1
 90
        1
176
     1
 90
        1
176
     1
 40
1.0
176
     1
 90
        8
176
     1
 62
     7
176
     1
 40
1.0
176
     1
 90
        1
176
     1
 90
        6
176
     1
 90
        2
176
     1
 62
     7
176
     1
 90
        5
176
     1
 90
        0
176
     1
 90
        0
176
     1
290
     0
176
     1
 90
        1
176
     1
 40
0.0
176
     1
 90
        0
176
     1
290
     0
176
     1
290
     1
176
     1
290
     1
176
     1
290
     0
176
     1
290
     0
176
     1
290
     0
176
     1
290
     0
176
     1
290
     0
176
     1
290
     0
176
     1
 90
       50
176
     1
 40
0.0
176
     1
 40
1.0
176
     1
 90
        0
176
     1
 62
    18
420
        0
176
     1
 90
       50
176
     1
 90
        3
176
     1
 62
     5
420
      255
176
     1
290
     0
176
     1
 90
       50
176
     1
 90
       50
176
     1
 90
       50
176
     1
290
     0
176
     1
 90
       50
176
     1
 62
   256
176
     0
 40
1.0
176
     0
 90
        2
176
     1
  1
strokes_ogs.tif
176
     1
290
     0
176
     1
 40
1.0
176
     1
 40
1.0
176
     1
  0
VISUALSTYLE
  5
36
102
{ACAD_REACTORS
330
2A
102
}
330
2A
100
AcDbVisualStyle
  2
Brighten
 70
    12
177
     3
291
     1
 70
    58
 90
        2
176
     1
 90
        2
176
     1
 90
        0
176
     1
 90
        0
176
     1
 40
0.6
176
     1
 40
30.0
176
     1
 62
     7
420
 16777215
176
     1
 90
        1
176
     1
 90
        4
176
     1
 62
     7
176
     1
 62
   257
176
     1
 90
        1
176
     1
 90
        1
176
     1
 40
1.0
176
     1
 90
        8
176
     1
 62
     7
176
     1
 40
1.0
176
     1
 90
        1
176
     1
 90
        6
176
     1
 90
        2
176
     1
 62
     7
176
     1
 90
        5
176
     1
 90
        0
176
     1
 90
        0
176
     1
290
     0
176
     1
 90
        1
176
     1
 40
50.0
176
     1
 90
        0
176
     1
290
     0
176
     1
290
     1
176
     1
290
     1
176
     1
290
     0
176
     1
290
     0
176
     1
290
     0
176
     1
290
     0
176
     1
290
     0
176
     1
290
     0
176
     1
 90
       50
176
     1
 40
0.0
176
     1
 40
1.0
176
     1
 90
        0
176
     1
 62
    18
420
        0
176
     1
 90
       50
176
     1
 90
        3
176
     1
 62
     5
420
      255
176
     1
290
     0
176
     1
 90
       50
176
     1
 90
       50
176
     1
 90
       50
176
     1
290
     0
176
     1
 90
       50
176
     1
 62
   256
176
     0
 40
1.0
176
     0
 90
        2
176
     1
  1
strokes_ogs.tif
176
     1
290
     0
176
     1
 40
1.0
176
     1
 40
1.0
176
     1
  0
VISUALSTYLE
  5
3A
102
{ACAD_REACTORS
330
2A
102
}
330
2A
100
AcDbVisualStyle
  2
ColorChange
 70
    16
177
     3
291
     1
 70
    58
 90
        2
176
     1
 90
        2
176
     1
 90
        3
176
     1
 90
        0
176
     1
 40
0.6
176
     1
 40
30.0
176
     1
 62
     8
420
  8421504
176
     1
 90
        1
176
     1
 90
        4
176
     1
 62
     7
176
     1
 62
   257
176
     1
 90
        1
176
     1
 90
        1
176
     1
 40
1.0
176
     1
 90
        8
176
     1
 62
     8
420
  8421504
176
     1
 40
1.0
176
     1
 90
        1
176
     1
 90
        6
176
     1
 90
        2
176
     1
 62
     7
176
     1
 90
        5
176
     1
 90
        0
176
     1
 90
        0
176
     1
290
     0
176
     1
 90
        1
176
     1
 40
0.0
176
     1
 90
        0
176
     1
290
     0
176
     1
290
     1
176
     1
290
     1
176
     1
290
     0
176
     1
290
     0
176
     1
290
     0
176
     1
290
     0
176
     1
290
     0
176
     1
290
     0
176
     1
 90
       50
176
     1
 40
0.0
176
     1
 40
1.0
176
     1
 90
        0
176
     1
 62
    18
420
        0
176
     1
 90
       50
176
     1
 90
        3
176
     1
 62
     5
420
      255
176
     1
290
     0
176
     1
 90
       50
176
     1
 90
       50
176
     1
 90
       50
176
     1
290
     0
176
     1
 90
       50
176
     1
 62
   256
176
     0
 40
1.0
176
     0
 90
        2
176
     1
  1
strokes_ogs.tif
176
     1
290
     0
176
     1
 40
1.0
176
     1
 40
1.0
176
     1
  0
VISUALSTYLE
  5
34
102
{ACAD_REACTORS
330
2A
102
}
330
2A
100
AcDbVisualStyle
  2
Conceptual
 70
     9
177
     3
291
     0
 70
    58
 90
        3
176
     1
 90
        2
176
     1
 90
        0
176
     1
 90
        0
176
     1
 40
0.6
176
     1
 40
30.0
176
     1
 62
     7
420
 16777215
176
     1
 90
        2
176
     1
 90
        2
176
     1
 62
     7
176
     1
 62
   257
176
     1
 90
        1
176
     1
 90
        1
176
     1
 40
179.0
176
     1
 90
        8
176
     1
 62
     7
176
     1
 40
1.0
176
     1
 90
        1
176
     1
 90
        6
176
     1
 90
        2
176
     1
 62
     7
176
     1
 90
        3
176
     1
 90
        0
176
     1
 90
        0
176
     1
290
     0
176
     1
 90
        1
176
     1
 40
0.0
176
     1
 90
        0
176
     1
290
     0
176
     1
290
     1
176
     1
290
     1
176
     1
290
     0
176
     1
290
     0
176
     1
290
     0
176
     1
290
     0
176
     1
290
     0
176
     1
290
     0
176
     1
 90
       50
176
     1
 40
0.0
176
     1
 40
1.0
176
     1
 90
        0
176
     1
 62
    18
420
        0
176
     1
 90
       50
176
     1
 90
        3
176
     1
 62
     5
420
      255
176
     1
290
     0
176
     1
 90
       50
176
     1
 90
       50
176
     1
 90
       50
176
     1
290
     0
176
     1
 90
       50
176
     1
 62
   256
176
     0
 40
1.0
176
     0
 90
        2
176
     1
  1
strokes_ogs.tif
176
     1
290
     0
176
     1
 40
1.0
176
     1
 40
1.0
176
     1
  0
VISUALSTYLE
  5
35
102
{ACAD_REACTORS
330
2A
102
}
330
2A
100
AcDbVisualStyle
  2
Dim
 70
    11
177
     3
291
     1
 70
    58
 90
        2
176
     1
 90
        2
176
     1
 90
        0
176
     1
 90
        0
176
     1
 40
0.6
176
     1
 40
30.0
176
     1
 62
     7
420
 16777215
176
     1
 90
        1
176
     1
 90
        4
176
     1
 62
     7
176
     1
 62
   257
176
     1
 90
        1
176
     1
 90
        1
176
     1
 40
1.0
176
     1
 90
        8
176
     1
 62
     7
176
     1
 40
1.0
176
     1
 90
        1
176
     1
 90
        6
176
     1
 90
        2
176
     1
 62
     7
176
     1
 90
        5
176
     1
 90
        0
176
     1
 90
        0
176
     1
290
     0
176
     1
 90
        1
176
     1
 40
-50.0
176
     1
 90
        0
176
     1
290
     0
176
     1
290
     1
176
     1
290
     1
176
     1
290
     0
176
     1
290
     0
176
     1
290
     0
176
     1
290
     0
176
     1
290
     0
176
     1
290
     0
176
     1
 90
       50
176
     1
 40
0.0
176
     1
 40
1.0
176
     1
 90
        0
176
     1
 62
    18
420
        0
176
     1
 90
       50
176
     1
 90
        3
176
     1
 62
     5
420
      255
176
     1
290
     0
176
     1
 90
       50
176
     1
 90
       50
176
     1
 90
       50
176
     1
290
     0
176
     1
 90
       50
176
     1
 62
   256
176
     0
 40
1.0
176
     0
 90
        2
176
     1
  1
strokes_ogs.tif
176
     1
290
     0
176
     1
 40
1.0
176
     1
 40
1.0
176
     1
  0
VISUALSTYLE
  5
3D
102
{ACAD_REACTORS
330
2A
102
}
330
2A
100
AcDbVisualStyle
  2
EdgeColorOff
 70
    22
177
     3
291
     1
 70
    58
 90
        2
176
     0
 90
        2
176
     0
 90
        0
176
     0
 90
        0
176
     0
 40
0.6
176
     0
 40
30.0
176
     0
 62
     7
420
 16777215
176
     0
 90
        1
176
     0
 90
        4
176
     0
 62
     7
176
     0
 62
   257
176
     0
 90
        1
176
     0
 90
        1
176
     0
 40
1.0
176
     0
 90
        8
176
     2
 62
     7
176
     0
 40
1.0
176
     0
 90
        1
176
     0
 90
        6
176
     0
 90
        2
176
     0
 62
     7
176
     0
 90
        5
176
     0
 90
        0
176
     0
 90
        0
176
     0
290
     0
176
     0
 90
        1
176
     0
 40
0.0
176
     0
 90
        0
176
     0
290
     0
176
     0
290
     1
176
     0
290
     1
176
     0
290
     0
176
     0
290
     0
176
     0
290
     0
176
     0
290
     0
176
     0
290
     0
176
     0
290
     0
176
     0
 90
       50
176
     0
 40
0.0
176
     0
 40
1.0
176
     0
 90
        0
176
     0
 62
    18
420
        0
176
     0
 90
       50
176
     0
 90
        3
176
     0
 62
     5
420
      255
176
     0
290
     0
176
     0
 90
       50
176
     0
 90
       50
176
     0
 90
       50
176
     0
290
     0
176
     0
 90
       50
176
     0
 62
   256
176
     0
 40
1.0
176
     0
 90
        2
176
     0
  1
strokes_ogs.tif
176
     0
290
     0
176
     0
 40
1.0
176
     0
 40
1.0
176
     0
  0
VISUALSTYLE
  5
39
102
{ACAD_REACTORS
330
2A
102
}
330
2A
100
AcDbVisualStyle
  2
Facepattern
 70
    15
177
     3
291
     1
 70
    58
 90
        2
176
     1
 90
        2
176
     1
 90
        0
176
     1
 90
        0
176
     1
 40
0.6
176
     1
 40
30.0
176
     1
 62
     7
420
 16777215
176
     1
 90
        1
176
     1
 90
        4
176
     1
 62
     7
176
     1
 62
   257
176
     1
 90
        1
176
     1
 90
        1
176
     1
 40
1.0
176
     1
 90
        8
176
     1
 62
     7
176
     1
 40
1.0
176
     1
 90
        1
176
     1
 90
        6
176
     1
 90
        2
176
     1
 62
     7
176
     1
 90
        5
176
     1
 90
        0
176
     1
 90
        0
176
     1
290
     0
176
     1
 90
        1
176
     1
 40
0.0
176
     1
 90
        0
176
     1
290
     0
176
     1
290
     1
176
     1
290
     1
176
     1
290
     0
176
     1
290
     0
176
     1
290
     0
176
     1
290
     0
176
     1
290
     0
176
     1
290
     0
176
     1
 90
       50
176
     1
 40
0.0
176
     1
 40
1.0
176
     1
 90
        0
176
     1
 62
    18
420
        0
176
     1
 90
       50
176
     1
 90
        3
176
     1
 62
     5
420
      255
176
     1
290
     0
176
     1
 90
       50
176
     1
 90
       50
176
     1
 90
       50
176
     1
290
     0
176
     1
 90
       50
176
     1
 62
   256
176
     0
 40
1.0
176
     0
 90
        2
176
     1
  1
strokes_ogs.tif
176
     1
290
     0
176
     1
 40
1.0
176
     1
 40
1.0
176
     1
  0
VISUALSTYLE
  5
2B
102
{ACAD_REACTORS
330
2A
102
}
330
2A
100
AcDbVisualStyle
  2
Flat
 70
     0
177
     3
291
     1
 70
    58
 90
        2
176
     1
 90
        1
176
     1
 90
        1
176
     1
 90
        2
176
     1
 40
0.6
176
     1
 40
30.0
176
     1
 62
     7
420
 16777215
176
     1
 90
        0
176
     1
 90
        0
176
     1
 62
     7
176
     1
 62
   257
176
     1
 90
        1
176
     1
 90
        1
176
     1
 40
1.0
176
     1
 90
        8
176
     1
 62
     7
176
     1
 40
1.0
176
     1
 90
        1
176
     1
 90
        6
176
     1
 90
        2
176
     1
 62
     7
176
     1
 90
        5
176
     1
 90
        0
176
     1
 90
        0
176
     1
290
     0
176
     1
 90
       13
176
     1
 40
0.0
176
     1
 90
        0
176
     1
290
     0
176
     1
290
     1
176
     1
290
     1
176
     1
290
     0
176
     1
290
     0
176
     1
290
     0
176
     1
290
     0
176
     1
290
     0
176
     1
290
     0
176
     1
 90
       50
176
     1
 40
0.0
176
     1
 40
1.0
176
     1
 90
        0
176
     1
 62
    18
420
        0
176
     1
 90
       50
176
     1
 90
        3
176
     1
 62
     5
420
      255
176
     1
290
     0
176
     1
 90
       50
176
     1
 90
       50
176
     1
 90
       50
176
     1
290
     0
176
     1
 90
       50
176
     1
 62
   256
176
     0
 40
1.0
176
     0
 90
        2
176
     1
  1
strokes_ogs.tif
176
     1
290
     0
176
     1
 40
1.0
176
     1
 40
1.0
176
     1
  0
VISUALSTYLE
  5
2C
102
{ACAD_REACTORS
330
2A
102
}
330
2A
100
AcDbVisualStyle
  2
FlatWithEdges
 70
     1
177
     3
291
     1
 70
    58
 90
        2
176
     1
 90
        1
176
     1
 90
        1
176
     1
 90
        2
176
     1
 40
0.6
176
     1
 40
30.0
176
     1
 62
     7
420
 16777215
176
     1
 90
        1
176
     1
 90
        0
176
     1
 62
     7
176
     1
 62
   257
176
     1
 90
        1
176
     1
 90
        1
176
     1
 40
1.0
176
     1
 90
        0
176
     1
 62
   257
176
     1
 40
1.0
176
     1
 90
        1
176
     1
 90
        6
176
     1
 90
        2
176
     1
 62
     7
176
     1
 90
        5
176
     1
 90
        0
176
     1
 90
        0
176
     1
290
     0
176
     1
 90
       13
176
     1
 40
0.0
176
     1
 90
        0
176
     1
290
     0
176
     1
290
     1
176
     1
290
     1
176
     1
290
     0
176
     1
290
     0
176
     1
290
     0
176
     1
290
     0
176
     1
290
     0
176
     1
290
     0
176
     1
 90
       50
176
     1
 40
0.0
176
     1
 40
1.0
176
     1
 90
        0
176
     1
 62
    18
420
        0
176
     1
 90
       50
176
     1
 90
        3
176
     1
 62
     5
420
      255
176
     1
290
     0
176
     1
 90
       50
176
     1
 90
       50
176
     1
 90
       50
176
     1
290
     0
176
     1
 90
       50
176
     1
 62
   256
176
     0
 40
1.0
176
     0
 90
        2
176
     1
  1
strokes_ogs.tif
176
     1
290
     0
176
     1
 40
1.0
176
     1
 40
1.0
176
     1
  0
VISUALSTYLE
  5
2D
102
{ACAD_REACTORS
330
2A
102
}
330
2A
100
AcDbVisualStyle
  2
Gouraud
 70
     2
177
     3
291
     1
 70
    58
 90
        2
176
     1
 90
        2
176
     1
 90
        1
176
     1
 90
        2
176
     1
 40
0.6
176
     1
 40
30.0
176
     1
 62
     7
420
 16777215
176
     1
 90
        0
176
     1
 90
        0
176
     1
 62
     7
176
     1
 62
   257
176
     1
 90
        1
176
     1
 90
        1
176
     1
 40
1.0
176
     1
 90
        0
176
     1
 62
     7
176
     1
 40
1.0
176
     1
 90
        1
176
     1
 90
        6
176
     1
 90
        2
176
     1
 62
     7
176
     1
 90
        5
176
     1
 90
        0
176
     1
 90
        0
176
     1
290
     0
176
     1
 90
       13
176
     1
 40
0.0
176
     1
 90
        0
176
     1
290
     0
176
     1
290
     1
176
     1
290
     1
176
     1
290
     0
176
     1
290
     0
176
     1
290
     0
176
     1
290
     0
176
     1
290
     0
176
     1
290
     0
176
     1
 90
       50
176
     1
 40
0.0
176
     1
 40
1.0
176
     1
 90
        0
176
     1
 62
    18
420
        0
176
     1
 90
       50
176
     1
 90
        3
176
     1
 62
     5
420
      255
176
     1
290
     0
176
     1
 90
       50
176
     1
 90
       50
176
     1
 90
       50
176
     1
290
     0
176
     1
 90
       50
176
     1
 62
   256
176
     0
 40
1.0
176
     0
 90
        2
176
     1
  1
strokes_ogs.tif
176
     1
290
     0
176
     1
 40
1.0
176
     1
 40
1.0
176
     1
  0
VISUALSTYLE
  5
2E
102
{ACAD_REACTORS
330
2A
102
}
330
2A
100
AcDbVisualStyle
  2
GouraudWithEdges
 70
     3
177
     3
291
     1
 70
    58
 90
        2
176
     1
 90
        2
176
     1
 90
        1
176
     1
 90
        2
176
     1
 40
0.6
176
     1
 40
30.0
176
     1
 62
     7
420
 16777215
176
     1
 90
        1
176
     1
 90
        0
176
     1
 62
     7
176
     1
 62
   257
176
     1
 90
        1
176
     1
 90
        1
176
     1
 40
1.0
176
     1
 90
        0
176
     1
 62
   257
176
     1
 40
1.0
176
     1
 90
        1
176
     1
 90
        6
176
     1
 90
        2
176
     1
 62
     7
176
     1
 90
        5
176
     1
 90
        0
176
     1
 90
        0
176
     1
290
     0
176
     1
 90
       13
176
     1
 40
0.0
176
     1
 90
        0
176
     1
290
     0
176
     1
290
     1
176
     1
290
     1
176
     1
290
     0
176
     1
290
     0
176
     1
290
     0
176
     1
290
     0
176
     1
290
     0
176
     1
290
     0
176
     1
 90
       50
176
     1
 40
0.0
176
     1
 40
1.0
176
     1
 90
        0
176
     1
 62
    18
420
        0
176
     1
 90
       50
176
     1
 90
        3
176
     1
 62
     5
420
      255
176
     1
290
     0
176
     1
 90
       50
176
     1
 90
       50
176
     1
 90
       50
176
     1
290
     0
176
     1
 90
       50
176
     1
 62
   256
176
     0
 40
1.0
176
     0
 90
        2
176
     1
  1
strokes_ogs.tif
176
     1
290
     0
176
     1
 40
1.0
176
     1
 40
1.0
176
     1
  0
VISUALSTYLE
  5
31
102
{ACAD_REACTORS
330
2A
102
}
330
2A
100
AcDbVisualStyle
  2
Hidden
 70
     6
177
     3
291
     0
 70
    58
 90
        1
176
     1
 90
        2
176
     1
 90
        2
176
     1
 90
        0
176
     1
 40
0.6
176
     1
 40
30.0
176
     1
 62
     7
420
 16777215
176
     1
 90
        2
176
     1
 90
        2
176
     1
 62
     7
176
     1
 62
   257
176
     1
 90
        2
176
     1
 90
        1
176
     1
 40
40.0
176
     1
 90
        0
176
     1
 62
   257
176
     1
 40
1.0
176
     1
 90
        1
176
     1
 90
        6
176
     1
 90
        2
176
     1
 62
     7
176
     1
 90
        3
176
     1
 90
        0
176
     1
 90
        0
176
     1
290
     0
176
     1
 90
        1
176
     1
 40
0.0
176
     1
 90
        0
176
     1
290
     0
176
     1
290
     1
176
     1
290
     1
176
     1
290
     0
176
     1
290
     0
176
     1
290
     0
176
     1
290
     0
176
     1
290
     0
176
     1
290
     0
176
     1
 90
       50
176
     1
 40
0.0
176
     1
 40
1.0
176
     1
 90
        0
176
     1
 62
    18
420
        0
176
     1
 90
       50
176
     1
 90
        3
176
     1
 62
     5
420
      255
176
     1
290
     0
176
     1
 90
       50
176
     1
 90
       50
176
     1
 90
       50
176
     1
290
     0
176
     1
 90
       50
176
     1
 62
   256
176
     0
 40
1.0
176
     0
 90
        2
176
     1
  1
strokes_ogs.tif
176
     1
290
     0
176
     1
 40
1.0
176
     1
 40
1.0
176
     1
  0
VISUALSTYLE
  5
3B
102
{ACAD_REACTORS
330
2A
102
}
330
2A
100
AcDbVisualStyle
  2
JitterOff
 70
    20
177
     3
291
     1
 70
    58
 90
        2
176
     0
 90
        2
176
     0
 90
        0
176
     0
 90
        0
176
     0
 40
0.6
176
     0
 40
30.0
176
     0
 62
     7
420
 16777215
176
     0
 90
        1
176
     0
 90
        4
176
     0
 62
     7
176
     0
 62
   257
176
     0
 90
        1
176
     0
 90
        1
176
     0
 40
1.0
176
     0
 90
       10
176
     2
 62
     7
176
     0
 40
1.0
176
     0
 90
        1
176
     0
 90
        6
176
     0
 90
        2
176
     0
 62
     7
176
     0
 90
        5
176
     0
 90
        0
176
     0
 90
        0
176
     0
290
     0
176
     0
 90
        1
176
     0
 40
0.0
176
     0
 90
        0
176
     0
290
     0
176
     0
290
     1
176
     0
290
     1
176
     0
290
     0
176
     0
290
     0
176
     0
290
     0
176
     0
290
     0
176
     0
290
     0
176
     0
290
     0
176
     0
 90
       50
176
     0
 40
0.0
176
     0
 40
1.0
176
     0
 90
        0
176
     0
 62
    18
420
        0
176
     0
 90
       50
176
     0
 90
        3
176
     0
 62
     5
420
      255
176
     0
290
     0
176
     0
 90
       50
176
     0
 90
       50
176
     0
 90
       50
176
     0
290
     0
176
     0
 90
       50
176
     0
 62
   256
176
     0
 40
1.0
176
     0
 90
        2
176
     0
  1
strokes_ogs.tif
176
     0
290
     0
176
     0
 40
1.0
176
     0
 40
1.0
176
     0
  0
VISUALSTYLE
  5
38
102
{ACAD_REACTORS
330
2A
102
}
330
2A
100
AcDbVisualStyle
  2
Linepattern
 70
    14
177
     3
291
     1
 70
    58
 90
        2
176
     1
 90
        2
176
     1
 90
        0
176
     1
 90
        0
176
     1
 40
0.6
176
     1
 40
30.0
176
     1
 62
     7
420
 16777215
176
     1
 90
        1
176
     1
 90
        4
176
     1
 62
     7
176
     1
 62
   257
176
     1
 90
        7
176
     1
 90
        7
176
     1
 40
1.0
176
     1
 90
        8
176
     1
 62
     7
176
     1
 40
1.0
176
     1
 90
        1
176
     1
 90
        6
176
     1
 90
        2
176
     1
 62
     7
176
     1
 90
        5
176
     1
 90
        0
176
     1
 90
        0
176
     1
290
     0
176
     1
 90
        1
176
     1
 40
0.0
176
     1
 90
        0
176
     1
290
     0
176
     1
290
     1
176
     1
290
     1
176
     1
290
     0
176
     1
290
     0
176
     1
290
     0
176
     1
290
     0
176
     1
290
     0
176
     1
290
     0
176
     1
 90
       50
176
     1
 40
0.0
176
     1
 40
1.0
176
     1
 90
        0
176
     1
 62
    18
420
        0
176
     1
 90
       50
176
     1
 90
        3
176
     1
 62
     5
420
      255
176
     1
290
     0
176
     1
 90
       50
176
     1
 90
       50
176
     1
 90
       50
176
     1
290
     0
176
     1
 90
       50
176
     1
 62
   256
176
     0
 40
1.0
176
     0
 90
        2
176
     1
  1
strokes_ogs.tif
176
     1
290
     0
176
     1
 40
1.0
176
     1
 40
1.0
176
     1
  0
VISUALSTYLE
  5
3C
102
{ACAD_REACTORS
330
2A
102
}
330
2A
100
AcDbVisualStyle
  2
OverhangOff
 70
    21
177
     3
291
     1
 70
    58
 90
        2
176
     0
 90
        2
176
     0
 90
        0
176
     0
 90
        0
176
     0
 40
0.6
176
     0
 40
30.0
176
     0
 62
     7
420
 16777215
176
     0
 90
        1
176
     0
 90
        4
176
     0
 62
     7
176
     0
 62
   257
176
     0
 90
        1
176
     0
 90
        1
176
     0
 40
1.0
176
     0
 90
        9
176
     2
 62
     7
176
     0
 40
1.0
176
     0
 90
        1
176
     0
 90
        6
176
     0
 90
        2
176
     0
 62
     7
176
     0
 90
        5
176
     0
 90
        0
176
     0
 90
        0
176
     0
290
     0
176
     0
 90
        1
176
     0
 40
0.0
176
     0
 90
        0
176
     0
290
     0
176
     0
290
     1
176
     0
290
     1
176
     0
290
     0
176
     0
290
     0
176
     0
290
     0
176
     0
290
     0
176
     0
290
     0
176
     0
290
     0
176
     0
 90
       50
176
     0
 40
0.0
176
     0
 40
1.0
176
     0
 90
        0
176
     0
 62
    18
420
        0
176
     0
 90
       50
176
     0
 90
        3
176
     0
 62
     5
420
      255
176
     0
290
     0
176
     0
 90
       50
176
     0
 90
       50
176
     0
 90
       50
176
     0
290
     0
176
     0
 90
       50
176
     0
 62
   256
176
     0
 40
1.0
176
     0
 90
        2
176
     0
  1
strokes_ogs.tif
176
     0
290
     0
176
     0
 40
1.0
176
     0
 40
1.0
176
     0
  0
VISUALSTYLE
  5
33
102
{ACAD_REACTORS
330
2A
102
}
330
2A
100
AcDbVisualStyle
  2
Realistic
 70
     8
177
     3
291
     0
 70
    58
 90
        2
176
     1
 90
        3
176
     1
 90
        0
176
     1
 90
        2
176
     1
 40
0.6
176
     1
 40
30.0
176
     1
 62
     7
420
 16777215
176
     1
 90
        0
176
     1
 90
        0
176
     1
 62
     7
176
     1
 62
   257
176
     1
 90
        1
176
     1
 90
        1
176
     1
 40
1.0
176
     1
 90
        8
176
     1
 62
   257
176
     1
 40
1.0
176
     1
 90
        1
176
     1
 90
        6
176
     1
 90
        2
176
     1
 62
     7
176
     1
 90
        3
176
     1
 90
        0
176
     1
 90
        0
176
     1
290
     0
176
     1
 90
       13
176
     1
 40
0.0
176
     1
 90
        0
176
     1
290
     0
176
     1
290
     1
176
     1
290
     1
176
     1
290
     0
176
     1
290
     0
176
     1
290
     0
176
     1
290
     0
176
     1
290
     0
176
     1
290
     0
176
     1
 90
       50
176
     1
 40
0.0
176
     1
 40
1.0
176
     1
 90
        0
176
     1
 62
    18
420
        0
176
     1
 90
       50
176
     1
 90
        3
176
     1
 62
     5
420
      255
176
     1
290
     0
176
     1
 90
       50
176
     1
 90
       50
176
     1
 90
       50
176
     1
290
     0
176
     1
 90
       50
176
     1
 62
   256
176
     0
 40
1.0
176
     0
 90
        2
176
     1
  1
strokes_ogs.tif
176
     1
290
     0
176
     1
 40
1.0
176
     1
 40
1.0
176
     1
  0
VISUALSTYLE
  5
42
102
{ACAD_REACTORS
330
2A
102
}
330
2A
100
AcDbVisualStyle
  2
Shaded
 70
    27
177
     3
291
     0
 70
    58
 90
        2
176
     1
 90
        2
176
     1
 90
        1
176
     1
 90
        2
176
     1
 40
0.6
176
     1
 40
30.0
176
     1
 62
     7
420
 16777215
176
     1
 90
        0
176
     1
 90
        4
176
     1
 62
     7
176
     1
 62
   257
176
     1
 90
        1
176
     1
 90
        1
176
     1
 40
1.0
176
     1
 90
        8
176
     1
 62
   257
176
     1
 40
1.0
176
     1
 90
        1
176
     1
 90
        6
176
     1
 90
        2
176
     1
 62
     8
420
  7895160
176
     1
 90
        3
176
     1
 90
        0
176
     1
 90
        0
176
     1
290
     0
176
     1
 90
        5
176
     1
 40
0.0
176
     1
 90
        0
176
     1
290
     0
176
     1
290
     1
176
     1
290
     1
176
     1
290
     0
176
     1
290
     0
176
     1
290
     0
176
     1
290
     0
176
     1
290
     0
176
     1
290
     0
176
     1
 90
       50
176
     1
 40
0.0
176
     1
 40
1.0
176
     1
 90
        0
176
     1
 62
    18
420
        0
176
     1
 90
       50
176
     1
 90
        3
176
     1
 62
     5
420
      255
176
     1
290
     0
176
     1
 90
       50
176
     1
 90
       50
176
     1
 90
       50
176
     1
290
     0
176
     1
 90
       50
176
     1
 62
   256
176
     0
 40
1.0
176
     0
 90
        2
176
     1
  1
strokes_ogs.tif
176
     1
290
     0
176
     1
 40
1.0
176
     1
 40
1.0
176
     1
  0
VISUALSTYLE
  5
41
102
{ACAD_REACTORS
330
2A
102
}
330
2A
100
AcDbVisualStyle
  2
Shaded with edges
 70
    26
177
     3
291
     0
 70
    58
 90
        2
176
     1
 90
        2
176
     1
 90
        1
176
     1
 90
        2
176
     1
 40
0.6
176
     1
 40
30.0
176
     1
 62
     7
420
 16777215
176
     1
 90
        1
176
     1
 90
       10
176
     1
 62
     7
176
     1
 62
   257
176
     1
 90
        2
176
     1
 90
        1
176
     1
 40
1.0
176
     1
 90
        8
176
     1
 62
   257
176
     1
 40
1.0
176
     1
 90
        1
176
     1
 90
        6
176
     1
 90
        2
176
     1
 62
     7
176
     1
 90
        3
176
     1
 90
        0
176
     1
 90
        0
176
     1
290
     0
176
     1
 90
        5
176
     1
 40
0.0
176
     1
 90
        0
176
     1
290
     0
176
     1
290
     1
176
     1
290
     1
176
     1
290
     0
176
     1
290
     0
176
     1
290
     0
176
     1
290
     0
176
     1
290
     0
176
     1
290
     0
176
     1
 90
       50
176
     1
 40
0.0
176
     1
 40
1.0
176
     1
 90
        0
176
     1
 62
    18
420
        0
176
     1
 90
       50
176
     1
 90
        3
176
     1
 62
     5
420
      255
176
     1
290
     0
176
     1
 90
       50
176
     1
 90
       50
176
     1
 90
       50
176
     1
290
     0
176
     1
 90
       50
176
     1
 62
   256
176
     0
 40
1.0
176
     0
 90
        2
176
     1
  1
strokes_ogs.tif
176
     1
290
     0
176
     1
 40
1.0
176
     1
 40
1.0
176
     1
  0
VISUALSTYLE
  5
3E
102
{ACAD_REACTORS
330
2A
102
}
330
2A
100
AcDbVisualStyle
  2
Shades of Gray
 70
    23
177
     3
291
     0
 70
    58
 90
        2
176
     1
 90
        2
176
     1
 90
        3
176
     1
 90
        0
176
     1
 40
0.6
176
     1
 40
30.0
176
     1
 62
     7
420
 16777215
176
     1
 90
        2
176
     1
 90
        2
176
     1
 62
     7
176
     1
 62
     7
176
     1
 90
        1
176
     1
 90
        1
176
     1
 40
40.0
176
     1
 90
        8
176
     1
 62
     7
176
     1
 40
1.0
176
     1
 90
        1
176
     1
 90
        6
176
     1
 90
        2
176
     1
 62
     7
176
     1
 90
        3
176
     1
 90
        0
176
     1
 90
        0
176
     1
290
     0
176
     1
 90
        1
176
     1
 40
0.0
176
     1
 90
        0
176
     1
290
     0
176
     1
290
     1
176
     1
290
     1
176
     1
290
     0
176
     1
290
     0
176
     1
290
     0
176
     1
290
     0
176
     1
290
     0
176
     1
290
     0
176
     1
 90
       50
176
     1
 40
0.0
176
     1
 40
1.0
176
     1
 90
        0
176
     1
 62
    18
420
        0
176
     1
 90
       50
176
     1
 90
        3
176
     1
 62
     5
420
      255
176
     1
290
     0
176
     1
 90
       50
176
     1
 90
       50
176
     1
 90
       50
176
     1
290
     0
176
     1
 90
       50
176
     1
 62
   256
176
     0
 40
1.0
176
     0
 90
        2
176
     1
  1
strokes_ogs.tif
176
     1
290
     0
176
     1
 40
1.0
176
     1
 40
1.0
176
     1
  0
VISUALSTYLE
  5
3F
102
{ACAD_REACTORS
330
2A
102
}
330
2A
100
AcDbVisualStyle
  2
Sketchy
 70
    24
177
     3
291
     0
 70
    58
 90
        1
176
     1
 90
        2
176
     1
 90
        2
176
     1
 90
        0
176
     1
 40
0.6
176
     1
 40
30.0
176
     1
 62
     7
420
 16777215
176
     1
 90
        2
176
     1
 90
        2
176
     1
 62
     7
176
     1
 62
     7
176
     1
 90
        1
176
     1
 90
        1
176
     1
 40
40.0
176
     1
 90
       11
176
     1
 62
     7
176
     1
 40
1.0
176
     1
 90
        1
176
     1
 90
        6
176
     1
 90
        2
176
     1
 62
     7
176
     1
 90
        6
176
     1
 90
        0
176
     1
 90
        0
176
     1
290
     0
176
     1
 90
        1
176
     1
 40
0.0
176
     1
 90
        0
176
     1
290
     0
176
     1
290
     1
176
     1
290
     1
176
     1
290
     0
176
     1
290
     0
176
     1
290
     0
176
     1
290
     0
176
     1
290
     0
176
     1
290
     0
176
     1
 90
       50
176
     1
 40
0.0
176
     1
 40
1.0
176
     1
 90
        0
176
     1
 62
    18
420
        0
176
     1
 90
       50
176
     1
 90
        3
176
     1
 62
     5
420
      255
176
     1
290
     0
176
     1
 90
       50
176
     1
 90
       50
176
     1
 90
       50
176
     1
290
     0
176
     1
 90
       50
176
     1
 62
   256
176
     0
 40
1.0
176
     0
 90
        2
176
     1
  1
strokes_ogs.tif
176
     1
290
     0
176
     1
 40
1.0
176
     1
 40
1.0
176
     1
  0
VISUALSTYLE
  5
37
102
{ACAD_REACTORS
330
2A
102
}
330
2A
100
AcDbVisualStyle
  2
Thicken
 70
    13
177
     3
291
     1
 70
    58
 90
        2
176
     1
 90
        2
176
     1
 90
        0
176
     1
 90
        0
176
     1
 40
0.6
176
     1
 40
30.0
176
     1
 62
     7
420
 16777215
176
     1
 90
        1
176
     1
 90
        4
176
     1
 62
     7
176
     1
 62
   257
176
     1
 90
        1
176
     1
 90
        1
176
     1
 40
1.0
176
     1
 90
       12
176
     1
 62
     7
176
     1
 40
1.0
176
     1
 90
        1
176
     1
 90
        6
176
     1
 90
        2
176
     1
 62
     7
176
     1
 90
        5
176
     1
 90
        0
176
     1
 90
        0
176
     1
290
     0
176
     1
 90
        1
176
     1
 40
0.0
176
     1
 90
        0
176
     1
290
     0
176
     1
290
     1
176
     1
290
     1
176
     1
290
     0
176
     1
290
     0
176
     1
290
     0
176
     1
290
     0
176
     1
290
     0
176
     1
290
     0
176
     1
 90
       50
176
     1
 40
0.0
176
     1
 40
1.0
176
     1
 90
        0
176
     1
 62
    18
420
        0
176
     1
 90
       50
176
     1
 90
        3
176
     1
 62
     5
420
      255
176
     1
290
     0
176
     1
 90
       50
176
     1
 90
       50
176
     1
 90
       50
176
     1
290
     0
176
     1
 90
       50
176
     1
 62
   256
176
     0
 40
1.0
176
     0
 90
        2
176
     1
  1
strokes_ogs.tif
176
     1
290
     0
176
     1
 40
1.0
176
     1
 40
1.0
176
     1
  0
VISUALSTYLE
  5
30
102
{ACAD_REACTORS
330
2A
102
}
330
2A
100
AcDbVisualStyle
  2
Wireframe
 70
     5
177
     3
291
     0
 70
    58
 90
        0
176
     1
 90
        2
176
     1
 90
        0
176
     1
 90
        0
176
     1
 40
0.6
176
     1
 40
30.0
176
     1
 62
     7
420
 16777215
176
     1
 90
        1
176
     1
 90
        4
176
     1
 62
     7
176
     1
 62
   257
176
     1
 90
        1
176
     1
 90
        1
176
     1
 40
1.0
176
     1
 90
        0
176
     1
 62
   257
176
     1
 40
1.0
176
     1
 90
        1
176
     1
 90
        6
176
     1
 90
        2
176
     1
 62
     7
176
     1
 90
        3
176
     1
 90
        0
176
     1
 90
        0
176
     1
290
     0
176
     1
 90
        1
176
     1
 40
0.0
176
     1
 90
        0
176
     1
290
     0
176
     1
290
     1
176
     1
290
     1
176
     1
290
     0
176
     1
290
     0
176
     1
290
     0
176
     1
290
     0
176
     1
290
     0
176
     1
290
     0
176
     1
 90
       50
176
     1
 40
0.0
176
     1
 40
1.0
176
     1
 90
        0
176
     1
 62
    18
420
        0
176
     1
 90
       50
176
     1
 90
        3
176
     1
 62
     5
420
      255
176
     1
290
     0
176
     1
 90
       50
176
     1
 90
       50
176
     1
 90
       50
176
     1
290
     0
176
     1
 90
       50
176
     1
 62
   256
176
     0
 40
1.0
176
     0
 90
        2
176
     1
  1
strokes_ogs.tif
176
     1
290
     0
176
     1
 40
1.0
176
     1
 40
1.0
176
     1
  0
VISUALSTYLE
  5
40
102
{ACAD_REACTORS
330
2A
102
}
330
2A
100
AcDbVisualStyle
  2
X-Ray
 70
    25
177
     3
291
     0
 70
    58
 90
        2
176
     1
 90
        2
176
     1
 90
        1
176
     1
 90
        1
176
     1
 40
0.5
176
     1
 40
30.0
176
     1
 62
     7
420
 16777215
176
     1
 90
        1
176
     1
 90
        0
176
     1
 62
     7
176
     1
 62
   257
176
     1
 90
        1
176
     1
 90
        1
176
     1
 40
1.0
176
     1
 90
        8
176
     1
 62
     7
176
     1
 40
1.0
176
     1
 90
        1
176
     1
 90
        6
176
     1
 90
        2
176
     1
 62
     7
176
     1
 90
        3
176
     1
 90
        0
176
     1
 90
        0
176
     1
290
     0
176
     1
 90
       13
176
     1
 40
0.0
176
     1
 90
        0
176
     1
290
     0
176
     1
290
     1
176
     1
290
     1
176
     1
290
     0
176
     1
290
     0
176
     1
290
     0
176
     1
290
     0
176
     1
290
     0
176
     1
290
     0
176
     1
 90
       50
176
     1
 40
0.0
176
     1
 40
1.0
176
     1
 90
        0
176
     1
 62
    18
420
        0
176
     1
 90
       50
176
     1
 90
        3
176
     1
 62
     5
420
      255
176
     1
290
     0
176
     1
 90
       50
176
     1
 90
       50
176
     1
 90
       50
176
     1
290
     0
176
     1
 90
       50
176
     1
 62
   256
176
     0
 40
1.0
176
     0
 90
        2
176
     1
  1
strokes_ogs.tif
176
     1
290
     0
176
     1
 40
1.0
176
     1
 40
1.0
176
     1
  0
DICTIONARYVAR
  5
7B
102
{ACAD_REACTORS
330
7A
102
}
330
7A
100
DictionaryVariables
280
     0
  1
1:1
  0
DICTIONARYVAR
  5
80
102
{ACAD_REACTORS
330
7A
102
}
330
7A
100
DictionaryVariables
280
     0
  1
Standard
  0
DICTIONARYVAR
  5
7F
102
{ACAD_REACTORS
330
7A
102
}
330
7A
100
DictionaryVariables
280
     0
  1
Standard
  0
DICTIONARY
  5
7C
330
5A
100
AcDbDictionary
280
     1
281
     1
  3
ACAD_ROUNDTRIP_2008_TABLESTYLE_CELLSTYLEMAP
360
7D
  0
CELLSTYLEMAP
  5
7D
102
{ACAD_REACTORS
330
7C
102
}
330
7C
100
AcDbCellStyleMap
 90
        3
300
CELLSTYLE
  1
TABLEFORMAT_BEGIN
 90
        5
170
     1
 91
        0
 92
    32768
 62
   257
 93
        1
300
CONTENTFORMAT
  1
CONTENTFORMAT_BEGIN
 90
        0
 91
        0
 92
        4
 93
        0
300

 40
0.0
140
1.0
 94
        5
 62
     0
340
11
144
0.25
309
CONTENTFORMAT_END
171
     1
301
MARGIN
  1
CELLMARGIN_BEGIN
 40
0.06
 40
0.06
 40
0.06
 40
0.06
 40
0.06
 40
0.06
309
CELLMARGIN_END
 94
        6
 95
        1
302
GRIDFORMAT
  1
GRIDFORMAT_BEGIN
 90
        0
 91
        1
 62
     0
 92
       -2
340
14
 93
        0
 40
0.045
309
GRIDFORMAT_END
 95
        2
302
GRIDFORMAT
  1
GRIDFORMAT_BEGIN
 90
        0
 91
        1
 62
     0
 92
       -2
340
14
 93
        0
 40
0.045
309
GRIDFORMAT_END
 95
        4
302
GRIDFORMAT
  1
GRIDFORMAT_BEGIN
 90
        0
 91
        1
 62
     0
 92
       -2
340
14
 93
        0
 40
0.045
309
GRIDFORMAT_END
 95
        8
302
GRIDFORMAT
  1
GRIDFORMAT_BEGIN
 90
        0
 91
        1
 62
     0
 92
       -2
340
14
 93
        0
 40
0.045
309
GRIDFORMAT_END
 95
       16
302
GRIDFORMAT
  1
GRIDFORMAT_BEGIN
 90
        0
 91
        1
 62
     0
 92
       -2
340
14
 93
        0
 40
0.045
309
GRIDFORMAT_END
 95
       32
302
GRIDFORMAT
  1
GRIDFORMAT_BEGIN
 90
        0
 91
        1
 62
     0
 92
       -2
340
14
 93
        0
 40
0.045
309
GRIDFORMAT_END
309
TABLEFORMAT_END
  1
CELLSTYLE_BEGIN
 90
        1
 91
        1
300
_TITLE
309
CELLSTYLE_END
300
CELLSTYLE
  1
TABLEFORMAT_BEGIN
 90
        5
170
     1
 91
        0
 92
        0
 62
   257
 93
        1
300
CONTENTFORMAT
  1
CONTENTFORMAT_BEGIN
 90
        0
 91
        0
 92
        4
 93
        0
300

 40
0.0
140
1.0
 94
        5
 62
     0
340
11
144
0.18
309
CONTENTFORMAT_END
171
     1
301
MARGIN
  1
CELLMARGIN_BEGIN
 40
0.06
 40
0.06
 40
0.06
 40
0.06
 40
0.06
 40
0.06
309
CELLMARGIN_END
 94
        6
 95
        1
302
GRIDFORMAT
  1
GRIDFORMAT_BEGIN
 90
        0
 91
        1
 62
     0
 92
       -2
340
14
 93
        0
 40
0.045
309
GRIDFORMAT_END
 95
        2
302
GRIDFORMAT
  1
GRIDFORMAT_BEGIN
 90
        0
 91
        1
 62
     0
 92
       -2
340
14
 93
        0
 40
0.045
309
GRIDFORMAT_END
 95
        4
302
GRIDFORMAT
  1
GRIDFORMAT_BEGIN
 90
        0
 91
        1
 62
     0
 92
       -2
340
14
 93
        0
 40
0.045
309
GRIDFORMAT_END
 95
        8
302
GRIDFORMAT
  1
GRIDFORMAT_BEGIN
 90
        0
 91
        1
 62
     0
 92
       -2
340
14
 93
        0
 40
0.045
309
GRIDFORMAT_END
 95
       16
302
GRIDFORMAT
  1
GRIDFORMAT_BEGIN
 90
        0
 91
        1
 62
     0
 92
       -2
340
14
 93
        0
 40
0.045
309
GRIDFORMAT_END
 95
       32
302
GRIDFORMAT
  1
GRIDFORMAT_BEGIN
 90
        0
 91
        1
 62
     0
 92
       -2
340
14
 93
        0
 40
0.045
309
GRIDFORMAT_END
309
TABLEFORMAT_END
  1
CELLSTYLE_BEGIN
 90
        2
 91
        1
300
_HEADER
309
CELLSTYLE_END
300
CELLSTYLE
  1
TABLEFORMAT_BEGIN
 90
        5
170
     1
 91
        0
 92
        0
 62
   257
 93
        1
300
CONTENTFORMAT
  1
CONTENTFORMAT_BEGIN
 90
        0
 91
        0
 92
        4
 93
        0
300

 40
0.0
140
1.0
 94
        2
 62
     0
340
11
144
0.18
309
CONTENTFORMAT_END
171
     1
301
MARGIN
  1
CELLMARGIN_BEGIN
 40
0.06
 40
0.06
 40
0.06
 40
0.06
 40
0.06
 40
0.06
309
CELLMARGIN_END
 94
        6
 95
        1
302
GRIDFORMAT
  1
GRIDFORMAT_BEGIN
 90
        0
 91
        1
 62
     0
 92
       -2
340
14
 93
        0
 40
0.045
309
GRIDFORMAT_END
 95
        2
302
GRIDFORMAT
  1
GRIDFORMAT_BEGIN
 90
        0
 91
        1
 62
     0
 92
       -2
340
14
 93
        0
 40
0.045
309
GRIDFORMAT_END
 95
        4
302
GRIDFORMAT
  1
GRIDFORMAT_BEGIN
 90
        0
 91
        1
 62
     0
 92
       -2
340
14
 93
        0
 40
0.045
309
GRIDFORMAT_END
 95
        8
302
GRIDFORMAT
  1
GRIDFORMAT_BEGIN
 90
        0
 91
        1
 62
     0
 92
       -2
340
14
 93
        0
 40
0.045
309
GRIDFORMAT_END
 95
       16
302
GRIDFORMAT
  1
GRIDFORMAT_BEGIN
 90
        0
 91
        1
 62
     0
 92
       -2
340
14
 93
        0
 40
0.045
309
GRIDFORMAT_END
 95
       32
302
GRIDFORMAT
  1
GRIDFORMAT_BEGIN
 90
        0
 91
        1
 62
     0
 92
       -2
340
14
 93
        0
 40
0.045
309
GRIDFORMAT_END
309
TABLEFORMAT_END
  1
CELLSTYLE_BEGIN
 90
        3
 91
        2
300
_DATA
309
CELLSTYLE_END
  0
ENDSEC
  0
EOF
