  0
SECTION
  2
HEADER
  9
$ACADVER
  1
AC1027
  9
$ACADMAINTVER
 70
   105
  9
$DWGCODEPAGE
  3
ANSI_1252
  9
$LASTSAVEDBY
  1
Office Desk
  9
$REQUIREDVERSIONS
160
                 0
  9
$INSBASE
 10
0.0
 20
0.0
 30
0.0
  9
$EXTMIN
 10
171.0169
 20
-430.974
 30
0.0
  9
$EXTMAX
 10
704.4755
 20
452.3952
 30
0.0
  9
$LIMMIN
 10
0.0
 20
0.0
  9
$LIMMAX
 10
12.0
 20
9.0
  9
$ORTHOMODE
 70
     0
  9
$REGENMODE
 70
     1
  9
$FILLMODE
 70
     1
  9
$QTEXTMODE
 70
     0
  9
$MIRRTEXT
 70
     1
  9
$LTSCALE
 40
1.0
  9
$ATTMODE
 70
     1
  9
$TEXTSIZE
 40
0.2
  9
$TRACEWID
 40
0.05
  9
$TEXTSTYLE
  7
Standard
  9
$CLAYER
  8
0
  9
$CELTYPE
  6
ByLayer
  9
$CECOLOR
 62
   256
  9
$CELTSCALE
 40
1.0
  9
$DISPSILH
 70
     0
  9
$DIMSCALE
 40
1.0
  9
$DIMASZ
 40
0.18
  9
$DIMEXO
 40
0.0625
  9
$DIMDLI
 40
0.38
  9
$DIMRND
 40
0.0
  9
$DIMDLE
 40
0.0
  9
$DIMEXE
 40
0.18
  9
$DIMTP
 40
0.0
  9
$DIMTM
 40
0.0
  9
$DIMTXT
 40
0.18
  9
$DIMCEN
 40
0.09
  9
$DIMTSZ
 40
0.0
  9
$DIMTOL
 70
     0
  9
$DIMLIM
 70
     0
  9
$DIMTIH
 70
     1
  9
$DIMTOH
 70
     1
  9
$DIMSE1
 70
     0
  9
$DIMSE2
 70
     0
  9
$DIMTAD
 70
     0
  9
$DIMZIN
 70
     0
  9
$DIMBLK
  1

  9
$DIMASO
 70
     1
  9
$DIMSHO
 70
     1
  9
$DIMPOST
  1

  9
$DIMAPOST
  1

  9
$DIMALT
 70
     0
  9
$DIMALTD
 70
     2
  9
$DIMALTF
 40
25.4
  9
$DIMLFAC
 40
1.0
  9
$DIMTOFL
 70
     0
  9
$DIMTVP
 40
0.0
  9
$DIMTIX
 70
     0
  9
$DIMSOXD
 70
     0
  9
$DIMSAH
 70
     0
  9
$DIMBLK1
  1

  9
$DIMBLK2
  1

  9
$DIMSTYLE
  2
Standard
  9
$DIMCLRD
 70
     0
  9
$DIMCLRE
 70
     0
  9
$DIMCLRT
 70
     0
  9
$DIMTFAC
 40
1.0
  9
$DIMGAP
 40
0.09
  9
$DIMJUST
 70
     0
  9
$DIMSD1
 70
     0
  9
$DIMSD2
 70
     0
  9
$DIMTOLJ
 70
     1
  9
$DIMTZIN
 70
     0
  9
$DIMALTZ
 70
     0
  9
$DIMALTTZ
 70
     0
  9
$DIMUPT
 70
     0
  9
$DIMDEC
 70
     4
  9
$DIMTDEC
 70
     4
  9
$DIMALTU
 70
     2
  9
$DIMALTTD
 70
     2
  9
$DIMTXSTY
  7
Standard
  9
$DIMAUNIT
 70
     0
  9
$DIMADEC
 70
     0
  9
$DIMALTRND
 40
0.0
  9
$DIMAZIN
 70
     0
  9
$DIMDSEP
 70
    46
  9
$DIMATFIT
 70
     3
  9
$DIMFRAC
 70
     0
  9
$DIMLDRBLK
  1

  9
$DIMLUNIT
 70
     2
  9
$DIMLWD
 70
    -2
  9
$DIMLWE
 70
    -2
  9
$DIMTMOVE
 70
     0
  9
$DIMFXL
 40
1.0
  9
$DIMFXLON
 70
     0
  9
$DIMJOGANG
 40
0.7853981633974483
  9
$DIMTFILL
 70
     0
  9
$DIMTFILLCLR
 70
     0
  9
$DIMARCSYM
 70
     0
  9
$DIMLTYPE
  6

  9
$DIMLTEX1
  6

  9
$DIMLTEX2
  6

  9
$DIMTXTDIRECTION
 70
     0
  9
$LUNITS
 70
     2
  9
$LUPREC
 70
     4
  9
$SKETCHINC
 40
0.1
  9
$FILLETRAD
 40
0.0
  9
$AUNITS
 70
     0
  9
$AUPREC
 70
     0
  9
$MENU
  1
.
  9
$ELEVATION
 40
0.0
  9
$PELEVATION
 40
0.0
  9
$THICKNESS
 40
0.0
  9
$LIMCHECK
 70
     0
  9
$CHAMFERA
 40
0.0
  9
$CHAMFERB
 40
0.0
  9
$CHAMFERC
 40
0.0
  9
$CHAMFERD
 40
0.0
  9
$SKPOLY
 70
     0
  9
$TDCREATE
 40
2461006.701458577
  9
$TDUCREATE
 40
2461006.47229191
  9
$TDUPDATE
 40
2461006.701458577
  9
$TDUUPDATE
 40
2461006.47229191
  9
$TDINDWG
 40
0.0000000116
  9
$TDUSRTIMER
 40
0.0000000116
  9
$USRTIMER
 70
     1
  9
$ANGBASE
 50
0.0
  9
$ANGDIR
 70
     0
  9
$PDMODE
 70
     0
  9
$PDSIZE
 40
0.0
  9
$PLINEWID
 40
0.0
  9
$SPLFRAME
 70
     0
  9
$SPLINETYPE
 70
     6
  9
$SPLINESEGS
 70
     8
  9
$HANDSEED
  5
85
  9
$SURFTAB1
 70
     6
  9
$SURFTAB2
 70
     6
  9
$SURFTYPE
 70
     6
  9
$SURFU
 70
     6
  9
$SURFV
 70
     6
  9
$UCSBASE
  2

  9
$UCSNAME
  2

  9
$UCSORG
 10
0.0
 20
0.0
 30
0.0
  9
$UCSXDIR
 10
1.0
 20
0.0
 30
0.0
  9
$UCSYDIR
 10
0.0
 20
1.0
 30
0.0
  9
$UCSORTHOREF
  2

  9
$UCSORTHOVIEW
 70
     0
  9
$UCSORGTOP
 10
0.0
 20
0.0
 30
0.0
  9
$UCSORGBOTTOM
 10
0.0
 20
0.0
 30
0.0
  9
$UCSORGLEFT
 10
0.0
 20
0.0
 30
0.0
  9
$UCSORGRIGHT
 10
0.0
 20
0.0
 30
0.0
  9
$UCSORGFRONT
 10
0.0
 20
0.0
 30
0.0
  9
$UCSORGBACK
 10
0.0
 20
0.0
 30
0.0
  9
$PUCSBASE
  2

  9
$PUCSNAME
  2

  9
$PUCSORG
 10
0.0
 20
0.0
 30
0.0
  9
$PUCSXDIR
 10
1.0
 20
0.0
 30
0.0
  9
$PUCSYDIR
 10
0.0
 20
1.0
 30
0.0
  9
$PUCSORTHOREF
  2

  9
$PUCSORTHOVIEW
 70
     0
  9
$PUCSORGTOP
 10
0.0
 20
0.0
 30
0.0
  9
$PUCSORGBOTTOM
 10
0.0
 20
0.0
 30
0.0
  9
$PUCSORGLEFT
 10
0.0
 20
0.0
 30
0.0
  9
$PUCSORGRIGHT
 10
0.0
 20
0.0
 30
0.0
  9
$PUCSORGFRONT
 10
0.0
 20
0.0
 30
0.0
  9
$PUCSORGBACK
 10
0.0
 20
0.0
 30
0.0
  9
$USERI1
 70
     0
  9
$USERI2
 70
     0
  9
$USERI3
 70
     0
  9
$USERI4
 70
     0
  9
$USERI5
 70
     0
  9
$USERR1
 40
0.0
  9
$USERR2
 40
0.0
  9
$USERR3
 40
0.0
  9
$USERR4
 40
0.0
  9
$USERR5
 40
0.0
  9
$WORLDVIEW
 70
     1
  9
$SHADEDGE
 70
     3
  9
$SHADEDIF
 70
    70
  9
$TILEMODE
 70
     1
  9
$MAXACTVP
 70
    64
  9
$PINSBASE
 10
0.0
 20
0.0
 30
0.0
  9
$PLIMCHECK
 70
     0
  9
$PEXTMIN
 10
1.000000000000000E+20
 20
1.000000000000000E+20
 30
1.000000000000000E+20
  9
$PEXTMAX
 10
-1.000000000000000E+20
 20
-1.000000000000000E+20
 30
-1.000000000000000E+20
  9
$PLIMMIN
 10
0.0
 20
0.0
  9
$PLIMMAX
 10
12.0
 20
9.0
  9
$UNITMODE
 70
     0
  9
$VISRETAIN
 70
     1
  9
$PLINEGEN
 70
     0
  9
$PSLTSCALE
 70
     1
  9
$TREEDEPTH
 70
  3020
  9
$CMLSTYLE
  2
Standard
  9
$CMLJUST
 70
     0
  9
$CMLSCALE
 40
1.0
  9
$PROXYGRAPHICS
 70
     1
  9
$MEASUREMENT
 70
     0
  9
$CELWEIGHT
370
    -1
  9
$ENDCAPS
280
     0
  9
$JOINSTYLE
280
     0
  9
$LWDISPLAY
290
     0
  9
$INSUNITS
 70
     4
  9
$HYPERLINKBASE
  1

  9
$STYLESHEET
  1

  9
$XEDIT
290
     1
  9
$CEPSNTYPE
380
     0
  9
$PSTYLEMODE
290
     1
  9
$FINGERPRINTGUID
  2
{ddf11b82-46b3-49b3-b5c6-0d0fb51cf3cf}
  9
$VERSIONGUID
  2
{FAEB1C32-E019-11D5-929B-00C0DF256EC4}
  9
$EXTNAMES
290
     1
  9
$PSVPSCALE
 40
0.0
  9
$OLESTARTUP
290
     0
  9
$SORTENTS
280
   127
  9
$INDEXCTL
280
     0
  9
$HIDETEXT
280
     1
  9
$XCLIPFRAME
280
     2
  9
$HALOGAP
280
     0
  9
$OBSCOLOR
 70
   257
  9
$OBSLTYPE
280
     0
  9
$INTERSECTIONDISPLAY
280
     0
  9
$INTERSECTIONCOLOR
 70
   257
  9
$DIMASSOC
280
     2
  9
$PROJECTNAME
  1

  9
$CAMERADISPLAY
290
     0
  9
$LENSLENGTH
 40
50.0
  9
$CAMERAHEIGHT
 40
0.0
  9
$STEPSPERSEC
 40
2.0
  9
$STEPSIZE
 40
6.0
  9
$3DDWFPREC
 40
2.0
  9
$PSOLWIDTH
 40
0.25
  9
$PSOLHEIGHT
 40
4.0
  9
$LOFTANG1
 40
1.570796326794897
  9
$LOFTANG2
 40
1.570796326794897
  9
$LOFTMAG1
 40
0.0
  9
$LOFTMAG2
 40
0.0
  9
$LOFTPARAM
 70
     7
  9
$LOFTNORMALS
280
     1
  9
$LATITUDE
 40
37.795
  9
$LONGITUDE
 40
-122.394
  9
$NORTHDIRECTION
 40
0.0
  9
$TIMEZONE
 70
 -8000
  9
$LIGHTGLYPHDISPLAY
280
     1
  9
$TILEMODELIGHTSYNCH
280
     1
  9
$CMATERIAL
347
44
  9
$SOLIDHIST
280
     0
  9
$SHOWHIST
280
     1
  9
$DWFFRAME
280
     2
  9
$DGNFRAME
280
     2
  9
$REALWORLDSCALE
290
     1
  9
$INTERFERECOLOR
 62
   256
  9
$CSHADOW
280
     0
  9
$SHADOWPLANELOCATION
 40
0.0
  0
ENDSEC
  0
SECTION
  2
CLASSES
  0
CLASS
  1
ACDBDICTIONARYWDFLT
  2
AcDbDictionaryWithDefault
  3
ObjectDBX Classes
 90
        0
 91
        3
280
     0
281
     0
  0
CLASS
  1
VISUALSTYLE
  2
AcDbVisualStyle
  3
ObjectDBX Classes
 90
     4095
 91
        3
280
     0
281
     0
  0
CLASS
  1
MATERIAL
  2
AcDbMaterial
  3
ObjectDBX Classes
 90
     1153
 91
        3
280
     0
281
     0
  0
CLASS
  1
SCALE
  2
AcDbScale
  3
ObjectDBX Classes
 90
     1153
 91
        3
280
     0
281
     0
  0
CLASS
  1
TABLESTYLE
  2
AcDbTableStyle
  3
ObjectDBX Classes
 90
     4095
 91
        3
280
     0
281
     0
  0
CLASS
  1
MLEADERSTYLE
  2
AcDbMLeaderStyle
  3
ACDB_MLEADERSTYLE_CLASS
 90
     4095
 91
        3
280
     0
281
     0
  0
CLASS
  1
SUN
  2
AcDbSun
  3
SCENEOE
 90
     1153
 91
        3
280
     0
281
     0
  0
CLASS
  1
DICTIONARYVAR
  2
AcDbDictionaryVar
  3
ObjectDBX Classes
 90
        0
 91
        3
280
     0
281
     0
  0
CLASS
  1
CELLSTYLEMAP
  2
AcDbCellStyleMap
  3
ObjectDBX Classes
 90
     1152
 91
        3
280
     0
281
     0
  0
ENDSEC
  0
SECTION
  2
TABLES
  0
TABLE
  2
VPORT
  5
8
330
0
100
AcDbSymbolTable
 70
     1
  0
VPORT
  5
29
330
8
100
AcDbSymbolTableRecord
100
AcDbViewportTableRecord
  2
*Active
 70
     0
 10
0.0
 20
0.0
 11
1.0
 21
1.0
 12
10.42990654205607
 22
4.5
 13
0.0
 23
0.0
 14
0.5
 24
0.5
 15
0.5
 25
0.5
 16
0.0
 26
0.0
 36
1.0
 17
0.0
 27
0.0
 37
0.0
 40
9.0
 41
1.972972972850329
 42
50.0
 43
0.0
 44
0.0
 50
0.0
 51
0.0
 71
     0
 72
   100
 73
     1
 74
     3
 75
     0
 76
     0
 77
     0
 78
     0
281
     0
 65
     1
110
0.0
120
0.0
130
0.0
111
1.0
121
0.0
131
0.0
112
0.0
122
1.0
132
0.0
 79
     0
146
0.0
348
2F
 60
     3
 61
     5
292
     1
282
     1
141
0.0
142
0.0
 63
   250
361
5D
  0
ENDTAB
  0
TABLE
  2
LTYPE
  5
5
330
0
100
AcDbSymbolTable
 70
     1
  0
LTYPE
  5
14
330
5
100
AcDbSymbolTableRecord
100
AcDbLinetypeTableRecord
  2
ByBlock
 70
     0
  3

 72
    65
 73
     0
 40
0.0
  0
LTYPE
  5
15
330
5
100
AcDbSymbolTableRecord
100
AcDbLinetypeTableRecord
  2
ByLayer
 70
     0
  3

 72
    65
 73
     0
 40
0.0
  0
LTYPE
  5
16
330
5
100
AcDbSymbolTableRecord
100
AcDbLinetypeTableRecord
  2
Continuous
 70
     0
  3
Solid line
 72
    65
 73
     0
 40
0.0
  0
ENDTAB
  0
TABLE
  2
LAYER
  5
2
330
0
100
AcDbSymbolTable
 70
     2
  0
LAYER
  5
10
330
2
100
AcDbSymbolTableRecord
100
AcDbLayerTableRecord
  2
0
 70
     0
 62
     7
  6
Continuous
370
    -3
390
F
347
46
348
0
  0
LAYER
  5
5F
330
2
100
AcDbSymbolTableRecord
100
AcDbLayerTableRecord
  2
Layer 1
 70
     0
 62
     7
  6
Continuous
370
    -3
390
F
347
46
348
0
  0
ENDTAB
  0
TABLE
  2
STYLE
  5
3
330
0
100
AcDbSymbolTable
 70
     1
  0
STYLE
  5
11
330
3
100
AcDbSymbolTableRecord
100
AcDbTextStyleTableRecord
  2
Standard
 70
     0
 40
0.0
 41
1.0
 50
0.0
 71
     0
 42
0.2
  3
txt
  4

  0
ENDTAB
  0
TABLE
  2
VIEW
  5
6
330
0
100
AcDbSymbolTable
 70
     0
  0
ENDTAB
  0
TABLE
  2
UCS
  5
7
330
0
100
AcDbSymbolTable
 70
     0
  0
ENDTAB
  0
TABLE
  2
APPID
  5
9
330
0
100
AcDbSymbolTable
 70
     2
  0
APPID
  5
12
330
9
100
AcDbSymbolTableRecord
100
AcDbRegAppTableRecord
  2
ACAD
 70
     0
  0
APPID
  5
5E
330
9
100
AcDbSymbolTableRecord
100
AcDbRegAppTableRecord
  2
ODA
 70
     0
  0
ENDTAB
  0
TABLE
  2
DIMSTYLE
  5
A
330
0
100
AcDbSymbolTable
 70
     1
100
AcDbDimStyleTable
  0
DIMSTYLE
105
27
330
A
100
AcDbSymbolTableRecord
100
AcDbDimStyleTableRecord
  2
Standard
 70
     0
178
     0
340
11
  0
ENDTAB
  0
TABLE
  2
BLOCK_RECORD
  5
1
330
0
100
AcDbSymbolTable
 70
     1
  0
BLOCK_RECORD
  5
1F
330
1
100
AcDbSymbolTableRecord
100
AcDbBlockTableRecord
  2
*Model_Space
340
22
 70
     0
280
     1
281
     0
  0
BLOCK_RECORD
  5
1B
330
1
100
AcDbSymbolTableRecord
100
AcDbBlockTableRecord
  2
*Paper_Space
340
1E
 70
     0
280
     1
281
     0
  0
BLOCK_RECORD
  5
23
330
1
100
AcDbSymbolTableRecord
100
AcDbBlockTableRecord
  2
*Paper_Space0
340
26
 70
     0
280
     1
281
     0
  0
ENDTAB
  0
ENDSEC
  0
SECTION
  2
BLOCKS
  0
BLOCK
  5
20
330
1F
100
AcDbEntity
  8
0
100
AcDbBlockBegin
  2
*Model_Space
 70
     0
 10
0.0
 20
0.0
 30
0.0
  3
*Model_Space
  1

  0
ENDBLK
  5
21
330
1F
100
AcDbEntity
  8
0
100
AcDbBlockEnd
  0
BLOCK
  5
1C
330
1B
100
AcDbEntity
 67
     1
  8
0
100
AcDbBlockBegin
  2
*Paper_Space
 70
     0
 10
0.0
 20
0.0
 30
0.0
  3
*Paper_Space
  1

  0
ENDBLK
  5
1D
330
1B
100
AcDbEntity
 67
     1
  8
0
100
AcDbBlockEnd
  0
BLOCK
  5
24
330
23
100
AcDbEntity
  8
0
100
AcDbBlockBegin
  2
*Paper_Space0
 70
     0
 10
0.0
 20
0.0
 30
0.0
  3
*Paper_Space0
  1

  0
ENDBLK
  5
25
330
23
100
AcDbEntity
  8
0
100
AcDbBlockEnd
  0
ENDSEC
  0
SECTION
  2
ENTITIES
  0
LWPOLYLINE
  5
60
330
1F
100
AcDbEntity
  8
Layer 1
 62
   250
370
    18
100
AcDbPolyline
 90
        5
 70
     1
 43
0.0
 10
171.1051
 20
-430.8858
 10
704.3873
 20
-430.8858
 10
704.3873
 20
452.307
 10
171.1051
 20
452.307
 10
171.1051
 20
-430.8858
  0
LWPOLYLINE
  5
61
330
1F
100
AcDbEntity
  8
Layer 1
 62
     7
370
    18
100
AcDbPolyline
 90
       33
 70
     1
 43
0.0
 10
401.3534
 20
367.4267
 10
430.2781
 20
366.3807
 10
457.2125
 20
365.0318
 10
481.5798
 20
363.4351
 10
502.8036
 20
361.6461
 10
520.3074
 20
359.72
 10
533.5144
 20
357.7123
 10
541.8483
 20
355.6781
 10
544.7323
 20
353.6728
 10
541.7838
 20
351.8391
 10
533.3899
 20
350.2977
 10
520.1285
 20
349.0699
 10
502.5774
 20
348.1768
 10
481.3145
 20
347.6398
 10
456.9176
 20
347.4801
 10
429.9646
 20
347.719
 10
401.0332
 20
348.3778
 10
372.1083
 20
349.4238
 10
345.1739
 20
350.7727
 10
320.8065
 20
352.3692
 10
299.5826
 20
354.1581
 10
282.0788
 20
356.0841
 10
268.8717
 20
358.0919
 10
260.5379
 20
360.1262
 10
257.6539
 20
362.1317
 10
260.6024
 20
363.9651
 10
268.9963
 20
365.5064
 10
282.2577
 20
366.7343
 10
299.8088
 20
367.6274
 10
321.0717
 20
368.1645
 10
345.4687
 20
368.3243
 10
372.4219
 20
368.0854
 10
401.3534
 20
367.4267
  0
LWPOLYLINE
  5
62
330
1F
100
AcDbEntity
  8
Layer 1
 62
     7
370
    18
100
AcDbPolyline
 90
        2
 70
     0
 43
0.0
 10
257.6539
 20
362.1317
 10
269.9897
 20
-316.6394
  0
LWPOLYLINE
  5
63
330
1F
100
AcDbEntity
  8
Layer 1
 62
     7
370
    18
100
AcDbPolyline
 90
        2
 70
     0
 43
0.0
 10
522.5152
 20
-312.0845
 10
523.6161
 20
-293.0997
  0
LWPOLYLINE
  5
64
330
1F
100
AcDbEntity
  8
Layer 1
 62
     7
370
    18
100
AcDbPolyline
 90
       26
 70
     0
 43
0.0
 10
544.318
 20
352.9656
 10
522.5097
 20
-312.0939
 10
521.3855
 20
-323.8728
 10
517.6707
 20
-337.6571
 10
510.8666
 20
-352.5278
 10
500.4749
 20
-367.5659
 10
485.9969
 20
-381.8526
 10
466.9342
 20
-394.469
 10
442.7882
 20
-404.4961
 10
413.0604
 20
-411.015
 10
382.2705
 20
-411.91
 10
355.3246
 20
-406.872
 10
332.3032
 20
-397.6928
 10
313.2869
 20
-386.1645
 10
298.3562
 20
-374.0788
 10
287.5917
 20
-363.2277
 10
281.074
 20
-355.4029
 10
278.8835
 20
-352.3965
 10
275.9013
 20
-345.4116
 10
273.6563
 20
-338.345
 10
272.0319
 20
-331.1666
 10
270.9114
 20
-323.8459
 10
270.1783
 20
-316.3526
 10
269.7159
 20
-308.6563
 10
269.4076
 20
-300.7267
 10
269.1368
 20
-292.5335
  0
LWPOLYLINE
  5
65
330
1F
100
AcDbEntity
  8
Layer 1
 62
     7
100
AcDbPolyline
 90
       65
 70
     1
 43
0.0
 10
592.1632
 20
19.7308
 10
592.5578
 20
19.7073
 10
592.937
 20
19.6366
 10
593.3008
 20
19.5189
 10
593.6492
 20
19.3542
 10
593.9822
 20
19.1424
 10
594.2998
 20
18.8835
 10
594.602
 20
18.5776
 10
594.8888
 20
18.2247
 10
595.1475
 20
17.8421
 10
595.3717
 20
17.4376
 10
595.5613
 20
17.0113
 10
595.7165
 20
16.5633
 10
595.8371
 20
16.0933
 10
595.9232
 20
15.6017
 10
595.9749
 20
15.0882
 10
595.9921
 20
14.5529
 10
595.9751
 20
14.0223
 10
595.924
 20
13.5094
 10
595.8389
 20
13.0145
 10
595.7197
 20
12.5373
 10
595.5664
 20
12.078
 10
595.3791
 20
11.6365
 10
595.1577
 20
11.2128
 10
594.9022
 20
10.807
 10
594.6223
 20
10.4367
 10
594.3247
 20
10.1158
 10
594.0091
 20
9.8443
 10
593.6757
 20
9.6223
 10
593.3244
 20
9.4496
 10
592.9553
 20
9.3263
 10
592.5682
 20
9.2524
 10
592.1632
 20
9.2277
 10
591.7584
 20
9.2524
 10
591.3714
 20
9.3263
 10
591.0022
 20
9.4496
 10
590.651
 20
9.6223
 10
590.3176
 20
9.8443
 10
590.0021
 20
10.1158
 10
589.7045
 20
10.4367
 10
589.4248
 20
10.807
 10
589.1693
 20
11.2128
 10
588.9478
 20
11.6365
 10
588.7604
 20
12.078
 10
588.607
 20
12.5373
 10
588.4877
 20
13.0145
 10
588.4025
 20
13.5094
 10
588.3513
 20
14.0223
 10
588.3343
 20
14.5529
 10
588.3515
 20
15.0882
 10
588.4033
 20
15.6017
 10
588.4895
 20
16.0933
 10
588.6102
 20
16.5633
 10
588.7654
 20
17.0113
 10
588.955
 20
17.4376
 10
589.1791
 20
17.8421
 10
589.4376
 20
18.2247
 10
589.7245
 20
18.5776
 10
590.0268
 20
18.8835
 10
590.3445
 20
19.1424
 10
590.6775
 20
19.3542
 10
591.0259
 20
19.5189
 10
591.3897
 20
19.6366
 10
591.7688
 20
19.7073
 10
592.1632
 20
19.7308
  0
LWPOLYLINE
  5
66
330
1F
100
AcDbEntity
  8
Layer 1
 62
     7
100
AcDbPolyline
 90
       65
 70
     1
 43
0.0
 10
592.1632
 20
29.8662
 10
592.4813
 20
29.8479
 10
592.7874
 20
29.7928
 10
593.0813
 20
29.7011
 10
593.3632
 20
29.5727
 10
593.633
 20
29.4075
 10
593.8908
 20
29.2056
 10
594.1366
 20
28.967
 10
594.3704
 20
28.6916
 10
594.5885
 20
28.382
 10
594.7775
 20
28.0546
 10
594.9375
 20
27.7094
 10
595.0684
 20
27.3464
 10
595.1703
 20
26.9656
 10
595.2431
 20
26.567
 10
595.2867
 20
26.1506
 10
595.3013
 20
25.7165
 10
595.2867
 20
25.292
 10
595.2431
 20
24.8813
 10
595.1703
 20
24.4843
 10
595.0684
 20
24.101
 10
594.9375
 20
23.7314
 10
594.7775
 20
23.3756
 10
594.5885
 20
23.0335
 10
594.3704
 20
22.7051
 10
594.1382
 20
22.4125
 10
593.8935
 20
22.159
 10
593.6363
 20
21.9444
 10
593.3667
 20
21.7688
 10
593.0845
 20
21.6322
 10
592.7899
 20
21.5346
 10
592.4828
 20
21.476
 10
592.1632
 20
21.4565
 10
591.8437
 20
21.476
 10
591.5367
 20
21.5346
 10
591.2421
 20
21.6322
 10
590.9601
 20
21.7688
 10
590.6904
 20
21.9444
 10
590.4332
 20
22.159
 10
590.1885
 20
22.4125
 10
589.9561
 20
22.7051
 10
589.7381
 20
23.0335
 10
589.5491
 20
23.3756
 10
589.3892
 20
23.7314
 10
589.2584
 20
24.101
 10
589.1566
 20
24.4843
 10
589.0839
 20
24.8813
 10
589.0403
 20
25.292
 10
589.0258
 20
25.7165
 10
589.0403
 20
26.1506
 10
589.0839
 20
26.567
 10
589.1566
 20
26.9656
 10
589.2584
 20
27.3464
 10
589.3892
 20
27.7094
 10
589.5491
 20
28.0546
 10
589.7381
 20
28.382
 10
589.9561
 20
28.6916
 10
590.1899
 20
28.967
 10
590.4357
 20
29.2056
 10
590.6936
 20
29.4075
 10
590.9635
 20
29.5727
 10
591.2454
 20
29.7011
 10
591.5393
 20
29.7928
 10
591.8453
 20
29.8479
 10
592.1632
 20
29.8662
  0
LWPOLYLINE
  5
67
330
1F
100
AcDbEntity
  8
Layer 1
 62
     7
100
AcDbPolyline
 90
      121
 70
     1
 43
0.0
 10
592.1632
 20
6.6572
 10
592.7726
 20
6.689
 10
593.3574
 20
6.7845
 10
593.9176
 20
6.9437
 10
594.4534
 20
7.1666
 10
594.9647
 20
7.4531
 10
595.4514
 20
7.8034
 10
595.9138
 20
8.2174
 10
596.3516
 20
8.6951
 10
596.5488
 20
8.9447
 10
596.7353
 20
9.2069
 10
596.9109
 20
9.4817
 10
597.0759
 20
9.7691
 10
597.23
 20
10.0692
 10
597.3734
 20
10.3819
 10
597.506
 20
10.7072
 10
597.6279
 20
11.0451
 10
597.7369
 20
11.3959
 10
597.8313
 20
11.7593
 10
597.9112
 20
12.1352
 10
597.9766
 20
12.5238
 10
598.0274
 20
12.9248
 10
598.0637
 20
13.3385
 10
598.0854
 20
13.7648
 10
598.0927
 20
14.2037
 10
598.0804
 20
14.6483
 10
598.0437
 20
15.0919
 10
597.9824
 20
15.5343
 10
597.8967
 20
15.9756
 10
597.7864
 20
16.4157
 10
597.6516
 20
16.8547
 10
597.4924
 20
17.2925
 10
597.3086
 20
17.7291
 10
597.1018
 20
18.1551
 10
596.8739
 20
18.5611
 10
596.6248
 20
18.947
 10
596.3545
 20
19.3129
 10
596.0631
 20
19.6587
 10
595.7506
 20
19.9844
 10
595.4168
 20
20.29
 10
595.0619
 20
20.5755
 10
595.5667
 20
21.1971
 10
596.0042
 20
21.8319
 10
596.3743
 20
22.48
 10
596.6771
 20
23.1412
 10
596.9126
 20
23.8157
 10
597.0808
 20
24.5034
 10
597.1818
 20
25.2043
 10
597.2154
 20
25.9184
 10
597.1924
 20
26.623
 10
597.1232
 20
27.2947
 10
597.008
 20
27.9337
 10
596.8466
 20
28.54
 10
596.6391
 20
29.1135
 10
596.3855
 20
29.6543
 10
596.0858
 20
30.1624
 10
595.7399
 20
30.6378
 10
595.3742
 20
31.051
 10
594.9852
 20
31.4091
 10
594.573
 20
31.7121
 10
594.1375
 20
31.9599
 10
593.6788
 20
32.1527
 10
593.1969
 20
32.2904
 10
592.6917
 20
32.373
 10
592.1632
 20
32.4005
 10
591.6348
 20
32.373
 10
591.1296
 20
32.2904
 10
590.6477
 20
32.1527
 10
590.189
 20
31.9599
 10
589.7536
 20
31.7121
 10
589.3415
 20
31.4091
 10
588.9527
 20
31.051
 10
588.5872
 20
30.6378
 10
588.2413
 20
30.1626
 10
587.9415
 20
29.6554
 10
587.6877
 20
29.116
 10
587.4801
 20
28.5445
 10
587.3187
 20
27.9408
 10
587.2033
 20
27.305
 10
587.1341
 20
26.6371
 10
587.111
 20
25.9369
 10
587.1447
 20
25.2184
 10
587.2457
 20
24.5137
 10
587.414
 20
23.8228
 10
587.6496
 20
23.1458
 10
587.9526
 20
22.4825
 10
588.3228
 20
21.833
 10
588.7604
 20
21.1974
 10
589.2652
 20
20.5755
 10
588.9101
 20
20.29
 10
588.5762
 20
19.9844
 10
588.2635
 20
19.6587
 10
587.972
 20
19.3129
 10
587.7017
 20
18.947
 10
587.4526
 20
18.5611
 10
587.2246
 20
18.1551
 10
587.0178
 20
17.7291
 10
586.834
 20
17.2916
 10
586.6748
 20
16.8512
 10
586.54
 20
16.4079
 10
586.4298
 20
15.9618
 10
586.344
 20
15.5128
 10
586.2828
 20
15.061
 10
586.246
 20
14.6064
 10
586.2338
 20
14.149
 10
586.261
 20
13.3286
 10
586.3427
 20
12.5479
 10
586.4787
 20
11.8067
 10
586.6692
 20
11.1053
 10
586.9142
 20
10.4434
 10
587.2135
 20
9.821
 10
587.5673
 20
9.2383
 10
587.9755
 20
8.6951
 10
588.4131
 20
8.2174
 10
588.8753
 20
7.8034
 10
589.362
 20
7.4531
 10
589.8732
 20
7.1666
 10
590.4089
 20
6.9437
 10
590.9691
 20
6.7845
 10
591.5539
 20
6.689
 10
592.1632
 20
6.6572
  0
LWPOLYLINE
  5
68
330
1F
100
AcDbEntity
  8
Layer 1
 62
     7
100
AcDbPolyline
 90
      136
 70
     1
 43
0.0
 10
603.9161
 20
22.7421
 10
605.1394
 20
29.4262
 10
611.6806
 20
29.4262
 10
611.6806
 20
31.9966
 10
603.7297
 20
31.9966
 10
601.656
 20
20.796
 10
603.6767
 20
19.5474
 10
603.9698
 20
19.8228
 10
604.2774
 20
20.0614
 10
604.5996
 20
20.2632
 10
604.9364
 20
20.4284
 10
605.2876
 20
20.5568
 10
605.6534
 20
20.6485
 10
606.0337
 20
20.7036
 10
606.4285
 20
20.7219
 10
606.8258
 20
20.695
 10
607.2097
 20
20.6141
 10
607.5804
 20
20.4794
 10
607.9377
 20
20.2907
 10
608.2817
 20
20.0481
 10
608.6125
 20
19.7515
 10
608.9299
 20
19.4008
 10
609.234
 20
18.9962
 10
609.5208
 20
18.5449
 10
609.7693
 20
18.0769
 10
609.9795
 20
17.5923
 10
610.1515
 20
17.0911
 10
610.2853
 20
16.5732
 10
610.3809
 20
16.0387
 10
610.4382
 20
15.4875
 10
610.4573
 20
14.9197
 10
610.4378
 20
14.3323
 10
610.3792
 20
13.7685
 10
610.2815
 20
13.2283
 10
610.1449
 20
12.7116
 10
609.9691
 20
12.2184
 10
609.7544
 20
11.7488
 10
609.5006
 20
11.3028
 10
609.2078
 20
10.8802
 10
609.0587
 20
10.6923
 10
608.9043
 20
10.5141
 10
608.7445
 20
10.3456
 10
608.5793
 20
10.1869
 10
608.4088
 20
10.038
 10
608.2328
 20
9.8988
 10
608.0514
 20
9.7696
 10
607.8645
 20
9.6501
 10
607.6697
 20
9.5424
 10
607.4641
 20
9.4491
 10
607.2477
 20
9.3701
 10
607.0205
 20
9.3055
 10
606.7824
 20
9.2553
 10
606.5335
 20
9.2194
 10
606.2738
 20
9.1979
 10
606.0033
 20
9.1907
 10
605.7277
 20
9.2068
 10
605.4525
 20
9.255
 10
605.1777
 20
9.3354
 10
604.9032
 20
9.4479
 10
604.6291
 20
9.5925
 10
604.3555
 20
9.7692
 10
604.0823
 20
9.978
 10
603.8095
 20
10.2188
 10
603.5469
 20
10.4857
 10
603.3043
 20
10.7721
 10
603.0816
 20
11.078
 10
602.8789
 20
11.4034
 10
602.6961
 20
11.7483
 10
602.5333
 20
12.1128
 10
602.3905
 20
12.4968
 10
602.2676
 20
12.9004
 10
600.4595
 20
12.0918
 10
600.6371
 20
11.4873
 10
600.8442
 20
10.9133
 10
601.0808
 20
10.3697
 10
601.3469
 20
9.8565
 10
601.6425
 20
9.3738
 10
601.9676
 20
8.9214
 10
602.3222
 20
8.4994
 10
602.7063
 20
8.1078
 10
603.1147
 20
7.7505
 10
603.5323
 20
7.4408
 10
603.9589
 20
7.1787
 10
604.3947
 20
6.9644
 10
604.8396
 20
6.7976
 10
605.2937
 20
6.6785
 10
605.7569
 20
6.607
 10
606.2293
 20
6.5832
 10
606.8588
 20
6.6225
 10
607.4641
 20
6.7405
 10
608.0454
 20
6.937
 10
608.6025
 20
7.2122
 10
609.1356
 20
7.566
 10
609.6445
 20
7.9984
 10
610.1294
 20
8.5093
 10
610.5901
 20
9.0989
 10
611.0077
 20
9.7391
 10
611.3697
 20
10.4108
 10
611.6759
 20
11.1139
 10
611.9265
 20
11.8486
 10
612.1214
 20
12.6149
 10
612.2606
 20
13.4127
 10
612.3442
 20
14.2421
 10
612.372
 20
15.1031
 10
612.3446
 20
15.9596
 10
612.2623
 20
16.78
 10
612.1251
 20
17.5641
 10
611.9331
 20
18.3121
 10
611.6863
 20
19.0239
 10
611.3846
 20
19.6995
 10
611.0281
 20
20.339
 10
610.6169
 20
20.9424
 10
610.4067
 20
21.2107
 10
610.1881
 20
21.4646
 10
609.9612
 20
21.7041
 10
609.726
 20
21.9293
 10
609.4825
 20
22.1402
 10
609.2306
 20
22.3367
 10
608.9705
 20
22.5188
 10
608.7021
 20
22.6866
 10
608.4283
 20
22.8374
 10
608.1521
 20
22.9681
 10
607.8736
 20
23.0786
 10
607.5927
 20
23.1689
 10
607.3096
 20
23.2392
 10
607.0241
 20
23.2893
 10
606.7366
 20
23.3194
 10
606.4468
 20
23.3294
 10
606.1513
 20
23.3202
 10
605.8499
 20
23.2927
 10
605.5426
 20
23.2467
 10
605.2295
 20
23.1825
 10
604.9103
 20
23.0999
 10
604.585
 20
22.9989
 10
604.2536
 20
22.8797
 10
603.9161
 20
22.7421
  0
LWPOLYLINE
  5
69
330
1F
100
AcDbEntity
  8
Layer 1
 62
     7
100
AcDbPolyline
 90
      129
 70
     1
 43
0.0
 10
622.6756
 20
29.0955
 10
622.9826
 20
28.8075
 10
623.2688
 20
28.4804
 10
623.5343
 20
28.1143
 10
623.779
 20
27.7091
 10
624.003
 20
27.2649
 10
624.2061
 20
26.7816
 10
624.3886
 20
26.2593
 10
624.5502
 20
25.6979
 10
624.7309
 20
24.9535
 10
624.8876
 20
24.1982
 10
625.0201
 20
23.432
 10
625.1286
 20
22.6549
 10
625.2129
 20
21.8669
 10
625.2732
 20
21.0679
 10
625.3093
 20
20.258
 10
625.3214
 20
19.4371
 10
625.3201
 20
19.24
 10
625.3164
 20
19.0342
 10
625.3101
 20
18.8198
 10
625.3014
 20
18.5968
 10
625.2901
 20
18.3652
 10
625.2764
 20
18.125
 10
625.2602
 20
17.8762
 10
625.2416
 20
17.6189
 10
625.1494
 20
16.6317
 10
625.0288
 20
15.6991
 10
624.8801
 20
14.8209
 10
624.703
 20
13.9972
 10
624.4977
 20
13.228
 10
624.2642
 20
12.5132
 10
624.0025
 20
11.8529
 10
623.7125
 20
11.247
 10
623.4479
 20
10.7909
 10
623.1692
 20
10.3956
 10
622.8764
 20
10.0611
 10
622.5694
 20
9.7874
 10
622.2482
 20
9.5746
 10
621.913
 20
9.4225
 10
621.5636
 20
9.3313
 10
621.2001
 20
9.3009
 10
620.7943
 20
9.331
 10
620.408
 20
9.4214
 10
620.0413
 20
9.5721
 10
619.6941
 20
9.783
 10
619.3664
 20
10.0542
 10
619.0583
 20
10.3857
 10
618.7697
 20
10.7774
 10
618.5007
 20
11.2294
 10
618.3869
 20
11.4483
 10
618.2781
 20
11.6742
 10
618.1742
 20
11.9071
 10
618.0754
 20
12.1469
 10
617.9815
 20
12.3936
 10
617.8927
 20
12.6473
 10
617.8088
 20
12.9079
 10
617.73
 20
13.1755
 10
617.6558
 20
13.4471
 10
617.5861
 20
13.7204
 10
617.521
 20
13.9955
 10
617.4605
 20
14.2723
 10
617.4046
 20
14.551
 10
617.3533
 20
14.8314
 10
617.3067
 20
15.1136
 10
617.2646
 20
15.3976
 10
617.2261
 20
15.681
 10
617.1906
 20
15.9621
 10
617.158
 20
16.2408
 10
617.1283
 20
16.5173
 10
617.1015
 20
16.7914
 10
617.0777
 20
17.0633
 10
617.0567
 20
17.333
 10
617.0386
 20
17.6004
 10
617.023
 20
17.8718
 10
617.0095
 20
18.1535
 10
616.998
 20
18.4454
 10
616.9887
 20
18.7474
 10
616.9815
 20
19.0594
 10
616.9763
 20
19.3813
 10
616.9732
 20
19.7131
 10
616.9722
 20
20.0547
 10
616.9768
 20
20.4118
 10
616.9905
 20
20.7895
 10
617.0133
 20
21.188
 10
617.0453
 20
21.6074
 10
617.0864
 20
22.0477
 10
617.1366
 20
22.5091
 10
617.196
 20
22.9915
 10
617.2646
 20
23.4952
 10
617.3065
 20
23.7748
 10
617.3525
 20
24.0538
 10
617.4028
 20
24.3323
 10
617.4573
 20
24.6102
 10
617.5159
 20
24.8876
 10
617.5787
 20
25.1645
 10
617.6456
 20
25.4408
 10
617.7166
 20
25.7165
 10
617.7924
 20
25.9885
 10
617.8736
 20
26.2536
 10
617.9602
 20
26.5119
 10
618.0522
 20
26.7633
 10
618.1496
 20
27.0077
 10
618.2524
 20
27.2453
 10
618.3607
 20
27.4759
 10
618.4745
 20
27.6996
 10
618.5937
 20
27.9147
 10
618.7187
 20
28.1188
 10
618.8496
 20
28.312
 10
618.9862
 20
28.4942
 10
619.1287
 20
28.6655
 10
619.2771
 20
28.8259
 10
619.4312
 20
28.9754
 10
619.5912
 20
29.114
 10
619.7578
 20
29.2388
 10
619.9319
 20
29.347
 10
620.1135
 20
29.4386
 10
620.3025
 20
29.5135
 10
620.499
 20
29.5717
 10
620.7029
 20
29.6133
 10
620.9143
 20
29.6383
 10
621.1331
 20
29.6466
 10
621.3521
 20
29.638
 10
621.5636
 20
29.6121
 10
621.7677
 20
29.5689
 10
621.9642
 20
29.5086
 10
622.1533
 20
29.4311
 10
622.3349
 20
29.3364
 10
622.509
 20
29.2245
 10
622.6756
 20
29.0955
  0
LWPOLYLINE
  5
6A
330
1F
100
AcDbEntity
  8
Layer 1
 62
     7
100
AcDbPolyline
 90
       65
 70
     1
 43
0.0
 10
621.2263
 20
6.6934
 10
622.0026
 20
6.7614
 10
622.7294
 20
6.9654
 10
623.4068
 20
7.3054
 10
624.0348
 20
7.7813
 10
624.6134
 20
8.3933
 10
625.1426
 20
9.1412
 10
625.6222
 20
10.0252
 10
626.0525
 20
11.0451
 10
626.3547
 20
11.9352
 10
626.6167
 20
12.8746
 10
626.8383
 20
13.8634
 10
627.0197
 20
14.9015
 10
627.1608
 20
15.9889
 10
627.2616
 20
17.1257
 10
627.322
 20
18.3119
 10
627.3422
 20
19.5474
 10
627.322
 20
20.7826
 10
627.2616
 20
21.9685
 10
627.1608
 20
23.1052
 10
627.0197
 20
24.1925
 10
626.8383
 20
25.2305
 10
626.6167
 20
26.2193
 10
626.3547
 20
27.1587
 10
626.0525
 20
28.0488
 10
625.6222
 20
29.0687
 10
625.1426
 20
29.9527
 10
624.6134
 20
30.7006
 10
624.0348
 20
31.3126
 10
623.4068
 20
31.7885
 10
622.7294
 20
32.1285
 10
622.0026
 20
32.3325
 10
621.2263
 20
32.4005
 10
620.45
 20
32.3325
 10
619.7232
 20
32.1285
 10
619.0458
 20
31.7885
 10
618.4178
 20
31.3126
 10
617.8392
 20
30.7006
 10
617.31
 20
29.9527
 10
616.8304
 20
29.0687
 10
616.4001
 20
28.0488
 10
616.0979
 20
27.1587
 10
615.8359
 20
26.2193
 10
615.6143
 20
25.2305
 10
615.4329
 20
24.1925
 10
615.2918
 20
23.1052
 10
615.191
 20
21.9685
 10
615.1306
 20
20.7826
 10
615.1104
 20
19.5474
 10
615.1306
 20
18.3119
 10
615.191
 20
17.1257
 10
615.2918
 20
15.9889
 10
615.4329
 20
14.9015
 10
615.6143
 20
13.8634
 10
615.8359
 20
12.8746
 10
616.0979
 20
11.9352
 10
616.4001
 20
11.0451
 10
616.8304
 20
10.0252
 10
617.31
 20
9.1412
 10
617.8392
 20
8.3933
 10
618.4178
 20
7.7813
 10
619.0458
 20
7.3054
 10
619.7232
 20
6.9654
 10
620.45
 20
6.7614
 10
621.2263
 20
6.6934
  0
LWPOLYLINE
  5
6B
330
1F
100
AcDbEntity
  8
Layer 1
 62
     7
100
AcDbPolyline
 90
      165
 70
     1
 43
0.0
 10
645.5034
 20
7.0973
 10
647.3645
 20
7.0973
 10
647.3645
 20
17.1965
 10
647.3493
 20
17.867
 10
647.3038
 20
18.5059
 10
647.228
 20
19.1133
 10
647.1219
 20
19.6891
 10
646.9854
 20
20.2334
 10
646.8186
 20
20.7461
 10
646.6215
 20
21.2273
 10
646.3941
 20
21.6769
 10
646.267
 20
21.892
 10
646.1321
 20
22.0961
 10
645.9894
 20
22.2893
 10
645.8388
 20
22.4715
 10
645.6803
 20
22.6428
 10
645.5139
 20
22.8032
 10
645.3396
 20
22.9527
 10
645.1574
 20
23.0913
 10
644.9638
 20
23.2158
 10
644.7552
 20
23.3238
 10
644.5317
 20
23.4152
 10
644.2932
 20
23.49
 10
644.0398
 20
23.5482
 10
643.7714
 20
23.5898
 10
643.488
 20
23.6148
 10
643.1896
 20
23.6231
 10
642.8887
 20
23.6088
 10
642.5973
 20
23.5658
 10
642.3155
 20
23.4941
 10
642.0432
 20
23.3938
 10
641.7805
 20
23.2647
 10
641.5272
 20
23.1069
 10
641.2836
 20
22.9204
 10
641.0494
 20
22.7051
 10
640.8461
 20
22.4907
 10
640.652
 20
22.2603
 10
640.4671
 20
22.014
 10
640.2914
 20
21.7521
 10
640.1248
 20
21.4747
 10
639.9673
 20
21.1819
 10
639.8191
 20
20.874
 10
639.6799
 20
20.5511
 10
639.5718
 20
20.8493
 10
639.4537
 20
21.1371
 10
639.3257
 20
21.4133
 10
639.1877
 20
21.6769
 10
639.0608
 20
21.892
 10
638.9261
 20
22.0961
 10
638.7835
 20
22.2893
 10
638.6329
 20
22.4715
 10
638.4745
 20
22.6428
 10
638.3081
 20
22.8032
 10
638.1338
 20
22.9527
 10
637.9516
 20
23.0913
 10
637.7579
 20
23.2158
 10
637.5493
 20
23.3238
 10
637.3257
 20
23.4152
 10
637.0872
 20
23.49
 10
636.8338
 20
23.5482
 10
636.5654
 20
23.5898
 10
636.282
 20
23.6148
 10
635.9838
 20
23.6231
 10
635.6827
 20
23.6088
 10
635.3912
 20
23.5658
 10
635.1093
 20
23.4941
 10
634.8369
 20
23.3938
 10
634.5741
 20
23.2647
 10
634.3209
 20
23.1069
 10
634.0772
 20
22.9204
 10
633.8431
 20
22.7051
 10
633.6496
 20
22.5009
 10
633.4644
 20
22.2829
 10
633.2875
 20
22.0508
 10
633.1189
 20
21.8047
 10
632.9585
 20
21.5445
 10
632.8065
 20
21.2702
 10
632.6627
 20
20.9817
 10
632.5272
 20
20.679
 10
632.5272
 20
23.2562
 10
630.666
 20
23.2562
 10
630.666
 20
7.0973
 10
632.5272
 20
7.0973
 10
632.5272
 20
15.3665
 10
632.5704
 20
15.8483
 10
632.6269
 20
16.3113
 10
632.6967
 20
16.7557
 10
632.7798
 20
17.1816
 10
632.8762
 20
17.589
 10
632.9858
 20
17.9783
 10
633.1087
 20
18.3494
 10
633.2448
 20
18.7026
 10
633.3558
 20
18.9538
 10
633.4759
 20
19.1935
 10
633.6051
 20
19.4219
 10
633.7435
 20
19.6389
 10
633.8909
 20
19.8444
 10
634.0476
 20
20.0384
 10
634.2133
 20
20.221
 10
634.3883
 20
20.3921
 10
634.5695
 20
20.5468
 10
634.7541
 20
20.681
 10
634.9419
 20
20.7945
 10
635.1331
 20
20.8874
 10
635.3275
 20
20.9597
 10
635.5253
 20
21.0113
 10
635.7264
 20
21.0423
 10
635.9308
 20
21.0526
 10
636.1302
 20
21.0472
 10
636.3164
 20
21.0308
 10
636.4892
 20
21.0036
 10
636.6487
 20
20.9655
 10
636.7948
 20
20.9165
 10
636.9277
 20
20.8567
 10
637.0472
 20
20.7859
 10
637.1535
 20
20.7043
 10
637.4216
 20
20.4306
 10
637.654
 20
20.1097
 10
637.8505
 20
19.7418
 10
638.0113
 20
19.3268
 10
638.1363
 20
18.8648
 10
638.2256
 20
18.3557
 10
638.2792
 20
17.7996
 10
638.297
 20
17.1965
 10
638.297
 20
7.0973
 10
640.1588
 20
7.0973
 10
640.1588
 20
17.1965
 10
640.1454
 20
17.8149
 10
640.2141
 20
18.049
 10
640.288
 20
18.2745
 10
640.367
 20
18.4922
 10
640.4512
 20
18.7026
 10
640.562
 20
18.9538
 10
640.682
 20
19.1935
 10
640.8112
 20
19.4219
 10
640.9496
 20
19.6389
 10
641.097
 20
19.8444
 10
641.2536
 20
20.0384
 10
641.4193
 20
20.221
 10
641.5941
 20
20.3921
 10
641.7753
 20
20.5468
 10
641.9598
 20
20.681
 10
642.1477
 20
20.7945
 10
642.3388
 20
20.8874
 10
642.5333
 20
20.9597
 10
642.7311
 20
21.0113
 10
642.9322
 20
21.0423
 10
643.1366
 20
21.0526
 10
643.336
 20
21.0472
 10
643.5221
 20
21.0308
 10
643.6949
 20
21.0036
 10
643.8545
 20
20.9655
 10
644.0007
 20
20.9165
 10
644.1337
 20
20.8567
 10
644.2534
 20
20.7859
 10
644.3599
 20
20.7043
 10
644.6278
 20
20.4306
 10
644.8601
 20
20.1097
 10
645.0566
 20
19.7418
 10
645.2174
 20
19.3268
 10
645.3425
 20
18.8648
 10
645.4319
 20
18.3557
 10
645.4855
 20
17.7996
 10
645.5034
 20
17.1965
 10
645.5034
 20
7.0973
  0
LWPOLYLINE
  5
6C
330
1F
100
AcDbEntity
  8
Layer 1
 62
     7
100
AcDbPolyline
 90
      165
 70
     1
 43
0.0
 10
665.792
 20
7.0973
 10
667.6531
 20
7.0973
 10
667.6531
 20
17.1965
 10
667.6379
 20
17.867
 10
667.5924
 20
18.5059
 10
667.5166
 20
19.1133
 10
667.4105
 20
19.6891
 10
667.274
 20
20.2334
 10
667.1072
 20
20.7461
 10
666.9101
 20
21.2273
 10
666.6826
 20
21.6769
 10
666.5556
 20
21.892
 10
666.4207
 20
22.0961
 10
666.278
 20
22.2893
 10
666.1274
 20
22.4715
 10
665.9689
 20
22.6428
 10
665.8025
 20
22.8032
 10
665.6282
 20
22.9527
 10
665.4459
 20
23.0913
 10
665.2523
 20
23.2158
 10
665.0437
 20
23.3238
 10
664.8202
 20
23.4152
 10
664.5818
 20
23.49
 10
664.3283
 20
23.5482
 10
664.06
 20
23.5898
 10
663.7766
 20
23.6148
 10
663.4782
 20
23.6231
 10
663.1773
 20
23.6088
 10
662.8859
 20
23.5658
 10
662.6041
 20
23.4941
 10
662.3318
 20
23.3938
 10
662.0691
 20
23.2647
 10
661.8158
 20
23.1069
 10
661.5722
 20
22.9204
 10
661.338
 20
22.7051
 10
661.1347
 20
22.4907
 10
660.9406
 20
22.2603
 10
660.7557
 20
22.014
 10
660.5799
 20
21.7521
 10
660.4133
 20
21.4747
 10
660.2559
 20
21.1819
 10
660.1076
 20
20.874
 10
659.9685
 20
20.5511
 10
659.8603
 20
20.8493
 10
659.7423
 20
21.1371
 10
659.6143
 20
21.4133
 10
659.4763
 20
21.6769
 10
659.3494
 20
21.892
 10
659.2147
 20
22.0961
 10
659.0721
 20
22.2893
 10
658.9215
 20
22.4715
 10
658.7631
 20
22.6428
 10
658.5967
 20
22.8032
 10
658.4224
 20
22.9527
 10
658.2402
 20
23.0913
 10
658.0465
 20
23.2158
 10
657.8379
 20
23.3238
 10
657.6143
 20
23.4152
 10
657.3758
 20
23.49
 10
657.1224
 20
23.5482
 10
656.854
 20
23.5898
 10
656.5706
 20
23.6148
 10
656.2724
 20
23.6231
 10
655.9713
 20
23.6088
 10
655.6798
 20
23.5658
 10
655.3979
 20
23.4941
 10
655.1255
 20
23.3938
 10
654.8627
 20
23.2647
 10
654.6095
 20
23.1069
 10
654.3658
 20
22.9204
 10
654.1317
 20
22.7051
 10
653.9382
 20
22.5009
 10
653.753
 20
22.2829
 10
653.5761
 20
22.0508
 10
653.4075
 20
21.8047
 10
653.2471
 20
21.5445
 10
653.0951
 20
21.2702
 10
652.9513
 20
20.9817
 10
652.8158
 20
20.679
 10
652.8158
 20
23.2562
 10
650.9546
 20
23.2562
 10
650.9546
 20
7.0973
 10
652.8158
 20
7.0973
 10
652.8158
 20
15.3665
 10
652.859
 20
15.8483
 10
652.9155
 20
16.3113
 10
652.9853
 20
16.7557
 10
653.0684
 20
17.1816
 10
653.1647
 20
17.589
 10
653.2744
 20
17.9783
 10
653.3973
 20
18.3494
 10
653.5334
 20
18.7026
 10
653.6444
 20
18.9538
 10
653.7645
 20
19.1935
 10
653.8937
 20
19.4219
 10
654.0321
 20
19.6389
 10
654.1795
 20
19.8444
 10
654.3362
 20
20.0384
 10
654.5019
 20
20.221
 10
654.6769
 20
20.3921
 10
654.8581
 20
20.5468
 10
655.0426
 20
20.681
 10
655.2305
 20
20.7945
 10
655.4216
 20
20.8874
 10
655.6161
 20
20.9597
 10
655.8139
 20
21.0113
 10
656.015
 20
21.0423
 10
656.2194
 20
21.0526
 10
656.4188
 20
21.0472
 10
656.6049
 20
21.0308
 10
656.7777
 20
21.0036
 10
656.9372
 20
20.9655
 10
657.0834
 20
20.9165
 10
657.2163
 20
20.8567
 10
657.3358
 20
20.7859
 10
657.4421
 20
20.7043
 10
657.7102
 20
20.4306
 10
657.9426
 20
20.1097
 10
658.1391
 20
19.7418
 10
658.2999
 20
19.3268
 10
658.4249
 20
18.8648
 10
658.5142
 20
18.3557
 10
658.5678
 20
17.7996
 10
658.5856
 20
17.1965
 10
658.5856
 20
7.0973
 10
660.4474
 20
7.0973
 10
660.4474
 20
17.1965
 10
660.434
 20
17.8149
 10
660.5027
 20
18.049
 10
660.5766
 20
18.2745
 10
660.6556
 20
18.4922
 10
660.7398
 20
18.7026
 10
660.8506
 20
18.9538
 10
660.9706
 20
19.1935
 10
661.0998
 20
19.4219
 10
661.2381
 20
19.6389
 10
661.3856
 20
19.8444
 10
661.5422
 20
20.0384
 10
661.7079
 20
20.221
 10
661.8827
 20
20.3921
 10
662.0639
 20
20.5468
 10
662.2484
 20
20.681
 10
662.4363
 20
20.7945
 10
662.6274
 20
20.8874
 10
662.8219
 20
20.9597
 10
663.0197
 20
21.0113
 10
663.2208
 20
21.0423
 10
663.4252
 20
21.0526
 10
663.6246
 20
21.0472
 10
663.8107
 20
21.0308
 10
663.9835
 20
21.0036
 10
664.1431
 20
20.9655
 10
664.2893
 20
20.9165
 10
664.4223
 20
20.8567
 10
664.542
 20
20.7859
 10
664.6485
 20
20.7043
 10
664.9164
 20
20.4306
 10
665.1487
 20
20.1097
 10
665.3452
 20
19.7418
 10
665.506
 20
19.3268
 10
665.6311
 20
18.8648
 10
665.7205
 20
18.3557
 10
665.7741
 20
17.7996
 10
665.792
 20
17.1965
 10
665.792
 20
7.0973
  0
LWPOLYLINE
  5
6D
330
1F
100
AcDbEntity
  8
Layer 1
 62
     7
370
    18
100
AcDbPolyline
 90
        2
 70
     0
 43
0.0
 10
637.6574
 20
337.9287
 10
622.1438
 20
337.9287
  0
LWPOLYLINE
  5
6E
330
1F
100
AcDbEntity
  8
Layer 1
 62
     7
370
    18
100
AcDbPolyline
 90
        2
 70
     0
 43
0.0
 10
629.9003
 20
337.9339
 10
629.9003
 20
49.9646
  0
LWPOLYLINE
  5
6F
330
1F
100
AcDbEntity
  8
Layer 1
 62
     7
370
    18
100
AcDbPolyline
 90
        2
 70
     0
 43
0.0
 10
637.6574
 20
-365.7623
 10
622.1438
 20
-365.7623
  0
LWPOLYLINE
  5
70
330
1F
100
AcDbEntity
  8
Layer 1
 62
     7
370
    18
100
AcDbPolyline
 90
        2
 70
     0
 43
0.0
 10
629.9003
 20
-365.7703
 10
629.9003
 20
-24.5601
  0
LWPOLYLINE
  5
71
330
1F
100
AcDbEntity
  8
Layer 1
 62
     7
370
    18
100
AcDbPolyline
 90
       19
 70
     1
 43
0.0
 10
259.9155
 20
237.6768
 10
266.734
 20
235.5149
 10
285.7961
 20
230.1812
 10
315.0114
 20
223.4038
 10
352.2899
 20
216.9106
 10
395.5413
 20
212.4298
 10
442.6755
 20
211.6893
 10
491.6021
 20
216.4172
 10
540.231
 20
228.3416
 10
539.7198
 20
212.7565
 10
534.0508
 20
210.833
 10
517.7876
 20
206.2351
 10
492.0461
 20
200.7214
 10
457.9422
 20
196.0506
 10
416.5916
 20
193.9815
 10
369.1103
 20
196.2727
 10
316.6141
 20
204.683
 10
260.2189
 20
220.971
 10
259.9155
 20
237.6768
  0
LWPOLYLINE
  5
72
330
1F
100
AcDbEntity
  8
Layer 1
 62
     7
370
    18
100
AcDbPolyline
 90
       19
 70
     1
 43
0.0
 10
268.0192
 20
-195.1955
 10
274.2956
 20
-197.0581
 10
291.8421
 20
-201.555
 10
318.7347
 20
-207.05
 10
353.0493
 20
-211.9067
 10
392.862
 20
-214.4889
 10
436.2486
 20
-213.1603
 10
481.2853
 20
-206.2846
 10
526.0479
 20
-192.2256
 10
525.5774
 20
-207.8332
 10
520.3591
 20
-210.0055
 10
505.3889
 20
-215.3174
 10
481.694
 20
-221.961
 10
450.3016
 20
-228.1289
 10
412.2387
 20
-232.0132
 10
368.5324
 20
-231.8062
 10
320.21
 20
-225.7004
 10
268.2985
 20
-211.888
 10
268.0192
 20
-195.1955
  0
LWPOLYLINE
  5
73
330
1F
100
AcDbEntity
  8
Layer 1
 62
     7
100
AcDbPolyline
 90
        4
 70
     1
 43
0.0
 10
387.3121
 20
425.7644
 10
387.3121
 20
411.7661
 10
380.6065
 20
411.7661
 10
387.3121
 20
425.7644
  0
LWPOLYLINE
  5
74
330
1F
100
AcDbEntity
  8
Layer 1
 62
     7
100
AcDbPolyline
 90
       11
 70
     1
 43
0.0
 10
389.1945
 20
409.2015
 10
391.4127
 20
409.2015
 10
391.4127
 20
411.7661
 10
389.1945
 20
411.7661
 10
389.1689
 20
428.4711
 10
386.6413
 20
428.4711
 10
377.4087
 20
409.2015
 10
387.3121
 20
409.2015
 10
387.3121
 20
404.2508
 10
389.1945
 20
404.2508
 10
389.1945
 20
409.2015
  0
LWPOLYLINE
  5
75
330
1F
100
AcDbEntity
  8
Layer 1
 62
     7
100
AcDbPolyline
 90
        7
 70
     1
 43
0.0
 10
396.4411
 20
404.2508
 10
398.2468
 20
404.2508
 10
398.2468
 20
428.7564
 10
393.9141
 20
428.1152
 10
393.9141
 20
425.9427
 10
396.4411
 20
425.9427
 10
396.4411
 20
404.2508
  0
LWPOLYLINE
  5
76
330
1F
100
AcDbEntity
  8
Layer 1
 62
     7
100
AcDbPolyline
 90
      129
 70
     1
 43
0.0
 10
408.6527
 20
425.6575
 10
408.9506
 20
425.3782
 10
409.2283
 20
425.0611
 10
409.4859
 20
424.706
 10
409.7233
 20
424.313
 10
409.9405
 20
423.8821
 10
410.1376
 20
423.4134
 10
410.3145
 20
422.9069
 10
410.4712
 20
422.3626
 10
410.6464
 20
421.6405
 10
410.7984
 20
420.9079
 10
410.927
 20
420.1647
 10
411.0322
 20
419.411
 10
411.1141
 20
418.6467
 10
411.1726
 20
417.8719
 10
411.2077
 20
417.0864
 10
411.2194
 20
416.2903
 10
411.2182
 20
416.099
 10
411.2145
 20
415.8994
 10
411.2084
 20
415.6914
 10
411.1999
 20
415.4751
 10
411.189
 20
415.2504
 10
411.1757
 20
415.0175
 10
411.16
 20
414.7762
 10
411.142
 20
414.5267
 10
411.0525
 20
413.5693
 10
410.9356
 20
412.6647
 10
410.7913
 20
411.8129
 10
410.6196
 20
411.0139
 10
410.4205
 20
410.2678
 10
410.194
 20
409.5745
 10
409.94
 20
408.9342
 10
409.6586
 20
408.3467
 10
409.402
 20
407.9045
 10
409.1317
 20
407.5211
 10
408.8476
 20
407.1968
 10
408.5498
 20
406.9313
 10
408.2383
 20
406.7249
 10
407.9131
 20
406.5774
 10
407.5742
 20
406.4889
 10
407.2217
 20
406.4594
 10
406.8282
 20
406.4886
 10
406.4537
 20
406.5762
 10
406.098
 20
406.7222
 10
405.7614
 20
406.9266
 10
405.4436
 20
407.1895
 10
405.1448
 20
407.5108
 10
404.8649
 20
407.8907
 10
404.6039
 20
408.329
 10
404.4935
 20
408.5416
 10
404.3879
 20
408.7608
 10
404.2872
 20
408.9868
 10
404.1913
 20
409.2194
 10
404.1002
 20
409.4588
 10
404.0139
 20
409.7048
 10
403.9325
 20
409.9576
 10
403.8558
 20
410.2171
 10
403.784
 20
410.4805
 10
403.7166
 20
410.7456
 10
403.6536
 20
411.0124
 10
403.595
 20
411.2809
 10
403.5409
 20
411.5512
 10
403.4911
 20
411.8231
 10
403.4458
 20
412.0967
 10
403.405
 20
412.3719
 10
403.3676
 20
412.6468
 10
403.333
 20
412.9195
 10
403.3013
 20
413.1899
 10
403.2725
 20
413.4581
 10
403.2465
 20
413.7241
 10
403.2234
 20
413.9879
 10
403.2031
 20
414.2495
 10
403.1857
 20
414.509
 10
403.1705
 20
414.7721
 10
403.1573
 20
415.0453
 10
403.1462
 20
415.3284
 10
403.1372
 20
415.6213
 10
403.1301
 20
415.9239
 10
403.1251
 20
416.2362
 10
403.1221
 20
416.558
 10
403.1211
 20
416.8893
 10
403.1255
 20
417.2357
 10
403.1388
 20
417.6021
 10
403.161
 20
417.9886
 10
403.192
 20
418.3953
 10
403.2319
 20
418.8222
 10
403.2807
 20
419.2695
 10
403.3384
 20
419.7373
 10
403.405
 20
420.2255
 10
403.4456
 20
420.4969
 10
403.4903
 20
420.7677
 10
403.5391
 20
421.038
 10
403.5918
 20
421.3076
 10
403.6486
 20
421.5767
 10
403.7094
 20
421.8452
 10
403.7742
 20
422.1131
 10
403.843
 20
422.3803
 10
403.9167
 20
422.6442
 10
403.9955
 20
422.9014
 10
404.0796
 20
423.1518
 10
404.1689
 20
423.3956
 10
404.2634
 20
423.6327
 10
404.3631
 20
423.8631
 10
404.4681
 20
424.0867
 10
404.5783
 20
424.3037
 10
404.694
 20
424.5123
 10
404.8152
 20
424.7103
 10
404.9421
 20
424.8976
 10
405.0747
 20
425.0743
 10
405.2129
 20
425.2404
 10
405.3567
 20
425.3959
 10
405.5063
 20
425.5408
 10
405.6615
 20
425.6752
 10
405.823
 20
425.7964
 10
405.9918
 20
425.9014
 10
406.1679
 20
425.9902
 10
406.3513
 20
426.0628
 10
406.5419
 20
426.1193
 10
406.7397
 20
426.1596
 10
406.9448
 20
426.1837
 10
407.1571
 20
426.1918
 10
407.3696
 20
426.1834
 10
407.5747
 20
426.1584
 10
407.7726
 20
426.1166
 10
407.9632
 20
426.0581
 10
408.1465
 20
425.983
 10
408.3225
 20
425.8911
 10
408.4912
 20
425.7826
 10
408.6527
 20
425.6575
  0
LWPOLYLINE
  5
77
330
1F
100
AcDbEntity
  8
Layer 1
 62
     7
100
AcDbPolyline
 90
       65
 70
     1
 43
0.0
 10
407.2473
 20
403.9302
 10
408.0003
 20
403.9961
 10
408.7053
 20
404.194
 10
409.3623
 20
404.5237
 10
409.9715
 20
404.9853
 10
410.5326
 20
405.5788
 10
411.0458
 20
406.3042
 10
411.5111
 20
407.1614
 10
411.9285
 20
408.1506
 10
412.2215
 20
409.0138
 10
412.4755
 20
409.9249
 10
412.6905
 20
410.8839
 10
412.8664
 20
411.8908
 10
413.0032
 20
412.9456
 10
413.101
 20
414.0482
 10
413.1596
 20
415.1987
 10
413.1792
 20
416.3971
 10
413.1596
 20
417.5952
 10
413.101
 20
418.7455
 10
413.0032
 20
419.848
 10
412.8664
 20
420.9027
 10
412.6905
 20
421.9095
 10
412.4755
 20
422.8685
 10
412.2215
 20
423.7796
 10
411.9285
 20
424.6428
 10
411.5111
 20
425.632
 10
411.0458
 20
426.4892
 10
410.5326
 20
427.2146
 10
409.9715
 20
427.8081
 10
409.3623
 20
428.2697
 10
408.7053
 20
428.5994
 10
408.0003
 20
428.7973
 10
407.2473
 20
428.8632
 10
406.4943
 20
428.7973
 10
405.7893
 20
428.5994
 10
405.1323
 20
428.2697
 10
404.5232
 20
427.8081
 10
403.9621
 20
427.2146
 10
403.449
 20
426.4892
 10
402.9839
 20
425.632
 10
402.5667
 20
424.6428
 10
402.2735
 20
423.7796
 10
402.0194
 20
422.8685
 10
401.8045
 20
421.9095
 10
401.6286
 20
420.9027
 10
401.4918
 20
419.848
 10
401.3941
 20
418.7455
 10
401.3355
 20
417.5952
 10
401.316
 20
416.3971
 10
401.3355
 20
415.1987
 10
401.3941
 20
414.0482
 10
401.4918
 20
412.9456
 10
401.6286
 20
411.8908
 10
401.8045
 20
410.8839
 10
402.0194
 20
409.9249
 10
402.2735
 20
409.0138
 10
402.5667
 20
408.1506
 10
402.9839
 20
407.1614
 10
403.449
 20
406.3042
 10
403.9621
 20
405.5788
 10
404.5232
 20
404.9853
 10
405.1323
 20
404.5237
 10
405.7893
 20
404.194
 10
406.4943
 20
403.9961
 10
407.2473
 20
403.9302
  0
LWPOLYLINE
  5
78
330
1F
100
AcDbEntity
  8
Layer 1
 62
     7
100
AcDbPolyline
 90
      162
 70
     1
 43
0.0
 10
430.7933
 20
404.3223
 10
432.5984
 20
404.3223
 10
432.5984
 20
414.117
 10
432.5837
 20
414.7674
 10
432.5396
 20
415.3871
 10
432.4661
 20
415.9762
 10
432.3631
 20
416.5347
 10
432.2308
 20
417.0625
 10
432.069
 20
417.5598
 10
431.8778
 20
418.0265
 10
431.6572
 20
418.4627
 10
431.5341
 20
418.671
 10
431.4034
 20
418.8688
 10
431.265
 20
419.056
 10
431.1189
 20
419.2327
 10
430.9651
 20
419.3989
 10
430.8037
 20
419.5545
 10
430.6345
 20
419.6996
 10
430.4577
 20
419.8342
 10
430.27
 20
419.9552
 10
430.0677
 20
420.0601
 10
429.851
 20
420.1489
 10
429.6197
 20
420.2215
 10
429.3739
 20
420.2781
 10
429.1137
 20
420.3185
 10
428.8389
 20
420.3427
 10
428.5496
 20
420.3508
 10
428.2577
 20
420.3369
 10
427.9751
 20
420.2951
 10
427.7017
 20
420.2255
 10
427.4375
 20
420.1281
 10
427.1826
 20
420.0028
 10
426.937
 20
419.8496
 10
426.7006
 20
419.6686
 10
426.4734
 20
419.4598
 10
426.2763
 20
419.2517
 10
426.0881
 20
419.0282
 10
425.9088
 20
418.7894
 10
425.7383
 20
418.5354
 10
425.5767
 20
418.2664
 10
425.424
 20
417.9826
 10
425.2802
 20
417.6839
 10
425.1453
 20
417.3706
 10
425.0405
 20
417.6596
 10
424.926
 20
417.9388
 10
424.802
 20
418.2069
 10
424.6683
 20
418.4627
 10
424.5452
 20
418.671
 10
424.4144
 20
418.8688
 10
424.2759
 20
419.056
 10
424.1298
 20
419.2327
 10
423.976
 20
419.3989
 10
423.8146
 20
419.5545
 10
423.6455
 20
419.6996
 10
423.4688
 20
419.8342
 10
423.2811
 20
419.9552
 10
423.0788
 20
420.0601
 10
422.8621
 20
420.1489
 10
422.6308
 20
420.2215
 10
422.385
 20
420.2781
 10
422.1248
 20
420.3185
 10
421.85
 20
420.3427
 10
421.5607
 20
420.3508
 10
421.2686
 20
420.3369
 10
420.9858
 20
420.2951
 10
420.7123
 20
420.2255
 10
420.4482
 20
420.1281
 10
420.1933
 20
420.0028
 10
419.9477
 20
419.8496
 10
419.7115
 20
419.6686
 10
419.4845
 20
419.4598
 10
419.2967
 20
419.2616
 10
419.1169
 20
419.05
 10
418.9453
 20
418.825
 10
418.7817
 20
418.5864
 10
418.6261
 20
418.3341
 10
418.4786
 20
418.0682
 10
418.3391
 20
417.7886
 10
418.2076
 20
417.4951
 10
418.2076
 20
419.9941
 10
416.4025
 20
419.9941
 10
416.4025
 20
404.3223
 10
418.2076
 20
404.3223
 10
418.2076
 20
412.3425
 10
418.2497
 20
412.8098
 10
418.3046
 20
413.2588
 10
418.3724
 20
413.6897
 10
418.453
 20
414.1027
 10
418.5465
 20
414.4978
 10
418.6528
 20
414.8752
 10
418.772
 20
415.2351
 10
418.904
 20
415.5776
 10
419.0117
 20
415.8213
 10
419.1282
 20
416.0539
 10
419.2536
 20
416.2753
 10
419.3878
 20
416.4857
 10
419.5309
 20
416.6849
 10
419.6829
 20
416.873
 10
419.8437
 20
417.05
 10
420.0133
 20
417.2158
 10
420.189
 20
417.3661
 10
420.3679
 20
417.4963
 10
420.55
 20
417.6065
 10
420.7353
 20
417.6966
 10
420.9239
 20
417.7667
 10
421.1156
 20
417.8168
 10
421.3107
 20
417.8469
 10
421.5089
 20
417.8569
 10
421.7024
 20
417.8516
 10
421.8829
 20
417.8358
 10
422.0505
 20
417.8093
 10
422.2053
 20
417.7724
 10
422.3471
 20
417.7248
 10
422.476
 20
417.6667
 10
422.592
 20
417.598
 10
422.6951
 20
417.5187
 10
422.9551
 20
417.2532
 10
423.1805
 20
416.9421
 10
423.3711
 20
416.5853
 10
423.5272
 20
416.1829
 10
423.6485
 20
415.7349
 10
423.7352
 20
415.2412
 10
423.7872
 20
414.7019
 10
423.8045
 20
414.117
 10
423.8045
 20
404.3223
 10
425.6096
 20
404.3223
 10
425.6096
 20
414.117
 10
425.5968
 20
414.7169
 10
425.8934
 20
415.5776
 10
426.0009
 20
415.8213
 10
426.1173
 20
416.0539
 10
426.2426
 20
416.2753
 10
426.3768
 20
416.4857
 10
426.5198
 20
416.6849
 10
426.6718
 20
416.873
 10
426.8326
 20
417.05
 10
427.0022
 20
417.2158
 10
427.1779
 20
417.3661
 10
427.3568
 20
417.4963
 10
427.5389
 20
417.6065
 10
427.7242
 20
417.6966
 10
427.9128
 20
417.7667
 10
428.1045
 20
417.8168
 10
428.2995
 20
417.8469
 10
428.4978
 20
417.8569
 10
428.6913
 20
417.8516
 10
428.8718
 20
417.8358
 10
429.0394
 20
417.8093
 10
429.1942
 20
417.7724
 10
429.336
 20
417.7248
 10
429.4649
 20
417.6667
 10
429.5809
 20
417.598
 10
429.684
 20
417.5187
 10
429.944
 20
417.2532
 10
430.1693
 20
416.9421
 10
430.36
 20
416.5853
 10
430.516
 20
416.1829
 10
430.6373
 20
415.7349
 10
430.724
 20
415.2412
 10
430.776
 20
414.7019
 10
430.7933
 20
414.117
 10
430.7933
 20
404.3223
  0
LWPOLYLINE
  5
79
330
1F
100
AcDbEntity
  8
Layer 1
 62
     7
100
AcDbPolyline
 90
      162
 70
     1
 43
0.0
 10
450.4709
 20
404.3223
 10
452.276
 20
404.3223
 10
452.276
 20
414.117
 10
452.2613
 20
414.7674
 10
452.2172
 20
415.3871
 10
452.1436
 20
415.9762
 10
452.0407
 20
416.5347
 10
451.9083
 20
417.0625
 10
451.7465
 20
417.5598
 10
451.5553
 20
418.0265
 10
451.3347
 20
418.4627
 10
451.2116
 20
418.671
 10
451.0809
 20
418.8688
 10
450.9425
 20
419.056
 10
450.7964
 20
419.2327
 10
450.6427
 20
419.3989
 10
450.4812
 20
419.5545
 10
450.3121
 20
419.6996
 10
450.1352
 20
419.8342
 10
449.9475
 20
419.9552
 10
449.7452
 20
420.0601
 10
449.5285
 20
420.1489
 10
449.2972
 20
420.2215
 10
449.0515
 20
420.2781
 10
448.7912
 20
420.3185
 10
448.5165
 20
420.3427
 10
448.2272
 20
420.3508
 10
447.9353
 20
420.3369
 10
447.6526
 20
420.2951
 10
447.3792
 20
420.2255
 10
447.115
 20
420.1281
 10
446.8601
 20
420.0028
 10
446.6145
 20
419.8496
 10
446.3781
 20
419.6686
 10
446.151
 20
419.4598
 10
445.9539
 20
419.2517
 10
445.7657
 20
419.0282
 10
445.5863
 20
418.7894
 10
445.4159
 20
418.5354
 10
445.2543
 20
418.2664
 10
445.1016
 20
417.9826
 10
444.9578
 20
417.6839
 10
444.8229
 20
417.3706
 10
444.7181
 20
417.6596
 10
444.6036
 20
417.9388
 10
444.4796
 20
418.2069
 10
444.3459
 20
418.4627
 10
444.2228
 20
418.671
 10
444.092
 20
418.8688
 10
443.9535
 20
419.056
 10
443.8073
 20
419.2327
 10
443.6535
 20
419.3989
 10
443.4921
 20
419.5545
 10
443.323
 20
419.6996
 10
443.1463
 20
419.8342
 10
442.9586
 20
419.9552
 10
442.7564
 20
420.0601
 10
442.5396
 20
420.1489
 10
442.3084
 20
420.2215
 10
442.0626
 20
420.2781
 10
441.8023
 20
420.3185
 10
441.5276
 20
420.3427
 10
441.2383
 20
420.3508
 10
440.9462
 20
420.3369
 10
440.6634
 20
420.2951
 10
440.3899
 20
420.2255
 10
440.1257
 20
420.1281
 10
439.8708
 20
420.0028
 10
439.6253
 20
419.8496
 10
439.389
 20
419.6686
 10
439.1621
 20
419.4598
 10
438.9742
 20
419.2616
 10
438.7945
 20
419.05
 10
438.6228
 20
418.825
 10
438.4592
 20
418.5864
 10
438.3036
 20
418.3341
 10
438.1561
 20
418.0682
 10
438.0167
 20
417.7886
 10
437.8852
 20
417.4951
 10
437.8852
 20
419.9941
 10
436.0801
 20
419.9941
 10
436.0801
 20
404.3223
 10
437.8852
 20
404.3223
 10
437.8852
 20
412.3425
 10
437.9273
 20
412.8098
 10
437.9822
 20
413.2588
 10
438.0499
 20
413.6897
 10
438.1305
 20
414.1027
 10
438.224
 20
414.4978
 10
438.3303
 20
414.8752
 10
438.4495
 20
415.2351
 10
438.5815
 20
415.5776
 10
438.6892
 20
415.8213
 10
438.8058
 20
416.0539
 10
438.9312
 20
416.2753
 10
439.0654
 20
416.4857
 10
439.2085
 20
416.6849
 10
439.3605
 20
416.873
 10
439.5213
 20
417.05
 10
439.6909
 20
417.2158
 10
439.8666
 20
417.3661
 10
440.0455
 20
417.4963
 10
440.2275
 20
417.6065
 10
440.4129
 20
417.6966
 10
440.6014
 20
417.7667
 10
440.7932
 20
417.8168
 10
440.9882
 20
417.8469
 10
441.1865
 20
417.8569
 10
441.38
 20
417.8516
 10
441.5605
 20
417.8358
 10
441.7281
 20
417.8093
 10
441.8828
 20
417.7724
 10
442.0246
 20
417.7248
 10
442.1535
 20
417.6667
 10
442.2695
 20
417.598
 10
442.3726
 20
417.5187
 10
442.6326
 20
417.2532
 10
442.858
 20
416.9421
 10
443.0486
 20
416.5853
 10
443.2047
 20
416.1829
 10
443.326
 20
415.7349
 10
443.4127
 20
415.2412
 10
443.4647
 20
414.7019
 10
443.482
 20
414.117
 10
443.482
 20
404.3223
 10
445.2871
 20
404.3223
 10
445.2871
 20
414.117
 10
445.2743
 20
414.7169
 10
445.571
 20
415.5776
 10
445.6785
 20
415.8213
 10
445.7948
 20
416.0539
 10
445.9201
 20
416.2753
 10
446.0543
 20
416.4857
 10
446.1974
 20
416.6849
 10
446.3493
 20
416.873
 10
446.5101
 20
417.05
 10
446.6798
 20
417.2158
 10
446.8555
 20
417.3661
 10
447.0344
 20
417.4963
 10
447.2164
 20
417.6065
 10
447.4018
 20
417.6966
 10
447.5903
 20
417.7667
 10
447.7821
 20
417.8168
 10
447.9771
 20
417.8469
 10
448.1754
 20
417.8569
 10
448.3688
 20
417.8516
 10
448.5493
 20
417.8358
 10
448.717
 20
417.8093
 10
448.8717
 20
417.7724
 10
449.0135
 20
417.7248
 10
449.1424
 20
417.6667
 10
449.2584
 20
417.598
 10
449.3615
 20
417.5187
 10
449.6215
 20
417.2532
 10
449.8469
 20
416.9421
 10
450.0375
 20
416.5853
 10
450.1936
 20
416.1829
 10
450.3149
 20
415.7349
 10
450.4016
 20
415.2412
 10
450.4536
 20
414.7019
 10
450.4709
 20
414.117
 10
450.4709
 20
404.3223
  0
LWPOLYLINE
  5
7A
330
1F
100
AcDbEntity
  8
Layer 1
 62
     7
370
    18
100
AcDbPolyline
 90
       33
 70
     1
 43
0.0
 10
341.7588
 20
428.8632
 10
343.6424
 20
428.6009
 10
345.3969
 20
427.8488
 10
346.9845
 20
426.6586
 10
348.3678
 20
425.0823
 10
349.5091
 20
423.1719
 10
350.3709
 20
420.9792
 10
350.9155
 20
418.5561
 10
351.1054
 20
415.9546
 10
350.9155
 20
413.3531
 10
350.3709
 20
410.93
 10
349.5091
 20
408.7373
 10
348.3678
 20
406.8268
 10
346.9845
 20
405.2505
 10
345.3969
 20
404.0603
 10
343.6424
 20
403.3082
 10
341.7588
 20
403.0459
 10
339.8752
 20
403.3082
 10
338.1208
 20
404.0603
 10
336.5331
 20
405.2505
 10
335.1499
 20
406.8268
 10
334.0086
 20
408.7373
 10
333.1468
 20
410.93
 10
332.6022
 20
413.3531
 10
332.4123
 20
415.9546
 10
332.6022
 20
418.5561
 10
333.1468
 20
420.9792
 10
334.0086
 20
423.1719
 10
335.1499
 20
425.0823
 10
336.5331
 20
426.6586
 10
338.1208
 20
427.8488
 10
339.8752
 20
428.6009
 10
341.7588
 20
428.8632
  0
LWPOLYLINE
  5
7B
330
1F
100
AcDbEntity
  8
Layer 1
 62
     7
370
    18
100
AcDbPolyline
 90
        9
 70
     0
 43
0.0
 10
346.4047
 20
437.633
 10
343.4238
 20
423.2499
 10
341.1594
 20
412.3742
 10
339.5132
 20
404.516
 10
338.3869
 20
399.1853
 10
337.682
 20
395.8921
 10
337.3003
 20
394.1464
 10
337.1434
 20
393.4584
 10
337.113
 20
393.3379
  0
ENDSEC
  0
SECTION
  2
OBJECTS
  0
DICTIONARY
  5
C
330
0
100
AcDbDictionary
281
     1
  3
ACAD_DETAILVIEWSTYLE
350
83
  3
ACAD_GROUP
350
D
  3
ACAD_LAYOUT
350
1A
  3
ACAD_MATERIAL
350
43
  3
ACAD_MLEADERSTYLE
350
5B
  3
ACAD_MLINESTYLE
350
17
  3
ACAD_PLOTSETTINGS
350
19
  3
ACAD_PLOTSTYLENAME
350
E
  3
ACAD_SCALELIST
350
47
  3
ACAD_SECTIONVIEWSTYLE
350
84
  3
ACAD_TABLESTYLE
350
59
  3
ACAD_VISUALSTYLE
350
2A
  3
ACDB_RECOMPOSE_DATA
350
80
  3
AcDbVariableDictionary
350
7C
  0
SUN
  5
5D
330
29
100
AcDbSun
 90
        1
290
     0
 63
     7
421
 16777215
 40
1.0
291
     1
 91
  2455826
 92
 54000000
292
     0
 70
     2
 71
   256
280
     1
  0
DICTIONARY
  5
83
102
{ACAD_REACTORS
330
C
102
}
330
C
100
AcDbDictionary
281
     1
  0
DICTIONARY
  5
D
102
{ACAD_REACTORS
330
C
102
}
330
C
100
AcDbDictionary
281
     1
  0
DICTIONARY
  5
1A
102
{ACAD_REACTORS
330
C
102
}
330
C
100
AcDbDictionary
281
     1
  3
Layout1
350
1E
  3
Layout2
350
26
  3
Model
350
22
  0
DICTIONARY
  5
43
102
{ACAD_REACTORS
330
C
102
}
330
C
100
AcDbDictionary
281
     1
  3
ByBlock
350
45
  3
ByLayer
350
44
  3
Global
350
46
  0
DICTIONARY
  5
5B
102
{ACAD_REACTORS
330
C
102
}
330
C
100
AcDbDictionary
281
     1
  3
Standard
350
5C
  0
DICTIONARY
  5
17
102
{ACAD_REACTORS
330
C
102
}
330
C
100
AcDbDictionary
281
     1
  3
Standard
350
18
  0
DICTIONARY
  5
19
102
{ACAD_REACTORS
330
C
102
}
330
C
100
AcDbDictionary
281
     1
  0
ACDBDICTIONARYWDFLT
  5
E
102
{ACAD_REACTORS
330
C
102
}
330
C
100
AcDbDictionary
281
     1
  3
Normal
350
F
100
AcDbDictionaryWithDefault
340
F
  0
DICTIONARY
  5
47
102
{ACAD_REACTORS
330
C
102
}
330
C
100
AcDbDictionary
281
     1
  3
A0
350
48
  3
A1
350
49
  3
A2
350
4A
  3
A3
350
4B
  3
A4
350
4C
  3
A5
350
4D
  3
A6
350
4E
  3
A7
350
4F
  3
A8
350
50
  3
A9
350
51
  3
B1
350
52
  3
B2
350
53
  3
B3
350
54
  3
B4
350
55
  3
B5
350
56
  3
B6
350
57
  3
B7
350
58
  0
DICTIONARY
  5
84
102
{ACAD_REACTORS
330
C
102
}
330
C
100
AcDbDictionary
281
     1
  0
DICTIONARY
  5
59
102
{ACAD_REACTORS
330
C
102
}
330
C
100
AcDbDictionary
281
     1
  3
Standard
350
5A
  0
DICTIONARY
  5
2A
102
{ACAD_REACTORS
330
C
102
}
330
C
100
AcDbDictionary
281
     1
  3
2dWireframe
350
2F
  3
Basic
350
32
  3
Brighten
350
36
  3
ColorChange
350
3A
  3
Conceptual
350
34
  3
Dim
350
35
  3
EdgeColorOff
350
3D
  3
Facepattern
350
39
  3
Flat
350
2B
  3
FlatWithEdges
350
2C
  3
Gouraud
350
2D
  3
GouraudWithEdges
350
2E
  3
Hidden
350
31
  3
JitterOff
350
3B
  3
Linepattern
350
38
  3
OverhangOff
350
3C
  3
Realistic
350
33
  3
Shaded
350
42
  3
Shaded with edges
350
41
  3
Shades of Gray
350
3E
  3
Sketchy
350
3F
  3
Thicken
350
37
  3
Wireframe
350
30
  3
X-Ray
350
40
  0
XRECORD
  5
80
102
{ACAD_REACTORS
330
C
102
}
330
C
100
AcDbXrecord
280
     1
 90
        1
330
5A
  0
DICTIONARY
  5
7C
102
{ACAD_REACTORS
330
C
102
}
330
C
100
AcDbDictionary
281
     1
  3
CANNOSCALE
350
7D
  3
CMLEADERSTYLE
350
82
  3
CTABLESTYLE
350
81
  0
LAYOUT
  5
1E
102
{ACAD_REACTORS
330
1A
102
}
330
1A
100
AcDbPlotSettings
  1

  2
none_device
  4

  6

 40
0.0
 41
0.0
 42
0.0
 43
0.0
 44
0.0
 45
0.0
 46
0.0
 47
0.0
 48
0.0
 49
0.0
140
0.0
141
0.0
142
1.0
143
1.0
 70
   688
 72
     0
 73
     0
 74
     5
  7

 75
    16
 76
     0
 77
     2
 78
   300
147
1.0
148
0.0
149
0.0
100
AcDbLayout
  1
Layout1
 70
     1
 71
     1
 10
0.0
 20
0.0
 11
12.0
 21
9.0
 12
0.0
 22
0.0
 32
0.0
 14
1.000000000000000E+20
 24
1.000000000000000E+20
 34
1.000000000000000E+20
 15
-1.000000000000000E+20
 25
-1.000000000000000E+20
 35
-1.000000000000000E+20
146
0.0
 13
0.0
 23
0.0
 33
0.0
 16
1.0
 26
0.0
 36
0.0
 17
0.0
 27
1.0
 37
0.0
 76
     0
330
1B
  0
LAYOUT
  5
26
102
{ACAD_REACTORS
330
1A
102
}
330
1A
100
AcDbPlotSettings
  1

  2
none_device
  4

  6

 40
0.0
 41
0.0
 42
0.0
 43
0.0
 44
0.0
 45
0.0
 46
0.0
 47
0.0
 48
0.0
 49
0.0
140
0.0
141
0.0
142
1.0
143
1.0
 70
   688
 72
     0
 73
     0
 74
     5
  7

 75
    16
 76
     0
 77
     2
 78
   300
147
1.0
148
0.0
149
0.0
100
AcDbLayout
  1
Layout2
 70
     1
 71
     2
 10
0.0
 20
0.0
 11
0.0
 21
0.0
 12
0.0
 22
0.0
 32
0.0
 14
0.0
 24
0.0
 34
0.0
 15
0.0
 25
0.0
 35
0.0
146
0.0
 13
0.0
 23
0.0
 33
0.0
 16
1.0
 26
0.0
 36
0.0
 17
0.0
 27
1.0
 37
0.0
 76
     0
330
23
  0
LAYOUT
  5
22
102
{ACAD_REACTORS
330
1A
102
}
330
1A
100
AcDbPlotSettings
  1

  2
none_device
  4
Letter_(8.50_x_11.00_Inches)
  6

 40
6.35
 41
6.35
 42
6.35000508
 43
6.35000508
 44
215.9
 45
279.4
 46
0.0
 47
0.0
 48
0.0
 49
0.0
140
0.0
141
0.0
142
1.0
143
1.0
 70
  1712
 72
     0
 73
     0
 74
     0
  7

 75
     0
 76
     0
 77
     2
 78
   300
147
1.0
148
0.0
149
0.0
100
AcDbLayout
  1
Model
 70
     1
 71
     0
 10
0.0
 20
0.0
 11
12.0
 21
9.0
 12
0.0
 22
0.0
 32
0.0
 14
171.0169
 24
-430.974
 34
0.0
 15
704.4755
 25
452.3952
 35
0.0
146
0.0
 13
0.0
 23
0.0
 33
0.0
 16
1.0
 26
0.0
 36
0.0
 17
0.0
 27
1.0
 37
0.0
 76
     0
330
1F
331
29
  0
MATERIAL
  5
45
102
{ACAD_REACTORS
330
43
102
}
330
43
100
AcDbMaterial
  1
ByBlock
 72
     1
 94
      127
  0
MATERIAL
  5
44
102
{ACAD_REACTORS
330
43
102
}
330
43
100
AcDbMaterial
  1
ByLayer
 72
     1
 94
      127
  0
MATERIAL
  5
46
102
{ACAD_REACTORS
330
43
102
}
330
43
100
AcDbMaterial
  1
Global
 72
     1
 94
      127
  0
MLEADERSTYLE
  5
5C
102
{ACAD_REACTORS
330
5B
102
}
330
5B
100
AcDbMLeaderStyle
179
     2
170
     2
171
     1
172
     0
 90
        2
 40
0.0
 41
0.0
173
     1
 91
-1056964608
340
14
 92
       -2
290
     1
 42
0.09
291
     1
 43
0.36
  3
Standard
341
0
 44
0.18
300

342
11
174
     1
178
     6
175
     1
176
     0
 93
-1056964608
 45
0.18
292
     0
297
     0
 46
0.18
343
0
 94
-1056964608
 47
1.0
 49
1.0
140
1.0
293
     1
141
0.0
294
     1
177
     0
142
1.0
295
     0
296
     0
143
0.125
271
     0
272
     9
273
     9
298
     0
  0
MLINESTYLE
  5
18
102
{ACAD_REACTORS
330
17
102
}
330
17
100
AcDbMlineStyle
  2
Standard
 70
     0
  3

 62
   256
 51
90.0
 52
90.0
 71
     2
 49
0.5
 62
   256
  6
BYLAYER
 49
-0.5
 62
   256
  6
BYLAYER
  0
ACDBPLACEHOLDER
  5
F
102
{ACAD_REACTORS
330
E
102
}
330
E
  0
SCALE
  5
48
102
{ACAD_REACTORS
330
47
102
}
330
47
100
AcDbScale
 70
     0
300
1:1
140
1.0
141
1.0
290
     1
  0
SCALE
  5
49
102
{ACAD_REACTORS
330
47
102
}
330
47
100
AcDbScale
 70
     0
300
1/128" = 1'-0"
140
0.0078125
141
12.0
290
     0
  0
SCALE
  5
4A
102
{ACAD_REACTORS
330
47
102
}
330
47
100
AcDbScale
 70
     0
300
1/64" = 1'-0"
140
0.015625
141
12.0
290
     0
  0
SCALE
  5
4B
102
{ACAD_REACTORS
330
47
102
}
330
47
100
AcDbScale
 70
     0
300
1/32" = 1'-0"
140
0.03125
141
12.0
290
     0
  0
SCALE
  5
4C
102
{ACAD_REACTORS
330
47
102
}
330
47
100
AcDbScale
 70
     0
300
1/16" = 1'-0"
140
0.0625
141
12.0
290
     0
  0
SCALE
  5
4D
102
{ACAD_REACTORS
330
47
102
}
330
47
100
AcDbScale
 70
     0
300
3/32" = 1'-0"
140
0.09375
141
12.0
290
     0
  0
SCALE
  5
4E
102
{ACAD_REACTORS
330
47
102
}
330
47
100
AcDbScale
 70
     0
300
1/8" = 1'-0"
140
0.125
141
12.0
290
     0
  0
SCALE
  5
4F
102
{ACAD_REACTORS
330
47
102
}
330
47
100
AcDbScale
 70
     0
300
3/16" = 1'-0"
140
0.1875
141
12.0
290
     0
  0
SCALE
  5
50
102
{ACAD_REACTORS
330
47
102
}
330
47
100
AcDbScale
 70
     0
300
1/4" = 1'-0"
140
0.25
141
12.0
290
     0
  0
SCALE
  5
51
102
{ACAD_REACTORS
330
47
102
}
330
47
100
AcDbScale
 70
     0
300
3/8" = 1'-0"
140
0.375
141
12.0
290
     0
  0
SCALE
  5
52
102
{ACAD_REACTORS
330
47
102
}
330
47
100
AcDbScale
 70
     0
300
1/2" = 1'-0"
140
0.5
141
12.0
290
     0
  0
SCALE
  5
53
102
{ACAD_REACTORS
330
47
102
}
330
47
100
AcDbScale
 70
     0
300
3/4" = 1'-0"
140
0.75
141
12.0
290
     0
  0
SCALE
  5
54
102
{ACAD_REACTORS
330
47
102
}
330
47
100
AcDbScale
 70
     0
300
1" = 1'-0"
140
1.0
141
12.0
290
     0
  0
SCALE
  5
55
102
{ACAD_REACTORS
330
47
102
}
330
47
100
AcDbScale
 70
     0
300
1-1/2" = 1'-0"
140
1.5
141
12.0
290
     0
  0
SCALE
  5
56
102
{ACAD_REACTORS
330
47
102
}
330
47
100
AcDbScale
 70
     0
300
3" = 1'-0"
140
3.0
141
12.0
290
     0
  0
SCALE
  5
57
102
{ACAD_REACTORS
330
47
102
}
330
47
100
AcDbScale
 70
     0
300
6" = 1'-0"
140
6.0
141
12.0
290
     0
  0
SCALE
  5
58
102
{ACAD_REACTORS
330
47
102
}
330
47
100
AcDbScale
 70
     0
300
1'-0" = 1'-0"
140
12.0
141
12.0
290
     0
  0
TABLESTYLE
  5
5A
102
{ACAD_REACTORS
330
59
102
}
102
{ACAD_XDICTIONARY
360
7E
102
}
330
59
100
AcDbTableStyle
  3
Standard
 70
     0
 71
     0
 40
0.06
 41
0.06
280
     0
281
     0
  7
Standard
140
0.18
170
     2
 62
     0
 63
   257
283
     0
 90
        4
 91
        0
  1

274
    -2
284
     1
 64
     0
275
    -2
285
     1
 65
     0
276
    -2
286
     1
 66
     0
277
    -2
287
     1
 67
     0
278
    -2
288
     1
 68
     0
279
    -2
289
     1
 69
     0
  7
Standard
140
0.25
170
     5
 62
     0
 63
   257
283
     0
 90
        4
 91
        0
  1

274
    -2
284
     1
 64
     0
275
    -2
285
     1
 65
     0
276
    -2
286
     1
 66
     0
277
    -2
287
     1
 67
     0
278
    -2
288
     1
 68
     0
279
    -2
289
     1
 69
     0
  7
Standard
140
0.18
170
     5
 62
     0
 63
   257
283
     0
 90
        4
 91
        0
  1

274
    -2
284
     1
 64
     0
275
    -2
285
     1
 65
     0
276
    -2
286
     1
 66
     0
277
    -2
287
     1
 67
     0
278
    -2
288
     1
 68
     0
279
    -2
289
     1
 69
     0
  0
VISUALSTYLE
  5
2F
102
{ACAD_REACTORS
330
2A
102
}
330
2A
100
AcDbVisualStyle
  2
2dWireframe
 70
     4
177
     3
291
     0
 70
    58
 90
        0
176
     1
 90
        2
176
     1
 90
        0
176
     1
 90
        0
176
     1
 40
0.6
176
     1
 40
30.0
176
     1
 62
     7
420
 16777215
176
     1
 90
        1
176
     1
 90
        4
176
     1
 62
     7
176
     1
 62
   257
176
     1
 90
        1
176
     1
 90
        1
176
     1
 40
1.0
176
     1
 90
        0
176
     1
 62
   257
176
     1
 40
1.0
176
     1
 90
        1
176
     1
 90
        6
176
     1
 90
        2
176
     1
 62
     7
176
     1
 90
        5
176
     1
 90
        0
176
     1
 90
        0
176
     1
290
     0
176
     1
 90
        1
176
     1
 40
0.0
176
     1
 90
        0
176
     1
290
     1
176
     1
290
     1
176
     1
290
     0
176
     1
290
     0
176
     1
290
     0
176
     1
290
     0
176
     1
290
     0
176
     1
290
     0
176
     1
290
     0
176
     1
 90
       50
176
     1
 40
0.0
176
     1
 40
1.0
176
     1
 90
        0
176
     1
 62
    18
420
        0
176
     1
 90
       50
176
     1
 90
        3
176
     1
 62
     5
420
      255
176
     1
290
     0
176
     1
 90
       50
176
     1
 90
       50
176
     1
 90
       50
176
     1
290
     0
176
     1
 90
       50
176
     1
 62
   256
176
     0
 40
1.0
176
     0
 90
        2
176
     1
  1
strokes_ogs.tif
176
     1
290
     0
176
     1
 40
1.0
176
     1
 40
1.0
176
     1
  0
VISUALSTYLE
  5
32
102
{ACAD_REACTORS
330
2A
102
}
330
2A
100
AcDbVisualStyle
  2
Basic
 70
     7
177
     3
291
     1
 70
    58
 90
        1
176
     1
 90
        0
176
     1
 90
        1
176
     1
 90
        0
176
     1
 40
0.6
176
     1
 40
30.0
176
     1
 62
     7
420
 16777215
176
     1
 90
        0
176
     1
 90
        4
176
     1
 62
     7
176
     1
 62
   257
176
     1
 90
        1
176
     1
 90
        1
176
     1
 40
1.0
176
     1
 90
        8
176
     1
 62
     7
176
     1
 40
1.0
176
     1
 90
        1
176
     1
 90
        6
176
     1
 90
        2
176
     1
 62
     7
176
     1
 90
        5
176
     1
 90
        0
176
     1
 90
        0
176
     1
290
     0
176
     1
 90
        1
176
     1
 40
0.0
176
     1
 90
        0
176
     1
290
     0
176
     1
290
     1
176
     1
290
     1
176
     1
290
     0
176
     1
290
     0
176
     1
290
     0
176
     1
290
     0
176
     1
290
     0
176
     1
290
     0
176
     1
 90
       50
176
     1
 40
0.0
176
     1
 40
1.0
176
     1
 90
        0
176
     1
 62
    18
420
        0
176
     1
 90
       50
176
     1
 90
        3
176
     1
 62
     5
420
      255
176
     1
290
     0
176
     1
 90
       50
176
     1
 90
       50
176
     1
 90
       50
176
     1
290
     0
176
     1
 90
       50
176
     1
 62
   256
176
     0
 40
1.0
176
     0
 90
        2
176
     1
  1
strokes_ogs.tif
176
     1
290
     0
176
     1
 40
1.0
176
     1
 40
1.0
176
     1
  0
VISUALSTYLE
  5
36
102
{ACAD_REACTORS
330
2A
102
}
330
2A
100
AcDbVisualStyle
  2
Brighten
 70
    12
177
     3
291
     1
 70
    58
 90
        2
176
     1
 90
        2
176
     1
 90
        0
176
     1
 90
        0
176
     1
 40
0.6
176
     1
 40
30.0
176
     1
 62
     7
420
 16777215
176
     1
 90
        1
176
     1
 90
        4
176
     1
 62
     7
176
     1
 62
   257
176
     1
 90
        1
176
     1
 90
        1
176
     1
 40
1.0
176
     1
 90
        8
176
     1
 62
     7
176
     1
 40
1.0
176
     1
 90
        1
176
     1
 90
        6
176
     1
 90
        2
176
     1
 62
     7
176
     1
 90
        5
176
     1
 90
        0
176
     1
 90
        0
176
     1
290
     0
176
     1
 90
        1
176
     1
 40
50.0
176
     1
 90
        0
176
     1
290
     0
176
     1
290
     1
176
     1
290
     1
176
     1
290
     0
176
     1
290
     0
176
     1
290
     0
176
     1
290
     0
176
     1
290
     0
176
     1
290
     0
176
     1
 90
       50
176
     1
 40
0.0
176
     1
 40
1.0
176
     1
 90
        0
176
     1
 62
    18
420
        0
176
     1
 90
       50
176
     1
 90
        3
176
     1
 62
     5
420
      255
176
     1
290
     0
176
     1
 90
       50
176
     1
 90
       50
176
     1
 90
       50
176
     1
290
     0
176
     1
 90
       50
176
     1
 62
   256
176
     0
 40
1.0
176
     0
 90
        2
176
     1
  1
strokes_ogs.tif
176
     1
290
     0
176
     1
 40
1.0
176
     1
 40
1.0
176
     1
  0
VISUALSTYLE
  5
3A
102
{ACAD_REACTORS
330
2A
102
}
330
2A
100
AcDbVisualStyle
  2
ColorChange
 70
    16
177
     3
291
     1
 70
    58
 90
        2
176
     1
 90
        2
176
     1
 90
        3
176
     1
 90
        0
176
     1
 40
0.6
176
     1
 40
30.0
176
     1
 62
     8
420
  8421504
176
     1
 90
        1
176
     1
 90
        4
176
     1
 62
     7
176
     1
 62
   257
176
     1
 90
        1
176
     1
 90
        1
176
     1
 40
1.0
176
     1
 90
        8
176
     1
 62
     8
420
  8421504
176
     1
 40
1.0
176
     1
 90
        1
176
     1
 90
        6
176
     1
 90
        2
176
     1
 62
     7
176
     1
 90
        5
176
     1
 90
        0
176
     1
 90
        0
176
     1
290
     0
176
     1
 90
        1
176
     1
 40
0.0
176
     1
 90
        0
176
     1
290
     0
176
     1
290
     1
176
     1
290
     1
176
     1
290
     0
176
     1
290
     0
176
     1
290
     0
176
     1
290
     0
176
     1
290
     0
176
     1
290
     0
176
     1
 90
       50
176
     1
 40
0.0
176
     1
 40
1.0
176
     1
 90
        0
176
     1
 62
    18
420
        0
176
     1
 90
       50
176
     1
 90
        3
176
     1
 62
     5
420
      255
176
     1
290
     0
176
     1
 90
       50
176
     1
 90
       50
176
     1
 90
       50
176
     1
290
     0
176
     1
 90
       50
176
     1
 62
   256
176
     0
 40
1.0
176
     0
 90
        2
176
     1
  1
strokes_ogs.tif
176
     1
290
     0
176
     1
 40
1.0
176
     1
 40
1.0
176
     1
  0
VISUALSTYLE
  5
34
102
{ACAD_REACTORS
330
2A
102
}
330
2A
100
AcDbVisualStyle
  2
Conceptual
 70
     9
177
     3
291
     0
 70
    58
 90
        3
176
     1
 90
        2
176
     1
 90
        0
176
     1
 90
        0
176
     1
 40
0.6
176
     1
 40
30.0
176
     1
 62
     7
420
 16777215
176
     1
 90
        2
176
     1
 90
        2
176
     1
 62
     7
176
     1
 62
   257
176
     1
 90
        1
176
     1
 90
        1
176
     1
 40
179.0
176
     1
 90
        8
176
     1
 62
     7
176
     1
 40
1.0
176
     1
 90
        1
176
     1
 90
        6
176
     1
 90
        2
176
     1
 62
     7
176
     1
 90
        3
176
     1
 90
        0
176
     1
 90
        0
176
     1
290
     0
176
     1
 90
        1
176
     1
 40
0.0
176
     1
 90
        0
176
     1
290
     0
176
     1
290
     1
176
     1
290
     1
176
     1
290
     0
176
     1
290
     0
176
     1
290
     0
176
     1
290
     0
176
     1
290
     0
176
     1
290
     0
176
     1
 90
       50
176
     1
 40
0.0
176
     1
 40
1.0
176
     1
 90
        0
176
     1
 62
    18
420
        0
176
     1
 90
       50
176
     1
 90
        3
176
     1
 62
     5
420
      255
176
     1
290
     0
176
     1
 90
       50
176
     1
 90
       50
176
     1
 90
       50
176
     1
290
     0
176
     1
 90
       50
176
     1
 62
   256
176
     0
 40
1.0
176
     0
 90
        2
176
     1
  1
strokes_ogs.tif
176
     1
290
     0
176
     1
 40
1.0
176
     1
 40
1.0
176
     1
  0
VISUALSTYLE
  5
35
102
{ACAD_REACTORS
330
2A
102
}
330
2A
100
AcDbVisualStyle
  2
Dim
 70
    11
177
     3
291
     1
 70
    58
 90
        2
176
     1
 90
        2
176
     1
 90
        0
176
     1
 90
        0
176
     1
 40
0.6
176
     1
 40
30.0
176
     1
 62
     7
420
 16777215
176
     1
 90
        1
176
     1
 90
        4
176
     1
 62
     7
176
     1
 62
   257
176
     1
 90
        1
176
     1
 90
        1
176
     1
 40
1.0
176
     1
 90
        8
176
     1
 62
     7
176
     1
 40
1.0
176
     1
 90
        1
176
     1
 90
        6
176
     1
 90
        2
176
     1
 62
     7
176
     1
 90
        5
176
     1
 90
        0
176
     1
 90
        0
176
     1
290
     0
176
     1
 90
        1
176
     1
 40
-50.0
176
     1
 90
        0
176
     1
290
     0
176
     1
290
     1
176
     1
290
     1
176
     1
290
     0
176
     1
290
     0
176
     1
290
     0
176
     1
290
     0
176
     1
290
     0
176
     1
290
     0
176
     1
 90
       50
176
     1
 40
0.0
176
     1
 40
1.0
176
     1
 90
        0
176
     1
 62
    18
420
        0
176
     1
 90
       50
176
     1
 90
        3
176
     1
 62
     5
420
      255
176
     1
290
     0
176
     1
 90
       50
176
     1
 90
       50
176
     1
 90
       50
176
     1
290
     0
176
     1
 90
       50
176
     1
 62
   256
176
     0
 40
1.0
176
     0
 90
        2
176
     1
  1
strokes_ogs.tif
176
     1
290
     0
176
     1
 40
1.0
176
     1
 40
1.0
176
     1
  0
VISUALSTYLE
  5
3D
102
{ACAD_REACTORS
330
2A
102
}
330
2A
100
AcDbVisualStyle
  2
EdgeColorOff
 70
    22
177
     3
291
     1
 70
    58
 90
        2
176
     0
 90
        2
176
     0
 90
        0
176
     0
 90
        0
176
     0
 40
0.6
176
     0
 40
30.0
176
     0
 62
     7
420
 16777215
176
     0
 90
        1
176
     0
 90
        4
176
     0
 62
     7
176
     0
 62
   257
176
     0
 90
        1
176
     0
 90
        1
176
     0
 40
1.0
176
     0
 90
        8
176
     2
 62
     7
176
     0
 40
1.0
176
     0
 90
        1
176
     0
 90
        6
176
     0
 90
        2
176
     0
 62
     7
176
     0
 90
        5
176
     0
 90
        0
176
     0
 90
        0
176
     0
290
     0
176
     0
 90
        1
176
     0
 40
0.0
176
     0
 90
        0
176
     0
290
     0
176
     0
290
     1
176
     0
290
     1
176
     0
290
     0
176
     0
290
     0
176
     0
290
     0
176
     0
290
     0
176
     0
290
     0
176
     0
290
     0
176
     0
 90
       50
176
     0
 40
0.0
176
     0
 40
1.0
176
     0
 90
        0
176
     0
 62
    18
420
        0
176
     0
 90
       50
176
     0
 90
        3
176
     0
 62
     5
420
      255
176
     0
290
     0
176
     0
 90
       50
176
     0
 90
       50
176
     0
 90
       50
176
     0
290
     0
176
     0
 90
       50
176
     0
 62
   256
176
     0
 40
1.0
176
     0
 90
        2
176
     0
  1
strokes_ogs.tif
176
     0
290
     0
176
     0
 40
1.0
176
     0
 40
1.0
176
     0
  0
VISUALSTYLE
  5
39
102
{ACAD_REACTORS
330
2A
102
}
330
2A
100
AcDbVisualStyle
  2
Facepattern
 70
    15
177
     3
291
     1
 70
    58
 90
        2
176
     1
 90
        2
176
     1
 90
        0
176
     1
 90
        0
176
     1
 40
0.6
176
     1
 40
30.0
176
     1
 62
     7
420
 16777215
176
     1
 90
        1
176
     1
 90
        4
176
     1
 62
     7
176
     1
 62
   257
176
     1
 90
        1
176
     1
 90
        1
176
     1
 40
1.0
176
     1
 90
        8
176
     1
 62
     7
176
     1
 40
1.0
176
     1
 90
        1
176
     1
 90
        6
176
     1
 90
        2
176
     1
 62
     7
176
     1
 90
        5
176
     1
 90
        0
176
     1
 90
        0
176
     1
290
     0
176
     1
 90
        1
176
     1
 40
0.0
176
     1
 90
        0
176
     1
290
     0
176
     1
290
     1
176
     1
290
     1
176
     1
290
     0
176
     1
290
     0
176
     1
290
     0
176
     1
290
     0
176
     1
290
     0
176
     1
290
     0
176
     1
 90
       50
176
     1
 40
0.0
176
     1
 40
1.0
176
     1
 90
        0
176
     1
 62
    18
420
        0
176
     1
 90
       50
176
     1
 90
        3
176
     1
 62
     5
420
      255
176
     1
290
     0
176
     1
 90
       50
176
     1
 90
       50
176
     1
 90
       50
176
     1
290
     0
176
     1
 90
       50
176
     1
 62
   256
176
     0
 40
1.0
176
     0
 90
        2
176
     1
  1
strokes_ogs.tif
176
     1
290
     0
176
     1
 40
1.0
176
     1
 40
1.0
176
     1
  0
VISUALSTYLE
  5
2B
102
{ACAD_REACTORS
330
2A
102
}
330
2A
100
AcDbVisualStyle
  2
Flat
 70
     0
177
     3
291
     1
 70
    58
 90
        2
176
     1
 90
        1
176
     1
 90
        1
176
     1
 90
        2
176
     1
 40
0.6
176
     1
 40
30.0
176
     1
 62
     7
420
 16777215
176
     1
 90
        0
176
     1
 90
        0
176
     1
 62
     7
176
     1
 62
   257
176
     1
 90
        1
176
     1
 90
        1
176
     1
 40
1.0
176
     1
 90
        8
176
     1
 62
     7
176
     1
 40
1.0
176
     1
 90
        1
176
     1
 90
        6
176
     1
 90
        2
176
     1
 62
     7
176
     1
 90
        5
176
     1
 90
        0
176
     1
 90
        0
176
     1
290
     0
176
     1
 90
       13
176
     1
 40
0.0
176
     1
 90
        0
176
     1
290
     0
176
     1
290
     1
176
     1
290
     1
176
     1
290
     0
176
     1
290
     0
176
     1
290
     0
176
     1
290
     0
176
     1
290
     0
176
     1
290
     0
176
     1
 90
       50
176
     1
 40
0.0
176
     1
 40
1.0
176
     1
 90
        0
176
     1
 62
    18
420
        0
176
     1
 90
       50
176
     1
 90
        3
176
     1
 62
     5
420
      255
176
     1
290
     0
176
     1
 90
       50
176
     1
 90
       50
176
     1
 90
       50
176
     1
290
     0
176
     1
 90
       50
176
     1
 62
   256
176
     0
 40
1.0
176
     0
 90
        2
176
     1
  1
strokes_ogs.tif
176
     1
290
     0
176
     1
 40
1.0
176
     1
 40
1.0
176
     1
  0
VISUALSTYLE
  5
2C
102
{ACAD_REACTORS
330
2A
102
}
330
2A
100
AcDbVisualStyle
  2
FlatWithEdges
 70
     1
177
     3
291
     1
 70
    58
 90
        2
176
     1
 90
        1
176
     1
 90
        1
176
     1
 90
        2
176
     1
 40
0.6
176
     1
 40
30.0
176
     1
 62
     7
420
 16777215
176
     1
 90
        1
176
     1
 90
        0
176
     1
 62
     7
176
     1
 62
   257
176
     1
 90
        1
176
     1
 90
        1
176
     1
 40
1.0
176
     1
 90
        0
176
     1
 62
   257
176
     1
 40
1.0
176
     1
 90
        1
176
     1
 90
        6
176
     1
 90
        2
176
     1
 62
     7
176
     1
 90
        5
176
     1
 90
        0
176
     1
 90
        0
176
     1
290
     0
176
     1
 90
       13
176
     1
 40
0.0
176
     1
 90
        0
176
     1
290
     0
176
     1
290
     1
176
     1
290
     1
176
     1
290
     0
176
     1
290
     0
176
     1
290
     0
176
     1
290
     0
176
     1
290
     0
176
     1
290
     0
176
     1
 90
       50
176
     1
 40
0.0
176
     1
 40
1.0
176
     1
 90
        0
176
     1
 62
    18
420
        0
176
     1
 90
       50
176
     1
 90
        3
176
     1
 62
     5
420
      255
176
     1
290
     0
176
     1
 90
       50
176
     1
 90
       50
176
     1
 90
       50
176
     1
290
     0
176
     1
 90
       50
176
     1
 62
   256
176
     0
 40
1.0
176
     0
 90
        2
176
     1
  1
strokes_ogs.tif
176
     1
290
     0
176
     1
 40
1.0
176
     1
 40
1.0
176
     1
  0
VISUALSTYLE
  5
2D
102
{ACAD_REACTORS
330
2A
102
}
330
2A
100
AcDbVisualStyle
  2
Gouraud
 70
     2
177
     3
291
     1
 70
    58
 90
        2
176
     1
 90
        2
176
     1
 90
        1
176
     1
 90
        2
176
     1
 40
0.6
176
     1
 40
30.0
176
     1
 62
     7
420
 16777215
176
     1
 90
        0
176
     1
 90
        0
176
     1
 62
     7
176
     1
 62
   257
176
     1
 90
        1
176
     1
 90
        1
176
     1
 40
1.0
176
     1
 90
        0
176
     1
 62
     7
176
     1
 40
1.0
176
     1
 90
        1
176
     1
 90
        6
176
     1
 90
        2
176
     1
 62
     7
176
     1
 90
        5
176
     1
 90
        0
176
     1
 90
        0
176
     1
290
     0
176
     1
 90
       13
176
     1
 40
0.0
176
     1
 90
        0
176
     1
290
     0
176
     1
290
     1
176
     1
290
     1
176
     1
290
     0
176
     1
290
     0
176
     1
290
     0
176
     1
290
     0
176
     1
290
     0
176
     1
290
     0
176
     1
 90
       50
176
     1
 40
0.0
176
     1
 40
1.0
176
     1
 90
        0
176
     1
 62
    18
420
        0
176
     1
 90
       50
176
     1
 90
        3
176
     1
 62
     5
420
      255
176
     1
290
     0
176
     1
 90
       50
176
     1
 90
       50
176
     1
 90
       50
176
     1
290
     0
176
     1
 90
       50
176
     1
 62
   256
176
     0
 40
1.0
176
     0
 90
        2
176
     1
  1
strokes_ogs.tif
176
     1
290
     0
176
     1
 40
1.0
176
     1
 40
1.0
176
     1
  0
VISUALSTYLE
  5
2E
102
{ACAD_REACTORS
330
2A
102
}
330
2A
100
AcDbVisualStyle
  2
GouraudWithEdges
 70
     3
177
     3
291
     1
 70
    58
 90
        2
176
     1
 90
        2
176
     1
 90
        1
176
     1
 90
        2
176
     1
 40
0.6
176
     1
 40
30.0
176
     1
 62
     7
420
 16777215
176
     1
 90
        1
176
     1
 90
        0
176
     1
 62
     7
176
     1
 62
   257
176
     1
 90
        1
176
     1
 90
        1
176
     1
 40
1.0
176
     1
 90
        0
176
     1
 62
   257
176
     1
 40
1.0
176
     1
 90
        1
176
     1
 90
        6
176
     1
 90
        2
176
     1
 62
     7
176
     1
 90
        5
176
     1
 90
        0
176
     1
 90
        0
176
     1
290
     0
176
     1
 90
       13
176
     1
 40
0.0
176
     1
 90
        0
176
     1
290
     0
176
     1
290
     1
176
     1
290
     1
176
     1
290
     0
176
     1
290
     0
176
     1
290
     0
176
     1
290
     0
176
     1
290
     0
176
     1
290
     0
176
     1
 90
       50
176
     1
 40
0.0
176
     1
 40
1.0
176
     1
 90
        0
176
     1
 62
    18
420
        0
176
     1
 90
       50
176
     1
 90
        3
176
     1
 62
     5
420
      255
176
     1
290
     0
176
     1
 90
       50
176
     1
 90
       50
176
     1
 90
       50
176
     1
290
     0
176
     1
 90
       50
176
     1
 62
   256
176
     0
 40
1.0
176
     0
 90
        2
176
     1
  1
strokes_ogs.tif
176
     1
290
     0
176
     1
 40
1.0
176
     1
 40
1.0
176
     1
  0
VISUALSTYLE
  5
31
102
{ACAD_REACTORS
330
2A
102
}
330
2A
100
AcDbVisualStyle
  2
Hidden
 70
     6
177
     3
291
     0
 70
    58
 90
        1
176
     1
 90
        2
176
     1
 90
        2
176
     1
 90
        0
176
     1
 40
0.6
176
     1
 40
30.0
176
     1
 62
     7
420
 16777215
176
     1
 90
        2
176
     1
 90
        2
176
     1
 62
     7
176
     1
 62
   257
176
     1
 90
        2
176
     1
 90
        1
176
     1
 40
40.0
176
     1
 90
        0
176
     1
 62
   257
176
     1
 40
1.0
176
     1
 90
        1
176
     1
 90
        6
176
     1
 90
        2
176
     1
 62
     7
176
     1
 90
        3
176
     1
 90
        0
176
     1
 90
        0
176
     1
290
     0
176
     1
 90
        1
176
     1
 40
0.0
176
     1
 90
        0
176
     1
290
     0
176
     1
290
     1
176
     1
290
     1
176
     1
290
     0
176
     1
290
     0
176
     1
290
     0
176
     1
290
     0
176
     1
290
     0
176
     1
290
     0
176
     1
 90
       50
176
     1
 40
0.0
176
     1
 40
1.0
176
     1
 90
        0
176
     1
 62
    18
420
        0
176
     1
 90
       50
176
     1
 90
        3
176
     1
 62
     5
420
      255
176
     1
290
     0
176
     1
 90
       50
176
     1
 90
       50
176
     1
 90
       50
176
     1
290
     0
176
     1
 90
       50
176
     1
 62
   256
176
     0
 40
1.0
176
     0
 90
        2
176
     1
  1
strokes_ogs.tif
176
     1
290
     0
176
     1
 40
1.0
176
     1
 40
1.0
176
     1
  0
VISUALSTYLE
  5
3B
102
{ACAD_REACTORS
330
2A
102
}
330
2A
100
AcDbVisualStyle
  2
JitterOff
 70
    20
177
     3
291
     1
 70
    58
 90
        2
176
     0
 90
        2
176
     0
 90
        0
176
     0
 90
        0
176
     0
 40
0.6
176
     0
 40
30.0
176
     0
 62
     7
420
 16777215
176
     0
 90
        1
176
     0
 90
        4
176
     0
 62
     7
176
     0
 62
   257
176
     0
 90
        1
176
     0
 90
        1
176
     0
 40
1.0
176
     0
 90
       10
176
     2
 62
     7
176
     0
 40
1.0
176
     0
 90
        1
176
     0
 90
        6
176
     0
 90
        2
176
     0
 62
     7
176
     0
 90
        5
176
     0
 90
        0
176
     0
 90
        0
176
     0
290
     0
176
     0
 90
        1
176
     0
 40
0.0
176
     0
 90
        0
176
     0
290
     0
176
     0
290
     1
176
     0
290
     1
176
     0
290
     0
176
     0
290
     0
176
     0
290
     0
176
     0
290
     0
176
     0
290
     0
176
     0
290
     0
176
     0
 90
       50
176
     0
 40
0.0
176
     0
 40
1.0
176
     0
 90
        0
176
     0
 62
    18
420
        0
176
     0
 90
       50
176
     0
 90
        3
176
     0
 62
     5
420
      255
176
     0
290
     0
176
     0
 90
       50
176
     0
 90
       50
176
     0
 90
       50
176
     0
290
     0
176
     0
 90
       50
176
     0
 62
   256
176
     0
 40
1.0
176
     0
 90
        2
176
     0
  1
strokes_ogs.tif
176
     0
290
     0
176
     0
 40
1.0
176
     0
 40
1.0
176
     0
  0
VISUALSTYLE
  5
38
102
{ACAD_REACTORS
330
2A
102
}
330
2A
100
AcDbVisualStyle
  2
Linepattern
 70
    14
177
     3
291
     1
 70
    58
 90
        2
176
     1
 90
        2
176
     1
 90
        0
176
     1
 90
        0
176
     1
 40
0.6
176
     1
 40
30.0
176
     1
 62
     7
420
 16777215
176
     1
 90
        1
176
     1
 90
        4
176
     1
 62
     7
176
     1
 62
   257
176
     1
 90
        7
176
     1
 90
        7
176
     1
 40
1.0
176
     1
 90
        8
176
     1
 62
     7
176
     1
 40
1.0
176
     1
 90
        1
176
     1
 90
        6
176
     1
 90
        2
176
     1
 62
     7
176
     1
 90
        5
176
     1
 90
        0
176
     1
 90
        0
176
     1
290
     0
176
     1
 90
        1
176
     1
 40
0.0
176
     1
 90
        0
176
     1
290
     0
176
     1
290
     1
176
     1
290
     1
176
     1
290
     0
176
     1
290
     0
176
     1
290
     0
176
     1
290
     0
176
     1
290
     0
176
     1
290
     0
176
     1
 90
       50
176
     1
 40
0.0
176
     1
 40
1.0
176
     1
 90
        0
176
     1
 62
    18
420
        0
176
     1
 90
       50
176
     1
 90
        3
176
     1
 62
     5
420
      255
176
     1
290
     0
176
     1
 90
       50
176
     1
 90
       50
176
     1
 90
       50
176
     1
290
     0
176
     1
 90
       50
176
     1
 62
   256
176
     0
 40
1.0
176
     0
 90
        2
176
     1
  1
strokes_ogs.tif
176
     1
290
     0
176
     1
 40
1.0
176
     1
 40
1.0
176
     1
  0
VISUALSTYLE
  5
3C
102
{ACAD_REACTORS
330
2A
102
}
330
2A
100
AcDbVisualStyle
  2
OverhangOff
 70
    21
177
     3
291
     1
 70
    58
 90
        2
176
     0
 90
        2
176
     0
 90
        0
176
     0
 90
        0
176
     0
 40
0.6
176
     0
 40
30.0
176
     0
 62
     7
420
 16777215
176
     0
 90
        1
176
     0
 90
        4
176
     0
 62
     7
176
     0
 62
   257
176
     0
 90
        1
176
     0
 90
        1
176
     0
 40
1.0
176
     0
 90
        9
176
     2
 62
     7
176
     0
 40
1.0
176
     0
 90
        1
176
     0
 90
        6
176
     0
 90
        2
176
     0
 62
     7
176
     0
 90
        5
176
     0
 90
        0
176
     0
 90
        0
176
     0
290
     0
176
     0
 90
        1
176
     0
 40
0.0
176
     0
 90
        0
176
     0
290
     0
176
     0
290
     1
176
     0
290
     1
176
     0
290
     0
176
     0
290
     0
176
     0
290
     0
176
     0
290
     0
176
     0
290
     0
176
     0
290
     0
176
     0
 90
       50
176
     0
 40
0.0
176
     0
 40
1.0
176
     0
 90
        0
176
     0
 62
    18
420
        0
176
     0
 90
       50
176
     0
 90
        3
176
     0
 62
     5
420
      255
176
     0
290
     0
176
     0
 90
       50
176
     0
 90
       50
176
     0
 90
       50
176
     0
290
     0
176
     0
 90
       50
176
     0
 62
   256
176
     0
 40
1.0
176
     0
 90
        2
176
     0
  1
strokes_ogs.tif
176
     0
290
     0
176
     0
 40
1.0
176
     0
 40
1.0
176
     0
  0
VISUALSTYLE
  5
33
102
{ACAD_REACTORS
330
2A
102
}
330
2A
100
AcDbVisualStyle
  2
Realistic
 70
     8
177
     3
291
     0
 70
    58
 90
        2
176
     1
 90
        3
176
     1
 90
        0
176
     1
 90
        2
176
     1
 40
0.6
176
     1
 40
30.0
176
     1
 62
     7
420
 16777215
176
     1
 90
        0
176
     1
 90
        0
176
     1
 62
     7
176
     1
 62
   257
176
     1
 90
        1
176
     1
 90
        1
176
     1
 40
1.0
176
     1
 90
        8
176
     1
 62
   257
176
     1
 40
1.0
176
     1
 90
        1
176
     1
 90
        6
176
     1
 90
        2
176
     1
 62
     7
176
     1
 90
        3
176
     1
 90
        0
176
     1
 90
        0
176
     1
290
     0
176
     1
 90
       13
176
     1
 40
0.0
176
     1
 90
        0
176
     1
290
     0
176
     1
290
     1
176
     1
290
     1
176
     1
290
     0
176
     1
290
     0
176
     1
290
     0
176
     1
290
     0
176
     1
290
     0
176
     1
290
     0
176
     1
 90
       50
176
     1
 40
0.0
176
     1
 40
1.0
176
     1
 90
        0
176
     1
 62
    18
420
        0
176
     1
 90
       50
176
     1
 90
        3
176
     1
 62
     5
420
      255
176
     1
290
     0
176
     1
 90
       50
176
     1
 90
       50
176
     1
 90
       50
176
     1
290
     0
176
     1
 90
       50
176
     1
 62
   256
176
     0
 40
1.0
176
     0
 90
        2
176
     1
  1
strokes_ogs.tif
176
     1
290
     0
176
     1
 40
1.0
176
     1
 40
1.0
176
     1
  0
VISUALSTYLE
  5
42
102
{ACAD_REACTORS
330
2A
102
}
330
2A
100
AcDbVisualStyle
  2
Shaded
 70
    27
177
     3
291
     0
 70
    58
 90
        2
176
     1
 90
        2
176
     1
 90
        1
176
     1
 90
        2
176
     1
 40
0.6
176
     1
 40
30.0
176
     1
 62
     7
420
 16777215
176
     1
 90
        0
176
     1
 90
        4
176
     1
 62
     7
176
     1
 62
   257
176
     1
 90
        1
176
     1
 90
        1
176
     1
 40
1.0
176
     1
 90
        8
176
     1
 62
   257
176
     1
 40
1.0
176
     1
 90
        1
176
     1
 90
        6
176
     1
 90
        2
176
     1
 62
     8
420
  7895160
176
     1
 90
        3
176
     1
 90
        0
176
     1
 90
        0
176
     1
290
     0
176
     1
 90
        5
176
     1
 40
0.0
176
     1
 90
        0
176
     1
290
     0
176
     1
290
     1
176
     1
290
     1
176
     1
290
     0
176
     1
290
     0
176
     1
290
     0
176
     1
290
     0
176
     1
290
     0
176
     1
290
     0
176
     1
 90
       50
176
     1
 40
0.0
176
     1
 40
1.0
176
     1
 90
        0
176
     1
 62
    18
420
        0
176
     1
 90
       50
176
     1
 90
        3
176
     1
 62
     5
420
      255
176
     1
290
     0
176
     1
 90
       50
176
     1
 90
       50
176
     1
 90
       50
176
     1
290
     0
176
     1
 90
       50
176
     1
 62
   256
176
     0
 40
1.0
176
     0
 90
        2
176
     1
  1
strokes_ogs.tif
176
     1
290
     0
176
     1
 40
1.0
176
     1
 40
1.0
176
     1
  0
VISUALSTYLE
  5
41
102
{ACAD_REACTORS
330
2A
102
}
330
2A
100
AcDbVisualStyle
  2
Shaded with edges
 70
    26
177
     3
291
     0
 70
    58
 90
        2
176
     1
 90
        2
176
     1
 90
        1
176
     1
 90
        2
176
     1
 40
0.6
176
     1
 40
30.0
176
     1
 62
     7
420
 16777215
176
     1
 90
        1
176
     1
 90
       10
176
     1
 62
     7
176
     1
 62
   257
176
     1
 90
        2
176
     1
 90
        1
176
     1
 40
1.0
176
     1
 90
        8
176
     1
 62
   257
176
     1
 40
1.0
176
     1
 90
        1
176
     1
 90
        6
176
     1
 90
        2
176
     1
 62
     7
176
     1
 90
        3
176
     1
 90
        0
176
     1
 90
        0
176
     1
290
     0
176
     1
 90
        5
176
     1
 40
0.0
176
     1
 90
        0
176
     1
290
     0
176
     1
290
     1
176
     1
290
     1
176
     1
290
     0
176
     1
290
     0
176
     1
290
     0
176
     1
290
     0
176
     1
290
     0
176
     1
290
     0
176
     1
 90
       50
176
     1
 40
0.0
176
     1
 40
1.0
176
     1
 90
        0
176
     1
 62
    18
420
        0
176
     1
 90
       50
176
     1
 90
        3
176
     1
 62
     5
420
      255
176
     1
290
     0
176
     1
 90
       50
176
     1
 90
       50
176
     1
 90
       50
176
     1
290
     0
176
     1
 90
       50
176
     1
 62
   256
176
     0
 40
1.0
176
     0
 90
        2
176
     1
  1
strokes_ogs.tif
176
     1
290
     0
176
     1
 40
1.0
176
     1
 40
1.0
176
     1
  0
VISUALSTYLE
  5
3E
102
{ACAD_REACTORS
330
2A
102
}
330
2A
100
AcDbVisualStyle
  2
Shades of Gray
 70
    23
177
     3
291
     0
 70
    58
 90
        2
176
     1
 90
        2
176
     1
 90
        3
176
     1
 90
        0
176
     1
 40
0.6
176
     1
 40
30.0
176
     1
 62
     7
420
 16777215
176
     1
 90
        2
176
     1
 90
        2
176
     1
 62
     7
176
     1
 62
     7
176
     1
 90
        1
176
     1
 90
        1
176
     1
 40
40.0
176
     1
 90
        8
176
     1
 62
     7
176
     1
 40
1.0
176
     1
 90
        1
176
     1
 90
        6
176
     1
 90
        2
176
     1
 62
     7
176
     1
 90
        3
176
     1
 90
        0
176
     1
 90
        0
176
     1
290
     0
176
     1
 90
        1
176
     1
 40
0.0
176
     1
 90
        0
176
     1
290
     0
176
     1
290
     1
176
     1
290
     1
176
     1
290
     0
176
     1
290
     0
176
     1
290
     0
176
     1
290
     0
176
     1
290
     0
176
     1
290
     0
176
     1
 90
       50
176
     1
 40
0.0
176
     1
 40
1.0
176
     1
 90
        0
176
     1
 62
    18
420
        0
176
     1
 90
       50
176
     1
 90
        3
176
     1
 62
     5
420
      255
176
     1
290
     0
176
     1
 90
       50
176
     1
 90
       50
176
     1
 90
       50
176
     1
290
     0
176
     1
 90
       50
176
     1
 62
   256
176
     0
 40
1.0
176
     0
 90
        2
176
     1
  1
strokes_ogs.tif
176
     1
290
     0
176
     1
 40
1.0
176
     1
 40
1.0
176
     1
  0
VISUALSTYLE
  5
3F
102
{ACAD_REACTORS
330
2A
102
}
330
2A
100
AcDbVisualStyle
  2
Sketchy
 70
    24
177
     3
291
     0
 70
    58
 90
        1
176
     1
 90
        2
176
     1
 90
        2
176
     1
 90
        0
176
     1
 40
0.6
176
     1
 40
30.0
176
     1
 62
     7
420
 16777215
176
     1
 90
        2
176
     1
 90
        2
176
     1
 62
     7
176
     1
 62
     7
176
     1
 90
        1
176
     1
 90
        1
176
     1
 40
40.0
176
     1
 90
       11
176
     1
 62
     7
176
     1
 40
1.0
176
     1
 90
        1
176
     1
 90
        6
176
     1
 90
        2
176
     1
 62
     7
176
     1
 90
        6
176
     1
 90
        0
176
     1
 90
        0
176
     1
290
     0
176
     1
 90
        1
176
     1
 40
0.0
176
     1
 90
        0
176
     1
290
     0
176
     1
290
     1
176
     1
290
     1
176
     1
290
     0
176
     1
290
     0
176
     1
290
     0
176
     1
290
     0
176
     1
290
     0
176
     1
290
     0
176
     1
 90
       50
176
     1
 40
0.0
176
     1
 40
1.0
176
     1
 90
        0
176
     1
 62
    18
420
        0
176
     1
 90
       50
176
     1
 90
        3
176
     1
 62
     5
420
      255
176
     1
290
     0
176
     1
 90
       50
176
     1
 90
       50
176
     1
 90
       50
176
     1
290
     0
176
     1
 90
       50
176
     1
 62
   256
176
     0
 40
1.0
176
     0
 90
        2
176
     1
  1
strokes_ogs.tif
176
     1
290
     0
176
     1
 40
1.0
176
     1
 40
1.0
176
     1
  0
VISUALSTYLE
  5
37
102
{ACAD_REACTORS
330
2A
102
}
330
2A
100
AcDbVisualStyle
  2
Thicken
 70
    13
177
     3
291
     1
 70
    58
 90
        2
176
     1
 90
        2
176
     1
 90
        0
176
     1
 90
        0
176
     1
 40
0.6
176
     1
 40
30.0
176
     1
 62
     7
420
 16777215
176
     1
 90
        1
176
     1
 90
        4
176
     1
 62
     7
176
     1
 62
   257
176
     1
 90
        1
176
     1
 90
        1
176
     1
 40
1.0
176
     1
 90
       12
176
     1
 62
     7
176
     1
 40
1.0
176
     1
 90
        1
176
     1
 90
        6
176
     1
 90
        2
176
     1
 62
     7
176
     1
 90
        5
176
     1
 90
        0
176
     1
 90
        0
176
     1
290
     0
176
     1
 90
        1
176
     1
 40
0.0
176
     1
 90
        0
176
     1
290
     0
176
     1
290
     1
176
     1
290
     1
176
     1
290
     0
176
     1
290
     0
176
     1
290
     0
176
     1
290
     0
176
     1
290
     0
176
     1
290
     0
176
     1
 90
       50
176
     1
 40
0.0
176
     1
 40
1.0
176
     1
 90
        0
176
     1
 62
    18
420
        0
176
     1
 90
       50
176
     1
 90
        3
176
     1
 62
     5
420
      255
176
     1
290
     0
176
     1
 90
       50
176
     1
 90
       50
176
     1
 90
       50
176
     1
290
     0
176
     1
 90
       50
176
     1
 62
   256
176
     0
 40
1.0
176
     0
 90
        2
176
     1
  1
strokes_ogs.tif
176
     1
290
     0
176
     1
 40
1.0
176
     1
 40
1.0
176
     1
  0
VISUALSTYLE
  5
30
102
{ACAD_REACTORS
330
2A
102
}
330
2A
100
AcDbVisualStyle
  2
Wireframe
 70
     5
177
     3
291
     0
 70
    58
 90
        0
176
     1
 90
        2
176
     1
 90
        0
176
     1
 90
        0
176
     1
 40
0.6
176
     1
 40
30.0
176
     1
 62
     7
420
 16777215
176
     1
 90
        1
176
     1
 90
        4
176
     1
 62
     7
176
     1
 62
   257
176
     1
 90
        1
176
     1
 90
        1
176
     1
 40
1.0
176
     1
 90
        0
176
     1
 62
   257
176
     1
 40
1.0
176
     1
 90
        1
176
     1
 90
        6
176
     1
 90
        2
176
     1
 62
     7
176
     1
 90
        3
176
     1
 90
        0
176
     1
 90
        0
176
     1
290
     0
176
     1
 90
        1
176
     1
 40
0.0
176
     1
 90
        0
176
     1
290
     0
176
     1
290
     1
176
     1
290
     1
176
     1
290
     0
176
     1
290
     0
176
     1
290
     0
176
     1
290
     0
176
     1
290
     0
176
     1
290
     0
176
     1
 90
       50
176
     1
 40
0.0
176
     1
 40
1.0
176
     1
 90
        0
176
     1
 62
    18
420
        0
176
     1
 90
       50
176
     1
 90
        3
176
     1
 62
     5
420
      255
176
     1
290
     0
176
     1
 90
       50
176
     1
 90
       50
176
     1
 90
       50
176
     1
290
     0
176
     1
 90
       50
176
     1
 62
   256
176
     0
 40
1.0
176
     0
 90
        2
176
     1
  1
strokes_ogs.tif
176
     1
290
     0
176
     1
 40
1.0
176
     1
 40
1.0
176
     1
  0
VISUALSTYLE
  5
40
102
{ACAD_REACTORS
330
2A
102
}
330
2A
100
AcDbVisualStyle
  2
X-Ray
 70
    25
177
     3
291
     0
 70
    58
 90
        2
176
     1
 90
        2
176
     1
 90
        1
176
     1
 90
        1
176
     1
 40
0.5
176
     1
 40
30.0
176
     1
 62
     7
420
 16777215
176
     1
 90
        1
176
     1
 90
        0
176
     1
 62
     7
176
     1
 62
   257
176
     1
 90
        1
176
     1
 90
        1
176
     1
 40
1.0
176
     1
 90
        8
176
     1
 62
     7
176
     1
 40
1.0
176
     1
 90
        1
176
     1
 90
        6
176
     1
 90
        2
176
     1
 62
     7
176
     1
 90
        3
176
     1
 90
        0
176
     1
 90
        0
176
     1
290
     0
176
     1
 90
       13
176
     1
 40
0.0
176
     1
 90
        0
176
     1
290
     0
176
     1
290
     1
176
     1
290
     1
176
     1
290
     0
176
     1
290
     0
176
     1
290
     0
176
     1
290
     0
176
     1
290
     0
176
     1
290
     0
176
     1
 90
       50
176
     1
 40
0.0
176
     1
 40
1.0
176
     1
 90
        0
176
     1
 62
    18
420
        0
176
     1
 90
       50
176
     1
 90
        3
176
     1
 62
     5
420
      255
176
     1
290
     0
176
     1
 90
       50
176
     1
 90
       50
176
     1
 90
       50
176
     1
290
     0
176
     1
 90
       50
176
     1
 62
   256
176
     0
 40
1.0
176
     0
 90
        2
176
     1
  1
strokes_ogs.tif
176
     1
290
     0
176
     1
 40
1.0
176
     1
 40
1.0
176
     1
  0
DICTIONARYVAR
  5
7D
102
{ACAD_REACTORS
330
7C
102
}
330
7C
100
DictionaryVariables
280
     0
  1
1:1
  0
DICTIONARYVAR
  5
82
102
{ACAD_REACTORS
330
7C
102
}
330
7C
100
DictionaryVariables
280
     0
  1
Standard
  0
DICTIONARYVAR
  5
81
102
{ACAD_REACTORS
330
7C
102
}
330
7C
100
DictionaryVariables
280
     0
  1
Standard
  0
DICTIONARY
  5
7E
330
5A
100
AcDbDictionary
280
     1
281
     1
  3
ACAD_ROUNDTRIP_2008_TABLESTYLE_CELLSTYLEMAP
360
7F
  0
CELLSTYLEMAP
  5
7F
102
{ACAD_REACTORS
330
7E
102
}
330
7E
100
AcDbCellStyleMap
 90
        3
300
CELLSTYLE
  1
TABLEFORMAT_BEGIN
 90
        5
170
     1
 91
        0
 92
    32768
 62
   257
 93
        1
300
CONTENTFORMAT
  1
CONTENTFORMAT_BEGIN
 90
        0
 91
        0
 92
        4
 93
        0
300

 40
0.0
140
1.0
 94
        5
 62
     0
340
11
144
0.25
309
CONTENTFORMAT_END
171
     1
301
MARGIN
  1
CELLMARGIN_BEGIN
 40
0.06
 40
0.06
 40
0.06
 40
0.06
 40
0.06
 40
0.06
309
CELLMARGIN_END
 94
        6
 95
        1
302
GRIDFORMAT
  1
GRIDFORMAT_BEGIN
 90
        0
 91
        1
 62
     0
 92
       -2
340
14
 93
        0
 40
0.045
309
GRIDFORMAT_END
 95
        2
302
GRIDFORMAT
  1
GRIDFORMAT_BEGIN
 90
        0
 91
        1
 62
     0
 92
       -2
340
14
 93
        0
 40
0.045
309
GRIDFORMAT_END
 95
        4
302
GRIDFORMAT
  1
GRIDFORMAT_BEGIN
 90
        0
 91
        1
 62
     0
 92
       -2
340
14
 93
        0
 40
0.045
309
GRIDFORMAT_END
 95
        8
302
GRIDFORMAT
  1
GRIDFORMAT_BEGIN
 90
        0
 91
        1
 62
     0
 92
       -2
340
14
 93
        0
 40
0.045
309
GRIDFORMAT_END
 95
       16
302
GRIDFORMAT
  1
GRIDFORMAT_BEGIN
 90
        0
 91
        1
 62
     0
 92
       -2
340
14
 93
        0
 40
0.045
309
GRIDFORMAT_END
 95
       32
302
GRIDFORMAT
  1
GRIDFORMAT_BEGIN
 90
        0
 91
        1
 62
     0
 92
       -2
340
14
 93
        0
 40
0.045
309
GRIDFORMAT_END
309
TABLEFORMAT_END
  1
CELLSTYLE_BEGIN
 90
        1
 91
        1
300
_TITLE
309
CELLSTYLE_END
300
CELLSTYLE
  1
TABLEFORMAT_BEGIN
 90
        5
170
     1
 91
        0
 92
        0
 62
   257
 93
        1
300
CONTENTFORMAT
  1
CONTENTFORMAT_BEGIN
 90
        0
 91
        0
 92
        4
 93
        0
300

 40
0.0
140
1.0
 94
        5
 62
     0
340
11
144
0.18
309
CONTENTFORMAT_END
171
     1
301
MARGIN
  1
CELLMARGIN_BEGIN
 40
0.06
 40
0.06
 40
0.06
 40
0.06
 40
0.06
 40
0.06
309
CELLMARGIN_END
 94
        6
 95
        1
302
GRIDFORMAT
  1
GRIDFORMAT_BEGIN
 90
        0
 91
        1
 62
     0
 92
       -2
340
14
 93
        0
 40
0.045
309
GRIDFORMAT_END
 95
        2
302
GRIDFORMAT
  1
GRIDFORMAT_BEGIN
 90
        0
 91
        1
 62
     0
 92
       -2
340
14
 93
        0
 40
0.045
309
GRIDFORMAT_END
 95
        4
302
GRIDFORMAT
  1
GRIDFORMAT_BEGIN
 90
        0
 91
        1
 62
     0
 92
       -2
340
14
 93
        0
 40
0.045
309
GRIDFORMAT_END
 95
        8
302
GRIDFORMAT
  1
GRIDFORMAT_BEGIN
 90
        0
 91
        1
 62
     0
 92
       -2
340
14
 93
        0
 40
0.045
309
GRIDFORMAT_END
 95
       16
302
GRIDFORMAT
  1
GRIDFORMAT_BEGIN
 90
        0
 91
        1
 62
     0
 92
       -2
340
14
 93
        0
 40
0.045
309
GRIDFORMAT_END
 95
       32
302
GRIDFORMAT
  1
GRIDFORMAT_BEGIN
 90
        0
 91
        1
 62
     0
 92
       -2
340
14
 93
        0
 40
0.045
309
GRIDFORMAT_END
309
TABLEFORMAT_END
  1
CELLSTYLE_BEGIN
 90
        2
 91
        1
300
_HEADER
309
CELLSTYLE_END
300
CELLSTYLE
  1
TABLEFORMAT_BEGIN
 90
        5
170
     1
 91
        0
 92
        0
 62
   257
 93
        1
300
CONTENTFORMAT
  1
CONTENTFORMAT_BEGIN
 90
        0
 91
        0
 92
        4
 93
        0
300

 40
0.0
140
1.0
 94
        2
 62
     0
340
11
144
0.18
309
CONTENTFORMAT_END
171
     1
301
MARGIN
  1
CELLMARGIN_BEGIN
 40
0.06
 40
0.06
 40
0.06
 40
0.06
 40
0.06
 40
0.06
309
CELLMARGIN_END
 94
        6
 95
        1
302
GRIDFORMAT
  1
GRIDFORMAT_BEGIN
 90
        0
 91
        1
 62
     0
 92
       -2
340
14
 93
        0
 40
0.045
309
GRIDFORMAT_END
 95
        2
302
GRIDFORMAT
  1
GRIDFORMAT_BEGIN
 90
        0
 91
        1
 62
     0
 92
       -2
340
14
 93
        0
 40
0.045
309
GRIDFORMAT_END
 95
        4
302
GRIDFORMAT
  1
GRIDFORMAT_BEGIN
 90
        0
 91
        1
 62
     0
 92
       -2
340
14
 93
        0
 40
0.045
309
GRIDFORMAT_END
 95
        8
302
GRIDFORMAT
  1
GRIDFORMAT_BEGIN
 90
        0
 91
        1
 62
     0
 92
       -2
340
14
 93
        0
 40
0.045
309
GRIDFORMAT_END
 95
       16
302
GRIDFORMAT
  1
GRIDFORMAT_BEGIN
 90
        0
 91
        1
 62
     0
 92
       -2
340
14
 93
        0
 40
0.045
309
GRIDFORMAT_END
 95
       32
302
GRIDFORMAT
  1
GRIDFORMAT_BEGIN
 90
        0
 91
        1
 62
     0
 92
       -2
340
14
 93
        0
 40
0.045
309
GRIDFORMAT_END
309
TABLEFORMAT_END
  1
CELLSTYLE_BEGIN
 90
        3
 91
        2
300
_DATA
309
CELLSTYLE_END
  0
ENDSEC
  0
EOF
