  0
SECTION
  2
HEADER
  9
$ACADVER
  1
AC1027
  9
$ACADMAINTVER
 70
   105
  9
$DWGCODEPAGE
  3
ANSI_1252
  9
$LASTSAVEDBY
  1
Office Desk
  9
$REQUIREDVERSIONS
160
                 0
  9
$INSBASE
 10
0.0
 20
0.0
 30
0.0
  9
$EXTMIN
 10
171.0169
 20
-430.974
 30
0.0
  9
$EXTMAX
 10
704.4755
 20
452.3952
 30
0.0
  9
$LIMMIN
 10
0.0
 20
0.0
  9
$LIMMAX
 10
12.0
 20
9.0
  9
$ORTHOMODE
 70
     0
  9
$REGENMODE
 70
     1
  9
$FILLMODE
 70
     1
  9
$QTEXTMODE
 70
     0
  9
$MIRRTEXT
 70
     1
  9
$LTSCALE
 40
1.0
  9
$ATTMODE
 70
     1
  9
$TEXTSIZE
 40
0.2
  9
$TRACEWID
 40
0.05
  9
$TEXTSTYLE
  7
Standard
  9
$CLAYER
  8
0
  9
$CELTYPE
  6
ByLayer
  9
$CECOLOR
 62
   256
  9
$CELTSCALE
 40
1.0
  9
$DISPSILH
 70
     0
  9
$DIMSCALE
 40
1.0
  9
$DIMASZ
 40
0.18
  9
$DIMEXO
 40
0.0625
  9
$DIMDLI
 40
0.38
  9
$DIMRND
 40
0.0
  9
$DIMDLE
 40
0.0
  9
$DIMEXE
 40
0.18
  9
$DIMTP
 40
0.0
  9
$DIMTM
 40
0.0
  9
$DIMTXT
 40
0.18
  9
$DIMCEN
 40
0.09
  9
$DIMTSZ
 40
0.0
  9
$DIMTOL
 70
     0
  9
$DIMLIM
 70
     0
  9
$DIMTIH
 70
     1
  9
$DIMTOH
 70
     1
  9
$DIMSE1
 70
     0
  9
$DIMSE2
 70
     0
  9
$DIMTAD
 70
     0
  9
$DIMZIN
 70
     0
  9
$DIMBLK
  1

  9
$DIMASO
 70
     1
  9
$DIMSHO
 70
     1
  9
$DIMPOST
  1

  9
$DIMAPOST
  1

  9
$DIMALT
 70
     0
  9
$DIMALTD
 70
     2
  9
$DIMALTF
 40
25.4
  9
$DIMLFAC
 40
1.0
  9
$DIMTOFL
 70
     0
  9
$DIMTVP
 40
0.0
  9
$DIMTIX
 70
     0
  9
$DIMSOXD
 70
     0
  9
$DIMSAH
 70
     0
  9
$DIMBLK1
  1

  9
$DIMBLK2
  1

  9
$DIMSTYLE
  2
Standard
  9
$DIMCLRD
 70
     0
  9
$DIMCLRE
 70
     0
  9
$DIMCLRT
 70
     0
  9
$DIMTFAC
 40
1.0
  9
$DIMGAP
 40
0.09
  9
$DIMJUST
 70
     0
  9
$DIMSD1
 70
     0
  9
$DIMSD2
 70
     0
  9
$DIMTOLJ
 70
     1
  9
$DIMTZIN
 70
     0
  9
$DIMALTZ
 70
     0
  9
$DIMALTTZ
 70
     0
  9
$DIMUPT
 70
     0
  9
$DIMDEC
 70
     4
  9
$DIMTDEC
 70
     4
  9
$DIMALTU
 70
     2
  9
$DIMALTTD
 70
     2
  9
$DIMTXSTY
  7
Standard
  9
$DIMAUNIT
 70
     0
  9
$DIMADEC
 70
     0
  9
$DIMALTRND
 40
0.0
  9
$DIMAZIN
 70
     0
  9
$DIMDSEP
 70
    46
  9
$DIMATFIT
 70
     3
  9
$DIMFRAC
 70
     0
  9
$DIMLDRBLK
  1

  9
$DIMLUNIT
 70
     2
  9
$DIMLWD
 70
    -2
  9
$DIMLWE
 70
    -2
  9
$DIMTMOVE
 70
     0
  9
$DIMFXL
 40
1.0
  9
$DIMFXLON
 70
     0
  9
$DIMJOGANG
 40
0.7853981633974483
  9
$DIMTFILL
 70
     0
  9
$DIMTFILLCLR
 70
     0
  9
$DIMARCSYM
 70
     0
  9
$DIMLTYPE
  6

  9
$DIMLTEX1
  6

  9
$DIMLTEX2
  6

  9
$DIMTXTDIRECTION
 70
     0
  9
$LUNITS
 70
     2
  9
$LUPREC
 70
     4
  9
$SKETCHINC
 40
0.1
  9
$FILLETRAD
 40
0.0
  9
$AUNITS
 70
     0
  9
$AUPREC
 70
     0
  9
$MENU
  1
.
  9
$ELEVATION
 40
0.0
  9
$PELEVATION
 40
0.0
  9
$THICKNESS
 40
0.0
  9
$LIMCHECK
 70
     0
  9
$CHAMFERA
 40
0.0
  9
$CHAMFERB
 40
0.0
  9
$CHAMFERC
 40
0.0
  9
$CHAMFERD
 40
0.0
  9
$SKPOLY
 70
     0
  9
$TDCREATE
 40
2461006.702435984
  9
$TDUCREATE
 40
2461006.473269318
  9
$TDUPDATE
 40
2461006.702435984
  9
$TDUUPDATE
 40
2461006.473269318
  9
$TDINDWG
 40
0.0000000116
  9
$TDUSRTIMER
 40
0.0000000116
  9
$USRTIMER
 70
     1
  9
$ANGBASE
 50
0.0
  9
$ANGDIR
 70
     0
  9
$PDMODE
 70
     0
  9
$PDSIZE
 40
0.0
  9
$PLINEWID
 40
0.0
  9
$SPLFRAME
 70
     0
  9
$SPLINETYPE
 70
     6
  9
$SPLINESEGS
 70
     8
  9
$HANDSEED
  5
82
  9
$SURFTAB1
 70
     6
  9
$SURFTAB2
 70
     6
  9
$SURFTYPE
 70
     6
  9
$SURFU
 70
     6
  9
$SURFV
 70
     6
  9
$UCSBASE
  2

  9
$UCSNAME
  2

  9
$UCSORG
 10
0.0
 20
0.0
 30
0.0
  9
$UCSXDIR
 10
1.0
 20
0.0
 30
0.0
  9
$UCSYDIR
 10
0.0
 20
1.0
 30
0.0
  9
$UCSORTHOREF
  2

  9
$UCSORTHOVIEW
 70
     0
  9
$UCSORGTOP
 10
0.0
 20
0.0
 30
0.0
  9
$UCSORGBOTTOM
 10
0.0
 20
0.0
 30
0.0
  9
$UCSORGLEFT
 10
0.0
 20
0.0
 30
0.0
  9
$UCSORGRIGHT
 10
0.0
 20
0.0
 30
0.0
  9
$UCSORGFRONT
 10
0.0
 20
0.0
 30
0.0
  9
$UCSORGBACK
 10
0.0
 20
0.0
 30
0.0
  9
$PUCSBASE
  2

  9
$PUCSNAME
  2

  9
$PUCSORG
 10
0.0
 20
0.0
 30
0.0
  9
$PUCSXDIR
 10
1.0
 20
0.0
 30
0.0
  9
$PUCSYDIR
 10
0.0
 20
1.0
 30
0.0
  9
$PUCSORTHOREF
  2

  9
$PUCSORTHOVIEW
 70
     0
  9
$PUCSORGTOP
 10
0.0
 20
0.0
 30
0.0
  9
$PUCSORGBOTTOM
 10
0.0
 20
0.0
 30
0.0
  9
$PUCSORGLEFT
 10
0.0
 20
0.0
 30
0.0
  9
$PUCSORGRIGHT
 10
0.0
 20
0.0
 30
0.0
  9
$PUCSORGFRONT
 10
0.0
 20
0.0
 30
0.0
  9
$PUCSORGBACK
 10
0.0
 20
0.0
 30
0.0
  9
$USERI1
 70
     0
  9
$USERI2
 70
     0
  9
$USERI3
 70
     0
  9
$USERI4
 70
     0
  9
$USERI5
 70
     0
  9
$USERR1
 40
0.0
  9
$USERR2
 40
0.0
  9
$USERR3
 40
0.0
  9
$USERR4
 40
0.0
  9
$USERR5
 40
0.0
  9
$WORLDVIEW
 70
     1
  9
$SHADEDGE
 70
     3
  9
$SHADEDIF
 70
    70
  9
$TILEMODE
 70
     1
  9
$MAXACTVP
 70
    64
  9
$PINSBASE
 10
0.0
 20
0.0
 30
0.0
  9
$PLIMCHECK
 70
     0
  9
$PEXTMIN
 10
1.000000000000000E+20
 20
1.000000000000000E+20
 30
1.000000000000000E+20
  9
$PEXTMAX
 10
-1.000000000000000E+20
 20
-1.000000000000000E+20
 30
-1.000000000000000E+20
  9
$PLIMMIN
 10
0.0
 20
0.0
  9
$PLIMMAX
 10
12.0
 20
9.0
  9
$UNITMODE
 70
     0
  9
$VISRETAIN
 70
     1
  9
$PLINEGEN
 70
     0
  9
$PSLTSCALE
 70
     1
  9
$TREEDEPTH
 70
  3020
  9
$CMLSTYLE
  2
Standard
  9
$CMLJUST
 70
     0
  9
$CMLSCALE
 40
1.0
  9
$PROXYGRAPHICS
 70
     1
  9
$MEASUREMENT
 70
     0
  9
$CELWEIGHT
370
    -1
  9
$ENDCAPS
280
     0
  9
$JOINSTYLE
280
     0
  9
$LWDISPLAY
290
     0
  9
$INSUNITS
 70
     4
  9
$HYPERLINKBASE
  1

  9
$STYLESHEET
  1

  9
$XEDIT
290
     1
  9
$CEPSNTYPE
380
     0
  9
$PSTYLEMODE
290
     1
  9
$FINGERPRINTGUID
  2
{93b9659d-e82d-41ba-8993-7328e04376fa}
  9
$VERSIONGUID
  2
{FAEB1C32-E019-11D5-929B-00C0DF256EC4}
  9
$EXTNAMES
290
     1
  9
$PSVPSCALE
 40
0.0
  9
$OLESTARTUP
290
     0
  9
$SORTENTS
280
   127
  9
$INDEXCTL
280
     0
  9
$HIDETEXT
280
     1
  9
$XCLIPFRAME
280
     2
  9
$HALOGAP
280
     0
  9
$OBSCOLOR
 70
   257
  9
$OBSLTYPE
280
     0
  9
$INTERSECTIONDISPLAY
280
     0
  9
$INTERSECTIONCOLOR
 70
   257
  9
$DIMASSOC
280
     2
  9
$PROJECTNAME
  1

  9
$CAMERADISPLAY
290
     0
  9
$LENSLENGTH
 40
50.0
  9
$CAMERAHEIGHT
 40
0.0
  9
$STEPSPERSEC
 40
2.0
  9
$STEPSIZE
 40
6.0
  9
$3DDWFPREC
 40
2.0
  9
$PSOLWIDTH
 40
0.25
  9
$PSOLHEIGHT
 40
4.0
  9
$LOFTANG1
 40
1.570796326794897
  9
$LOFTANG2
 40
1.570796326794897
  9
$LOFTMAG1
 40
0.0
  9
$LOFTMAG2
 40
0.0
  9
$LOFTPARAM
 70
     7
  9
$LOFTNORMALS
280
     1
  9
$LATITUDE
 40
37.795
  9
$LONGITUDE
 40
-122.394
  9
$NORTHDIRECTION
 40
0.0
  9
$TIMEZONE
 70
 -8000
  9
$LIGHTGLYPHDISPLAY
280
     1
  9
$TILEMODELIGHTSYNCH
280
     1
  9
$CMATERIAL
347
44
  9
$SOLIDHIST
280
     0
  9
$SHOWHIST
280
     1
  9
$DWFFRAME
280
     2
  9
$DGNFRAME
280
     2
  9
$REALWORLDSCALE
290
     1
  9
$INTERFERECOLOR
 62
   256
  9
$CSHADOW
280
     0
  9
$SHADOWPLANELOCATION
 40
0.0
  0
ENDSEC
  0
SECTION
  2
CLASSES
  0
CLASS
  1
ACDBDICTIONARYWDFLT
  2
AcDbDictionaryWithDefault
  3
ObjectDBX Classes
 90
        0
 91
        3
280
     0
281
     0
  0
CLASS
  1
VISUALSTYLE
  2
AcDbVisualStyle
  3
ObjectDBX Classes
 90
     4095
 91
        3
280
     0
281
     0
  0
CLASS
  1
MATERIAL
  2
AcDbMaterial
  3
ObjectDBX Classes
 90
     1153
 91
        3
280
     0
281
     0
  0
CLASS
  1
SCALE
  2
AcDbScale
  3
ObjectDBX Classes
 90
     1153
 91
        3
280
     0
281
     0
  0
CLASS
  1
TABLESTYLE
  2
AcDbTableStyle
  3
ObjectDBX Classes
 90
     4095
 91
        3
280
     0
281
     0
  0
CLASS
  1
MLEADERSTYLE
  2
AcDbMLeaderStyle
  3
ACDB_MLEADERSTYLE_CLASS
 90
     4095
 91
        3
280
     0
281
     0
  0
CLASS
  1
SUN
  2
AcDbSun
  3
SCENEOE
 90
     1153
 91
        3
280
     0
281
     0
  0
CLASS
  1
DICTIONARYVAR
  2
AcDbDictionaryVar
  3
ObjectDBX Classes
 90
        0
 91
        3
280
     0
281
     0
  0
CLASS
  1
CELLSTYLEMAP
  2
AcDbCellStyleMap
  3
ObjectDBX Classes
 90
     1152
 91
        3
280
     0
281
     0
  0
ENDSEC
  0
SECTION
  2
TABLES
  0
TABLE
  2
VPORT
  5
8
330
0
100
AcDbSymbolTable
 70
     1
  0
VPORT
  5
29
330
8
100
AcDbSymbolTableRecord
100
AcDbViewportTableRecord
  2
*Active
 70
     0
 10
0.0
 20
0.0
 11
1.0
 21
1.0
 12
10.42990654205607
 22
4.5
 13
0.0
 23
0.0
 14
0.5
 24
0.5
 15
0.5
 25
0.5
 16
0.0
 26
0.0
 36
1.0
 17
0.0
 27
0.0
 37
0.0
 40
9.0
 41
1.972972972850329
 42
50.0
 43
0.0
 44
0.0
 50
0.0
 51
0.0
 71
     0
 72
   100
 73
     1
 74
     3
 75
     0
 76
     0
 77
     0
 78
     0
281
     0
 65
     1
110
0.0
120
0.0
130
0.0
111
1.0
121
0.0
131
0.0
112
0.0
122
1.0
132
0.0
 79
     0
146
0.0
348
2F
 60
     3
 61
     5
292
     1
282
     1
141
0.0
142
0.0
 63
   250
361
5D
  0
ENDTAB
  0
TABLE
  2
LTYPE
  5
5
330
0
100
AcDbSymbolTable
 70
     1
  0
LTYPE
  5
14
330
5
100
AcDbSymbolTableRecord
100
AcDbLinetypeTableRecord
  2
ByBlock
 70
     0
  3

 72
    65
 73
     0
 40
0.0
  0
LTYPE
  5
15
330
5
100
AcDbSymbolTableRecord
100
AcDbLinetypeTableRecord
  2
ByLayer
 70
     0
  3

 72
    65
 73
     0
 40
0.0
  0
LTYPE
  5
16
330
5
100
AcDbSymbolTableRecord
100
AcDbLinetypeTableRecord
  2
Continuous
 70
     0
  3
Solid line
 72
    65
 73
     0
 40
0.0
  0
ENDTAB
  0
TABLE
  2
LAYER
  5
2
330
0
100
AcDbSymbolTable
 70
     2
  0
LAYER
  5
10
330
2
100
AcDbSymbolTableRecord
100
AcDbLayerTableRecord
  2
0
 70
     0
 62
     7
  6
Continuous
370
    -3
390
F
347
46
348
0
  0
LAYER
  5
5F
330
2
100
AcDbSymbolTableRecord
100
AcDbLayerTableRecord
  2
Layer 1
 70
     0
 62
     7
  6
Continuous
370
    -3
390
F
347
46
348
0
  0
ENDTAB
  0
TABLE
  2
STYLE
  5
3
330
0
100
AcDbSymbolTable
 70
     1
  0
STYLE
  5
11
330
3
100
AcDbSymbolTableRecord
100
AcDbTextStyleTableRecord
  2
Standard
 70
     0
 40
0.0
 41
1.0
 50
0.0
 71
     0
 42
0.2
  3
txt
  4

  0
ENDTAB
  0
TABLE
  2
VIEW
  5
6
330
0
100
AcDbSymbolTable
 70
     0
  0
ENDTAB
  0
TABLE
  2
UCS
  5
7
330
0
100
AcDbSymbolTable
 70
     0
  0
ENDTAB
  0
TABLE
  2
APPID
  5
9
330
0
100
AcDbSymbolTable
 70
     2
  0
APPID
  5
12
330
9
100
AcDbSymbolTableRecord
100
AcDbRegAppTableRecord
  2
ACAD
 70
     0
  0
APPID
  5
5E
330
9
100
AcDbSymbolTableRecord
100
AcDbRegAppTableRecord
  2
ODA
 70
     0
  0
ENDTAB
  0
TABLE
  2
DIMSTYLE
  5
A
330
0
100
AcDbSymbolTable
 70
     1
100
AcDbDimStyleTable
  0
DIMSTYLE
105
27
330
A
100
AcDbSymbolTableRecord
100
AcDbDimStyleTableRecord
  2
Standard
 70
     0
178
     0
340
11
  0
ENDTAB
  0
TABLE
  2
BLOCK_RECORD
  5
1
330
0
100
AcDbSymbolTable
 70
     1
  0
BLOCK_RECORD
  5
1F
330
1
100
AcDbSymbolTableRecord
100
AcDbBlockTableRecord
  2
*Model_Space
340
22
 70
     0
280
     1
281
     0
  0
BLOCK_RECORD
  5
1B
330
1
100
AcDbSymbolTableRecord
100
AcDbBlockTableRecord
  2
*Paper_Space
340
1E
 70
     0
280
     1
281
     0
  0
BLOCK_RECORD
  5
23
330
1
100
AcDbSymbolTableRecord
100
AcDbBlockTableRecord
  2
*Paper_Space0
340
26
 70
     0
280
     1
281
     0
  0
ENDTAB
  0
ENDSEC
  0
SECTION
  2
BLOCKS
  0
BLOCK
  5
20
330
1F
100
AcDbEntity
  8
0
100
AcDbBlockBegin
  2
*Model_Space
 70
     0
 10
0.0
 20
0.0
 30
0.0
  3
*Model_Space
  1

  0
ENDBLK
  5
21
330
1F
100
AcDbEntity
  8
0
100
AcDbBlockEnd
  0
BLOCK
  5
1C
330
1B
100
AcDbEntity
 67
     1
  8
0
100
AcDbBlockBegin
  2
*Paper_Space
 70
     0
 10
0.0
 20
0.0
 30
0.0
  3
*Paper_Space
  1

  0
ENDBLK
  5
1D
330
1B
100
AcDbEntity
 67
     1
  8
0
100
AcDbBlockEnd
  0
BLOCK
  5
24
330
23
100
AcDbEntity
  8
0
100
AcDbBlockBegin
  2
*Paper_Space0
 70
     0
 10
0.0
 20
0.0
 30
0.0
  3
*Paper_Space0
  1

  0
ENDBLK
  5
25
330
23
100
AcDbEntity
  8
0
100
AcDbBlockEnd
  0
ENDSEC
  0
SECTION
  2
ENTITIES
  0
LWPOLYLINE
  5
60
330
1F
100
AcDbEntity
  8
Layer 1
 62
   250
370
    18
100
AcDbPolyline
 90
        5
 70
     1
 43
0.0
 10
171.1051
 20
-430.8858
 10
704.3873
 20
-430.8858
 10
704.3873
 20
452.307
 10
171.1051
 20
452.307
 10
171.1051
 20
-430.8858
  0
LWPOLYLINE
  5
61
330
1F
100
AcDbEntity
  8
Layer 1
 62
     7
370
    18
100
AcDbPolyline
 90
       73
 70
     1
 43
0.0
 10
272.4458
 20
340.4246
 10
271.7114
 20
339.565
 10
269.7481
 20
337.1563
 10
266.9158
 20
333.4534
 10
263.5744
 20
328.7113
 10
260.0836
 20
323.185
 10
256.8034
 20
317.1296
 10
254.0935
 20
310.7999
 10
252.314
 20
304.4511
 10
251.1928
 20
298.7181
 10
250.3151
 20
293.8424
 10
249.8263
 20
289.4888
 10
249.8718
 20
285.3221
 10
250.597
 20
281.0071
 10
252.1473
 20
276.2086
 10
254.6682
 20
270.5914
 10
258.3051
 20
263.8203
 10
258.532
 20
265.3482
 10
260.3741
 20
269.3815
 10
265.5738
 20
275.095
 10
275.8734
 20
281.6633
 10
293.0151
 20
288.261
 10
318.7413
 20
294.0628
 10
354.7941
 20
298.2434
 10
402.916
 20
299.9774
 10
406.3844
 20
299.8199
 10
415.8965
 20
299.2476
 10
430.1126
 20
298.1104
 10
447.6932
 20
296.2585
 10
467.2986
 20
293.5419
 10
487.5891
 20
289.8106
 10
507.2253
 20
284.9148
 10
524.8673
 20
278.7045
 10
525.9136
 20
278.2545
 10
528.6832
 20
276.9543
 10
532.6221
 20
274.8786
 10
537.1767
 20
272.1021
 10
541.7928
 20
268.6994
 10
545.9167
 20
264.7452
 10
548.9944
 20
260.3143
 10
550.4721
 20
255.4812
 10
551.1585
 20
256.3681
 10
552.8458
 20
259.0154
 10
554.9758
 20
263.4029
 10
556.9908
 20
269.5105
 10
558.3325
 20
277.3178
 10
558.4431
 20
286.8049
 10
556.7645
 20
297.9514
 10
552.7388
 20
310.7372
 10
545.6895
 20
323.1191
 10
535.7877
 20
333.2422
 10
523.7465
 20
341.3691
 10
510.2792
 20
347.7621
 10
496.0988
 20
352.6837
 10
481.9185
 20
356.3964
 10
468.4516
 20
359.1626
 10
456.4111
 20
361.2447
 10
444.1926
 20
362.8684
 10
430.1085
 20
364.0833
 10
414.7473
 20
364.8877
 10
398.6973
 20
365.2796
 10
382.5471
 20
365.2575
 10
366.885
 20
364.8195
 10
352.2997
 20
363.9638
 10
339.3794
 20
362.6887
 10
327.8936
 20
360.9045
 10
317.2392
 20
358.6006
 10
307.446
 20
355.8943
 10
298.544
 20
352.9026
 10
290.5631
 20
349.7427
 10
283.5331
 20
346.5316
 10
277.4841
 20
343.3866
 10
272.4458
 20
340.4246
  0
LWPOLYLINE
  5
62
330
1F
100
AcDbEntity
  8
Layer 1
 62
     7
370
    18
100
AcDbPolyline
 90
       67
 70
     1
 43
0.0
 10
258.8889
 20
244.2704
 10
258.3119
 20
264.0544
 10
258.7887
 20
265.7098
 10
261.2377
 20
270.051
 10
267.187
 20
276.1399
 10
278.1645
 20
283.0388
 10
295.6981
 20
289.8098
 10
321.3159
 20
295.5152
 10
356.5459
 20
299.217
 10
402.916
 20
299.9774
 10
406.8186
 20
299.8103
 10
417.47
 20
299.1714
 10
433.2852
 20
297.8545
 10
452.6795
 20
295.6533
 10
474.0679
 20
292.3614
 10
495.8657
 20
287.7725
 10
516.4881
 20
281.6804
 10
534.3501
 20
273.8787
 10
534.9326
 20
273.5406
 10
536.4912
 20
272.5553
 10
538.7425
 20
270.9662
 10
541.4032
 20
268.8166
 10
544.1898
 20
266.1499
 10
546.8191
 20
263.0095
 10
549.0077
 20
259.4388
 10
550.4721
 20
255.4812
 10
547.459
 20
238.5394
 10
547.273
 20
238.9679
 10
546.571
 20
240.1745
 10
545.1372
 20
242.041
 10
542.7555
 20
244.4495
 10
539.21
 20
247.2815
 10
534.2849
 20
250.4191
 10
527.7642
 20
253.7441
 10
519.4319
 20
257.1383
 10
510.1715
 20
260.1599
 10
499.2209
 20
263.0807
 10
486.6293
 20
265.8591
 10
472.446
 20
268.453
 10
456.7203
 20
270.8206
 10
439.5016
 20
272.92
 10
420.8389
 20
274.7094
 10
400.7817
 20
276.1469
 10
397.5795
 20
276.1367
 10
388.8523
 20
276.021
 10
375.9189
 20
275.6717
 10
360.0982
 20
274.961
 10
342.7091
 20
273.7609
 10
325.0705
 20
271.9434
 10
308.5013
 20
269.3807
 10
294.3203
 20
265.9449
 10
293.6293
 20
265.7469
 10
291.7259
 20
265.1733
 10
288.8649
 20
264.2545
 10
285.3007
 20
263.0212
 10
281.2881
 20
261.504
 10
277.0816
 20
259.7333
 10
272.9358
 20
257.7396
 10
269.1054
 20
255.5537
 10
265.9195
 20
253.3294
 10
263.4727
 20
251.2347
 10
261.6683
 20
249.3211
 10
260.4093
 20
247.6401
 10
259.5988
 20
246.243
 10
259.1398
 20
245.1814
 10
258.9355
 20
244.5067
 10
258.8889
 20
244.2704
  0
LWPOLYLINE
  5
63
330
1F
100
AcDbEntity
  8
Layer 1
 62
     7
370
    18
100
AcDbPolyline
 90
       85
 70
     1
 43
0.0
 10
400.3192
 20
-408.6347
 10
397.6485
 20
-408.4941
 10
390.4387
 20
-407.9267
 10
379.8935
 20
-406.7139
 10
367.2166
 20
-404.6373
 10
353.6115
 20
-401.4785
 10
340.282
 20
-397.0188
 10
328.4315
 20
-391.0399
 10
319.2638
 20
-383.3233
 10
318.9721
 20
-383.0639
 10
318.1953
 20
-382.2501
 10
317.081
 20
-380.8279
 10
315.7766
 20
-378.7437
 10
314.4299
 20
-375.9437
 10
313.1882
 20
-372.3742
 10
312.1991
 20
-367.9815
 10
311.6102
 20
-362.7117
 10
297.9462
 20
-132.4678
 10
290.9836
 20
-15.1424
 10
290.3799
 20
-4.7779
 10
289.5646
 20
8.8655
 10
288.5347
 20
24.8328
 10
287.2876
 20
42.1689
 10
285.8205
 20
59.9185
 10
284.1305
 20
77.1266
 10
282.2148
 20
92.8381
 10
280.0708
 20
106.0977
 10
277.307
 20
119.7445
 10
273.7948
 20
136.5475
 10
269.9248
 20
155.4463
 10
266.088
 20
175.3808
 10
262.6752
 20
195.2906
 10
260.0772
 20
214.1157
 10
258.6848
 20
230.7957
 10
258.8889
 20
244.2704
 10
269.9927
 20
258.4918
 10
297.0342
 20
268.3954
 10
335.4594
 20
274.168
 10
380.7146
 20
275.9963
 10
428.2458
 20
274.0672
 10
473.4992
 20
268.5675
 10
511.9209
 20
259.684
 10
538.9571
 20
247.6034
 10
541.2796
 20
245.8497
 10
543.2128
 20
244.0555
 10
544.78
 20
242.2181
 10
546.0048
 20
240.3346
 10
546.9106
 20
238.4024
 10
547.5208
 20
236.4187
 10
547.8589
 20
234.3808
 10
547.9484
 20
232.2858
 10
546.8001
 20
217.9919
 10
543.9835
 20
199.1626
 10
540.0043
 20
177.2969
 10
535.3678
 20
153.8934
 10
530.5797
 20
130.451
 10
526.1455
 20
108.4684
 10
522.5706
 20
89.4444
 10
520.3607
 20
74.8778
 10
519.0837
 20
62.4644
 10
517.9585
 20
49.189
 10
516.967
 20
35.4837
 10
516.0911
 20
21.7809
 10
515.3127
 20
8.5126
 10
514.6136
 20
-3.889
 10
513.9757
 20
-14.9916
 10
513.381
 20
-24.3631
 10
505.2973
 20
-141.0647
 10
489.433
 20
-370.0843
 10
488.7938
 20
-375.3032
 10
487.7631
 20
-379.6122
 10
486.4877
 20
-383.0773
 10
485.1146
 20
-385.7645
 10
483.7909
 20
-387.7397
 10
482.6634
 20
-389.069
 10
481.8791
 20
-389.8181
 10
481.585
 20
-390.0532
 10
472.3469
 20
-397.0067
 10
460.4439
 20
-402.0008
 10
447.0768
 20
-405.3536
 10
433.4469
 20
-407.3833
 10
420.7551
 20
-408.408
 10
410.2025
 20
-408.7461
 10
402.9902
 20
-408.7156
 10
400.3192
 20
-408.6347
  0
LWPOLYLINE
  5
64
330
1F
100
AcDbEntity
  8
Layer 1
 62
     7
100
AcDbPolyline
 90
       65
 70
     1
 43
0.0
 10
568.0425
 20
11.4602
 10
568.522
 20
11.436
 10
568.9827
 20
11.3634
 10
569.4248
 20
11.2423
 10
569.8481
 20
11.0729
 10
570.2528
 20
10.855
 10
570.6387
 20
10.5888
 10
571.0059
 20
10.2742
 10
571.3545
 20
9.9113
 10
571.6688
 20
9.5178
 10
571.9412
 20
9.1019
 10
572.1716
 20
8.6635
 10
572.3601
 20
8.2027
 10
572.5067
 20
7.7194
 10
572.6114
 20
7.2137
 10
572.6742
 20
6.6856
 10
572.6951
 20
6.1351
 10
572.6744
 20
5.5894
 10
572.6124
 20
5.062
 10
572.5089
 20
4.553
 10
572.3641
 20
4.0623
 10
572.1779
 20
3.5899
 10
571.9503
 20
3.1359
 10
571.6812
 20
2.7002
 10
571.3708
 20
2.2828
 10
571.0307
 20
1.902
 10
570.669
 20
1.572
 10
570.2856
 20
1.2928
 10
569.8804
 20
1.0644
 10
569.4536
 20
0.8868
 10
569.005
 20
0.76
 10
568.5346
 20
0.684
 10
568.0425
 20
0.6586
 10
567.5506
 20
0.684
 10
567.0804
 20
0.76
 10
566.6318
 20
0.8868
 10
566.205
 20
1.0644
 10
565.7999
 20
1.2928
 10
565.4165
 20
1.572
 10
565.0549
 20
1.902
 10
564.715
 20
2.2828
 10
564.4045
 20
2.7002
 10
564.1354
 20
3.1359
 10
563.9077
 20
3.5899
 10
563.7213
 20
4.0623
 10
563.5764
 20
4.553
 10
563.4728
 20
5.062
 10
563.4107
 20
5.5894
 10
563.39
 20
6.1351
 10
563.411
 20
6.6856
 10
563.4738
 20
7.2137
 10
563.5786
 20
7.7194
 10
563.7252
 20
8.2027
 10
563.9138
 20
8.6635
 10
564.1442
 20
9.1019
 10
564.4165
 20
9.5178
 10
564.7306
 20
9.9113
 10
565.0792
 20
10.2742
 10
565.4465
 20
10.5888
 10
565.8325
 20
10.855
 10
566.2372
 20
11.0729
 10
566.6606
 20
11.2423
 10
567.1026
 20
11.3634
 10
567.5632
 20
11.436
 10
568.0425
 20
11.4602
  0
LWPOLYLINE
  5
65
330
1F
100
AcDbEntity
  8
Layer 1
 62
     7
100
AcDbPolyline
 90
       65
 70
     1
 43
0.0
 10
568.0425
 20
21.8837
 10
568.4291
 20
21.8648
 10
568.801
 20
21.8082
 10
569.1582
 20
21.7139
 10
569.5007
 20
21.5818
 10
569.8286
 20
21.4119
 10
570.1418
 20
21.2043
 10
570.4405
 20
20.9589
 10
570.7245
 20
20.6757
 10
570.9895
 20
20.3573
 10
571.2192
 20
20.0206
 10
571.4136
 20
19.6656
 10
571.5727
 20
19.2922
 10
571.6964
 20
18.9006
 10
571.7848
 20
18.4907
 10
571.8379
 20
18.0625
 10
571.8556
 20
17.616
 10
571.8379
 20
17.1795
 10
571.7848
 20
16.7571
 10
571.6964
 20
16.3488
 10
571.5727
 20
15.9546
 10
571.4136
 20
15.5745
 10
571.2192
 20
15.2086
 10
570.9895
 20
14.8568
 10
570.7245
 20
14.5191
 10
570.4424
 20
14.2182
 10
570.145
 20
13.9574
 10
569.8325
 20
13.7367
 10
569.5048
 20
13.5561
 10
569.162
 20
13.4156
 10
568.8039
 20
13.3152
 10
568.4308
 20
13.255
 10
568.0425
 20
13.2349
 10
567.6542
 20
13.255
 10
567.2812
 20
13.3152
 10
566.9233
 20
13.4156
 10
566.5805
 20
13.5561
 10
566.2528
 20
13.7367
 10
565.9403
 20
13.9574
 10
565.6429
 20
14.2182
 10
565.3605
 20
14.5191
 10
565.0956
 20
14.8568
 10
564.866
 20
15.2086
 10
564.6717
 20
15.5745
 10
564.5128
 20
15.9546
 10
564.3892
 20
16.3488
 10
564.3008
 20
16.7571
 10
564.2479
 20
17.1795
 10
564.2302
 20
17.616
 10
564.2479
 20
18.0625
 10
564.3008
 20
18.4907
 10
564.3892
 20
18.9006
 10
564.5128
 20
19.2922
 10
564.6717
 20
19.6656
 10
564.866
 20
20.0206
 10
565.0956
 20
20.3573
 10
565.3605
 20
20.6757
 10
565.6446
 20
20.9589
 10
565.9433
 20
21.2043
 10
566.2567
 20
21.4119
 10
566.5847
 20
21.5818
 10
566.9272
 20
21.7139
 10
567.2844
 20
21.8082
 10
567.6562
 20
21.8648
 10
568.0425
 20
21.8837
  0
LWPOLYLINE
  5
66
330
1F
100
AcDbEntity
  8
Layer 1
 62
     7
100
AcDbPolyline
 90
      121
 70
     1
 43
0.0
 10
568.0425
 20
-1.9849
 10
568.7829
 20
-1.9522
 10
569.4936
 20
-1.854
 10
570.1744
 20
-1.6903
 10
570.8254
 20
-1.4611
 10
571.4466
 20
-1.1664
 10
572.0381
 20
-0.8061
 10
572.5999
 20
-0.3804
 10
573.1319
 20
0.1109
 10
573.3716
 20
0.3676
 10
573.5981
 20
0.6372
 10
573.8116
 20
0.9198
 10
574.012
 20
1.2154
 10
574.1993
 20
1.524
 10
574.3735
 20
1.8456
 10
574.5346
 20
2.1802
 10
574.6827
 20
2.5277
 10
574.8152
 20
2.8885
 10
574.9299
 20
3.2622
 10
575.027
 20
3.6488
 10
575.1064
 20
4.0484
 10
575.1681
 20
4.4608
 10
575.2122
 20
4.8863
 10
575.2387
 20
5.3246
 10
575.2475
 20
5.776
 10
575.2326
 20
6.2333
 10
575.188
 20
6.6895
 10
575.1135
 20
7.1444
 10
575.0094
 20
7.5983
 10
574.8754
 20
8.0509
 10
574.7116
 20
8.5023
 10
574.5181
 20
8.9526
 10
574.2948
 20
9.4016
 10
574.0435
 20
9.8398
 10
573.7665
 20
10.2573
 10
573.4638
 20
10.6542
 10
573.1354
 20
11.0305
 10
572.7813
 20
11.3861
 10
572.4015
 20
11.7211
 10
571.996
 20
12.0354
 10
571.5647
 20
12.329
 10
572.1781
 20
12.9682
 10
572.7097
 20
13.6211
 10
573.1595
 20
14.2875
 10
573.5275
 20
14.9676
 10
573.8137
 20
15.6613
 10
574.0181
 20
16.3685
 10
574.1407
 20
17.0893
 10
574.1816
 20
17.8237
 10
574.1536
 20
18.5483
 10
574.0696
 20
19.2391
 10
573.9295
 20
19.8963
 10
573.7335
 20
20.5197
 10
573.4813
 20
21.1095
 10
573.1732
 20
21.6657
 10
572.8089
 20
22.1882
 10
572.3886
 20
22.6771
 10
571.9442
 20
23.1021
 10
571.4716
 20
23.4704
 10
570.9707
 20
23.782
 10
570.4415
 20
24.0369
 10
569.8841
 20
24.2351
 10
569.2985
 20
24.3767
 10
568.6846
 20
24.4617
 10
568.0425
 20
24.49
 10
567.4004
 20
24.4617
 10
566.7865
 20
24.3767
 10
566.2009
 20
24.2351
 10
565.6436
 20
24.0369
 10
565.1145
 20
23.782
 10
564.6138
 20
23.4704
 10
564.1413
 20
23.1021
 10
563.6972
 20
22.6771
 10
563.2769
 20
22.1885
 10
562.9125
 20
21.6668
 10
562.6043
 20
21.1121
 10
562.352
 20
20.5244
 10
562.1558
 20
19.9035
 10
562.0156
 20
19.2497
 10
561.9315
 20
18.5627
 10
561.9035
 20
17.8427
 10
561.9444
 20
17.1038
 10
562.0671
 20
16.3791
 10
562.2717
 20
15.6686
 10
562.558
 20
14.9723
 10
562.9261
 20
14.2901
 10
563.376
 20
13.6222
 10
563.9077
 20
12.9685
 10
564.5211
 20
12.329
 10
564.0896
 20
12.0354
 10
563.6838
 20
11.7211
 10
563.3039
 20
11.3861
 10
562.9497
 20
11.0305
 10
562.6212
 20
10.6542
 10
562.3185
 20
10.2573
 10
562.0415
 20
9.8398
 10
561.7902
 20
9.4016
 10
561.5669
 20
8.9517
 10
561.3734
 20
8.4988
 10
561.2097
 20
8.0429
 10
561.0757
 20
7.5841
 10
560.9715
 20
7.1223
 10
560.897
 20
6.6577
 10
560.8524
 20
6.1902
 10
560.8375
 20
5.7198
 10
560.8706
 20
4.8761
 10
560.9698
 20
4.0732
 10
561.1351
 20
3.311
 10
561.3666
 20
2.5896
 10
561.6642
 20
1.9088
 10
562.028
 20
1.2689
 10
562.4579
 20
0.6695
 10
562.9539
 20
0.1109
 10
563.4857
 20
-0.3804
 10
564.0473
 20
-0.8061
 10
564.6386
 20
-1.1664
 10
565.2598
 20
-1.4611
 10
565.9107
 20
-1.6903
 10
566.5915
 20
-1.854
 10
567.3021
 20
-1.9522
 10
568.0425
 20
-1.9849
  0
LWPOLYLINE
  5
67
330
1F
100
AcDbEntity
  8
Layer 1
 62
     7
100
AcDbPolyline
 90
      136
 70
     1
 43
0.0
 10
582.3237
 20
14.5571
 10
583.8102
 20
21.4311
 10
591.7584
 20
21.4311
 10
591.7584
 20
24.0746
 10
582.0972
 20
24.0746
 10
579.5774
 20
12.5557
 10
582.0328
 20
11.2716
 10
582.3889
 20
11.5548
 10
582.7627
 20
11.8002
 10
583.1542
 20
12.0078
 10
583.5634
 20
12.1777
 10
583.9902
 20
12.3097
 10
584.4347
 20
12.4041
 10
584.8968
 20
12.4606
 10
585.3766
 20
12.4795
 10
585.8593
 20
12.4518
 10
586.3259
 20
12.3687
 10
586.7762
 20
12.2301
 10
587.2104
 20
12.036
 10
587.6285
 20
11.7865
 10
588.0303
 20
11.4815
 10
588.416
 20
11.1209
 10
588.7855
 20
10.7048
 10
589.134
 20
10.2407
 10
589.4359
 20
9.7594
 10
589.6914
 20
9.261
 10
589.9005
 20
8.7455
 10
590.063
 20
8.2129
 10
590.1791
 20
7.6632
 10
590.2488
 20
7.0963
 10
590.272
 20
6.5124
 10
590.2483
 20
5.9083
 10
590.1771
 20
5.3285
 10
590.0584
 20
4.7729
 10
589.8923
 20
4.2415
 10
589.6788
 20
3.7344
 10
589.4178
 20
3.2514
 10
589.1095
 20
2.7927
 10
588.7537
 20
2.3581
 10
588.5725
 20
2.1648
 10
588.3849
 20
1.9816
 10
588.1907
 20
1.8083
 10
587.99
 20
1.6451
 10
587.7828
 20
1.4919
 10
587.5689
 20
1.3488
 10
587.3485
 20
1.2159
 10
587.1214
 20
1.093
 10
586.8847
 20
0.9823
 10
586.6349
 20
0.8863
 10
586.3719
 20
0.8051
 10
586.0958
 20
0.7386
 10
585.8066
 20
0.6869
 10
585.5042
 20
0.65
 10
585.1886
 20
0.6279
 10
584.8599
 20
0.6205
 10
584.525
 20
0.637
 10
584.1906
 20
0.6867
 10
583.8567
 20
0.7694
 10
583.5232
 20
0.8851
 10
583.1901
 20
1.0338
 10
582.8576
 20
1.2156
 10
582.5256
 20
1.4303
 10
582.1942
 20
1.6779
 10
581.8751
 20
1.9524
 10
581.5803
 20
2.2469
 10
581.3097
 20
2.5615
 10
581.0634
 20
2.8962
 10
580.8413
 20
3.2509
 10
580.6434
 20
3.6257
 10
580.4699
 20
4.0207
 10
580.3206
 20
4.4357
 10
578.1235
 20
3.6041
 10
578.3393
 20
2.9824
 10
578.591
 20
2.3921
 10
578.8785
 20
1.8331
 10
579.2018
 20
1.3053
 10
579.561
 20
0.8088
 10
579.956
 20
0.3436
 10
580.3869
 20
-0.0904
 10
580.8536
 20
-0.4931
 10
581.3499
 20
-0.8606
 10
581.8573
 20
-1.1791
 10
582.3757
 20
-1.4486
 10
582.9053
 20
-1.669
 10
583.4459
 20
-1.8405
 10
583.9976
 20
-1.963
 10
584.5605
 20
-2.0365
 10
585.1345
 20
-2.061
 10
585.8994
 20
-2.0206
 10
586.635
 20
-1.8993
 10
587.3412
 20
-1.6971
 10
588.0183
 20
-1.4141
 10
588.666
 20
-1.0502
 10
589.2844
 20
-0.6056
 10
589.8735
 20
-0.0801
 10
590.4334
 20
0.5262
 10
590.9409
 20
1.1846
 10
591.3807
 20
1.8753
 10
591.7528
 20
2.5985
 10
592.0573
 20
3.354
 10
592.2941
 20
4.142
 10
592.4633
 20
4.9625
 10
592.5648
 20
5.8155
 10
592.5986
 20
6.701
 10
592.5653
 20
7.5819
 10
592.4652
 20
8.4255
 10
592.2986
 20
9.232
 10
592.0652
 20
10.0012
 10
591.7653
 20
10.7332
 10
591.3987
 20
11.4281
 10
590.9656
 20
12.0857
 10
590.4659
 20
12.7062
 10
590.2104
 20
12.9821
 10
589.9449
 20
13.2433
 10
589.6692
 20
13.4897
 10
589.3834
 20
13.7213
 10
589.0875
 20
13.9381
 10
588.7815
 20
14.1402
 10
588.4654
 20
14.3275
 10
588.1393
 20
14.5
 10
587.8066
 20
14.6551
 10
587.471
 20
14.7895
 10
587.1325
 20
14.9031
 10
586.7913
 20
14.996
 10
586.4472
 20
15.0683
 10
586.1004
 20
15.1199
 10
585.7509
 20
15.1508
 10
585.3988
 20
15.1611
 10
585.0397
 20
15.1517
 10
584.6735
 20
15.1233
 10
584.3001
 20
15.0761
 10
583.9196
 20
15.01
 10
583.5317
 20
14.925
 10
583.1365
 20
14.8212
 10
582.7338
 20
14.6986
 10
582.3237
 20
14.5571
  0
LWPOLYLINE
  5
68
330
1F
100
AcDbEntity
  8
Layer 1
 62
     7
100
AcDbPolyline
 90
      129
 70
     1
 43
0.0
 10
605.1187
 20
21.091
 10
605.4917
 20
20.7948
 10
605.8395
 20
20.4585
 10
606.1621
 20
20.0819
 10
606.4595
 20
19.6653
 10
606.7316
 20
19.2084
 10
606.9785
 20
18.7114
 10
607.2001
 20
18.1742
 10
607.3965
 20
17.5969
 10
607.6162
 20
16.8314
 10
607.8065
 20
16.0546
 10
607.9676
 20
15.2666
 10
608.0994
 20
14.4674
 10
608.2019
 20
13.657
 10
608.2751
 20
12.8353
 10
608.3191
 20
12.0024
 10
608.3337
 20
11.1582
 10
608.3322
 20
10.9555
 10
608.3276
 20
10.7439
 10
608.32
 20
10.5233
 10
608.3094
 20
10.294
 10
608.2957
 20
10.0558
 10
608.2791
 20
9.8087
 10
608.2594
 20
9.5529
 10
608.2367
 20
9.2883
 10
608.1246
 20
8.2731
 10
607.9782
 20
7.3139
 10
607.7974
 20
6.4108
 10
607.5823
 20
5.5637
 10
607.3328
 20
4.7726
 10
607.0491
 20
4.0375
 10
606.731
 20
3.3584
 10
606.3787
 20
2.7353
 10
606.0572
 20
2.2662
 10
605.7186
 20
1.8597
 10
605.3627
 20
1.5157
 10
604.9897
 20
1.2342
 10
604.5994
 20
1.0153
 10
604.192
 20
0.859
 10
603.7675
 20
0.7652
 10
603.3258
 20
0.7339
 10
602.8327
 20
0.7649
 10
602.3634
 20
0.8579
 10
601.9178
 20
1.0128
 10
601.4959
 20
1.2297
 10
601.0977
 20
1.5086
 10
600.7233
 20
1.8495
 10
600.3726
 20
2.2524
 10
600.0457
 20
2.7172
 10
599.9074
 20
2.9424
 10
599.7752
 20
3.1747
 10
599.649
 20
3.4142
 10
599.5289
 20
3.6608
 10
599.4149
 20
3.9145
 10
599.3069
 20
4.1754
 10
599.2051
 20
4.4434
 10
599.1093
 20
4.7186
 10
599.0191
 20
4.9979
 10
598.9344
 20
5.279
 10
598.8553
 20
5.5619
 10
598.7818
 20
5.8466
 10
598.7139
 20
6.1332
 10
598.6515
 20
6.4216
 10
598.5948
 20
6.7118
 10
598.5437
 20
7.0039
 10
598.4969
 20
7.2954
 10
598.4538
 20
7.5844
 10
598.4141
 20
7.8711
 10
598.3781
 20
8.1554
 10
598.3456
 20
8.4373
 10
598.3166
 20
8.717
 10
598.2911
 20
8.9943
 10
598.2691
 20
9.2693
 10
598.2501
 20
9.5485
 10
598.2337
 20
9.8382
 10
598.2198
 20
10.1383
 10
598.2085
 20
10.4489
 10
598.1997
 20
10.7697
 10
598.1934
 20
11.1008
 10
598.1896
 20
11.442
 10
598.1884
 20
11.7933
 10
598.194
 20
12.1605
 10
598.2106
 20
12.549
 10
598.2384
 20
12.9589
 10
598.2772
 20
13.3901
 10
598.3272
 20
13.843
 10
598.3882
 20
14.3174
 10
598.4604
 20
14.8136
 10
598.5437
 20
15.3316
 10
598.5946
 20
15.6191
 10
598.6506
 20
15.9061
 10
598.7116
 20
16.1925
 10
598.7778
 20
16.4783
 10
598.8491
 20
16.7636
 10
598.9253
 20
17.0483
 10
599.0067
 20
17.3324
 10
599.093
 20
17.616
 10
599.1851
 20
17.8957
 10
599.2837
 20
18.1684
 10
599.3889
 20
18.434
 10
599.5007
 20
18.6925
 10
599.619
 20
18.9439
 10
599.744
 20
19.1882
 10
599.8756
 20
19.4254
 10
600.0139
 20
19.6555
 10
600.1587
 20
19.8767
 10
600.3107
 20
20.0866
 10
600.4697
 20
20.2852
 10
600.6357
 20
20.4727
 10
600.8089
 20
20.6488
 10
600.9891
 20
20.8138
 10
601.1764
 20
20.9676
 10
601.3708
 20
21.1101
 10
601.5733
 20
21.2385
 10
601.7848
 20
21.3497
 10
602.0055
 20
21.4438
 10
602.2352
 20
21.5209
 10
602.4739
 20
21.5808
 10
602.7217
 20
21.6236
 10
602.9785
 20
21.6492
 10
603.2444
 20
21.6578
 10
603.5105
 20
21.6489
 10
603.7675
 20
21.6223
 10
604.0155
 20
21.5779
 10
604.2543
 20
21.5159
 10
604.484
 20
21.4361
 10
604.7047
 20
21.3387
 10
604.9162
 20
21.2237
 10
605.1187
 20
21.091
  0
LWPOLYLINE
  5
69
330
1F
100
AcDbEntity
  8
Layer 1
 62
     7
100
AcDbPolyline
 90
       65
 70
     1
 43
0.0
 10
603.3577
 20
-1.9477
 10
604.3009
 20
-1.8778
 10
605.1841
 20
-1.668
 10
606.0073
 20
-1.3183
 10
606.7704
 20
-0.8289
 10
607.4734
 20
-0.1995
 10
608.1164
 20
0.5697
 10
608.6992
 20
1.4788
 10
609.222
 20
2.5277
 10
609.5893
 20
3.4431
 10
609.9076
 20
4.4092
 10
610.1769
 20
5.4261
 10
610.3973
 20
6.4937
 10
610.5688
 20
7.612
 10
610.6912
 20
8.7811
 10
610.7647
 20
10.001
 10
610.7892
 20
11.2716
 10
610.7647
 20
12.5419
 10
610.6912
 20
13.7615
 10
610.5688
 20
14.9305
 10
610.3973
 20
16.0487
 10
610.1769
 20
17.1162
 10
609.9076
 20
18.1331
 10
609.5893
 20
19.0992
 10
609.222
 20
20.0146
 10
608.6992
 20
21.0635
 10
608.1164
 20
21.9726
 10
607.4734
 20
22.7418
 10
606.7704
 20
23.3712
 10
606.0073
 20
23.8606
 10
605.1841
 20
24.2103
 10
604.3009
 20
24.4201
 10
603.3577
 20
24.49
 10
602.4144
 20
24.4201
 10
601.5312
 20
24.2103
 10
600.708
 20
23.8606
 10
599.9449
 20
23.3712
 10
599.2419
 20
22.7418
 10
598.5989
 20
21.9726
 10
598.0161
 20
21.0635
 10
597.4933
 20
20.0146
 10
597.1261
 20
19.0992
 10
596.8078
 20
18.1331
 10
596.5384
 20
17.1162
 10
596.318
 20
16.0487
 10
596.1466
 20
14.9305
 10
596.0241
 20
13.7615
 10
595.9506
 20
12.5419
 10
595.9261
 20
11.2716
 10
595.9506
 20
10.001
 10
596.0241
 20
8.7811
 10
596.1466
 20
7.612
 10
596.318
 20
6.4937
 10
596.5384
 20
5.4261
 10
596.8078
 20
4.4092
 10
597.1261
 20
3.4431
 10
597.4933
 20
2.5277
 10
598.0161
 20
1.4788
 10
598.5989
 20
0.5697
 10
599.2419
 20
-0.1995
 10
599.9449
 20
-0.8289
 10
600.708
 20
-1.3183
 10
601.5312
 20
-1.668
 10
602.4144
 20
-1.8778
 10
603.3577
 20
-1.9477
  0
LWPOLYLINE
  5
6A
330
1F
100
AcDbEntity
  8
Layer 1
 62
     7
100
AcDbPolyline
 90
      165
 70
     1
 43
0.0
 10
632.8573
 20
-1.5323
 10
635.1188
 20
-1.5323
 10
635.1188
 20
8.8539
 10
635.1004
 20
9.5434
 10
635.0451
 20
10.2005
 10
634.953
 20
10.8252
 10
634.824
 20
11.4174
 10
634.6581
 20
11.9771
 10
634.4554
 20
12.5044
 10
634.2159
 20
12.9993
 10
633.9395
 20
13.4617
 10
633.7851
 20
13.6829
 10
633.6212
 20
13.8928
 10
633.4478
 20
14.0914
 10
633.2648
 20
14.2788
 10
633.0722
 20
14.455
 10
632.87
 20
14.62
 10
632.6582
 20
14.7737
 10
632.4368
 20
14.9162
 10
632.2015
 20
15.0443
 10
631.9481
 20
15.1553
 10
631.6765
 20
15.2493
 10
631.3867
 20
15.3263
 10
631.0788
 20
15.3861
 10
630.7526
 20
15.4289
 10
630.4083
 20
15.4545
 10
630.0457
 20
15.4631
 10
629.6801
 20
15.4484
 10
629.326
 20
15.4042
 10
628.9836
 20
15.3305
 10
628.6527
 20
15.2273
 10
628.3334
 20
15.0946
 10
628.0258
 20
14.9323
 10
627.7297
 20
14.7405
 10
627.4452
 20
14.5191
 10
627.1982
 20
14.2986
 10
626.9623
 20
14.0616
 10
626.7376
 20
13.8083
 10
626.524
 20
13.539
 10
626.3216
 20
13.2537
 10
626.1303
 20
12.9526
 10
625.9502
 20
12.636
 10
625.7811
 20
12.3039
 10
625.6496
 20
12.6105
 10
625.5062
 20
12.9065
 10
625.3506
 20
13.1906
 10
625.1829
 20
13.4617
 10
625.0288
 20
13.6829
 10
624.8651
 20
13.8928
 10
624.6917
 20
14.0914
 10
624.5088
 20
14.2788
 10
624.3163
 20
14.455
 10
624.1141
 20
14.62
 10
623.9023
 20
14.7737
 10
623.6809
 20
14.9162
 10
623.4456
 20
15.0443
 10
623.1921
 20
15.1553
 10
622.9204
 20
15.2493
 10
622.6306
 20
15.3263
 10
622.3226
 20
15.3861
 10
621.9965
 20
15.4289
 10
621.6522
 20
15.4545
 10
621.2899
 20
15.4631
 10
620.924
 20
15.4484
 10
620.5698
 20
15.4042
 10
620.2272
 20
15.3305
 10
619.8962
 20
15.2273
 10
619.5769
 20
15.0946
 10
619.2692
 20
14.9323
 10
618.9731
 20
14.7405
 10
618.6886
 20
14.5191
 10
618.4535
 20
14.3091
 10
618.2284
 20
14.0848
 10
618.0135
 20
13.8461
 10
617.8086
 20
13.5931
 10
617.6137
 20
13.3255
 10
617.4289
 20
13.0434
 10
617.2542
 20
12.7467
 10
617.0896
 20
12.4354
 10
617.0896
 20
15.0858
 10
614.8281
 20
15.0858
 10
614.8281
 20
-1.5323
 10
617.0896
 20
-1.5323
 10
617.0896
 20
6.9719
 10
617.1421
 20
7.4674
 10
617.2107
 20
7.9436
 10
617.2956
 20
8.4006
 10
617.3965
 20
8.8386
 10
617.5136
 20
9.2576
 10
617.6468
 20
9.6579
 10
617.7962
 20
10.0396
 10
617.9616
 20
10.4028
 10
618.0965
 20
10.6611
 10
618.2424
 20
10.9077
 10
618.3995
 20
11.1426
 10
618.5676
 20
11.3657
 10
618.7467
 20
11.577
 10
618.9371
 20
11.7766
 10
619.1385
 20
11.9644
 10
619.3511
 20
12.1403
 10
619.5713
 20
12.2994
 10
619.7956
 20
12.4374
 10
620.0238
 20
12.5541
 10
620.2561
 20
12.6497
 10
620.4924
 20
12.724
 10
620.7327
 20
12.7771
 10
620.9771
 20
12.809
 10
621.2255
 20
12.8196
 10
621.4678
 20
12.814
 10
621.6939
 20
12.7972
 10
621.9039
 20
12.7692
 10
622.0977
 20
12.7301
 10
622.2753
 20
12.6797
 10
622.4368
 20
12.6181
 10
622.5821
 20
12.5454
 10
622.7112
 20
12.4614
 10
623.037
 20
12.1799
 10
623.3193
 20
11.8499
 10
623.5581
 20
11.4715
 10
623.7535
 20
11.0448
 10
623.9054
 20
10.5696
 10
624.0138
 20
10.0461
 10
624.0789
 20
9.4742
 10
624.1006
 20
8.8539
 10
624.1006
 20
-1.5323
 10
626.3629
 20
-1.5323
 10
626.3629
 20
8.8539
 10
626.3466
 20
9.4899
 10
626.4302
 20
9.7306
 10
626.52
 20
9.9626
 10
626.6159
 20
10.1864
 10
626.7182
 20
10.4028
 10
626.8529
 20
10.6611
 10
626.9987
 20
10.9077
 10
627.1557
 20
11.1426
 10
627.3238
 20
11.3657
 10
627.503
 20
11.577
 10
627.6933
 20
11.7766
 10
627.8946
 20
11.9644
 10
628.107
 20
12.1403
 10
628.3272
 20
12.2994
 10
628.5514
 20
12.4374
 10
628.7797
 20
12.5541
 10
629.0119
 20
12.6497
 10
629.2482
 20
12.724
 10
629.4886
 20
12.7771
 10
629.7329
 20
12.809
 10
629.9813
 20
12.8196
 10
630.2236
 20
12.814
 10
630.4498
 20
12.7972
 10
630.6598
 20
12.7692
 10
630.8536
 20
12.7301
 10
631.0314
 20
12.6797
 10
631.193
 20
12.6181
 10
631.3384
 20
12.5454
 10
631.4678
 20
12.4614
 10
631.7934
 20
12.1799
 10
632.0756
 20
11.8499
 10
632.3144
 20
11.4715
 10
632.5098
 20
11.0448
 10
632.6618
 20
10.5696
 10
632.7704
 20
10.0461
 10
632.8356
 20
9.4742
 10
632.8573
 20
8.8539
 10
632.8573
 20
-1.5323
  0
LWPOLYLINE
  5
6B
330
1F
100
AcDbEntity
  8
Layer 1
 62
     7
100
AcDbPolyline
 90
      165
 70
     1
 43
0.0
 10
657.5103
 20
-1.5323
 10
659.7718
 20
-1.5323
 10
659.7718
 20
8.8539
 10
659.7534
 20
9.5434
 10
659.6981
 20
10.2005
 10
659.606
 20
10.8252
 10
659.477
 20
11.4174
 10
659.3112
 20
11.9771
 10
659.1085
 20
12.5044
 10
658.869
 20
12.9993
 10
658.5926
 20
13.4617
 10
658.4382
 20
13.6829
 10
658.2743
 20
13.8928
 10
658.1009
 20
14.0914
 10
657.9179
 20
14.2788
 10
657.7253
 20
14.455
 10
657.5231
 20
14.62
 10
657.3113
 20
14.7737
 10
657.0899
 20
14.9162
 10
656.8546
 20
15.0443
 10
656.6011
 20
15.1553
 10
656.3295
 20
15.2493
 10
656.0398
 20
15.3263
 10
655.7318
 20
15.3861
 10
655.4057
 20
15.4289
 10
655.0614
 20
15.4545
 10
654.6988
 20
15.4631
 10
654.3332
 20
15.4484
 10
653.9791
 20
15.4042
 10
653.6367
 20
15.3305
 10
653.3058
 20
15.2273
 10
652.9865
 20
15.0946
 10
652.6788
 20
14.9323
 10
652.3827
 20
14.7405
 10
652.0982
 20
14.5191
 10
651.8512
 20
14.2986
 10
651.6153
 20
14.0616
 10
651.3906
 20
13.8083
 10
651.1771
 20
13.539
 10
650.9746
 20
13.2537
 10
650.7833
 20
12.9526
 10
650.6032
 20
12.636
 10
650.4341
 20
12.3039
 10
650.3027
 20
12.6105
 10
650.1592
 20
12.9065
 10
650.0037
 20
13.1906
 10
649.836
 20
13.4617
 10
649.6819
 20
13.6829
 10
649.5181
 20
13.8928
 10
649.3448
 20
14.0914
 10
649.1619
 20
14.2788
 10
648.9693
 20
14.455
 10
648.7672
 20
14.62
 10
648.5554
 20
14.7737
 10
648.334
 20
14.9162
 10
648.0987
 20
15.0443
 10
647.8452
 20
15.1553
 10
647.5735
 20
15.2493
 10
647.2837
 20
15.3263
 10
646.9757
 20
15.3861
 10
646.6495
 20
15.4289
 10
646.3053
 20
15.4545
 10
645.9429
 20
15.4631
 10
645.577
 20
15.4484
 10
645.2228
 20
15.4042
 10
644.8802
 20
15.3305
 10
644.5493
 20
15.2273
 10
644.23
 20
15.0946
 10
643.9222
 20
14.9323
 10
643.6261
 20
14.7405
 10
643.3416
 20
14.5191
 10
643.1065
 20
14.3091
 10
642.8815
 20
14.0848
 10
642.6665
 20
13.8461
 10
642.4616
 20
13.5931
 10
642.2668
 20
13.3255
 10
642.082
 20
13.0434
 10
641.9073
 20
12.7467
 10
641.7427
 20
12.4354
 10
641.7427
 20
15.0858
 10
639.4812
 20
15.0858
 10
639.4812
 20
-1.5323
 10
641.7427
 20
-1.5323
 10
641.7427
 20
6.9719
 10
641.7952
 20
7.4674
 10
641.8638
 20
7.9436
 10
641.9486
 20
8.4006
 10
642.0496
 20
8.8386
 10
642.1667
 20
9.2576
 10
642.2999
 20
9.6579
 10
642.4492
 20
10.0396
 10
642.6147
 20
10.4028
 10
642.7496
 20
10.6611
 10
642.8955
 20
10.9077
 10
643.0525
 20
11.1426
 10
643.2206
 20
11.3657
 10
643.3998
 20
11.577
 10
643.5901
 20
11.7766
 10
643.7916
 20
11.9644
 10
644.0042
 20
12.1403
 10
644.2244
 20
12.2994
 10
644.4486
 20
12.4374
 10
644.6769
 20
12.5541
 10
644.9091
 20
12.6497
 10
645.1454
 20
12.724
 10
645.3858
 20
12.7771
 10
645.6301
 20
12.809
 10
645.8785
 20
12.8196
 10
646.1208
 20
12.814
 10
646.347
 20
12.7972
 10
646.557
 20
12.7692
 10
646.7508
 20
12.7301
 10
646.9284
 20
12.6797
 10
647.0898
 20
12.6181
 10
647.2351
 20
12.5454
 10
647.3642
 20
12.4614
 10
647.69
 20
12.1799
 10
647.9723
 20
11.8499
 10
648.2112
 20
11.4715
 10
648.4065
 20
11.0448
 10
648.5585
 20
10.5696
 10
648.6669
 20
10.0461
 10
648.732
 20
9.4742
 10
648.7537
 20
8.8539
 10
648.7537
 20
-1.5323
 10
651.016
 20
-1.5323
 10
651.016
 20
8.8539
 10
650.9997
 20
9.4899
 10
651.0833
 20
9.7306
 10
651.173
 20
9.9626
 10
651.269
 20
10.1864
 10
651.3713
 20
10.4028
 10
651.506
 20
10.6611
 10
651.6518
 20
10.9077
 10
651.8087
 20
11.1426
 10
651.9768
 20
11.3657
 10
652.156
 20
11.577
 10
652.3463
 20
11.7766
 10
652.5476
 20
11.9644
 10
652.76
 20
12.1403
 10
652.9802
 20
12.2994
 10
653.2045
 20
12.4374
 10
653.4327
 20
12.5541
 10
653.665
 20
12.6497
 10
653.9013
 20
12.724
 10
654.1417
 20
12.7771
 10
654.386
 20
12.809
 10
654.6344
 20
12.8196
 10
654.8767
 20
12.814
 10
655.1029
 20
12.7972
 10
655.3129
 20
12.7692
 10
655.5067
 20
12.7301
 10
655.6845
 20
12.6797
 10
655.8461
 20
12.6181
 10
655.9915
 20
12.5454
 10
656.1209
 20
12.4614
 10
656.4465
 20
12.1799
 10
656.7287
 20
11.8499
 10
656.9674
 20
11.4715
 10
657.1629
 20
11.0448
 10
657.3148
 20
10.5696
 10
657.4234
 20
10.0461
 10
657.4886
 20
9.4742
 10
657.5103
 20
8.8539
 10
657.5103
 20
-1.5323
  0
LWPOLYLINE
  5
6C
330
1F
100
AcDbEntity
  8
Layer 1
 62
     7
370
    18
100
AcDbPolyline
 90
        2
 70
     0
 43
0.0
 10
623.3234
 20
338.7009
 10
604.4725
 20
338.7009
  0
LWPOLYLINE
  5
6D
330
1F
100
AcDbEntity
  8
Layer 1
 62
     7
370
    18
100
AcDbPolyline
 90
        2
 70
     0
 43
0.0
 10
613.8976
 20
338.7063
 10
613.8976
 20
42.5532
  0
LWPOLYLINE
  5
6E
330
1F
100
AcDbEntity
  8
Layer 1
 62
     7
370
    18
100
AcDbPolyline
 90
        2
 70
     0
 43
0.0
 10
623.3234
 20
-384.9882
 10
604.4725
 20
-384.9882
  0
LWPOLYLINE
  5
6F
330
1F
100
AcDbEntity
  8
Layer 1
 62
     7
370
    18
100
AcDbPolyline
 90
        2
 70
     0
 43
0.0
 10
613.8976
 20
-384.9964
 10
613.8976
 20
-34.0894
  0
LWPOLYLINE
  5
70
330
1F
100
AcDbEntity
  8
Layer 1
 62
     7
100
AcDbPolyline
 90
        4
 70
     1
 43
0.0
 10
393.5041
 20
429.0328
 10
393.5041
 20
414.6367
 10
385.356
 20
414.6367
 10
393.5041
 20
429.0328
  0
LWPOLYLINE
  5
71
330
1F
100
AcDbEntity
  8
Layer 1
 62
     7
100
AcDbPolyline
 90
       11
 70
     1
 43
0.0
 10
395.7915
 20
411.9993
 10
398.4868
 20
411.9993
 10
398.4868
 20
414.6367
 10
395.7915
 20
414.6367
 10
395.7604
 20
431.8165
 10
392.6891
 20
431.8165
 10
381.4703
 20
411.9993
 10
393.5041
 20
411.9993
 10
393.5041
 20
406.9078
 10
395.7915
 20
406.9078
 10
395.7915
 20
411.9993
  0
LWPOLYLINE
  5
72
330
1F
100
AcDbEntity
  8
Layer 1
 62
     7
100
AcDbPolyline
 90
        7
 70
     1
 43
0.0
 10
404.597
 20
406.9078
 10
406.7911
 20
406.9078
 10
406.7911
 20
432.1098
 10
401.5264
 20
431.4505
 10
401.5264
 20
429.2162
 10
404.597
 20
429.2162
 10
404.597
 20
406.9078
  0
LWPOLYLINE
  5
73
330
1F
100
AcDbEntity
  8
Layer 1
 62
     7
100
AcDbPolyline
 90
      129
 70
     1
 43
0.0
 10
419.4356
 20
428.9229
 10
419.7976
 20
428.6357
 10
420.135
 20
428.3095
 10
420.448
 20
427.9443
 10
420.7365
 20
427.5401
 10
421.0004
 20
427.097
 10
421.2399
 20
426.615
 10
421.4548
 20
426.0942
 10
421.6453
 20
425.5344
 10
421.8582
 20
424.7918
 10
422.0428
 20
424.0383
 10
422.1991
 20
423.274
 10
422.327
 20
422.4989
 10
422.4264
 20
421.7129
 10
422.4975
 20
420.916
 10
422.5402
 20
420.1082
 10
422.5544
 20
419.2895
 10
422.5529
 20
419.0928
 10
422.5484
 20
418.8874
 10
422.541
 20
418.6735
 10
422.5307
 20
418.4511
 10
422.5174
 20
418.2201
 10
422.5013
 20
417.9805
 10
422.4823
 20
417.7324
 10
422.4604
 20
417.4758
 10
422.3516
 20
416.4912
 10
422.2095
 20
415.5609
 10
422.0342
 20
414.6848
 10
421.8256
 20
413.8631
 10
421.5836
 20
413.0958
 10
421.3084
 20
412.3828
 10
420.9998
 20
411.7243
 10
420.6578
 20
411.1201
 10
420.346
 20
410.6653
 10
420.0175
 20
410.2711
 10
419.6724
 20
409.9375
 10
419.3105
 20
409.6646
 10
418.932
 20
409.4523
 10
418.5369
 20
409.3006
 10
418.1251
 20
409.2096
 10
417.6967
 20
409.1793
 10
417.2185
 20
409.2093
 10
416.7634
 20
409.2994
 10
416.3313
 20
409.4495
 10
415.9222
 20
409.6598
 10
415.5362
 20
409.9301
 10
415.1731
 20
410.2606
 10
414.8329
 20
410.6512
 10
414.5158
 20
411.102
 10
414.3816
 20
411.3206
 10
414.2533
 20
411.5461
 10
414.1309
 20
411.7784
 10
414.0144
 20
412.0177
 10
413.9037
 20
412.2638
 10
413.7989
 20
412.5169
 10
413.6999
 20
412.7768
 10
413.6068
 20
413.0437
 10
413.5195
 20
413.3146
 10
413.4376
 20
413.5872
 10
413.361
 20
413.8616
 10
413.2899
 20
414.1378
 10
413.224
 20
414.4157
 10
413.1636
 20
414.6953
 10
413.1086
 20
414.9766
 10
413.059
 20
415.2597
 10
413.0135
 20
415.5425
 10
412.9715
 20
415.8229
 10
412.933
 20
416.101
 10
412.898
 20
416.3768
 10
412.8664
 20
416.6504
 10
412.8383
 20
416.9217
 10
412.8137
 20
417.1907
 10
412.7925
 20
417.4576
 10
412.774
 20
417.7282
 10
412.758
 20
418.0091
 10
412.7445
 20
418.3002
 10
412.7335
 20
418.6014
 10
412.725
 20
418.9127
 10
412.7189
 20
419.2338
 10
412.7152
 20
419.5648
 10
412.714
 20
419.9056
 10
412.7194
 20
420.2618
 10
412.7355
 20
420.6386
 10
412.7625
 20
421.036
 10
412.8002
 20
421.4543
 10
412.8487
 20
421.8933
 10
412.908
 20
422.3533
 10
412.9781
 20
422.8344
 10
413.059
 20
423.3365
 10
413.1084
 20
423.6156
 10
413.1627
 20
423.8941
 10
413.2219
 20
424.172
 10
413.286
 20
424.4494
 10
413.3549
 20
424.7261
 10
413.4288
 20
425.0022
 10
413.5076
 20
425.2777
 10
413.5912
 20
425.5525
 10
413.6807
 20
425.8239
 10
413.7765
 20
426.0884
 10
413.8786
 20
426.346
 10
413.9871
 20
426.5968
 10
414.102
 20
426.8406
 10
414.2232
 20
427.0775
 10
414.3508
 20
427.3075
 10
414.4847
 20
427.5306
 10
414.6252
 20
427.7451
 10
414.7726
 20
427.9487
 10
414.9268
 20
428.1414
 10
415.0879
 20
428.3232
 10
415.2558
 20
428.494
 10
415.4306
 20
428.6539
 10
415.6123
 20
428.8029
 10
415.8009
 20
428.9411
 10
415.9972
 20
429.0658
 10
416.2023
 20
429.1738
 10
416.4163
 20
429.2651
 10
416.6391
 20
429.3398
 10
416.8707
 20
429.3978
 10
417.1111
 20
429.4393
 10
417.3603
 20
429.4641
 10
417.6183
 20
429.4724
 10
417.8765
 20
429.4638
 10
418.1258
 20
429.438
 10
418.3662
 20
429.395
 10
418.5978
 20
429.3349
 10
418.8205
 20
429.2576
 10
419.0343
 20
429.1632
 10
419.2394
 20
429.0516
 10
419.4356
 20
428.9229
  0
LWPOLYLINE
  5
74
330
1F
100
AcDbEntity
  8
Layer 1
 62
     7
100
AcDbPolyline
 90
       65
 70
     1
 43
0.0
 10
417.7278
 20
406.5781
 10
418.6428
 20
406.6459
 10
419.4995
 20
406.8494
 10
420.2979
 20
407.1885
 10
421.038
 20
407.6632
 10
421.7199
 20
408.2736
 10
422.3435
 20
409.0196
 10
422.9089
 20
409.9012
 10
423.416
 20
410.9185
 10
423.7721
 20
411.8063
 10
424.0807
 20
412.7433
 10
424.3419
 20
413.7295
 10
424.5557
 20
414.765
 10
424.7219
 20
415.8497
 10
424.8407
 20
416.9837
 10
424.912
 20
418.1669
 10
424.9358
 20
419.3994
 10
424.912
 20
420.6316
 10
424.8407
 20
421.8145
 10
424.7219
 20
422.9483
 10
424.5557
 20
424.033
 10
424.3419
 20
425.0684
 10
424.0807
 20
426.0546
 10
423.7721
 20
426.9915
 10
423.416
 20
427.8793
 10
422.9089
 20
428.8966
 10
422.3435
 20
429.7782
 10
421.7199
 20
430.5242
 10
421.038
 20
431.1346
 10
420.2979
 20
431.6093
 10
419.4995
 20
431.9484
 10
418.6428
 20
432.1519
 10
417.7278
 20
432.2197
 10
416.8128
 20
432.1519
 10
415.9562
 20
431.9484
 10
415.1578
 20
431.6093
 10
414.4178
 20
431.1346
 10
413.736
 20
430.5242
 10
413.1125
 20
429.7782
 10
412.5473
 20
428.8966
 10
412.0404
 20
427.8793
 10
411.6841
 20
426.9915
 10
411.3754
 20
426.0546
 10
411.1141
 20
425.0684
 10
410.9004
 20
424.033
 10
410.7342
 20
422.9483
 10
410.6155
 20
421.8145
 10
410.5443
 20
420.6316
 10
410.5206
 20
419.3994
 10
410.5443
 20
418.1669
 10
410.6155
 20
416.9837
 10
410.7342
 20
415.8497
 10
410.9004
 20
414.765
 10
411.1141
 20
413.7295
 10
411.3754
 20
412.7433
 10
411.6841
 20
411.8063
 10
412.0404
 20
410.9185
 10
412.5473
 20
409.9012
 10
413.1125
 20
409.0196
 10
413.736
 20
408.2736
 10
414.4178
 20
407.6632
 10
415.1578
 20
407.1885
 10
415.9562
 20
406.8494
 10
416.8128
 20
406.6459
 10
417.7278
 20
406.5781
  0
LWPOLYLINE
  5
75
330
1F
100
AcDbEntity
  8
Layer 1
 62
     7
100
AcDbPolyline
 90
      165
 70
     1
 43
0.0
 10
446.3391
 20
406.9814
 10
448.5325
 20
406.9814
 10
448.5325
 20
417.0544
 10
448.5146
 20
417.7233
 10
448.461
 20
418.3607
 10
448.3717
 20
418.9665
 10
448.2466
 20
419.5409
 10
448.0858
 20
420.0837
 10
447.8892
 20
420.5952
 10
447.6569
 20
421.0751
 10
447.3888
 20
421.5237
 10
447.2392
 20
421.7379
 10
447.0804
 20
421.9413
 10
446.9122
 20
422.1339
 10
446.7347
 20
422.3156
 10
446.5479
 20
422.4864
 10
446.3517
 20
422.6465
 10
446.1461
 20
422.7957
 10
445.9312
 20
422.9341
 10
445.7031
 20
423.0585
 10
445.4573
 20
423.1664
 10
445.194
 20
423.2577
 10
444.913
 20
423.3325
 10
444.6144
 20
423.3906
 10
444.2981
 20
423.4322
 10
443.9642
 20
423.4571
 10
443.6127
 20
423.4654
 10
443.258
 20
423.4511
 10
442.9145
 20
423.4081
 10
442.5823
 20
423.3366
 10
442.2613
 20
423.2363
 10
441.9516
 20
423.1075
 10
441.6531
 20
422.95
 10
441.3659
 20
422.7639
 10
441.0899
 20
422.5491
 10
440.8504
 20
422.3351
 10
440.6217
 20
422.1052
 10
440.4038
 20
421.8596
 10
440.1967
 20
421.5984
 10
440.0003
 20
421.3218
 10
439.8148
 20
421.0299
 10
439.64
 20
420.7227
 10
439.4761
 20
420.4005
 10
439.3487
 20
420.6977
 10
439.2096
 20
420.9848
 10
439.0589
 20
421.2606
 10
438.8965
 20
421.5237
 10
438.7469
 20
421.7379
 10
438.588
 20
421.9413
 10
438.4197
 20
422.1339
 10
438.2421
 20
422.3156
 10
438.0552
 20
422.4864
 10
437.859
 20
422.6465
 10
437.6536
 20
422.7957
 10
437.4389
 20
422.9341
 10
437.2108
 20
423.0585
 10
436.965
 20
423.1664
 10
436.7017
 20
423.2577
 10
436.4207
 20
423.3325
 10
436.122
 20
423.3906
 10
435.8058
 20
423.4322
 10
435.4719
 20
423.4571
 10
435.1204
 20
423.4654
 10
434.7655
 20
423.4511
 10
434.4218
 20
423.4081
 10
434.0895
 20
423.3366
 10
433.7685
 20
423.2363
 10
433.4588
 20
423.1075
 10
433.1604
 20
422.95
 10
432.8733
 20
422.7639
 10
432.5976
 20
422.5491
 10
432.3693
 20
422.3453
 10
432.1509
 20
422.1276
 10
431.9423
 20
421.8962
 10
431.7435
 20
421.6508
 10
431.5545
 20
421.3914
 10
431.3752
 20
421.118
 10
431.2057
 20
420.8304
 10
431.046
 20
420.5286
 10
431.046
 20
423.0985
 10
428.8525
 20
423.0985
 10
428.8525
 20
406.9814
 10
431.046
 20
406.9814
 10
431.046
 20
415.2295
 10
431.0971
 20
415.71
 10
431.1638
 20
416.1718
 10
431.2461
 20
416.615
 10
431.3441
 20
417.0397
 10
431.4577
 20
417.4461
 10
431.5869
 20
417.8343
 10
431.7317
 20
418.2044
 10
431.8921
 20
418.5566
 10
432.023
 20
418.8072
 10
432.1646
 20
419.0464
 10
432.3169
 20
419.2741
 10
432.48
 20
419.4904
 10
432.6539
 20
419.6953
 10
432.8385
 20
419.8887
 10
433.0339
 20
420.0707
 10
433.2401
 20
420.2413
 10
433.4536
 20
420.3958
 10
433.671
 20
420.5298
 10
433.8922
 20
420.6431
 10
434.1174
 20
420.7359
 10
434.3465
 20
420.808
 10
434.5796
 20
420.8595
 10
434.8166
 20
420.8904
 10
435.0575
 20
420.9007
 10
435.2925
 20
420.8953
 10
435.5119
 20
420.879
 10
435.7156
 20
420.8518
 10
435.9036
 20
420.8137
 10
436.0759
 20
420.7648
 10
436.2325
 20
420.705
 10
436.3735
 20
420.6343
 10
436.4988
 20
420.5528
 10
436.8147
 20
420.2798
 10
437.0885
 20
419.9598
 10
437.3202
 20
419.5929
 10
437.5098
 20
419.1791
 10
437.6572
 20
418.7183
 10
437.7625
 20
418.2106
 10
437.8257
 20
417.6559
 10
437.8468
 20
417.0544
 10
437.8468
 20
406.9814
 10
440.0402
 20
406.9814
 10
440.0402
 20
417.0544
 10
440.0246
 20
417.6713
 10
440.1058
 20
417.9049
 10
440.1929
 20
418.1299
 10
440.286
 20
418.3468
 10
440.3852
 20
418.5566
 10
440.5158
 20
418.8072
 10
440.6572
 20
419.0464
 10
440.8094
 20
419.2741
 10
440.9725
 20
419.4904
 10
441.1463
 20
419.6953
 10
441.3309
 20
419.8887
 10
441.5263
 20
420.0707
 10
441.7324
 20
420.2413
 10
441.9459
 20
420.3958
 10
442.1633
 20
420.5298
 10
442.3846
 20
420.6431
 10
442.6098
 20
420.7359
 10
442.8389
 20
420.808
 10
443.0719
 20
420.8595
 10
443.3089
 20
420.8904
 10
443.5498
 20
420.9007
 10
443.7848
 20
420.8953
 10
444.0042
 20
420.879
 10
444.2079
 20
420.8518
 10
444.3959
 20
420.8137
 10
444.5683
 20
420.7648
 10
444.7249
 20
420.705
 10
444.8658
 20
420.6343
 10
444.9911
 20
420.5528
 10
445.307
 20
420.2798
 10
445.5809
 20
419.9598
 10
445.8126
 20
419.5929
 10
446.0021
 20
419.1791
 10
446.1495
 20
418.7183
 10
446.2549
 20
418.2106
 10
446.318
 20
417.6559
 10
446.3391
 20
417.0544
 10
446.3391
 20
406.9814
  0
LWPOLYLINE
  5
76
330
1F
100
AcDbEntity
  8
Layer 1
 62
     7
100
AcDbPolyline
 90
      165
 70
     1
 43
0.0
 10
470.2497
 20
406.9814
 10
472.4431
 20
406.9814
 10
472.4431
 20
417.0544
 10
472.4252
 20
417.7233
 10
472.3716
 20
418.3607
 10
472.2823
 20
418.9665
 10
472.1572
 20
419.5409
 10
471.9964
 20
420.0837
 10
471.7998
 20
420.5952
 10
471.5675
 20
421.0751
 10
471.2994
 20
421.5237
 10
471.1498
 20
421.7379
 10
470.991
 20
421.9413
 10
470.8228
 20
422.1339
 10
470.6453
 20
422.3156
 10
470.4585
 20
422.4864
 10
470.2623
 20
422.6465
 10
470.0567
 20
422.7957
 10
469.8418
 20
422.9341
 10
469.6137
 20
423.0585
 10
469.3679
 20
423.1664
 10
469.1046
 20
423.2577
 10
468.8236
 20
423.3325
 10
468.525
 20
423.3906
 10
468.2087
 20
423.4322
 10
467.8748
 20
423.4571
 10
467.5233
 20
423.4654
 10
467.1686
 20
423.4511
 10
466.8251
 20
423.4081
 10
466.4929
 20
423.3366
 10
466.1719
 20
423.2363
 10
465.8622
 20
423.1075
 10
465.5637
 20
422.95
 10
465.2765
 20
422.7639
 10
465.0005
 20
422.5491
 10
464.761
 20
422.3351
 10
464.5323
 20
422.1052
 10
464.3144
 20
421.8596
 10
464.1073
 20
421.5984
 10
463.9109
 20
421.3218
 10
463.7254
 20
421.0299
 10
463.5506
 20
420.7227
 10
463.3867
 20
420.4005
 10
463.2593
 20
420.6977
 10
463.1202
 20
420.9848
 10
462.9695
 20
421.2606
 10
462.8071
 20
421.5237
 10
462.6575
 20
421.7379
 10
462.4985
 20
421.9413
 10
462.3303
 20
422.1339
 10
462.1527
 20
422.3156
 10
461.9658
 20
422.4864
 10
461.7696
 20
422.6465
 10
461.5642
 20
422.7957
 10
461.3495
 20
422.9341
 10
461.1214
 20
423.0585
 10
460.8756
 20
423.1664
 10
460.6123
 20
423.2577
 10
460.3313
 20
423.3325
 10
460.0326
 20
423.3906
 10
459.7164
 20
423.4322
 10
459.3825
 20
423.4571
 10
459.031
 20
423.4654
 10
458.6761
 20
423.4511
 10
458.3324
 20
423.4081
 10
458.0001
 20
423.3366
 10
457.6791
 20
423.2363
 10
457.3694
 20
423.1075
 10
457.071
 20
422.95
 10
456.7839
 20
422.7639
 10
456.5081
 20
422.5491
 10
456.2798
 20
422.3453
 10
456.0614
 20
422.1276
 10
455.8528
 20
421.8962
 10
455.654
 20
421.6508
 10
455.465
 20
421.3914
 10
455.2858
 20
421.118
 10
455.1163
 20
420.8304
 10
454.9565
 20
420.5286
 10
454.9565
 20
423.0985
 10
452.7631
 20
423.0985
 10
452.7631
 20
406.9814
 10
454.9565
 20
406.9814
 10
454.9565
 20
415.2295
 10
455.0076
 20
415.71
 10
455.0744
 20
416.1718
 10
455.1567
 20
416.615
 10
455.2547
 20
417.0397
 10
455.3683
 20
417.4461
 10
455.4975
 20
417.8343
 10
455.6423
 20
418.2044
 10
455.8027
 20
418.5566
 10
455.9336
 20
418.8072
 10
456.0752
 20
419.0464
 10
456.2275
 20
419.2741
 10
456.3906
 20
419.4904
 10
456.5645
 20
419.6953
 10
456.7491
 20
419.8887
 10
456.9445
 20
420.0707
 10
457.1507
 20
420.2413
 10
457.3642
 20
420.3958
 10
457.5816
 20
420.5298
 10
457.8028
 20
420.6431
 10
458.028
 20
420.7359
 10
458.2571
 20
420.808
 10
458.4901
 20
420.8595
 10
458.7271
 20
420.8904
 10
458.968
 20
420.9007
 10
459.2031
 20
420.8953
 10
459.4225
 20
420.879
 10
459.6262
 20
420.8518
 10
459.8142
 20
420.8137
 10
459.9865
 20
420.7648
 10
460.1431
 20
420.705
 10
460.284
 20
420.6343
 10
460.4093
 20
420.5528
 10
460.7253
 20
420.2798
 10
460.9991
 20
419.9598
 10
461.2308
 20
419.5929
 10
461.4204
 20
419.1791
 10
461.5678
 20
418.7183
 10
461.6731
 20
418.2106
 10
461.7363
 20
417.6559
 10
461.7574
 20
417.0544
 10
461.7574
 20
406.9814
 10
463.9508
 20
406.9814
 10
463.9508
 20
417.0544
 10
463.9352
 20
417.6713
 10
464.0164
 20
417.9049
 10
464.1035
 20
418.1299
 10
464.1966
 20
418.3468
 10
464.2957
 20
418.5566
 10
464.4263
 20
418.8072
 10
464.5678
 20
419.0464
 10
464.72
 20
419.2741
 10
464.883
 20
419.4904
 10
465.0569
 20
419.6953
 10
465.2415
 20
419.8887
 10
465.4368
 20
420.0707
 10
465.643
 20
420.2413
 10
465.8565
 20
420.3958
 10
466.0739
 20
420.5298
 10
466.2951
 20
420.6431
 10
466.5203
 20
420.7359
 10
466.7494
 20
420.808
 10
466.9825
 20
420.8595
 10
467.2195
 20
420.8904
 10
467.4604
 20
420.9007
 10
467.6954
 20
420.8953
 10
467.9148
 20
420.879
 10
468.1185
 20
420.8518
 10
468.3065
 20
420.8137
 10
468.4788
 20
420.7648
 10
468.6354
 20
420.705
 10
468.7764
 20
420.6343
 10
468.9017
 20
420.5528
 10
469.2176
 20
420.2798
 10
469.4915
 20
419.9598
 10
469.7232
 20
419.5929
 10
469.9127
 20
419.1791
 10
470.0601
 20
418.7183
 10
470.1655
 20
418.2106
 10
470.2286
 20
417.6559
 10
470.2497
 20
417.0544
 10
470.2497
 20
406.9814
  0
LWPOLYLINE
  5
77
330
1F
100
AcDbEntity
  8
Layer 1
 62
     7
370
    18
100
AcDbPolyline
 90
       33
 70
     1
 43
0.0
 10
338.1515
 20
432.2197
 10
340.4403
 20
431.95
 10
342.5721
 20
431.1764
 10
344.5013
 20
429.9524
 10
346.1821
 20
428.3313
 10
347.5689
 20
426.3666
 10
348.6161
 20
424.1116
 10
349.2779
 20
421.6196
 10
349.5086
 20
418.9442
 10
349.2779
 20
416.2688
 10
348.6161
 20
413.7768
 10
347.5689
 20
411.5218
 10
346.1821
 20
409.5571
 10
344.5013
 20
407.936
 10
342.5721
 20
406.712
 10
340.4403
 20
405.9384
 10
338.1515
 20
405.6687
 10
335.8627
 20
405.9384
 10
333.7308
 20
406.712
 10
331.8016
 20
407.936
 10
330.1208
 20
409.5571
 10
328.734
 20
411.5218
 10
327.6868
 20
413.7768
 10
327.025
 20
416.2688
 10
326.7943
 20
418.9442
 10
327.025
 20
421.6196
 10
327.6868
 20
424.1116
 10
328.734
 20
426.3666
 10
330.1208
 20
428.3313
 10
331.8016
 20
429.9524
 10
333.7308
 20
431.1764
 10
335.8627
 20
431.95
 10
338.1515
 20
432.2197
  0
LWPOLYLINE
  5
78
330
1F
100
AcDbEntity
  8
Layer 1
 62
     7
370
    18
100
AcDbPolyline
 90
        9
 70
     0
 43
0.0
 10
343.7967
 20
441.2388
 10
340.1745
 20
426.4469
 10
337.423
 20
415.2621
 10
335.4227
 20
407.1806
 10
334.0541
 20
401.6984
 10
333.1976
 20
398.3116
 10
332.7338
 20
396.5163
 10
332.5432
 20
395.8087
 10
332.5062
 20
395.6848
  0
ENDSEC
  0
SECTION
  2
OBJECTS
  0
DICTIONARY
  5
C
330
0
100
AcDbDictionary
281
     1
  3
ACAD_DETAILVIEWSTYLE
350
80
  3
ACAD_GROUP
350
D
  3
ACAD_LAYOUT
350
1A
  3
ACAD_MATERIAL
350
43
  3
ACAD_MLEADERSTYLE
350
5B
  3
ACAD_MLINESTYLE
350
17
  3
ACAD_PLOTSETTINGS
350
19
  3
ACAD_PLOTSTYLENAME
350
E
  3
ACAD_SCALELIST
350
47
  3
ACAD_SECTIONVIEWSTYLE
350
81
  3
ACAD_TABLESTYLE
350
59
  3
ACAD_VISUALSTYLE
350
2A
  3
ACDB_RECOMPOSE_DATA
350
7D
  3
AcDbVariableDictionary
350
79
  0
SUN
  5
5D
330
29
100
AcDbSun
 90
        1
290
     0
 63
     7
421
 16777215
 40
1.0
291
     1
 91
  2455826
 92
 54000000
292
     0
 70
     2
 71
   256
280
     1
  0
DICTIONARY
  5
80
102
{ACAD_REACTORS
330
C
102
}
330
C
100
AcDbDictionary
281
     1
  0
DICTIONARY
  5
D
102
{ACAD_REACTORS
330
C
102
}
330
C
100
AcDbDictionary
281
     1
  0
DICTIONARY
  5
1A
102
{ACAD_REACTORS
330
C
102
}
330
C
100
AcDbDictionary
281
     1
  3
Layout1
350
1E
  3
Layout2
350
26
  3
Model
350
22
  0
DICTIONARY
  5
43
102
{ACAD_REACTORS
330
C
102
}
330
C
100
AcDbDictionary
281
     1
  3
ByBlock
350
45
  3
ByLayer
350
44
  3
Global
350
46
  0
DICTIONARY
  5
5B
102
{ACAD_REACTORS
330
C
102
}
330
C
100
AcDbDictionary
281
     1
  3
Standard
350
5C
  0
DICTIONARY
  5
17
102
{ACAD_REACTORS
330
C
102
}
330
C
100
AcDbDictionary
281
     1
  3
Standard
350
18
  0
DICTIONARY
  5
19
102
{ACAD_REACTORS
330
C
102
}
330
C
100
AcDbDictionary
281
     1
  0
ACDBDICTIONARYWDFLT
  5
E
102
{ACAD_REACTORS
330
C
102
}
330
C
100
AcDbDictionary
281
     1
  3
Normal
350
F
100
AcDbDictionaryWithDefault
340
F
  0
DICTIONARY
  5
47
102
{ACAD_REACTORS
330
C
102
}
330
C
100
AcDbDictionary
281
     1
  3
A0
350
48
  3
A1
350
49
  3
A2
350
4A
  3
A3
350
4B
  3
A4
350
4C
  3
A5
350
4D
  3
A6
350
4E
  3
A7
350
4F
  3
A8
350
50
  3
A9
350
51
  3
B1
350
52
  3
B2
350
53
  3
B3
350
54
  3
B4
350
55
  3
B5
350
56
  3
B6
350
57
  3
B7
350
58
  0
DICTIONARY
  5
81
102
{ACAD_REACTORS
330
C
102
}
330
C
100
AcDbDictionary
281
     1
  0
DICTIONARY
  5
59
102
{ACAD_REACTORS
330
C
102
}
330
C
100
AcDbDictionary
281
     1
  3
Standard
350
5A
  0
DICTIONARY
  5
2A
102
{ACAD_REACTORS
330
C
102
}
330
C
100
AcDbDictionary
281
     1
  3
2dWireframe
350
2F
  3
Basic
350
32
  3
Brighten
350
36
  3
ColorChange
350
3A
  3
Conceptual
350
34
  3
Dim
350
35
  3
EdgeColorOff
350
3D
  3
Facepattern
350
39
  3
Flat
350
2B
  3
FlatWithEdges
350
2C
  3
Gouraud
350
2D
  3
GouraudWithEdges
350
2E
  3
Hidden
350
31
  3
JitterOff
350
3B
  3
Linepattern
350
38
  3
OverhangOff
350
3C
  3
Realistic
350
33
  3
Shaded
350
42
  3
Shaded with edges
350
41
  3
Shades of Gray
350
3E
  3
Sketchy
350
3F
  3
Thicken
350
37
  3
Wireframe
350
30
  3
X-Ray
350
40
  0
XRECORD
  5
7D
102
{ACAD_REACTORS
330
C
102
}
330
C
100
AcDbXrecord
280
     1
 90
        1
330
5A
  0
DICTIONARY
  5
79
102
{ACAD_REACTORS
330
C
102
}
330
C
100
AcDbDictionary
281
     1
  3
CANNOSCALE
350
7A
  3
CMLEADERSTYLE
350
7F
  3
CTABLESTYLE
350
7E
  0
LAYOUT
  5
1E
102
{ACAD_REACTORS
330
1A
102
}
330
1A
100
AcDbPlotSettings
  1

  2
none_device
  4

  6

 40
0.0
 41
0.0
 42
0.0
 43
0.0
 44
0.0
 45
0.0
 46
0.0
 47
0.0
 48
0.0
 49
0.0
140
0.0
141
0.0
142
1.0
143
1.0
 70
   688
 72
     0
 73
     0
 74
     5
  7

 75
    16
 76
     0
 77
     2
 78
   300
147
1.0
148
0.0
149
0.0
100
AcDbLayout
  1
Layout1
 70
     1
 71
     1
 10
0.0
 20
0.0
 11
12.0
 21
9.0
 12
0.0
 22
0.0
 32
0.0
 14
1.000000000000000E+20
 24
1.000000000000000E+20
 34
1.000000000000000E+20
 15
-1.000000000000000E+20
 25
-1.000000000000000E+20
 35
-1.000000000000000E+20
146
0.0
 13
0.0
 23
0.0
 33
0.0
 16
1.0
 26
0.0
 36
0.0
 17
0.0
 27
1.0
 37
0.0
 76
     0
330
1B
  0
LAYOUT
  5
26
102
{ACAD_REACTORS
330
1A
102
}
330
1A
100
AcDbPlotSettings
  1

  2
none_device
  4

  6

 40
0.0
 41
0.0
 42
0.0
 43
0.0
 44
0.0
 45
0.0
 46
0.0
 47
0.0
 48
0.0
 49
0.0
140
0.0
141
0.0
142
1.0
143
1.0
 70
   688
 72
     0
 73
     0
 74
     5
  7

 75
    16
 76
     0
 77
     2
 78
   300
147
1.0
148
0.0
149
0.0
100
AcDbLayout
  1
Layout2
 70
     1
 71
     2
 10
0.0
 20
0.0
 11
0.0
 21
0.0
 12
0.0
 22
0.0
 32
0.0
 14
0.0
 24
0.0
 34
0.0
 15
0.0
 25
0.0
 35
0.0
146
0.0
 13
0.0
 23
0.0
 33
0.0
 16
1.0
 26
0.0
 36
0.0
 17
0.0
 27
1.0
 37
0.0
 76
     0
330
23
  0
LAYOUT
  5
22
102
{ACAD_REACTORS
330
1A
102
}
330
1A
100
AcDbPlotSettings
  1

  2
none_device
  4
Letter_(8.50_x_11.00_Inches)
  6

 40
6.35
 41
6.35
 42
6.35000508
 43
6.35000508
 44
215.9
 45
279.4
 46
0.0
 47
0.0
 48
0.0
 49
0.0
140
0.0
141
0.0
142
1.0
143
1.0
 70
  1712
 72
     0
 73
     0
 74
     0
  7

 75
     0
 76
     0
 77
     2
 78
   300
147
1.0
148
0.0
149
0.0
100
AcDbLayout
  1
Model
 70
     1
 71
     0
 10
0.0
 20
0.0
 11
12.0
 21
9.0
 12
0.0
 22
0.0
 32
0.0
 14
171.0169
 24
-430.974
 34
0.0
 15
704.4755
 25
452.3952
 35
0.0
146
0.0
 13
0.0
 23
0.0
 33
0.0
 16
1.0
 26
0.0
 36
0.0
 17
0.0
 27
1.0
 37
0.0
 76
     0
330
1F
331
29
  0
MATERIAL
  5
45
102
{ACAD_REACTORS
330
43
102
}
330
43
100
AcDbMaterial
  1
ByBlock
 72
     1
 94
      127
  0
MATERIAL
  5
44
102
{ACAD_REACTORS
330
43
102
}
330
43
100
AcDbMaterial
  1
ByLayer
 72
     1
 94
      127
  0
MATERIAL
  5
46
102
{ACAD_REACTORS
330
43
102
}
330
43
100
AcDbMaterial
  1
Global
 72
     1
 94
      127
  0
MLEADERSTYLE
  5
5C
102
{ACAD_REACTORS
330
5B
102
}
330
5B
100
AcDbMLeaderStyle
179
     2
170
     2
171
     1
172
     0
 90
        2
 40
0.0
 41
0.0
173
     1
 91
-1056964608
340
14
 92
       -2
290
     1
 42
0.09
291
     1
 43
0.36
  3
Standard
341
0
 44
0.18
300

342
11
174
     1
178
     6
175
     1
176
     0
 93
-1056964608
 45
0.18
292
     0
297
     0
 46
0.18
343
0
 94
-1056964608
 47
1.0
 49
1.0
140
1.0
293
     1
141
0.0
294
     1
177
     0
142
1.0
295
     0
296
     0
143
0.125
271
     0
272
     9
273
     9
298
     0
  0
MLINESTYLE
  5
18
102
{ACAD_REACTORS
330
17
102
}
330
17
100
AcDbMlineStyle
  2
Standard
 70
     0
  3

 62
   256
 51
90.0
 52
90.0
 71
     2
 49
0.5
 62
   256
  6
BYLAYER
 49
-0.5
 62
   256
  6
BYLAYER
  0
ACDBPLACEHOLDER
  5
F
102
{ACAD_REACTORS
330
E
102
}
330
E
  0
SCALE
  5
48
102
{ACAD_REACTORS
330
47
102
}
330
47
100
AcDbScale
 70
     0
300
1:1
140
1.0
141
1.0
290
     1
  0
SCALE
  5
49
102
{ACAD_REACTORS
330
47
102
}
330
47
100
AcDbScale
 70
     0
300
1/128" = 1'-0"
140
0.0078125
141
12.0
290
     0
  0
SCALE
  5
4A
102
{ACAD_REACTORS
330
47
102
}
330
47
100
AcDbScale
 70
     0
300
1/64" = 1'-0"
140
0.015625
141
12.0
290
     0
  0
SCALE
  5
4B
102
{ACAD_REACTORS
330
47
102
}
330
47
100
AcDbScale
 70
     0
300
1/32" = 1'-0"
140
0.03125
141
12.0
290
     0
  0
SCALE
  5
4C
102
{ACAD_REACTORS
330
47
102
}
330
47
100
AcDbScale
 70
     0
300
1/16" = 1'-0"
140
0.0625
141
12.0
290
     0
  0
SCALE
  5
4D
102
{ACAD_REACTORS
330
47
102
}
330
47
100
AcDbScale
 70
     0
300
3/32" = 1'-0"
140
0.09375
141
12.0
290
     0
  0
SCALE
  5
4E
102
{ACAD_REACTORS
330
47
102
}
330
47
100
AcDbScale
 70
     0
300
1/8" = 1'-0"
140
0.125
141
12.0
290
     0
  0
SCALE
  5
4F
102
{ACAD_REACTORS
330
47
102
}
330
47
100
AcDbScale
 70
     0
300
3/16" = 1'-0"
140
0.1875
141
12.0
290
     0
  0
SCALE
  5
50
102
{ACAD_REACTORS
330
47
102
}
330
47
100
AcDbScale
 70
     0
300
1/4" = 1'-0"
140
0.25
141
12.0
290
     0
  0
SCALE
  5
51
102
{ACAD_REACTORS
330
47
102
}
330
47
100
AcDbScale
 70
     0
300
3/8" = 1'-0"
140
0.375
141
12.0
290
     0
  0
SCALE
  5
52
102
{ACAD_REACTORS
330
47
102
}
330
47
100
AcDbScale
 70
     0
300
1/2" = 1'-0"
140
0.5
141
12.0
290
     0
  0
SCALE
  5
53
102
{ACAD_REACTORS
330
47
102
}
330
47
100
AcDbScale
 70
     0
300
3/4" = 1'-0"
140
0.75
141
12.0
290
     0
  0
SCALE
  5
54
102
{ACAD_REACTORS
330
47
102
}
330
47
100
AcDbScale
 70
     0
300
1" = 1'-0"
140
1.0
141
12.0
290
     0
  0
SCALE
  5
55
102
{ACAD_REACTORS
330
47
102
}
330
47
100
AcDbScale
 70
     0
300
1-1/2" = 1'-0"
140
1.5
141
12.0
290
     0
  0
SCALE
  5
56
102
{ACAD_REACTORS
330
47
102
}
330
47
100
AcDbScale
 70
     0
300
3" = 1'-0"
140
3.0
141
12.0
290
     0
  0
SCALE
  5
57
102
{ACAD_REACTORS
330
47
102
}
330
47
100
AcDbScale
 70
     0
300
6" = 1'-0"
140
6.0
141
12.0
290
     0
  0
SCALE
  5
58
102
{ACAD_REACTORS
330
47
102
}
330
47
100
AcDbScale
 70
     0
300
1'-0" = 1'-0"
140
12.0
141
12.0
290
     0
  0
TABLESTYLE
  5
5A
102
{ACAD_REACTORS
330
59
102
}
102
{ACAD_XDICTIONARY
360
7B
102
}
330
59
100
AcDbTableStyle
  3
Standard
 70
     0
 71
     0
 40
0.06
 41
0.06
280
     0
281
     0
  7
Standard
140
0.18
170
     2
 62
     0
 63
   257
283
     0
 90
        4
 91
        0
  1

274
    -2
284
     1
 64
     0
275
    -2
285
     1
 65
     0
276
    -2
286
     1
 66
     0
277
    -2
287
     1
 67
     0
278
    -2
288
     1
 68
     0
279
    -2
289
     1
 69
     0
  7
Standard
140
0.25
170
     5
 62
     0
 63
   257
283
     0
 90
        4
 91
        0
  1

274
    -2
284
     1
 64
     0
275
    -2
285
     1
 65
     0
276
    -2
286
     1
 66
     0
277
    -2
287
     1
 67
     0
278
    -2
288
     1
 68
     0
279
    -2
289
     1
 69
     0
  7
Standard
140
0.18
170
     5
 62
     0
 63
   257
283
     0
 90
        4
 91
        0
  1

274
    -2
284
     1
 64
     0
275
    -2
285
     1
 65
     0
276
    -2
286
     1
 66
     0
277
    -2
287
     1
 67
     0
278
    -2
288
     1
 68
     0
279
    -2
289
     1
 69
     0
  0
VISUALSTYLE
  5
2F
102
{ACAD_REACTORS
330
2A
102
}
330
2A
100
AcDbVisualStyle
  2
2dWireframe
 70
     4
177
     3
291
     0
 70
    58
 90
        0
176
     1
 90
        2
176
     1
 90
        0
176
     1
 90
        0
176
     1
 40
0.6
176
     1
 40
30.0
176
     1
 62
     7
420
 16777215
176
     1
 90
        1
176
     1
 90
        4
176
     1
 62
     7
176
     1
 62
   257
176
     1
 90
        1
176
     1
 90
        1
176
     1
 40
1.0
176
     1
 90
        0
176
     1
 62
   257
176
     1
 40
1.0
176
     1
 90
        1
176
     1
 90
        6
176
     1
 90
        2
176
     1
 62
     7
176
     1
 90
        5
176
     1
 90
        0
176
     1
 90
        0
176
     1
290
     0
176
     1
 90
        1
176
     1
 40
0.0
176
     1
 90
        0
176
     1
290
     1
176
     1
290
     1
176
     1
290
     0
176
     1
290
     0
176
     1
290
     0
176
     1
290
     0
176
     1
290
     0
176
     1
290
     0
176
     1
290
     0
176
     1
 90
       50
176
     1
 40
0.0
176
     1
 40
1.0
176
     1
 90
        0
176
     1
 62
    18
420
        0
176
     1
 90
       50
176
     1
 90
        3
176
     1
 62
     5
420
      255
176
     1
290
     0
176
     1
 90
       50
176
     1
 90
       50
176
     1
 90
       50
176
     1
290
     0
176
     1
 90
       50
176
     1
 62
   256
176
     0
 40
1.0
176
     0
 90
        2
176
     1
  1
strokes_ogs.tif
176
     1
290
     0
176
     1
 40
1.0
176
     1
 40
1.0
176
     1
  0
VISUALSTYLE
  5
32
102
{ACAD_REACTORS
330
2A
102
}
330
2A
100
AcDbVisualStyle
  2
Basic
 70
     7
177
     3
291
     1
 70
    58
 90
        1
176
     1
 90
        0
176
     1
 90
        1
176
     1
 90
        0
176
     1
 40
0.6
176
     1
 40
30.0
176
     1
 62
     7
420
 16777215
176
     1
 90
        0
176
     1
 90
        4
176
     1
 62
     7
176
     1
 62
   257
176
     1
 90
        1
176
     1
 90
        1
176
     1
 40
1.0
176
     1
 90
        8
176
     1
 62
     7
176
     1
 40
1.0
176
     1
 90
        1
176
     1
 90
        6
176
     1
 90
        2
176
     1
 62
     7
176
     1
 90
        5
176
     1
 90
        0
176
     1
 90
        0
176
     1
290
     0
176
     1
 90
        1
176
     1
 40
0.0
176
     1
 90
        0
176
     1
290
     0
176
     1
290
     1
176
     1
290
     1
176
     1
290
     0
176
     1
290
     0
176
     1
290
     0
176
     1
290
     0
176
     1
290
     0
176
     1
290
     0
176
     1
 90
       50
176
     1
 40
0.0
176
     1
 40
1.0
176
     1
 90
        0
176
     1
 62
    18
420
        0
176
     1
 90
       50
176
     1
 90
        3
176
     1
 62
     5
420
      255
176
     1
290
     0
176
     1
 90
       50
176
     1
 90
       50
176
     1
 90
       50
176
     1
290
     0
176
     1
 90
       50
176
     1
 62
   256
176
     0
 40
1.0
176
     0
 90
        2
176
     1
  1
strokes_ogs.tif
176
     1
290
     0
176
     1
 40
1.0
176
     1
 40
1.0
176
     1
  0
VISUALSTYLE
  5
36
102
{ACAD_REACTORS
330
2A
102
}
330
2A
100
AcDbVisualStyle
  2
Brighten
 70
    12
177
     3
291
     1
 70
    58
 90
        2
176
     1
 90
        2
176
     1
 90
        0
176
     1
 90
        0
176
     1
 40
0.6
176
     1
 40
30.0
176
     1
 62
     7
420
 16777215
176
     1
 90
        1
176
     1
 90
        4
176
     1
 62
     7
176
     1
 62
   257
176
     1
 90
        1
176
     1
 90
        1
176
     1
 40
1.0
176
     1
 90
        8
176
     1
 62
     7
176
     1
 40
1.0
176
     1
 90
        1
176
     1
 90
        6
176
     1
 90
        2
176
     1
 62
     7
176
     1
 90
        5
176
     1
 90
        0
176
     1
 90
        0
176
     1
290
     0
176
     1
 90
        1
176
     1
 40
50.0
176
     1
 90
        0
176
     1
290
     0
176
     1
290
     1
176
     1
290
     1
176
     1
290
     0
176
     1
290
     0
176
     1
290
     0
176
     1
290
     0
176
     1
290
     0
176
     1
290
     0
176
     1
 90
       50
176
     1
 40
0.0
176
     1
 40
1.0
176
     1
 90
        0
176
     1
 62
    18
420
        0
176
     1
 90
       50
176
     1
 90
        3
176
     1
 62
     5
420
      255
176
     1
290
     0
176
     1
 90
       50
176
     1
 90
       50
176
     1
 90
       50
176
     1
290
     0
176
     1
 90
       50
176
     1
 62
   256
176
     0
 40
1.0
176
     0
 90
        2
176
     1
  1
strokes_ogs.tif
176
     1
290
     0
176
     1
 40
1.0
176
     1
 40
1.0
176
     1
  0
VISUALSTYLE
  5
3A
102
{ACAD_REACTORS
330
2A
102
}
330
2A
100
AcDbVisualStyle
  2
ColorChange
 70
    16
177
     3
291
     1
 70
    58
 90
        2
176
     1
 90
        2
176
     1
 90
        3
176
     1
 90
        0
176
     1
 40
0.6
176
     1
 40
30.0
176
     1
 62
     8
420
  8421504
176
     1
 90
        1
176
     1
 90
        4
176
     1
 62
     7
176
     1
 62
   257
176
     1
 90
        1
176
     1
 90
        1
176
     1
 40
1.0
176
     1
 90
        8
176
     1
 62
     8
420
  8421504
176
     1
 40
1.0
176
     1
 90
        1
176
     1
 90
        6
176
     1
 90
        2
176
     1
 62
     7
176
     1
 90
        5
176
     1
 90
        0
176
     1
 90
        0
176
     1
290
     0
176
     1
 90
        1
176
     1
 40
0.0
176
     1
 90
        0
176
     1
290
     0
176
     1
290
     1
176
     1
290
     1
176
     1
290
     0
176
     1
290
     0
176
     1
290
     0
176
     1
290
     0
176
     1
290
     0
176
     1
290
     0
176
     1
 90
       50
176
     1
 40
0.0
176
     1
 40
1.0
176
     1
 90
        0
176
     1
 62
    18
420
        0
176
     1
 90
       50
176
     1
 90
        3
176
     1
 62
     5
420
      255
176
     1
290
     0
176
     1
 90
       50
176
     1
 90
       50
176
     1
 90
       50
176
     1
290
     0
176
     1
 90
       50
176
     1
 62
   256
176
     0
 40
1.0
176
     0
 90
        2
176
     1
  1
strokes_ogs.tif
176
     1
290
     0
176
     1
 40
1.0
176
     1
 40
1.0
176
     1
  0
VISUALSTYLE
  5
34
102
{ACAD_REACTORS
330
2A
102
}
330
2A
100
AcDbVisualStyle
  2
Conceptual
 70
     9
177
     3
291
     0
 70
    58
 90
        3
176
     1
 90
        2
176
     1
 90
        0
176
     1
 90
        0
176
     1
 40
0.6
176
     1
 40
30.0
176
     1
 62
     7
420
 16777215
176
     1
 90
        2
176
     1
 90
        2
176
     1
 62
     7
176
     1
 62
   257
176
     1
 90
        1
176
     1
 90
        1
176
     1
 40
179.0
176
     1
 90
        8
176
     1
 62
     7
176
     1
 40
1.0
176
     1
 90
        1
176
     1
 90
        6
176
     1
 90
        2
176
     1
 62
     7
176
     1
 90
        3
176
     1
 90
        0
176
     1
 90
        0
176
     1
290
     0
176
     1
 90
        1
176
     1
 40
0.0
176
     1
 90
        0
176
     1
290
     0
176
     1
290
     1
176
     1
290
     1
176
     1
290
     0
176
     1
290
     0
176
     1
290
     0
176
     1
290
     0
176
     1
290
     0
176
     1
290
     0
176
     1
 90
       50
176
     1
 40
0.0
176
     1
 40
1.0
176
     1
 90
        0
176
     1
 62
    18
420
        0
176
     1
 90
       50
176
     1
 90
        3
176
     1
 62
     5
420
      255
176
     1
290
     0
176
     1
 90
       50
176
     1
 90
       50
176
     1
 90
       50
176
     1
290
     0
176
     1
 90
       50
176
     1
 62
   256
176
     0
 40
1.0
176
     0
 90
        2
176
     1
  1
strokes_ogs.tif
176
     1
290
     0
176
     1
 40
1.0
176
     1
 40
1.0
176
     1
  0
VISUALSTYLE
  5
35
102
{ACAD_REACTORS
330
2A
102
}
330
2A
100
AcDbVisualStyle
  2
Dim
 70
    11
177
     3
291
     1
 70
    58
 90
        2
176
     1
 90
        2
176
     1
 90
        0
176
     1
 90
        0
176
     1
 40
0.6
176
     1
 40
30.0
176
     1
 62
     7
420
 16777215
176
     1
 90
        1
176
     1
 90
        4
176
     1
 62
     7
176
     1
 62
   257
176
     1
 90
        1
176
     1
 90
        1
176
     1
 40
1.0
176
     1
 90
        8
176
     1
 62
     7
176
     1
 40
1.0
176
     1
 90
        1
176
     1
 90
        6
176
     1
 90
        2
176
     1
 62
     7
176
     1
 90
        5
176
     1
 90
        0
176
     1
 90
        0
176
     1
290
     0
176
     1
 90
        1
176
     1
 40
-50.0
176
     1
 90
        0
176
     1
290
     0
176
     1
290
     1
176
     1
290
     1
176
     1
290
     0
176
     1
290
     0
176
     1
290
     0
176
     1
290
     0
176
     1
290
     0
176
     1
290
     0
176
     1
 90
       50
176
     1
 40
0.0
176
     1
 40
1.0
176
     1
 90
        0
176
     1
 62
    18
420
        0
176
     1
 90
       50
176
     1
 90
        3
176
     1
 62
     5
420
      255
176
     1
290
     0
176
     1
 90
       50
176
     1
 90
       50
176
     1
 90
       50
176
     1
290
     0
176
     1
 90
       50
176
     1
 62
   256
176
     0
 40
1.0
176
     0
 90
        2
176
     1
  1
strokes_ogs.tif
176
     1
290
     0
176
     1
 40
1.0
176
     1
 40
1.0
176
     1
  0
VISUALSTYLE
  5
3D
102
{ACAD_REACTORS
330
2A
102
}
330
2A
100
AcDbVisualStyle
  2
EdgeColorOff
 70
    22
177
     3
291
     1
 70
    58
 90
        2
176
     0
 90
        2
176
     0
 90
        0
176
     0
 90
        0
176
     0
 40
0.6
176
     0
 40
30.0
176
     0
 62
     7
420
 16777215
176
     0
 90
        1
176
     0
 90
        4
176
     0
 62
     7
176
     0
 62
   257
176
     0
 90
        1
176
     0
 90
        1
176
     0
 40
1.0
176
     0
 90
        8
176
     2
 62
     7
176
     0
 40
1.0
176
     0
 90
        1
176
     0
 90
        6
176
     0
 90
        2
176
     0
 62
     7
176
     0
 90
        5
176
     0
 90
        0
176
     0
 90
        0
176
     0
290
     0
176
     0
 90
        1
176
     0
 40
0.0
176
     0
 90
        0
176
     0
290
     0
176
     0
290
     1
176
     0
290
     1
176
     0
290
     0
176
     0
290
     0
176
     0
290
     0
176
     0
290
     0
176
     0
290
     0
176
     0
290
     0
176
     0
 90
       50
176
     0
 40
0.0
176
     0
 40
1.0
176
     0
 90
        0
176
     0
 62
    18
420
        0
176
     0
 90
       50
176
     0
 90
        3
176
     0
 62
     5
420
      255
176
     0
290
     0
176
     0
 90
       50
176
     0
 90
       50
176
     0
 90
       50
176
     0
290
     0
176
     0
 90
       50
176
     0
 62
   256
176
     0
 40
1.0
176
     0
 90
        2
176
     0
  1
strokes_ogs.tif
176
     0
290
     0
176
     0
 40
1.0
176
     0
 40
1.0
176
     0
  0
VISUALSTYLE
  5
39
102
{ACAD_REACTORS
330
2A
102
}
330
2A
100
AcDbVisualStyle
  2
Facepattern
 70
    15
177
     3
291
     1
 70
    58
 90
        2
176
     1
 90
        2
176
     1
 90
        0
176
     1
 90
        0
176
     1
 40
0.6
176
     1
 40
30.0
176
     1
 62
     7
420
 16777215
176
     1
 90
        1
176
     1
 90
        4
176
     1
 62
     7
176
     1
 62
   257
176
     1
 90
        1
176
     1
 90
        1
176
     1
 40
1.0
176
     1
 90
        8
176
     1
 62
     7
176
     1
 40
1.0
176
     1
 90
        1
176
     1
 90
        6
176
     1
 90
        2
176
     1
 62
     7
176
     1
 90
        5
176
     1
 90
        0
176
     1
 90
        0
176
     1
290
     0
176
     1
 90
        1
176
     1
 40
0.0
176
     1
 90
        0
176
     1
290
     0
176
     1
290
     1
176
     1
290
     1
176
     1
290
     0
176
     1
290
     0
176
     1
290
     0
176
     1
290
     0
176
     1
290
     0
176
     1
290
     0
176
     1
 90
       50
176
     1
 40
0.0
176
     1
 40
1.0
176
     1
 90
        0
176
     1
 62
    18
420
        0
176
     1
 90
       50
176
     1
 90
        3
176
     1
 62
     5
420
      255
176
     1
290
     0
176
     1
 90
       50
176
     1
 90
       50
176
     1
 90
       50
176
     1
290
     0
176
     1
 90
       50
176
     1
 62
   256
176
     0
 40
1.0
176
     0
 90
        2
176
     1
  1
strokes_ogs.tif
176
     1
290
     0
176
     1
 40
1.0
176
     1
 40
1.0
176
     1
  0
VISUALSTYLE
  5
2B
102
{ACAD_REACTORS
330
2A
102
}
330
2A
100
AcDbVisualStyle
  2
Flat
 70
     0
177
     3
291
     1
 70
    58
 90
        2
176
     1
 90
        1
176
     1
 90
        1
176
     1
 90
        2
176
     1
 40
0.6
176
     1
 40
30.0
176
     1
 62
     7
420
 16777215
176
     1
 90
        0
176
     1
 90
        0
176
     1
 62
     7
176
     1
 62
   257
176
     1
 90
        1
176
     1
 90
        1
176
     1
 40
1.0
176
     1
 90
        8
176
     1
 62
     7
176
     1
 40
1.0
176
     1
 90
        1
176
     1
 90
        6
176
     1
 90
        2
176
     1
 62
     7
176
     1
 90
        5
176
     1
 90
        0
176
     1
 90
        0
176
     1
290
     0
176
     1
 90
       13
176
     1
 40
0.0
176
     1
 90
        0
176
     1
290
     0
176
     1
290
     1
176
     1
290
     1
176
     1
290
     0
176
     1
290
     0
176
     1
290
     0
176
     1
290
     0
176
     1
290
     0
176
     1
290
     0
176
     1
 90
       50
176
     1
 40
0.0
176
     1
 40
1.0
176
     1
 90
        0
176
     1
 62
    18
420
        0
176
     1
 90
       50
176
     1
 90
        3
176
     1
 62
     5
420
      255
176
     1
290
     0
176
     1
 90
       50
176
     1
 90
       50
176
     1
 90
       50
176
     1
290
     0
176
     1
 90
       50
176
     1
 62
   256
176
     0
 40
1.0
176
     0
 90
        2
176
     1
  1
strokes_ogs.tif
176
     1
290
     0
176
     1
 40
1.0
176
     1
 40
1.0
176
     1
  0
VISUALSTYLE
  5
2C
102
{ACAD_REACTORS
330
2A
102
}
330
2A
100
AcDbVisualStyle
  2
FlatWithEdges
 70
     1
177
     3
291
     1
 70
    58
 90
        2
176
     1
 90
        1
176
     1
 90
        1
176
     1
 90
        2
176
     1
 40
0.6
176
     1
 40
30.0
176
     1
 62
     7
420
 16777215
176
     1
 90
        1
176
     1
 90
        0
176
     1
 62
     7
176
     1
 62
   257
176
     1
 90
        1
176
     1
 90
        1
176
     1
 40
1.0
176
     1
 90
        0
176
     1
 62
   257
176
     1
 40
1.0
176
     1
 90
        1
176
     1
 90
        6
176
     1
 90
        2
176
     1
 62
     7
176
     1
 90
        5
176
     1
 90
        0
176
     1
 90
        0
176
     1
290
     0
176
     1
 90
       13
176
     1
 40
0.0
176
     1
 90
        0
176
     1
290
     0
176
     1
290
     1
176
     1
290
     1
176
     1
290
     0
176
     1
290
     0
176
     1
290
     0
176
     1
290
     0
176
     1
290
     0
176
     1
290
     0
176
     1
 90
       50
176
     1
 40
0.0
176
     1
 40
1.0
176
     1
 90
        0
176
     1
 62
    18
420
        0
176
     1
 90
       50
176
     1
 90
        3
176
     1
 62
     5
420
      255
176
     1
290
     0
176
     1
 90
       50
176
     1
 90
       50
176
     1
 90
       50
176
     1
290
     0
176
     1
 90
       50
176
     1
 62
   256
176
     0
 40
1.0
176
     0
 90
        2
176
     1
  1
strokes_ogs.tif
176
     1
290
     0
176
     1
 40
1.0
176
     1
 40
1.0
176
     1
  0
VISUALSTYLE
  5
2D
102
{ACAD_REACTORS
330
2A
102
}
330
2A
100
AcDbVisualStyle
  2
Gouraud
 70
     2
177
     3
291
     1
 70
    58
 90
        2
176
     1
 90
        2
176
     1
 90
        1
176
     1
 90
        2
176
     1
 40
0.6
176
     1
 40
30.0
176
     1
 62
     7
420
 16777215
176
     1
 90
        0
176
     1
 90
        0
176
     1
 62
     7
176
     1
 62
   257
176
     1
 90
        1
176
     1
 90
        1
176
     1
 40
1.0
176
     1
 90
        0
176
     1
 62
     7
176
     1
 40
1.0
176
     1
 90
        1
176
     1
 90
        6
176
     1
 90
        2
176
     1
 62
     7
176
     1
 90
        5
176
     1
 90
        0
176
     1
 90
        0
176
     1
290
     0
176
     1
 90
       13
176
     1
 40
0.0
176
     1
 90
        0
176
     1
290
     0
176
     1
290
     1
176
     1
290
     1
176
     1
290
     0
176
     1
290
     0
176
     1
290
     0
176
     1
290
     0
176
     1
290
     0
176
     1
290
     0
176
     1
 90
       50
176
     1
 40
0.0
176
     1
 40
1.0
176
     1
 90
        0
176
     1
 62
    18
420
        0
176
     1
 90
       50
176
     1
 90
        3
176
     1
 62
     5
420
      255
176
     1
290
     0
176
     1
 90
       50
176
     1
 90
       50
176
     1
 90
       50
176
     1
290
     0
176
     1
 90
       50
176
     1
 62
   256
176
     0
 40
1.0
176
     0
 90
        2
176
     1
  1
strokes_ogs.tif
176
     1
290
     0
176
     1
 40
1.0
176
     1
 40
1.0
176
     1
  0
VISUALSTYLE
  5
2E
102
{ACAD_REACTORS
330
2A
102
}
330
2A
100
AcDbVisualStyle
  2
GouraudWithEdges
 70
     3
177
     3
291
     1
 70
    58
 90
        2
176
     1
 90
        2
176
     1
 90
        1
176
     1
 90
        2
176
     1
 40
0.6
176
     1
 40
30.0
176
     1
 62
     7
420
 16777215
176
     1
 90
        1
176
     1
 90
        0
176
     1
 62
     7
176
     1
 62
   257
176
     1
 90
        1
176
     1
 90
        1
176
     1
 40
1.0
176
     1
 90
        0
176
     1
 62
   257
176
     1
 40
1.0
176
     1
 90
        1
176
     1
 90
        6
176
     1
 90
        2
176
     1
 62
     7
176
     1
 90
        5
176
     1
 90
        0
176
     1
 90
        0
176
     1
290
     0
176
     1
 90
       13
176
     1
 40
0.0
176
     1
 90
        0
176
     1
290
     0
176
     1
290
     1
176
     1
290
     1
176
     1
290
     0
176
     1
290
     0
176
     1
290
     0
176
     1
290
     0
176
     1
290
     0
176
     1
290
     0
176
     1
 90
       50
176
     1
 40
0.0
176
     1
 40
1.0
176
     1
 90
        0
176
     1
 62
    18
420
        0
176
     1
 90
       50
176
     1
 90
        3
176
     1
 62
     5
420
      255
176
     1
290
     0
176
     1
 90
       50
176
     1
 90
       50
176
     1
 90
       50
176
     1
290
     0
176
     1
 90
       50
176
     1
 62
   256
176
     0
 40
1.0
176
     0
 90
        2
176
     1
  1
strokes_ogs.tif
176
     1
290
     0
176
     1
 40
1.0
176
     1
 40
1.0
176
     1
  0
VISUALSTYLE
  5
31
102
{ACAD_REACTORS
330
2A
102
}
330
2A
100
AcDbVisualStyle
  2
Hidden
 70
     6
177
     3
291
     0
 70
    58
 90
        1
176
     1
 90
        2
176
     1
 90
        2
176
     1
 90
        0
176
     1
 40
0.6
176
     1
 40
30.0
176
     1
 62
     7
420
 16777215
176
     1
 90
        2
176
     1
 90
        2
176
     1
 62
     7
176
     1
 62
   257
176
     1
 90
        2
176
     1
 90
        1
176
     1
 40
40.0
176
     1
 90
        0
176
     1
 62
   257
176
     1
 40
1.0
176
     1
 90
        1
176
     1
 90
        6
176
     1
 90
        2
176
     1
 62
     7
176
     1
 90
        3
176
     1
 90
        0
176
     1
 90
        0
176
     1
290
     0
176
     1
 90
        1
176
     1
 40
0.0
176
     1
 90
        0
176
     1
290
     0
176
     1
290
     1
176
     1
290
     1
176
     1
290
     0
176
     1
290
     0
176
     1
290
     0
176
     1
290
     0
176
     1
290
     0
176
     1
290
     0
176
     1
 90
       50
176
     1
 40
0.0
176
     1
 40
1.0
176
     1
 90
        0
176
     1
 62
    18
420
        0
176
     1
 90
       50
176
     1
 90
        3
176
     1
 62
     5
420
      255
176
     1
290
     0
176
     1
 90
       50
176
     1
 90
       50
176
     1
 90
       50
176
     1
290
     0
176
     1
 90
       50
176
     1
 62
   256
176
     0
 40
1.0
176
     0
 90
        2
176
     1
  1
strokes_ogs.tif
176
     1
290
     0
176
     1
 40
1.0
176
     1
 40
1.0
176
     1
  0
VISUALSTYLE
  5
3B
102
{ACAD_REACTORS
330
2A
102
}
330
2A
100
AcDbVisualStyle
  2
JitterOff
 70
    20
177
     3
291
     1
 70
    58
 90
        2
176
     0
 90
        2
176
     0
 90
        0
176
     0
 90
        0
176
     0
 40
0.6
176
     0
 40
30.0
176
     0
 62
     7
420
 16777215
176
     0
 90
        1
176
     0
 90
        4
176
     0
 62
     7
176
     0
 62
   257
176
     0
 90
        1
176
     0
 90
        1
176
     0
 40
1.0
176
     0
 90
       10
176
     2
 62
     7
176
     0
 40
1.0
176
     0
 90
        1
176
     0
 90
        6
176
     0
 90
        2
176
     0
 62
     7
176
     0
 90
        5
176
     0
 90
        0
176
     0
 90
        0
176
     0
290
     0
176
     0
 90
        1
176
     0
 40
0.0
176
     0
 90
        0
176
     0
290
     0
176
     0
290
     1
176
     0
290
     1
176
     0
290
     0
176
     0
290
     0
176
     0
290
     0
176
     0
290
     0
176
     0
290
     0
176
     0
290
     0
176
     0
 90
       50
176
     0
 40
0.0
176
     0
 40
1.0
176
     0
 90
        0
176
     0
 62
    18
420
        0
176
     0
 90
       50
176
     0
 90
        3
176
     0
 62
     5
420
      255
176
     0
290
     0
176
     0
 90
       50
176
     0
 90
       50
176
     0
 90
       50
176
     0
290
     0
176
     0
 90
       50
176
     0
 62
   256
176
     0
 40
1.0
176
     0
 90
        2
176
     0
  1
strokes_ogs.tif
176
     0
290
     0
176
     0
 40
1.0
176
     0
 40
1.0
176
     0
  0
VISUALSTYLE
  5
38
102
{ACAD_REACTORS
330
2A
102
}
330
2A
100
AcDbVisualStyle
  2
Linepattern
 70
    14
177
     3
291
     1
 70
    58
 90
        2
176
     1
 90
        2
176
     1
 90
        0
176
     1
 90
        0
176
     1
 40
0.6
176
     1
 40
30.0
176
     1
 62
     7
420
 16777215
176
     1
 90
        1
176
     1
 90
        4
176
     1
 62
     7
176
     1
 62
   257
176
     1
 90
        7
176
     1
 90
        7
176
     1
 40
1.0
176
     1
 90
        8
176
     1
 62
     7
176
     1
 40
1.0
176
     1
 90
        1
176
     1
 90
        6
176
     1
 90
        2
176
     1
 62
     7
176
     1
 90
        5
176
     1
 90
        0
176
     1
 90
        0
176
     1
290
     0
176
     1
 90
        1
176
     1
 40
0.0
176
     1
 90
        0
176
     1
290
     0
176
     1
290
     1
176
     1
290
     1
176
     1
290
     0
176
     1
290
     0
176
     1
290
     0
176
     1
290
     0
176
     1
290
     0
176
     1
290
     0
176
     1
 90
       50
176
     1
 40
0.0
176
     1
 40
1.0
176
     1
 90
        0
176
     1
 62
    18
420
        0
176
     1
 90
       50
176
     1
 90
        3
176
     1
 62
     5
420
      255
176
     1
290
     0
176
     1
 90
       50
176
     1
 90
       50
176
     1
 90
       50
176
     1
290
     0
176
     1
 90
       50
176
     1
 62
   256
176
     0
 40
1.0
176
     0
 90
        2
176
     1
  1
strokes_ogs.tif
176
     1
290
     0
176
     1
 40
1.0
176
     1
 40
1.0
176
     1
  0
VISUALSTYLE
  5
3C
102
{ACAD_REACTORS
330
2A
102
}
330
2A
100
AcDbVisualStyle
  2
OverhangOff
 70
    21
177
     3
291
     1
 70
    58
 90
        2
176
     0
 90
        2
176
     0
 90
        0
176
     0
 90
        0
176
     0
 40
0.6
176
     0
 40
30.0
176
     0
 62
     7
420
 16777215
176
     0
 90
        1
176
     0
 90
        4
176
     0
 62
     7
176
     0
 62
   257
176
     0
 90
        1
176
     0
 90
        1
176
     0
 40
1.0
176
     0
 90
        9
176
     2
 62
     7
176
     0
 40
1.0
176
     0
 90
        1
176
     0
 90
        6
176
     0
 90
        2
176
     0
 62
     7
176
     0
 90
        5
176
     0
 90
        0
176
     0
 90
        0
176
     0
290
     0
176
     0
 90
        1
176
     0
 40
0.0
176
     0
 90
        0
176
     0
290
     0
176
     0
290
     1
176
     0
290
     1
176
     0
290
     0
176
     0
290
     0
176
     0
290
     0
176
     0
290
     0
176
     0
290
     0
176
     0
290
     0
176
     0
 90
       50
176
     0
 40
0.0
176
     0
 40
1.0
176
     0
 90
        0
176
     0
 62
    18
420
        0
176
     0
 90
       50
176
     0
 90
        3
176
     0
 62
     5
420
      255
176
     0
290
     0
176
     0
 90
       50
176
     0
 90
       50
176
     0
 90
       50
176
     0
290
     0
176
     0
 90
       50
176
     0
 62
   256
176
     0
 40
1.0
176
     0
 90
        2
176
     0
  1
strokes_ogs.tif
176
     0
290
     0
176
     0
 40
1.0
176
     0
 40
1.0
176
     0
  0
VISUALSTYLE
  5
33
102
{ACAD_REACTORS
330
2A
102
}
330
2A
100
AcDbVisualStyle
  2
Realistic
 70
     8
177
     3
291
     0
 70
    58
 90
        2
176
     1
 90
        3
176
     1
 90
        0
176
     1
 90
        2
176
     1
 40
0.6
176
     1
 40
30.0
176
     1
 62
     7
420
 16777215
176
     1
 90
        0
176
     1
 90
        0
176
     1
 62
     7
176
     1
 62
   257
176
     1
 90
        1
176
     1
 90
        1
176
     1
 40
1.0
176
     1
 90
        8
176
     1
 62
   257
176
     1
 40
1.0
176
     1
 90
        1
176
     1
 90
        6
176
     1
 90
        2
176
     1
 62
     7
176
     1
 90
        3
176
     1
 90
        0
176
     1
 90
        0
176
     1
290
     0
176
     1
 90
       13
176
     1
 40
0.0
176
     1
 90
        0
176
     1
290
     0
176
     1
290
     1
176
     1
290
     1
176
     1
290
     0
176
     1
290
     0
176
     1
290
     0
176
     1
290
     0
176
     1
290
     0
176
     1
290
     0
176
     1
 90
       50
176
     1
 40
0.0
176
     1
 40
1.0
176
     1
 90
        0
176
     1
 62
    18
420
        0
176
     1
 90
       50
176
     1
 90
        3
176
     1
 62
     5
420
      255
176
     1
290
     0
176
     1
 90
       50
176
     1
 90
       50
176
     1
 90
       50
176
     1
290
     0
176
     1
 90
       50
176
     1
 62
   256
176
     0
 40
1.0
176
     0
 90
        2
176
     1
  1
strokes_ogs.tif
176
     1
290
     0
176
     1
 40
1.0
176
     1
 40
1.0
176
     1
  0
VISUALSTYLE
  5
42
102
{ACAD_REACTORS
330
2A
102
}
330
2A
100
AcDbVisualStyle
  2
Shaded
 70
    27
177
     3
291
     0
 70
    58
 90
        2
176
     1
 90
        2
176
     1
 90
        1
176
     1
 90
        2
176
     1
 40
0.6
176
     1
 40
30.0
176
     1
 62
     7
420
 16777215
176
     1
 90
        0
176
     1
 90
        4
176
     1
 62
     7
176
     1
 62
   257
176
     1
 90
        1
176
     1
 90
        1
176
     1
 40
1.0
176
     1
 90
        8
176
     1
 62
   257
176
     1
 40
1.0
176
     1
 90
        1
176
     1
 90
        6
176
     1
 90
        2
176
     1
 62
     8
420
  7895160
176
     1
 90
        3
176
     1
 90
        0
176
     1
 90
        0
176
     1
290
     0
176
     1
 90
        5
176
     1
 40
0.0
176
     1
 90
        0
176
     1
290
     0
176
     1
290
     1
176
     1
290
     1
176
     1
290
     0
176
     1
290
     0
176
     1
290
     0
176
     1
290
     0
176
     1
290
     0
176
     1
290
     0
176
     1
 90
       50
176
     1
 40
0.0
176
     1
 40
1.0
176
     1
 90
        0
176
     1
 62
    18
420
        0
176
     1
 90
       50
176
     1
 90
        3
176
     1
 62
     5
420
      255
176
     1
290
     0
176
     1
 90
       50
176
     1
 90
       50
176
     1
 90
       50
176
     1
290
     0
176
     1
 90
       50
176
     1
 62
   256
176
     0
 40
1.0
176
     0
 90
        2
176
     1
  1
strokes_ogs.tif
176
     1
290
     0
176
     1
 40
1.0
176
     1
 40
1.0
176
     1
  0
VISUALSTYLE
  5
41
102
{ACAD_REACTORS
330
2A
102
}
330
2A
100
AcDbVisualStyle
  2
Shaded with edges
 70
    26
177
     3
291
     0
 70
    58
 90
        2
176
     1
 90
        2
176
     1
 90
        1
176
     1
 90
        2
176
     1
 40
0.6
176
     1
 40
30.0
176
     1
 62
     7
420
 16777215
176
     1
 90
        1
176
     1
 90
       10
176
     1
 62
     7
176
     1
 62
   257
176
     1
 90
        2
176
     1
 90
        1
176
     1
 40
1.0
176
     1
 90
        8
176
     1
 62
   257
176
     1
 40
1.0
176
     1
 90
        1
176
     1
 90
        6
176
     1
 90
        2
176
     1
 62
     7
176
     1
 90
        3
176
     1
 90
        0
176
     1
 90
        0
176
     1
290
     0
176
     1
 90
        5
176
     1
 40
0.0
176
     1
 90
        0
176
     1
290
     0
176
     1
290
     1
176
     1
290
     1
176
     1
290
     0
176
     1
290
     0
176
     1
290
     0
176
     1
290
     0
176
     1
290
     0
176
     1
290
     0
176
     1
 90
       50
176
     1
 40
0.0
176
     1
 40
1.0
176
     1
 90
        0
176
     1
 62
    18
420
        0
176
     1
 90
       50
176
     1
 90
        3
176
     1
 62
     5
420
      255
176
     1
290
     0
176
     1
 90
       50
176
     1
 90
       50
176
     1
 90
       50
176
     1
290
     0
176
     1
 90
       50
176
     1
 62
   256
176
     0
 40
1.0
176
     0
 90
        2
176
     1
  1
strokes_ogs.tif
176
     1
290
     0
176
     1
 40
1.0
176
     1
 40
1.0
176
     1
  0
VISUALSTYLE
  5
3E
102
{ACAD_REACTORS
330
2A
102
}
330
2A
100
AcDbVisualStyle
  2
Shades of Gray
 70
    23
177
     3
291
     0
 70
    58
 90
        2
176
     1
 90
        2
176
     1
 90
        3
176
     1
 90
        0
176
     1
 40
0.6
176
     1
 40
30.0
176
     1
 62
     7
420
 16777215
176
     1
 90
        2
176
     1
 90
        2
176
     1
 62
     7
176
     1
 62
     7
176
     1
 90
        1
176
     1
 90
        1
176
     1
 40
40.0
176
     1
 90
        8
176
     1
 62
     7
176
     1
 40
1.0
176
     1
 90
        1
176
     1
 90
        6
176
     1
 90
        2
176
     1
 62
     7
176
     1
 90
        3
176
     1
 90
        0
176
     1
 90
        0
176
     1
290
     0
176
     1
 90
        1
176
     1
 40
0.0
176
     1
 90
        0
176
     1
290
     0
176
     1
290
     1
176
     1
290
     1
176
     1
290
     0
176
     1
290
     0
176
     1
290
     0
176
     1
290
     0
176
     1
290
     0
176
     1
290
     0
176
     1
 90
       50
176
     1
 40
0.0
176
     1
 40
1.0
176
     1
 90
        0
176
     1
 62
    18
420
        0
176
     1
 90
       50
176
     1
 90
        3
176
     1
 62
     5
420
      255
176
     1
290
     0
176
     1
 90
       50
176
     1
 90
       50
176
     1
 90
       50
176
     1
290
     0
176
     1
 90
       50
176
     1
 62
   256
176
     0
 40
1.0
176
     0
 90
        2
176
     1
  1
strokes_ogs.tif
176
     1
290
     0
176
     1
 40
1.0
176
     1
 40
1.0
176
     1
  0
VISUALSTYLE
  5
3F
102
{ACAD_REACTORS
330
2A
102
}
330
2A
100
AcDbVisualStyle
  2
Sketchy
 70
    24
177
     3
291
     0
 70
    58
 90
        1
176
     1
 90
        2
176
     1
 90
        2
176
     1
 90
        0
176
     1
 40
0.6
176
     1
 40
30.0
176
     1
 62
     7
420
 16777215
176
     1
 90
        2
176
     1
 90
        2
176
     1
 62
     7
176
     1
 62
     7
176
     1
 90
        1
176
     1
 90
        1
176
     1
 40
40.0
176
     1
 90
       11
176
     1
 62
     7
176
     1
 40
1.0
176
     1
 90
        1
176
     1
 90
        6
176
     1
 90
        2
176
     1
 62
     7
176
     1
 90
        6
176
     1
 90
        0
176
     1
 90
        0
176
     1
290
     0
176
     1
 90
        1
176
     1
 40
0.0
176
     1
 90
        0
176
     1
290
     0
176
     1
290
     1
176
     1
290
     1
176
     1
290
     0
176
     1
290
     0
176
     1
290
     0
176
     1
290
     0
176
     1
290
     0
176
     1
290
     0
176
     1
 90
       50
176
     1
 40
0.0
176
     1
 40
1.0
176
     1
 90
        0
176
     1
 62
    18
420
        0
176
     1
 90
       50
176
     1
 90
        3
176
     1
 62
     5
420
      255
176
     1
290
     0
176
     1
 90
       50
176
     1
 90
       50
176
     1
 90
       50
176
     1
290
     0
176
     1
 90
       50
176
     1
 62
   256
176
     0
 40
1.0
176
     0
 90
        2
176
     1
  1
strokes_ogs.tif
176
     1
290
     0
176
     1
 40
1.0
176
     1
 40
1.0
176
     1
  0
VISUALSTYLE
  5
37
102
{ACAD_REACTORS
330
2A
102
}
330
2A
100
AcDbVisualStyle
  2
Thicken
 70
    13
177
     3
291
     1
 70
    58
 90
        2
176
     1
 90
        2
176
     1
 90
        0
176
     1
 90
        0
176
     1
 40
0.6
176
     1
 40
30.0
176
     1
 62
     7
420
 16777215
176
     1
 90
        1
176
     1
 90
        4
176
     1
 62
     7
176
     1
 62
   257
176
     1
 90
        1
176
     1
 90
        1
176
     1
 40
1.0
176
     1
 90
       12
176
     1
 62
     7
176
     1
 40
1.0
176
     1
 90
        1
176
     1
 90
        6
176
     1
 90
        2
176
     1
 62
     7
176
     1
 90
        5
176
     1
 90
        0
176
     1
 90
        0
176
     1
290
     0
176
     1
 90
        1
176
     1
 40
0.0
176
     1
 90
        0
176
     1
290
     0
176
     1
290
     1
176
     1
290
     1
176
     1
290
     0
176
     1
290
     0
176
     1
290
     0
176
     1
290
     0
176
     1
290
     0
176
     1
290
     0
176
     1
 90
       50
176
     1
 40
0.0
176
     1
 40
1.0
176
     1
 90
        0
176
     1
 62
    18
420
        0
176
     1
 90
       50
176
     1
 90
        3
176
     1
 62
     5
420
      255
176
     1
290
     0
176
     1
 90
       50
176
     1
 90
       50
176
     1
 90
       50
176
     1
290
     0
176
     1
 90
       50
176
     1
 62
   256
176
     0
 40
1.0
176
     0
 90
        2
176
     1
  1
strokes_ogs.tif
176
     1
290
     0
176
     1
 40
1.0
176
     1
 40
1.0
176
     1
  0
VISUALSTYLE
  5
30
102
{ACAD_REACTORS
330
2A
102
}
330
2A
100
AcDbVisualStyle
  2
Wireframe
 70
     5
177
     3
291
     0
 70
    58
 90
        0
176
     1
 90
        2
176
     1
 90
        0
176
     1
 90
        0
176
     1
 40
0.6
176
     1
 40
30.0
176
     1
 62
     7
420
 16777215
176
     1
 90
        1
176
     1
 90
        4
176
     1
 62
     7
176
     1
 62
   257
176
     1
 90
        1
176
     1
 90
        1
176
     1
 40
1.0
176
     1
 90
        0
176
     1
 62
   257
176
     1
 40
1.0
176
     1
 90
        1
176
     1
 90
        6
176
     1
 90
        2
176
     1
 62
     7
176
     1
 90
        3
176
     1
 90
        0
176
     1
 90
        0
176
     1
290
     0
176
     1
 90
        1
176
     1
 40
0.0
176
     1
 90
        0
176
     1
290
     0
176
     1
290
     1
176
     1
290
     1
176
     1
290
     0
176
     1
290
     0
176
     1
290
     0
176
     1
290
     0
176
     1
290
     0
176
     1
290
     0
176
     1
 90
       50
176
     1
 40
0.0
176
     1
 40
1.0
176
     1
 90
        0
176
     1
 62
    18
420
        0
176
     1
 90
       50
176
     1
 90
        3
176
     1
 62
     5
420
      255
176
     1
290
     0
176
     1
 90
       50
176
     1
 90
       50
176
     1
 90
       50
176
     1
290
     0
176
     1
 90
       50
176
     1
 62
   256
176
     0
 40
1.0
176
     0
 90
        2
176
     1
  1
strokes_ogs.tif
176
     1
290
     0
176
     1
 40
1.0
176
     1
 40
1.0
176
     1
  0
VISUALSTYLE
  5
40
102
{ACAD_REACTORS
330
2A
102
}
330
2A
100
AcDbVisualStyle
  2
X-Ray
 70
    25
177
     3
291
     0
 70
    58
 90
        2
176
     1
 90
        2
176
     1
 90
        1
176
     1
 90
        1
176
     1
 40
0.5
176
     1
 40
30.0
176
     1
 62
     7
420
 16777215
176
     1
 90
        1
176
     1
 90
        0
176
     1
 62
     7
176
     1
 62
   257
176
     1
 90
        1
176
     1
 90
        1
176
     1
 40
1.0
176
     1
 90
        8
176
     1
 62
     7
176
     1
 40
1.0
176
     1
 90
        1
176
     1
 90
        6
176
     1
 90
        2
176
     1
 62
     7
176
     1
 90
        3
176
     1
 90
        0
176
     1
 90
        0
176
     1
290
     0
176
     1
 90
       13
176
     1
 40
0.0
176
     1
 90
        0
176
     1
290
     0
176
     1
290
     1
176
     1
290
     1
176
     1
290
     0
176
     1
290
     0
176
     1
290
     0
176
     1
290
     0
176
     1
290
     0
176
     1
290
     0
176
     1
 90
       50
176
     1
 40
0.0
176
     1
 40
1.0
176
     1
 90
        0
176
     1
 62
    18
420
        0
176
     1
 90
       50
176
     1
 90
        3
176
     1
 62
     5
420
      255
176
     1
290
     0
176
     1
 90
       50
176
     1
 90
       50
176
     1
 90
       50
176
     1
290
     0
176
     1
 90
       50
176
     1
 62
   256
176
     0
 40
1.0
176
     0
 90
        2
176
     1
  1
strokes_ogs.tif
176
     1
290
     0
176
     1
 40
1.0
176
     1
 40
1.0
176
     1
  0
DICTIONARYVAR
  5
7A
102
{ACAD_REACTORS
330
79
102
}
330
79
100
DictionaryVariables
280
     0
  1
1:1
  0
DICTIONARYVAR
  5
7F
102
{ACAD_REACTORS
330
79
102
}
330
79
100
DictionaryVariables
280
     0
  1
Standard
  0
DICTIONARYVAR
  5
7E
102
{ACAD_REACTORS
330
79
102
}
330
79
100
DictionaryVariables
280
     0
  1
Standard
  0
DICTIONARY
  5
7B
330
5A
100
AcDbDictionary
280
     1
281
     1
  3
ACAD_ROUNDTRIP_2008_TABLESTYLE_CELLSTYLEMAP
360
7C
  0
CELLSTYLEMAP
  5
7C
102
{ACAD_REACTORS
330
7B
102
}
330
7B
100
AcDbCellStyleMap
 90
        3
300
CELLSTYLE
  1
TABLEFORMAT_BEGIN
 90
        5
170
     1
 91
        0
 92
    32768
 62
   257
 93
        1
300
CONTENTFORMAT
  1
CONTENTFORMAT_BEGIN
 90
        0
 91
        0
 92
        4
 93
        0
300

 40
0.0
140
1.0
 94
        5
 62
     0
340
11
144
0.25
309
CONTENTFORMAT_END
171
     1
301
MARGIN
  1
CELLMARGIN_BEGIN
 40
0.06
 40
0.06
 40
0.06
 40
0.06
 40
0.06
 40
0.06
309
CELLMARGIN_END
 94
        6
 95
        1
302
GRIDFORMAT
  1
GRIDFORMAT_BEGIN
 90
        0
 91
        1
 62
     0
 92
       -2
340
14
 93
        0
 40
0.045
309
GRIDFORMAT_END
 95
        2
302
GRIDFORMAT
  1
GRIDFORMAT_BEGIN
 90
        0
 91
        1
 62
     0
 92
       -2
340
14
 93
        0
 40
0.045
309
GRIDFORMAT_END
 95
        4
302
GRIDFORMAT
  1
GRIDFORMAT_BEGIN
 90
        0
 91
        1
 62
     0
 92
       -2
340
14
 93
        0
 40
0.045
309
GRIDFORMAT_END
 95
        8
302
GRIDFORMAT
  1
GRIDFORMAT_BEGIN
 90
        0
 91
        1
 62
     0
 92
       -2
340
14
 93
        0
 40
0.045
309
GRIDFORMAT_END
 95
       16
302
GRIDFORMAT
  1
GRIDFORMAT_BEGIN
 90
        0
 91
        1
 62
     0
 92
       -2
340
14
 93
        0
 40
0.045
309
GRIDFORMAT_END
 95
       32
302
GRIDFORMAT
  1
GRIDFORMAT_BEGIN
 90
        0
 91
        1
 62
     0
 92
       -2
340
14
 93
        0
 40
0.045
309
GRIDFORMAT_END
309
TABLEFORMAT_END
  1
CELLSTYLE_BEGIN
 90
        1
 91
        1
300
_TITLE
309
CELLSTYLE_END
300
CELLSTYLE
  1
TABLEFORMAT_BEGIN
 90
        5
170
     1
 91
        0
 92
        0
 62
   257
 93
        1
300
CONTENTFORMAT
  1
CONTENTFORMAT_BEGIN
 90
        0
 91
        0
 92
        4
 93
        0
300

 40
0.0
140
1.0
 94
        5
 62
     0
340
11
144
0.18
309
CONTENTFORMAT_END
171
     1
301
MARGIN
  1
CELLMARGIN_BEGIN
 40
0.06
 40
0.06
 40
0.06
 40
0.06
 40
0.06
 40
0.06
309
CELLMARGIN_END
 94
        6
 95
        1
302
GRIDFORMAT
  1
GRIDFORMAT_BEGIN
 90
        0
 91
        1
 62
     0
 92
       -2
340
14
 93
        0
 40
0.045
309
GRIDFORMAT_END
 95
        2
302
GRIDFORMAT
  1
GRIDFORMAT_BEGIN
 90
        0
 91
        1
 62
     0
 92
       -2
340
14
 93
        0
 40
0.045
309
GRIDFORMAT_END
 95
        4
302
GRIDFORMAT
  1
GRIDFORMAT_BEGIN
 90
        0
 91
        1
 62
     0
 92
       -2
340
14
 93
        0
 40
0.045
309
GRIDFORMAT_END
 95
        8
302
GRIDFORMAT
  1
GRIDFORMAT_BEGIN
 90
        0
 91
        1
 62
     0
 92
       -2
340
14
 93
        0
 40
0.045
309
GRIDFORMAT_END
 95
       16
302
GRIDFORMAT
  1
GRIDFORMAT_BEGIN
 90
        0
 91
        1
 62
     0
 92
       -2
340
14
 93
        0
 40
0.045
309
GRIDFORMAT_END
 95
       32
302
GRIDFORMAT
  1
GRIDFORMAT_BEGIN
 90
        0
 91
        1
 62
     0
 92
       -2
340
14
 93
        0
 40
0.045
309
GRIDFORMAT_END
309
TABLEFORMAT_END
  1
CELLSTYLE_BEGIN
 90
        2
 91
        1
300
_HEADER
309
CELLSTYLE_END
300
CELLSTYLE
  1
TABLEFORMAT_BEGIN
 90
        5
170
     1
 91
        0
 92
        0
 62
   257
 93
        1
300
CONTENTFORMAT
  1
CONTENTFORMAT_BEGIN
 90
        0
 91
        0
 92
        4
 93
        0
300

 40
0.0
140
1.0
 94
        2
 62
     0
340
11
144
0.18
309
CONTENTFORMAT_END
171
     1
301
MARGIN
  1
CELLMARGIN_BEGIN
 40
0.06
 40
0.06
 40
0.06
 40
0.06
 40
0.06
 40
0.06
309
CELLMARGIN_END
 94
        6
 95
        1
302
GRIDFORMAT
  1
GRIDFORMAT_BEGIN
 90
        0
 91
        1
 62
     0
 92
       -2
340
14
 93
        0
 40
0.045
309
GRIDFORMAT_END
 95
        2
302
GRIDFORMAT
  1
GRIDFORMAT_BEGIN
 90
        0
 91
        1
 62
     0
 92
       -2
340
14
 93
        0
 40
0.045
309
GRIDFORMAT_END
 95
        4
302
GRIDFORMAT
  1
GRIDFORMAT_BEGIN
 90
        0
 91
        1
 62
     0
 92
       -2
340
14
 93
        0
 40
0.045
309
GRIDFORMAT_END
 95
        8
302
GRIDFORMAT
  1
GRIDFORMAT_BEGIN
 90
        0
 91
        1
 62
     0
 92
       -2
340
14
 93
        0
 40
0.045
309
GRIDFORMAT_END
 95
       16
302
GRIDFORMAT
  1
GRIDFORMAT_BEGIN
 90
        0
 91
        1
 62
     0
 92
       -2
340
14
 93
        0
 40
0.045
309
GRIDFORMAT_END
 95
       32
302
GRIDFORMAT
  1
GRIDFORMAT_BEGIN
 90
        0
 91
        1
 62
     0
 92
       -2
340
14
 93
        0
 40
0.045
309
GRIDFORMAT_END
309
TABLEFORMAT_END
  1
CELLSTYLE_BEGIN
 90
        3
 91
        2
300
_DATA
309
CELLSTYLE_END
  0
ENDSEC
  0
EOF
