  0
SECTION
  2
HEADER
  9
$ACADVER
  1
AC1027
  9
$ACADMAINTVER
 70
   105
  9
$DWGCODEPAGE
  3
ANSI_1252
  9
$LASTSAVEDBY
  1
Office Desk
  9
$REQUIREDVERSIONS
160
                 0
  9
$INSBASE
 10
0.0
 20
0.0
 30
0.0
  9
$EXTMIN
 10
171.0169
 20
-430.974
 30
0.0
  9
$EXTMAX
 10
704.4755
 20
452.3952
 30
0.0
  9
$LIMMIN
 10
0.0
 20
0.0
  9
$LIMMAX
 10
12.0
 20
9.0
  9
$ORTHOMODE
 70
     0
  9
$REGENMODE
 70
     1
  9
$FILLMODE
 70
     1
  9
$QTEXTMODE
 70
     0
  9
$MIRRTEXT
 70
     1
  9
$LTSCALE
 40
1.0
  9
$ATTMODE
 70
     1
  9
$TEXTSIZE
 40
0.2
  9
$TRACEWID
 40
0.05
  9
$TEXTSTYLE
  7
Standard
  9
$CLAYER
  8
0
  9
$CELTYPE
  6
ByLayer
  9
$CECOLOR
 62
   256
  9
$CELTSCALE
 40
1.0
  9
$DISPSILH
 70
     0
  9
$DIMSCALE
 40
1.0
  9
$DIMASZ
 40
0.18
  9
$DIMEXO
 40
0.0625
  9
$DIMDLI
 40
0.38
  9
$DIMRND
 40
0.0
  9
$DIMDLE
 40
0.0
  9
$DIMEXE
 40
0.18
  9
$DIMTP
 40
0.0
  9
$DIMTM
 40
0.0
  9
$DIMTXT
 40
0.18
  9
$DIMCEN
 40
0.09
  9
$DIMTSZ
 40
0.0
  9
$DIMTOL
 70
     0
  9
$DIMLIM
 70
     0
  9
$DIMTIH
 70
     1
  9
$DIMTOH
 70
     1
  9
$DIMSE1
 70
     0
  9
$DIMSE2
 70
     0
  9
$DIMTAD
 70
     0
  9
$DIMZIN
 70
     0
  9
$DIMBLK
  1

  9
$DIMASO
 70
     1
  9
$DIMSHO
 70
     1
  9
$DIMPOST
  1

  9
$DIMAPOST
  1

  9
$DIMALT
 70
     0
  9
$DIMALTD
 70
     2
  9
$DIMALTF
 40
25.4
  9
$DIMLFAC
 40
1.0
  9
$DIMTOFL
 70
     0
  9
$DIMTVP
 40
0.0
  9
$DIMTIX
 70
     0
  9
$DIMSOXD
 70
     0
  9
$DIMSAH
 70
     0
  9
$DIMBLK1
  1

  9
$DIMBLK2
  1

  9
$DIMSTYLE
  2
Standard
  9
$DIMCLRD
 70
     0
  9
$DIMCLRE
 70
     0
  9
$DIMCLRT
 70
     0
  9
$DIMTFAC
 40
1.0
  9
$DIMGAP
 40
0.09
  9
$DIMJUST
 70
     0
  9
$DIMSD1
 70
     0
  9
$DIMSD2
 70
     0
  9
$DIMTOLJ
 70
     1
  9
$DIMTZIN
 70
     0
  9
$DIMALTZ
 70
     0
  9
$DIMALTTZ
 70
     0
  9
$DIMUPT
 70
     0
  9
$DIMDEC
 70
     4
  9
$DIMTDEC
 70
     4
  9
$DIMALTU
 70
     2
  9
$DIMALTTD
 70
     2
  9
$DIMTXSTY
  7
Standard
  9
$DIMAUNIT
 70
     0
  9
$DIMADEC
 70
     0
  9
$DIMALTRND
 40
0.0
  9
$DIMAZIN
 70
     0
  9
$DIMDSEP
 70
    46
  9
$DIMATFIT
 70
     3
  9
$DIMFRAC
 70
     0
  9
$DIMLDRBLK
  1

  9
$DIMLUNIT
 70
     2
  9
$DIMLWD
 70
    -2
  9
$DIMLWE
 70
    -2
  9
$DIMTMOVE
 70
     0
  9
$DIMFXL
 40
1.0
  9
$DIMFXLON
 70
     0
  9
$DIMJOGANG
 40
0.7853981633974483
  9
$DIMTFILL
 70
     0
  9
$DIMTFILLCLR
 70
     0
  9
$DIMARCSYM
 70
     0
  9
$DIMLTYPE
  6

  9
$DIMLTEX1
  6

  9
$DIMLTEX2
  6

  9
$DIMTXTDIRECTION
 70
     0
  9
$LUNITS
 70
     2
  9
$LUPREC
 70
     4
  9
$SKETCHINC
 40
0.1
  9
$FILLETRAD
 40
0.0
  9
$AUNITS
 70
     0
  9
$AUPREC
 70
     0
  9
$MENU
  1
.
  9
$ELEVATION
 40
0.0
  9
$PELEVATION
 40
0.0
  9
$THICKNESS
 40
0.0
  9
$LIMCHECK
 70
     0
  9
$CHAMFERA
 40
0.0
  9
$CHAMFERB
 40
0.0
  9
$CHAMFERC
 40
0.0
  9
$CHAMFERD
 40
0.0
  9
$SKPOLY
 70
     0
  9
$TDCREATE
 40
2461006.703510313
  9
$TDUCREATE
 40
2461006.474343646
  9
$TDUPDATE
 40
2461006.703510313
  9
$TDUUPDATE
 40
2461006.474343646
  9
$TDINDWG
 40
0.0000000116
  9
$TDUSRTIMER
 40
0.0000000116
  9
$USRTIMER
 70
     1
  9
$ANGBASE
 50
0.0
  9
$ANGDIR
 70
     0
  9
$PDMODE
 70
     0
  9
$PDSIZE
 40
0.0
  9
$PLINEWID
 40
0.0
  9
$SPLFRAME
 70
     0
  9
$SPLINETYPE
 70
     6
  9
$SPLINESEGS
 70
     8
  9
$HANDSEED
  5
8A
  9
$SURFTAB1
 70
     6
  9
$SURFTAB2
 70
     6
  9
$SURFTYPE
 70
     6
  9
$SURFU
 70
     6
  9
$SURFV
 70
     6
  9
$UCSBASE
  2

  9
$UCSNAME
  2

  9
$UCSORG
 10
0.0
 20
0.0
 30
0.0
  9
$UCSXDIR
 10
1.0
 20
0.0
 30
0.0
  9
$UCSYDIR
 10
0.0
 20
1.0
 30
0.0
  9
$UCSORTHOREF
  2

  9
$UCSORTHOVIEW
 70
     0
  9
$UCSORGTOP
 10
0.0
 20
0.0
 30
0.0
  9
$UCSORGBOTTOM
 10
0.0
 20
0.0
 30
0.0
  9
$UCSORGLEFT
 10
0.0
 20
0.0
 30
0.0
  9
$UCSORGRIGHT
 10
0.0
 20
0.0
 30
0.0
  9
$UCSORGFRONT
 10
0.0
 20
0.0
 30
0.0
  9
$UCSORGBACK
 10
0.0
 20
0.0
 30
0.0
  9
$PUCSBASE
  2

  9
$PUCSNAME
  2

  9
$PUCSORG
 10
0.0
 20
0.0
 30
0.0
  9
$PUCSXDIR
 10
1.0
 20
0.0
 30
0.0
  9
$PUCSYDIR
 10
0.0
 20
1.0
 30
0.0
  9
$PUCSORTHOREF
  2

  9
$PUCSORTHOVIEW
 70
     0
  9
$PUCSORGTOP
 10
0.0
 20
0.0
 30
0.0
  9
$PUCSORGBOTTOM
 10
0.0
 20
0.0
 30
0.0
  9
$PUCSORGLEFT
 10
0.0
 20
0.0
 30
0.0
  9
$PUCSORGRIGHT
 10
0.0
 20
0.0
 30
0.0
  9
$PUCSORGFRONT
 10
0.0
 20
0.0
 30
0.0
  9
$PUCSORGBACK
 10
0.0
 20
0.0
 30
0.0
  9
$USERI1
 70
     0
  9
$USERI2
 70
     0
  9
$USERI3
 70
     0
  9
$USERI4
 70
     0
  9
$USERI5
 70
     0
  9
$USERR1
 40
0.0
  9
$USERR2
 40
0.0
  9
$USERR3
 40
0.0
  9
$USERR4
 40
0.0
  9
$USERR5
 40
0.0
  9
$WORLDVIEW
 70
     1
  9
$SHADEDGE
 70
     3
  9
$SHADEDIF
 70
    70
  9
$TILEMODE
 70
     1
  9
$MAXACTVP
 70
    64
  9
$PINSBASE
 10
0.0
 20
0.0
 30
0.0
  9
$PLIMCHECK
 70
     0
  9
$PEXTMIN
 10
1.000000000000000E+20
 20
1.000000000000000E+20
 30
1.000000000000000E+20
  9
$PEXTMAX
 10
-1.000000000000000E+20
 20
-1.000000000000000E+20
 30
-1.000000000000000E+20
  9
$PLIMMIN
 10
0.0
 20
0.0
  9
$PLIMMAX
 10
12.0
 20
9.0
  9
$UNITMODE
 70
     0
  9
$VISRETAIN
 70
     1
  9
$PLINEGEN
 70
     0
  9
$PSLTSCALE
 70
     1
  9
$TREEDEPTH
 70
  3020
  9
$CMLSTYLE
  2
Standard
  9
$CMLJUST
 70
     0
  9
$CMLSCALE
 40
1.0
  9
$PROXYGRAPHICS
 70
     1
  9
$MEASUREMENT
 70
     0
  9
$CELWEIGHT
370
    -1
  9
$ENDCAPS
280
     0
  9
$JOINSTYLE
280
     0
  9
$LWDISPLAY
290
     0
  9
$INSUNITS
 70
     4
  9
$HYPERLINKBASE
  1

  9
$STYLESHEET
  1

  9
$XEDIT
290
     1
  9
$CEPSNTYPE
380
     0
  9
$PSTYLEMODE
290
     1
  9
$FINGERPRINTGUID
  2
{666ca878-4ae8-4dbf-b3a8-b30374fd2870}
  9
$VERSIONGUID
  2
{FAEB1C32-E019-11D5-929B-00C0DF256EC4}
  9
$EXTNAMES
290
     1
  9
$PSVPSCALE
 40
0.0
  9
$OLESTARTUP
290
     0
  9
$SORTENTS
280
   127
  9
$INDEXCTL
280
     0
  9
$HIDETEXT
280
     1
  9
$XCLIPFRAME
280
     2
  9
$HALOGAP
280
     0
  9
$OBSCOLOR
 70
   257
  9
$OBSLTYPE
280
     0
  9
$INTERSECTIONDISPLAY
280
     0
  9
$INTERSECTIONCOLOR
 70
   257
  9
$DIMASSOC
280
     2
  9
$PROJECTNAME
  1

  9
$CAMERADISPLAY
290
     0
  9
$LENSLENGTH
 40
50.0
  9
$CAMERAHEIGHT
 40
0.0
  9
$STEPSPERSEC
 40
2.0
  9
$STEPSIZE
 40
6.0
  9
$3DDWFPREC
 40
2.0
  9
$PSOLWIDTH
 40
0.25
  9
$PSOLHEIGHT
 40
4.0
  9
$LOFTANG1
 40
1.570796326794897
  9
$LOFTANG2
 40
1.570796326794897
  9
$LOFTMAG1
 40
0.0
  9
$LOFTMAG2
 40
0.0
  9
$LOFTPARAM
 70
     7
  9
$LOFTNORMALS
280
     1
  9
$LATITUDE
 40
37.795
  9
$LONGITUDE
 40
-122.394
  9
$NORTHDIRECTION
 40
0.0
  9
$TIMEZONE
 70
 -8000
  9
$LIGHTGLYPHDISPLAY
280
     1
  9
$TILEMODELIGHTSYNCH
280
     1
  9
$CMATERIAL
347
44
  9
$SOLIDHIST
280
     0
  9
$SHOWHIST
280
     1
  9
$DWFFRAME
280
     2
  9
$DGNFRAME
280
     2
  9
$REALWORLDSCALE
290
     1
  9
$INTERFERECOLOR
 62
   256
  9
$CSHADOW
280
     0
  9
$SHADOWPLANELOCATION
 40
0.0
  0
ENDSEC
  0
SECTION
  2
CLASSES
  0
CLASS
  1
ACDBDICTIONARYWDFLT
  2
AcDbDictionaryWithDefault
  3
ObjectDBX Classes
 90
        0
 91
        3
280
     0
281
     0
  0
CLASS
  1
VISUALSTYLE
  2
AcDbVisualStyle
  3
ObjectDBX Classes
 90
     4095
 91
        3
280
     0
281
     0
  0
CLASS
  1
MATERIAL
  2
AcDbMaterial
  3
ObjectDBX Classes
 90
     1153
 91
        3
280
     0
281
     0
  0
CLASS
  1
SCALE
  2
AcDbScale
  3
ObjectDBX Classes
 90
     1153
 91
        3
280
     0
281
     0
  0
CLASS
  1
TABLESTYLE
  2
AcDbTableStyle
  3
ObjectDBX Classes
 90
     4095
 91
        3
280
     0
281
     0
  0
CLASS
  1
MLEADERSTYLE
  2
AcDbMLeaderStyle
  3
ACDB_MLEADERSTYLE_CLASS
 90
     4095
 91
        3
280
     0
281
     0
  0
CLASS
  1
SUN
  2
AcDbSun
  3
SCENEOE
 90
     1153
 91
        3
280
     0
281
     0
  0
CLASS
  1
DICTIONARYVAR
  2
AcDbDictionaryVar
  3
ObjectDBX Classes
 90
        0
 91
        3
280
     0
281
     0
  0
CLASS
  1
CELLSTYLEMAP
  2
AcDbCellStyleMap
  3
ObjectDBX Classes
 90
     1152
 91
        3
280
     0
281
     0
  0
ENDSEC
  0
SECTION
  2
TABLES
  0
TABLE
  2
VPORT
  5
8
330
0
100
AcDbSymbolTable
 70
     1
  0
VPORT
  5
29
330
8
100
AcDbSymbolTableRecord
100
AcDbViewportTableRecord
  2
*Active
 70
     0
 10
0.0
 20
0.0
 11
1.0
 21
1.0
 12
10.42990654205607
 22
4.5
 13
0.0
 23
0.0
 14
0.5
 24
0.5
 15
0.5
 25
0.5
 16
0.0
 26
0.0
 36
1.0
 17
0.0
 27
0.0
 37
0.0
 40
9.0
 41
1.972972972850329
 42
50.0
 43
0.0
 44
0.0
 50
0.0
 51
0.0
 71
     0
 72
   100
 73
     1
 74
     3
 75
     0
 76
     0
 77
     0
 78
     0
281
     0
 65
     1
110
0.0
120
0.0
130
0.0
111
1.0
121
0.0
131
0.0
112
0.0
122
1.0
132
0.0
 79
     0
146
0.0
348
2F
 60
     3
 61
     5
292
     1
282
     1
141
0.0
142
0.0
 63
   250
361
5D
  0
ENDTAB
  0
TABLE
  2
LTYPE
  5
5
330
0
100
AcDbSymbolTable
 70
     1
  0
LTYPE
  5
14
330
5
100
AcDbSymbolTableRecord
100
AcDbLinetypeTableRecord
  2
ByBlock
 70
     0
  3

 72
    65
 73
     0
 40
0.0
  0
LTYPE
  5
15
330
5
100
AcDbSymbolTableRecord
100
AcDbLinetypeTableRecord
  2
ByLayer
 70
     0
  3

 72
    65
 73
     0
 40
0.0
  0
LTYPE
  5
16
330
5
100
AcDbSymbolTableRecord
100
AcDbLinetypeTableRecord
  2
Continuous
 70
     0
  3
Solid line
 72
    65
 73
     0
 40
0.0
  0
ENDTAB
  0
TABLE
  2
LAYER
  5
2
330
0
100
AcDbSymbolTable
 70
     2
  0
LAYER
  5
10
330
2
100
AcDbSymbolTableRecord
100
AcDbLayerTableRecord
  2
0
 70
     0
 62
     7
  6
Continuous
370
    -3
390
F
347
46
348
0
  0
LAYER
  5
5F
330
2
100
AcDbSymbolTableRecord
100
AcDbLayerTableRecord
  2
Layer 1
 70
     0
 62
     7
  6
Continuous
370
    -3
390
F
347
46
348
0
  0
ENDTAB
  0
TABLE
  2
STYLE
  5
3
330
0
100
AcDbSymbolTable
 70
     1
  0
STYLE
  5
11
330
3
100
AcDbSymbolTableRecord
100
AcDbTextStyleTableRecord
  2
Standard
 70
     0
 40
0.0
 41
1.0
 50
0.0
 71
     0
 42
0.2
  3
txt
  4

  0
ENDTAB
  0
TABLE
  2
VIEW
  5
6
330
0
100
AcDbSymbolTable
 70
     0
  0
ENDTAB
  0
TABLE
  2
UCS
  5
7
330
0
100
AcDbSymbolTable
 70
     0
  0
ENDTAB
  0
TABLE
  2
APPID
  5
9
330
0
100
AcDbSymbolTable
 70
     2
  0
APPID
  5
12
330
9
100
AcDbSymbolTableRecord
100
AcDbRegAppTableRecord
  2
ACAD
 70
     0
  0
APPID
  5
5E
330
9
100
AcDbSymbolTableRecord
100
AcDbRegAppTableRecord
  2
ODA
 70
     0
  0
ENDTAB
  0
TABLE
  2
DIMSTYLE
  5
A
330
0
100
AcDbSymbolTable
 70
     1
100
AcDbDimStyleTable
  0
DIMSTYLE
105
27
330
A
100
AcDbSymbolTableRecord
100
AcDbDimStyleTableRecord
  2
Standard
 70
     0
178
     0
340
11
  0
ENDTAB
  0
TABLE
  2
BLOCK_RECORD
  5
1
330
0
100
AcDbSymbolTable
 70
     1
  0
BLOCK_RECORD
  5
1F
330
1
100
AcDbSymbolTableRecord
100
AcDbBlockTableRecord
  2
*Model_Space
340
22
 70
     0
280
     1
281
     0
  0
BLOCK_RECORD
  5
1B
330
1
100
AcDbSymbolTableRecord
100
AcDbBlockTableRecord
  2
*Paper_Space
340
1E
 70
     0
280
     1
281
     0
  0
BLOCK_RECORD
  5
23
330
1
100
AcDbSymbolTableRecord
100
AcDbBlockTableRecord
  2
*Paper_Space0
340
26
 70
     0
280
     1
281
     0
  0
ENDTAB
  0
ENDSEC
  0
SECTION
  2
BLOCKS
  0
BLOCK
  5
20
330
1F
100
AcDbEntity
  8
0
100
AcDbBlockBegin
  2
*Model_Space
 70
     0
 10
0.0
 20
0.0
 30
0.0
  3
*Model_Space
  1

  0
ENDBLK
  5
21
330
1F
100
AcDbEntity
  8
0
100
AcDbBlockEnd
  0
BLOCK
  5
1C
330
1B
100
AcDbEntity
 67
     1
  8
0
100
AcDbBlockBegin
  2
*Paper_Space
 70
     0
 10
0.0
 20
0.0
 30
0.0
  3
*Paper_Space
  1

  0
ENDBLK
  5
1D
330
1B
100
AcDbEntity
 67
     1
  8
0
100
AcDbBlockEnd
  0
BLOCK
  5
24
330
23
100
AcDbEntity
  8
0
100
AcDbBlockBegin
  2
*Paper_Space0
 70
     0
 10
0.0
 20
0.0
 30
0.0
  3
*Paper_Space0
  1

  0
ENDBLK
  5
25
330
23
100
AcDbEntity
  8
0
100
AcDbBlockEnd
  0
ENDSEC
  0
SECTION
  2
ENTITIES
  0
LWPOLYLINE
  5
60
330
1F
100
AcDbEntity
  8
Layer 1
 62
   250
370
    18
100
AcDbPolyline
 90
        5
 70
     1
 43
0.0
 10
171.1051
 20
-430.8858
 10
704.3873
 20
-430.8858
 10
704.3873
 20
452.307
 10
171.1051
 20
452.307
 10
171.1051
 20
-430.8858
  0
LWPOLYLINE
  5
61
330
1F
100
AcDbEntity
  8
Layer 1
 62
     7
370
    18
100
AcDbPolyline
 90
       75
 70
     1
 43
0.0
 10
584.8415
 20
322.6871
 10
569.2996
 20
334.2624
 10
568.6576
 20
334.4424
 10
566.8554
 20
334.9256
 10
564.0783
 20
335.6269
 10
560.5118
 20
336.461
 10
556.3414
 20
337.3427
 10
551.7526
 20
338.1869
 10
546.9307
 20
338.9084
 10
542.0612
 20
339.4219
 10
512.051
 20
341.2629
 10
476.5108
 20
342.5782
 10
437.2811
 20
343.3678
 10
396.2027
 20
343.6313
 10
355.1158
 20
343.3687
 10
315.8612
 20
342.5797
 10
280.2792
 20
341.2641
 10
250.2106
 20
339.4219
 10
245.3352
 20
338.9081
 10
240.5049
 20
338.1866
 10
235.9061
 20
337.3423
 10
231.7255
 20
336.4607
 10
228.1492
 20
335.6267
 10
225.364
 20
334.9255
 10
223.5561
 20
334.4424
 10
222.912
 20
334.2624
 10
207.2357
 20
322.6871
 10
208.0961
 20
209.7688
 10
210.3645
 20
94.1731
 10
213.5716
 20
-18.8109
 10
217.248
 20
-123.8946
 10
220.9244
 20
-215.789
 10
224.1315
 20
-289.2052
 10
226.3999
 20
-338.8545
 10
227.2603
 20
-359.4479
 10
227.1858
 20
-364.6562
 10
227.3736
 20
-371.305
 10
228.441
 20
-378.8375
 10
231.0048
 20
-386.6971
 10
235.6823
 20
-394.327
 10
243.0905
 20
-401.1707
 10
253.8466
 20
-406.6714
 10
268.5675
 20
-410.2725
 10
286.806
 20
-412.4758
 10
306.8355
 20
-414.1938
 10
327.3544
 20
-415.4856
 10
347.0613
 20
-416.4101
 10
364.6546
 20
-417.0265
 10
378.8326
 20
-417.3936
 10
388.2939
 20
-417.5706
 10
391.7369
 20
-417.6165
 10
395.1804
 20
-417.5706
 10
404.6438
 20
-417.3936
 10
418.8261
 20
-417.0265
 10
436.4266
 20
-416.4101
 10
456.1442
 20
-415.4856
 10
476.6782
 20
-414.1938
 10
496.7276
 20
-412.4758
 10
514.9917
 20
-410.2725
 10
529.7545
 20
-406.6714
 10
540.5745
 20
-401.1707
 10
548.0622
 20
-394.327
 10
552.8284
 20
-386.6971
 10
555.4836
 20
-378.8375
 10
556.6384
 20
-371.305
 10
556.9035
 20
-364.6562
 10
556.8894
 20
-359.4479
 10
557.9891
 20
-338.8545
 10
560.8344
 20
-289.2052
 10
564.8947
 20
-215.789
 10
569.6391
 20
-123.8946
 10
574.5367
 20
-18.8109
 10
579.0569
 20
94.1731
 10
582.6687
 20
209.7688
 10
584.8415
 20
322.6871
  0
LWPOLYLINE
  5
62
330
1F
100
AcDbEntity
  8
Layer 1
 62
     7
370
    18
100
AcDbPolyline
 90
        9
 70
     0
 43
0.0
 10
211.8817
 20
321.2672
 10
220.117
 20
320.8293
 10
243.394
 20
319.7469
 10
279.5689
 20
318.3667
 10
326.4982
 20
317.0358
 10
382.0382
 20
316.1008
 10
444.0453
 20
315.9088
 10
510.3759
 20
316.8065
 10
578.8864
 20
319.1409
  0
LWPOLYLINE
  5
63
330
1F
100
AcDbEntity
  8
Layer 1
 62
     7
100
AcDbPolyline
 90
       65
 70
     1
 43
0.0
 10
599.7366
 20
-3.2265
 10
600.1998
 20
-3.251
 10
600.6449
 20
-3.3244
 10
601.072
 20
-3.4467
 10
601.4809
 20
-3.6179
 10
601.8718
 20
-3.838
 10
602.2446
 20
-4.107
 10
602.5994
 20
-4.4249
 10
602.9362
 20
-4.7916
 10
603.2399
 20
-5.1892
 10
603.503
 20
-5.6095
 10
603.7256
 20
-6.0524
 10
603.9077
 20
-6.5181
 10
604.0493
 20
-7.0064
 10
604.1504
 20
-7.5173
 10
604.2111
 20
-8.051
 10
604.2313
 20
-8.6072
 10
604.2113
 20
-9.1586
 10
604.1514
 20
-9.6915
 10
604.0515
 20
-10.2059
 10
603.9116
 20
-10.7017
 10
603.7317
 20
-11.179
 10
603.5118
 20
-11.6378
 10
603.2518
 20
-12.0781
 10
602.9519
 20
-12.4998
 10
602.6234
 20
-12.8846
 10
602.2739
 20
-13.2181
 10
601.9035
 20
-13.5002
 10
601.5121
 20
-13.7309
 10
601.0997
 20
-13.9104
 10
600.6664
 20
-14.0385
 10
600.212
 20
-14.1154
 10
599.7366
 20
-14.141
 10
599.2614
 20
-14.1154
 10
598.8071
 20
-14.0385
 10
598.3737
 20
-13.9104
 10
597.9614
 20
-13.7309
 10
597.57
 20
-13.5002
 10
597.1996
 20
-13.2181
 10
596.8503
 20
-12.8846
 10
596.522
 20
-12.4998
 10
596.222
 20
-12.0781
 10
595.962
 20
-11.6378
 10
595.742
 20
-11.179
 10
595.562
 20
-10.7017
 10
595.422
 20
-10.2059
 10
595.3219
 20
-9.6915
 10
595.2619
 20
-9.1586
 10
595.2419
 20
-8.6072
 10
595.2621
 20
-8.051
 10
595.3229
 20
-7.5173
 10
595.4241
 20
-7.0064
 10
595.5658
 20
-6.5181
 10
595.7479
 20
-6.0524
 10
595.9705
 20
-5.6095
 10
596.2335
 20
-5.1892
 10
596.537
 20
-4.7916
 10
596.8738
 20
-4.4249
 10
597.2286
 20
-4.107
 10
597.6015
 20
-3.838
 10
597.9925
 20
-3.6179
 10
598.4015
 20
-3.4467
 10
598.8285
 20
-3.3244
 10
599.2736
 20
-3.251
 10
599.7366
 20
-3.2265
  0
LWPOLYLINE
  5
64
330
1F
100
AcDbEntity
  8
Layer 1
 62
     7
100
AcDbPolyline
 90
       65
 70
     1
 43
0.0
 10
599.7366
 20
7.3059
 10
600.11
 20
7.2868
 10
600.4693
 20
7.2297
 10
600.8144
 20
7.1343
 10
601.1453
 20
7.0009
 10
601.462
 20
6.8292
 10
601.7647
 20
6.6194
 10
602.0532
 20
6.3715
 10
602.3276
 20
6.0853
 10
602.5836
 20
5.7636
 10
602.8055
 20
5.4233
 10
602.9933
 20
5.0646
 10
603.147
 20
4.6873
 10
603.2665
 20
4.2916
 10
603.3519
 20
3.8774
 10
603.4032
 20
3.4447
 10
603.4203
 20
2.9936
 10
603.4032
 20
2.5525
 10
603.3519
 20
2.1257
 10
603.2665
 20
1.7132
 10
603.147
 20
1.3149
 10
602.9933
 20
0.9308
 10
602.8055
 20
0.5611
 10
602.5836
 20
0.2056
 10
602.3276
 20
-0.1357
 10
602.055
 20
-0.4397
 10
601.7678
 20
-0.7032
 10
601.4659
 20
-0.9262
 10
601.1493
 20
-1.1087
 10
600.8181
 20
-1.2507
 10
600.4722
 20
-1.3521
 10
600.1117
 20
-1.4129
 10
599.7366
 20
-1.4332
 10
599.3615
 20
-1.4129
 10
599.0011
 20
-1.3521
 10
598.6553
 20
-1.2507
 10
598.3242
 20
-1.1087
 10
598.0076
 20
-0.9262
 10
597.7057
 20
-0.7032
 10
597.4184
 20
-0.4397
 10
597.1456
 20
-0.1357
 10
596.8897
 20
0.2056
 10
596.6679
 20
0.5611
 10
596.4802
 20
0.9308
 10
596.3266
 20
1.3149
 10
596.2072
 20
1.7132
 10
596.1219
 20
2.1257
 10
596.0707
 20
2.5525
 10
596.0536
 20
2.9936
 10
596.0707
 20
3.4447
 10
596.1219
 20
3.8774
 10
596.2072
 20
4.2916
 10
596.3266
 20
4.6873
 10
596.4802
 20
5.0646
 10
596.6679
 20
5.4233
 10
596.8897
 20
5.7636
 10
597.1456
 20
6.0853
 10
597.42
 20
6.3715
 10
597.7086
 20
6.6194
 10
598.0113
 20
6.8292
 10
598.3282
 20
7.0009
 10
598.6591
 20
7.1343
 10
599.0042
 20
7.2297
 10
599.3634
 20
7.2868
 10
599.7366
 20
7.3059
  0
LWPOLYLINE
  5
65
330
1F
100
AcDbEntity
  8
Layer 1
 62
     7
100
AcDbPolyline
 90
      121
 70
     1
 43
0.0
 10
599.7366
 20
-16.8121
 10
600.4519
 20
-16.779
 10
601.1384
 20
-16.6798
 10
601.7961
 20
-16.5144
 10
602.425
 20
-16.2828
 10
603.0252
 20
-15.985
 10
603.5966
 20
-15.621
 10
604.1392
 20
-15.1908
 10
604.6532
 20
-14.6944
 10
604.8848
 20
-14.4351
 10
605.1036
 20
-14.1626
 10
605.3099
 20
-13.877
 10
605.5035
 20
-13.5783
 10
605.6844
 20
-13.2665
 10
605.8527
 20
-12.9416
 10
606.0084
 20
-12.6036
 10
606.1515
 20
-12.2524
 10
606.2795
 20
-11.8878
 10
606.3903
 20
-11.5102
 10
606.4841
 20
-11.1196
 10
606.5608
 20
-10.7158
 10
606.6204
 20
-10.299
 10
606.663
 20
-9.8692
 10
606.6886
 20
-9.4262
 10
606.6971
 20
-8.9701
 10
606.6827
 20
-8.508
 10
606.6396
 20
-8.0471
 10
606.5677
 20
-7.5874
 10
606.467
 20
-7.1288
 10
606.3376
 20
-6.6715
 10
606.1794
 20
-6.2153
 10
605.9924
 20
-5.7603
 10
605.7767
 20
-5.3066
 10
605.5339
 20
-4.8639
 10
605.2664
 20
-4.442
 10
604.9739
 20
-4.0409
 10
604.6567
 20
-3.6607
 10
604.3146
 20
-3.3014
 10
603.9477
 20
-2.963
 10
603.5559
 20
-2.6454
 10
603.1393
 20
-2.3487
 10
603.7319
 20
-1.7028
 10
604.2454
 20
-1.0431
 10
604.6799
 20
-0.3697
 10
605.0354
 20
0.3175
 10
605.3119
 20
1.0184
 10
605.5093
 20
1.733
 10
605.6278
 20
2.4614
 10
605.6673
 20
3.2034
 10
605.6402
 20
3.9356
 10
605.5591
 20
4.6337
 10
605.4238
 20
5.2977
 10
605.2344
 20
5.9277
 10
604.9908
 20
6.5237
 10
604.6931
 20
7.0856
 10
604.3412
 20
7.6137
 10
603.9352
 20
8.1077
 10
603.5059
 20
8.5371
 10
603.0493
 20
8.9092
 10
602.5654
 20
9.224
 10
602.0542
 20
9.4816
 10
601.5157
 20
9.6819
 10
600.95
 20
9.825
 10
600.3569
 20
9.9108
 10
599.7366
 20
9.9394
 10
599.1163
 20
9.9108
 10
598.5232
 20
9.825
 10
597.9575
 20
9.6819
 10
597.4191
 20
9.4816
 10
596.908
 20
9.224
 10
596.4242
 20
8.9092
 10
595.9678
 20
8.5371
 10
595.5387
 20
8.1077
 10
595.1326
 20
7.6139
 10
594.7807
 20
7.0868
 10
594.4828
 20
6.5263
 10
594.2391
 20
5.9324
 10
594.0496
 20
5.3051
 10
593.9141
 20
4.6444
 10
593.8329
 20
3.9503
 10
593.8058
 20
3.2227
 10
593.8453
 20
2.4761
 10
593.9639
 20
1.7438
 10
594.1615
 20
1.0259
 10
594.4381
 20
0.3223
 10
594.7937
 20
-0.367
 10
595.2284
 20
-1.0419
 10
595.742
 20
-1.7025
 10
596.3346
 20
-2.3487
 10
595.9177
 20
-2.6454
 10
595.5258
 20
-2.963
 10
595.1587
 20
-3.3014
 10
594.8165
 20
-3.6607
 10
594.4992
 20
-4.0409
 10
594.2068
 20
-4.442
 10
593.9392
 20
-4.8639
 10
593.6964
 20
-5.3066
 10
593.4807
 20
-5.7612
 10
593.2937
 20
-6.2189
 10
593.1355
 20
-6.6795
 10
593.0061
 20
-7.1431
 10
592.9054
 20
-7.6097
 10
592.8335
 20
-8.0792
 10
592.7904
 20
-8.5516
 10
592.776
 20
-9.0269
 10
592.8079
 20
-9.8794
 10
592.9038
 20
-10.6908
 10
593.0635
 20
-11.4609
 10
593.2872
 20
-12.1899
 10
593.5747
 20
-12.8777
 10
593.9261
 20
-13.5244
 10
594.3414
 20
-14.1299
 10
594.8206
 20
-14.6944
 10
595.3343
 20
-15.1908
 10
595.8769
 20
-15.621
 10
596.4481
 20
-15.985
 10
597.0482
 20
-16.2828
 10
597.6771
 20
-16.5144
 10
598.3348
 20
-16.6798
 10
599.0213
 20
-16.779
 10
599.7366
 20
-16.8121
  0
LWPOLYLINE
  5
66
330
1F
100
AcDbEntity
  8
Layer 1
 62
     7
100
AcDbPolyline
 90
      136
 70
     1
 43
0.0
 10
613.5332
 20
-0.0972
 10
614.9692
 20
6.8486
 10
622.6478
 20
6.8486
 10
622.6478
 20
9.5197
 10
613.3144
 20
9.5197
 10
610.88
 20
-2.1196
 10
613.2522
 20
-3.4171
 10
613.5962
 20
-3.1309
 10
613.9573
 20
-2.883
 10
614.3355
 20
-2.6732
 10
614.7308
 20
-2.5016
 10
615.1432
 20
-2.3681
 10
615.5726
 20
-2.2728
 10
616.019
 20
-2.2156
 10
616.4825
 20
-2.1965
 10
616.9488
 20
-2.2245
 10
617.3995
 20
-2.3085
 10
617.8346
 20
-2.4485
 10
618.2541
 20
-2.6446
 10
618.6579
 20
-2.8968
 10
619.0462
 20
-3.205
 10
619.4188
 20
-3.5693
 10
619.7758
 20
-3.9898
 10
620.1124
 20
-4.4588
 10
620.4041
 20
-4.9451
 10
620.6509
 20
-5.4487
 10
620.8529
 20
-5.9696
 10
621.0099
 20
-6.5077
 10
621.1221
 20
-7.0632
 10
621.1894
 20
-7.636
 10
621.2118
 20
-8.226
 10
621.1889
 20
-8.8364
 10
621.1201
 20
-9.4223
 10
621.0055
 20
-9.9837
 10
620.845
 20
-10.5207
 10
620.6387
 20
-11.0331
 10
620.3866
 20
-11.5211
 10
620.0887
 20
-11.9847
 10
619.745
 20
-12.4238
 10
619.57
 20
-12.6191
 10
619.3887
 20
-12.8043
 10
619.2011
 20
-12.9793
 10
619.0073
 20
-13.1443
 10
618.807
 20
-13.299
 10
618.6005
 20
-13.4436
 10
618.3875
 20
-13.578
 10
618.1681
 20
-13.7021
 10
617.9394
 20
-13.814
 10
617.6981
 20
-13.9109
 10
617.4441
 20
-13.993
 10
617.1773
 20
-14.0601
 10
616.8979
 20
-14.1123
 10
616.6058
 20
-14.1497
 10
616.3009
 20
-14.172
 10
615.9833
 20
-14.1795
 10
615.6598
 20
-14.1628
 10
615.3367
 20
-14.1126
 10
615.0141
 20
-14.0291
 10
614.6919
 20
-13.9121
 10
614.3702
 20
-13.7618
 10
614.049
 20
-13.5782
 10
613.7283
 20
-13.3612
 10
613.4081
 20
-13.111
 10
613.0999
 20
-12.8337
 10
612.815
 20
-12.5361
 10
612.5536
 20
-12.2182
 10
612.3156
 20
-11.8801
 10
612.101
 20
-11.5216
 10
611.9099
 20
-11.1429
 10
611.7422
 20
-10.7439
 10
611.598
 20
-10.3245
 10
609.4755
 20
-11.1647
 10
609.684
 20
-11.7928
 10
609.9271
 20
-12.3893
 10
610.2048
 20
-12.9542
 10
610.5172
 20
-13.4875
 10
610.8642
 20
-13.9892
 10
611.2458
 20
-14.4592
 10
611.662
 20
-14.8978
 10
612.1129
 20
-15.3047
 10
612.5924
 20
-15.6761
 10
613.0825
 20
-15.9979
 10
613.5834
 20
-16.2702
 10
614.095
 20
-16.493
 10
614.6172
 20
-16.6663
 10
615.1503
 20
-16.7901
 10
615.694
 20
-16.8643
 10
616.2486
 20
-16.8891
 10
616.9875
 20
-16.8482
 10
617.6981
 20
-16.7257
 10
618.3805
 20
-16.5214
 10
619.0345
 20
-16.2354
 10
619.6602
 20
-15.8677
 10
620.2577
 20
-15.4184
 10
620.8268
 20
-14.8874
 10
621.3677
 20
-14.2748
 10
621.858
 20
-13.6095
 10
622.2828
 20
-12.9116
 10
622.6424
 20
-12.1809
 10
622.9365
 20
-11.4174
 10
623.1653
 20
-10.6211
 10
623.3288
 20
-9.792
 10
623.4268
 20
-8.9301
 10
623.4595
 20
-8.0354
 10
623.4273
 20
-7.1453
 10
623.3307
 20
-6.2929
 10
623.1696
 20
-5.478
 10
622.9442
 20
-4.7008
 10
622.6544
 20
-3.9611
 10
622.3003
 20
-3.259
 10
621.8819
 20
-2.5944
 10
621.3991
 20
-1.9674
 10
621.1523
 20
-1.6886
 10
620.8958
 20
-1.4248
 10
620.6294
 20
-1.1758
 10
620.3533
 20
-0.9418
 10
620.0675
 20
-0.7227
 10
619.7718
 20
-0.5185
 10
619.4665
 20
-0.3293
 10
619.1514
 20
-0.1549
 10
618.83
 20
0.0018
 10
618.5059
 20
0.1376
 10
618.1789
 20
0.2524
 10
617.8492
 20
0.3463
 10
617.5167
 20
0.4193
 10
617.1817
 20
0.4714
 10
616.8441
 20
0.5027
 10
616.504
 20
0.5131
 10
616.157
 20
0.5036
 10
615.8032
 20
0.4749
 10
615.4425
 20
0.4272
 10
615.0749
 20
0.3604
 10
614.7002
 20
0.2746
 10
614.3184
 20
0.1697
 10
613.9294
 20
0.0458
 10
613.5332
 20
-0.0972
  0
LWPOLYLINE
  5
67
330
1F
100
AcDbEntity
  8
Layer 1
 62
     7
100
AcDbPolyline
 90
      129
 70
     1
 43
0.0
 10
635.5548
 20
6.505
 10
635.9151
 20
6.2057
 10
636.2511
 20
5.8658
 10
636.5627
 20
5.4853
 10
636.85
 20
5.0643
 10
637.1129
 20
4.6026
 10
637.3514
 20
4.1005
 10
637.5656
 20
3.5577
 10
637.7553
 20
2.9744
 10
637.9675
 20
2.2008
 10
638.1514
 20
1.4159
 10
638.307
 20
0.6197
 10
638.4344
 20
-0.1878
 10
638.5334
 20
-1.0067
 10
638.6041
 20
-1.837
 10
638.6466
 20
-2.6787
 10
638.6607
 20
-3.5317
 10
638.6592
 20
-3.7365
 10
638.6548
 20
-3.9504
 10
638.6475
 20
-4.1732
 10
638.6372
 20
-4.4049
 10
638.624
 20
-4.6456
 10
638.6079
 20
-4.8952
 10
638.5889
 20
-5.1537
 10
638.567
 20
-5.4211
 10
638.4587
 20
-6.4469
 10
638.3172
 20
-7.4161
 10
638.1425
 20
-8.3287
 10
637.9347
 20
-9.1846
 10
637.6938
 20
-9.984
 10
637.4197
 20
-10.7267
 10
637.1124
 20
-11.4129
 10
636.772
 20
-12.0425
 10
636.4614
 20
-12.5165
 10
636.1343
 20
-12.9273
 10
635.7905
 20
-13.2749
 10
635.4301
 20
-13.5593
 10
635.0531
 20
-13.7805
 10
634.6596
 20
-13.9385
 10
634.2494
 20
-14.0333
 10
633.8227
 20
-14.0649
 10
633.3464
 20
-14.0336
 10
632.8929
 20
-13.9397
 10
632.4625
 20
-13.7831
 10
632.0549
 20
-13.5639
 10
631.6702
 20
-13.2821
 10
631.3085
 20
-12.9377
 10
630.9698
 20
-12.5306
 10
630.6539
 20
-12.0609
 10
630.5203
 20
-11.8333
 10
630.3926
 20
-11.5986
 10
630.2707
 20
-11.3566
 10
630.1546
 20
-11.1074
 10
630.0445
 20
-10.851
 10
629.9402
 20
-10.5874
 10
629.8417
 20
-10.3166
 10
629.7492
 20
-10.0385
 10
629.6621
 20
-9.7563
 10
629.5803
 20
-9.4723
 10
629.5039
 20
-9.1864
 10
629.4329
 20
-8.8987
 10
629.3673
 20
-8.6092
 10
629.3071
 20
-8.3178
 10
629.2523
 20
-8.0245
 10
629.2029
 20
-7.7294
 10
629.1577
 20
-7.4349
 10
629.116
 20
-7.1428
 10
629.0777
 20
-6.8531
 10
629.0428
 20
-6.5659
 10
629.0114
 20
-6.281
 10
628.9834
 20
-5.9984
 10
628.9588
 20
-5.7183
 10
628.9375
 20
-5.4404
 10
628.9192
 20
-5.1583
 10
628.9033
 20
-4.8655
 10
628.8899
 20
-4.5622
 10
628.879
 20
-4.2484
 10
628.8705
 20
-3.9242
 10
628.8644
 20
-3.5896
 10
628.8608
 20
-3.2448
 10
628.8596
 20
-2.8899
 10
628.865
 20
-2.5189
 10
628.8811
 20
-2.1263
 10
628.9079
 20
-1.7122
 10
628.9454
 20
-1.2764
 10
628.9937
 20
-0.8189
 10
629.0527
 20
-0.3395
 10
629.1224
 20
0.1619
 10
629.2029
 20
0.6853
 10
629.252
 20
0.9759
 10
629.3061
 20
1.2658
 10
629.3651
 20
1.5552
 10
629.429
 20
1.8441
 10
629.4978
 20
2.1323
 10
629.5715
 20
2.42
 10
629.6501
 20
2.7071
 10
629.7335
 20
2.9936
 10
629.8225
 20
3.2763
 10
629.9177
 20
3.5518
 10
630.0194
 20
3.8202
 10
630.1273
 20
4.0814
 10
630.2417
 20
4.3354
 10
630.3624
 20
4.5823
 10
630.4896
 20
4.8219
 10
630.6231
 20
5.0544
 10
630.763
 20
5.2779
 10
630.9098
 20
5.49
 10
631.0634
 20
5.6908
 10
631.2238
 20
5.8801
 10
631.3911
 20
6.0581
 10
631.5652
 20
6.2248
 10
631.7462
 20
6.3802
 10
631.934
 20
6.5242
 10
632.1296
 20
6.6539
 10
632.334
 20
6.7664
 10
632.5471
 20
6.8615
 10
632.769
 20
6.9393
 10
632.9997
 20
6.9999
 10
633.2391
 20
7.0431
 10
633.4872
 20
7.0691
 10
633.744
 20
7.0777
 10
634.0011
 20
7.0687
 10
634.2494
 20
7.0418
 10
634.4889
 20
6.997
 10
634.7197
 20
6.9343
 10
634.9416
 20
6.8537
 10
635.1548
 20
6.7553
 10
635.3592
 20
6.6391
 10
635.5548
 20
6.505
  0
LWPOLYLINE
  5
68
330
1F
100
AcDbEntity
  8
Layer 1
 62
     7
100
AcDbPolyline
 90
       65
 70
     1
 43
0.0
 10
633.8535
 20
-16.7745
 10
634.7647
 20
-16.7038
 10
635.618
 20
-16.4919
 10
636.4132
 20
-16.1386
 10
637.1504
 20
-15.644
 10
637.8296
 20
-15.008
 10
638.4507
 20
-14.2308
 10
639.0138
 20
-13.3123
 10
639.5189
 20
-12.2524
 10
639.8737
 20
-11.3274
 10
640.1812
 20
-10.3512
 10
640.4414
 20
-9.3237
 10
640.6543
 20
-8.245
 10
640.8199
 20
-7.1149
 10
640.9382
 20
-5.9336
 10
641.0091
 20
-4.701
 10
641.0328
 20
-3.4171
 10
641.0091
 20
-2.1335
 10
640.9382
 20
-0.9011
 10
640.8199
 20
0.2801
 10
640.6543
 20
1.41
 10
640.4414
 20
2.4887
 10
640.1812
 20
3.5161
 10
639.8737
 20
4.4923
 10
639.5189
 20
5.4173
 10
639.0138
 20
6.4772
 10
638.4507
 20
7.3957
 10
637.8296
 20
8.1729
 10
637.1504
 20
8.8089
 10
636.4132
 20
9.3035
 10
635.618
 20
9.6568
 10
634.7647
 20
9.8687
 10
633.8535
 20
9.9394
 10
632.9423
 20
9.8687
 10
632.089
 20
9.6568
 10
631.2938
 20
9.3035
 10
630.5566
 20
8.8089
 10
629.8774
 20
8.1729
 10
629.2562
 20
7.3957
 10
628.6931
 20
6.4772
 10
628.1881
 20
5.4173
 10
627.8333
 20
4.4923
 10
627.5258
 20
3.5161
 10
627.2656
 20
2.4887
 10
627.0527
 20
1.41
 10
626.8871
 20
0.2801
 10
626.7688
 20
-0.9011
 10
626.6978
 20
-2.1335
 10
626.6741
 20
-3.4171
 10
626.6978
 20
-4.701
 10
626.7688
 20
-5.9336
 10
626.8871
 20
-7.1149
 10
627.0527
 20
-8.245
 10
627.2656
 20
-9.3237
 10
627.5258
 20
-10.3512
 10
627.8333
 20
-11.3274
 10
628.1881
 20
-12.2524
 10
628.6931
 20
-13.3123
 10
629.2562
 20
-14.2308
 10
629.8774
 20
-15.008
 10
630.5566
 20
-15.644
 10
631.2938
 20
-16.1386
 10
632.089
 20
-16.4919
 10
632.9423
 20
-16.7038
 10
633.8535
 20
-16.7745
  0
LWPOLYLINE
  5
69
330
1F
100
AcDbEntity
  8
Layer 1
 62
     7
100
AcDbPolyline
 90
      165
 70
     1
 43
0.0
 10
662.3521
 20
-16.3548
 10
664.5369
 20
-16.3548
 10
664.5369
 20
-5.86
 10
664.5191
 20
-5.1633
 10
664.4657
 20
-4.4993
 10
664.3767
 20
-3.8681
 10
664.2521
 20
-3.2698
 10
664.0919
 20
-2.7042
 10
663.8961
 20
-2.1714
 10
663.6647
 20
-1.6714
 10
663.3977
 20
-1.2041
 10
663.2485
 20
-0.9806
 10
663.0902
 20
-0.7685
 10
662.9226
 20
-0.5678
 10
662.7458
 20
-0.3784
 10
662.5598
 20
-0.2004
 10
662.3644
 20
-0.0337
 10
662.1598
 20
0.1216
 10
661.9459
 20
0.2656
 10
661.7186
 20
0.395
 10
661.4738
 20
0.5072
 10
661.2114
 20
0.6022
 10
660.9315
 20
0.6799
 10
660.634
 20
0.7404
 10
660.319
 20
0.7836
 10
659.9863
 20
0.8096
 10
659.636
 20
0.8182
 10
659.2828
 20
0.8033
 10
658.9407
 20
0.7587
 10
658.6099
 20
0.6842
 10
658.2903
 20
0.5799
 10
657.9818
 20
0.4458
 10
657.6846
 20
0.2819
 10
657.3985
 20
0.088
 10
657.1237
 20
-0.1357
 10
656.885
 20
-0.3585
 10
656.6572
 20
-0.5979
 10
656.4401
 20
-0.8538
 10
656.2338
 20
-1.126
 10
656.0382
 20
-1.4143
 10
655.8534
 20
-1.7185
 10
655.6793
 20
-2.0385
 10
655.516
 20
-2.374
 10
655.389
 20
-2.0642
 10
655.2504
 20
-1.7651
 10
655.1002
 20
-1.478
 10
654.9382
 20
-1.2041
 10
654.7893
 20
-0.9806
 10
654.6311
 20
-0.7685
 10
654.4637
 20
-0.5678
 10
654.287
 20
-0.3784
 10
654.101
 20
-0.2004
 10
653.9057
 20
-0.0337
 10
653.7011
 20
0.1216
 10
653.4872
 20
0.2656
 10
653.2598
 20
0.395
 10
653.0149
 20
0.5072
 10
652.7525
 20
0.6022
 10
652.4725
 20
0.6799
 10
652.1749
 20
0.7404
 10
651.8599
 20
0.7836
 10
651.5273
 20
0.8096
 10
651.1772
 20
0.8182
 10
650.8237
 20
0.8033
 10
650.4815
 20
0.7587
 10
650.1506
 20
0.6842
 10
649.8309
 20
0.5799
 10
649.5224
 20
0.4458
 10
649.2251
 20
0.2819
 10
648.939
 20
0.088
 10
648.6642
 20
-0.1357
 10
648.4371
 20
-0.3479
 10
648.2197
 20
-0.5745
 10
648.012
 20
-0.8156
 10
647.8141
 20
-1.0714
 10
647.6258
 20
-1.3417
 10
647.4473
 20
-1.6268
 10
647.2786
 20
-1.9265
 10
647.1195
 20
-2.2411
 10
647.1195
 20
0.437
 10
644.9347
 20
0.437
 10
644.9347
 20
-16.3548
 10
647.1195
 20
-16.3548
 10
647.1195
 20
-7.7617
 10
647.1702
 20
-7.261
 10
647.2365
 20
-6.7799
 10
647.3185
 20
-6.3181
 10
647.416
 20
-5.8756
 10
647.5291
 20
-5.4521
 10
647.6578
 20
-5.0477
 10
647.8021
 20
-4.662
 10
647.9619
 20
-4.295
 10
648.0922
 20
-4.034
 10
648.2332
 20
-3.7848
 10
648.3849
 20
-3.5475
 10
648.5473
 20
-3.322
 10
648.7204
 20
-3.1084
 10
648.9043
 20
-2.9068
 10
649.0989
 20
-2.7171
 10
649.3043
 20
-2.5393
 10
649.517
 20
-2.3785
 10
649.7337
 20
-2.2391
 10
649.9542
 20
-2.1212
 10
650.1786
 20
-2.0246
 10
650.4068
 20
-1.9495
 10
650.639
 20
-1.8958
 10
650.8751
 20
-1.8636
 10
651.115
 20
-1.8529
 10
651.3491
 20
-1.8586
 10
651.5676
 20
-1.8755
 10
651.7704
 20
-1.9038
 10
651.9576
 20
-1.9434
 10
652.1292
 20
-1.9943
 10
652.2852
 20
-2.0565
 10
652.4256
 20
-2.1301
 10
652.5503
 20
-2.2149
 10
652.8651
 20
-2.4994
 10
653.1378
 20
-2.8328
 10
653.3685
 20
-3.2151
 10
653.5573
 20
-3.6463
 10
653.704
 20
-4.1264
 10
653.8089
 20
-4.6554
 10
653.8717
 20
-5.2333
 10
653.8927
 20
-5.86
 10
653.8927
 20
-16.3548
 10
656.0781
 20
-16.3548
 10
656.0781
 20
-5.86
 10
656.0624
 20
-5.2174
 10
656.1431
 20
-4.9742
 10
656.2298
 20
-4.7398
 10
656.3226
 20
-4.5136
 10
656.4214
 20
-4.295
 10
656.5515
 20
-4.034
 10
656.6924
 20
-3.7848
 10
656.844
 20
-3.5475
 10
657.0064
 20
-3.322
 10
657.1795
 20
-3.1084
 10
657.3633
 20
-2.9068
 10
657.5578
 20
-2.7171
 10
657.763
 20
-2.5393
 10
657.9757
 20
-2.3785
 10
658.1924
 20
-2.2391
 10
658.4129
 20
-2.1212
 10
658.6373
 20
-2.0246
 10
658.8656
 20
-1.9495
 10
659.0978
 20
-1.8958
 10
659.3338
 20
-1.8636
 10
659.5738
 20
-1.8529
 10
659.8079
 20
-1.8586
 10
660.0264
 20
-1.8755
 10
660.2293
 20
-1.9038
 10
660.4165
 20
-1.9434
 10
660.5882
 20
-1.9943
 10
660.7443
 20
-2.0565
 10
660.8848
 20
-2.1301
 10
661.0098
 20
-2.2149
 10
661.3244
 20
-2.4994
 10
661.597
 20
-2.8328
 10
661.8277
 20
-3.2151
 10
662.0165
 20
-3.6463
 10
662.1633
 20
-4.1264
 10
662.2682
 20
-4.6554
 10
662.3311
 20
-5.2333
 10
662.3521
 20
-5.86
 10
662.3521
 20
-16.3548
  0
LWPOLYLINE
  5
6A
330
1F
100
AcDbEntity
  8
Layer 1
 62
     7
100
AcDbPolyline
 90
      165
 70
     1
 43
0.0
 10
686.1688
 20
-16.3548
 10
688.3535
 20
-16.3548
 10
688.3535
 20
-5.86
 10
688.3357
 20
-5.1633
 10
688.2823
 20
-4.4993
 10
688.1933
 20
-3.8681
 10
688.0687
 20
-3.2698
 10
687.9085
 20
-2.7042
 10
687.7127
 20
-2.1714
 10
687.4813
 20
-1.6714
 10
687.2143
 20
-1.2041
 10
687.0651
 20
-0.9806
 10
686.9068
 20
-0.7685
 10
686.7392
 20
-0.5678
 10
686.5624
 20
-0.3784
 10
686.3764
 20
-0.2004
 10
686.181
 20
-0.0337
 10
685.9764
 20
0.1216
 10
685.7625
 20
0.2656
 10
685.5352
 20
0.395
 10
685.2904
 20
0.5072
 10
685.028
 20
0.6022
 10
684.7481
 20
0.6799
 10
684.4506
 20
0.7404
 10
684.1356
 20
0.7836
 10
683.8029
 20
0.8096
 10
683.4526
 20
0.8182
 10
683.0994
 20
0.8033
 10
682.7573
 20
0.7587
 10
682.4265
 20
0.6842
 10
682.1069
 20
0.5799
 10
681.7984
 20
0.4458
 10
681.5012
 20
0.2819
 10
681.2151
 20
0.088
 10
680.9403
 20
-0.1357
 10
680.7016
 20
-0.3585
 10
680.4738
 20
-0.5979
 10
680.2567
 20
-0.8538
 10
680.0504
 20
-1.126
 10
679.8548
 20
-1.4143
 10
679.67
 20
-1.7185
 10
679.4959
 20
-2.0385
 10
679.3326
 20
-2.374
 10
679.2056
 20
-2.0642
 10
679.067
 20
-1.7651
 10
678.9168
 20
-1.478
 10
678.7548
 20
-1.2041
 10
678.6059
 20
-0.9806
 10
678.4477
 20
-0.7685
 10
678.2803
 20
-0.5678
 10
678.1036
 20
-0.3784
 10
677.9176
 20
-0.2004
 10
677.7223
 20
-0.0337
 10
677.5177
 20
0.1216
 10
677.3038
 20
0.2656
 10
677.0764
 20
0.395
 10
676.8315
 20
0.5072
 10
676.5691
 20
0.6022
 10
676.2891
 20
0.6799
 10
675.9915
 20
0.7404
 10
675.6765
 20
0.7836
 10
675.3439
 20
0.8096
 10
674.9938
 20
0.8182
 10
674.6404
 20
0.8033
 10
674.2982
 20
0.7587
 10
673.9672
 20
0.6842
 10
673.6475
 20
0.5799
 10
673.339
 20
0.4458
 10
673.0417
 20
0.2819
 10
672.7557
 20
0.088
 10
672.4808
 20
-0.1357
 10
672.2537
 20
-0.3479
 10
672.0363
 20
-0.5745
 10
671.8286
 20
-0.8156
 10
671.6307
 20
-1.0714
 10
671.4424
 20
-1.3417
 10
671.2639
 20
-1.6268
 10
671.0952
 20
-1.9265
 10
670.9361
 20
-2.2411
 10
670.9361
 20
0.437
 10
668.7513
 20
0.437
 10
668.7513
 20
-16.3548
 10
670.9361
 20
-16.3548
 10
670.9361
 20
-7.7617
 10
670.9868
 20
-7.261
 10
671.0531
 20
-6.7799
 10
671.1351
 20
-6.3181
 10
671.2326
 20
-5.8756
 10
671.3457
 20
-5.4521
 10
671.4744
 20
-5.0477
 10
671.6187
 20
-4.662
 10
671.7785
 20
-4.295
 10
671.9088
 20
-4.034
 10
672.0498
 20
-3.7848
 10
672.2015
 20
-3.5475
 10
672.3639
 20
-3.322
 10
672.537
 20
-3.1084
 10
672.7209
 20
-2.9068
 10
672.9155
 20
-2.7171
 10
673.1209
 20
-2.5393
 10
673.3336
 20
-2.3785
 10
673.5503
 20
-2.2391
 10
673.7708
 20
-2.1212
 10
673.9952
 20
-2.0246
 10
674.2234
 20
-1.9495
 10
674.4556
 20
-1.8958
 10
674.6917
 20
-1.8636
 10
674.9316
 20
-1.8529
 10
675.1657
 20
-1.8586
 10
675.3842
 20
-1.8755
 10
675.587
 20
-1.9038
 10
675.7742
 20
-1.9434
 10
675.9458
 20
-1.9943
 10
676.1018
 20
-2.0565
 10
676.2422
 20
-2.1301
 10
676.3669
 20
-2.2149
 10
676.6817
 20
-2.4994
 10
676.9544
 20
-2.8328
 10
677.1851
 20
-3.2151
 10
677.3739
 20
-3.6463
 10
677.5206
 20
-4.1264
 10
677.6255
 20
-4.6554
 10
677.6883
 20
-5.2333
 10
677.7093
 20
-5.86
 10
677.7093
 20
-16.3548
 10
679.8948
 20
-16.3548
 10
679.8948
 20
-5.86
 10
679.879
 20
-5.2174
 10
679.9597
 20
-4.9742
 10
680.0464
 20
-4.7398
 10
680.1392
 20
-4.5136
 10
680.238
 20
-4.295
 10
680.3681
 20
-4.034
 10
680.509
 20
-3.7848
 10
680.6606
 20
-3.5475
 10
680.823
 20
-3.322
 10
680.9961
 20
-3.1084
 10
681.1799
 20
-2.9068
 10
681.3744
 20
-2.7171
 10
681.5796
 20
-2.5393
 10
681.7923
 20
-2.3785
 10
682.009
 20
-2.2391
 10
682.2295
 20
-2.1212
 10
682.4539
 20
-2.0246
 10
682.6822
 20
-1.9495
 10
682.9144
 20
-1.8958
 10
683.1504
 20
-1.8636
 10
683.3904
 20
-1.8529
 10
683.6245
 20
-1.8586
 10
683.843
 20
-1.8755
 10
684.0459
 20
-1.9038
 10
684.2331
 20
-1.9434
 10
684.4048
 20
-1.9943
 10
684.5609
 20
-2.0565
 10
684.7014
 20
-2.1301
 10
684.8264
 20
-2.2149
 10
685.141
 20
-2.4994
 10
685.4136
 20
-2.8328
 10
685.6443
 20
-3.2151
 10
685.8331
 20
-3.6463
 10
685.98
 20
-4.1264
 10
686.0849
 20
-4.6554
 10
686.1478
 20
-5.2333
 10
686.1688
 20
-5.86
 10
686.1688
 20
-16.3548
  0
LWPOLYLINE
  5
6B
330
1F
100
AcDbEntity
  8
Layer 1
 62
     7
370
    18
100
AcDbPolyline
 90
        2
 70
     0
 43
0.0
 10
653.1417
 20
327.4341
 10
634.9305
 20
327.4341
  0
LWPOLYLINE
  5
6C
330
1F
100
AcDbEntity
  8
Layer 1
 62
     7
370
    18
100
AcDbPolyline
 90
        2
 70
     0
 43
0.0
 10
644.0358
 20
327.4395
 10
644.0358
 20
28.1914
  0
LWPOLYLINE
  5
6D
330
1F
100
AcDbEntity
  8
Layer 1
 62
     7
370
    18
100
AcDbPolyline
 90
        2
 70
     0
 43
0.0
 10
653.1417
 20
-403.8181
 10
634.9305
 20
-403.8181
  0
LWPOLYLINE
  5
6E
330
1F
100
AcDbEntity
  8
Layer 1
 62
     7
370
    18
100
AcDbPolyline
 90
        2
 70
     0
 43
0.0
 10
644.0358
 20
-403.8263
 10
644.0358
 20
-49.2522
  0
LWPOLYLINE
  5
6F
330
1F
100
AcDbEntity
  8
Layer 1
 62
     7
100
AcDbPolyline
 90
        4
 70
     1
 43
0.0
 10
344.2952
 20
428.3019
 10
344.2952
 20
413.0749
 10
336.0558
 20
413.0749
 10
344.2952
 20
428.3019
  0
LWPOLYLINE
  5
70
330
1F
100
AcDbEntity
  8
Layer 1
 62
     7
100
AcDbPolyline
 90
       11
 70
     1
 43
0.0
 10
346.6078
 20
410.2857
 10
349.3338
 20
410.2857
 10
349.3338
 20
413.0749
 10
346.6078
 20
413.0749
 10
346.5766
 20
431.2452
 10
343.4716
 20
431.2452
 10
332.1261
 20
410.2857
 10
344.2952
 20
410.2857
 10
344.2952
 20
404.9007
 10
346.6078
 20
404.9007
 10
346.6078
 20
410.2857
  0
LWPOLYLINE
  5
71
330
1F
100
AcDbEntity
  8
Layer 1
 62
     7
100
AcDbPolyline
 90
       65
 70
     1
 43
0.0
 10
359.157
 20
418.3059
 10
359.627
 20
418.2811
 10
360.0787
 20
418.2066
 10
360.5122
 20
418.0825
 10
360.9273
 20
417.9087
 10
361.3242
 20
417.6853
 10
361.7027
 20
417.4122
 10
362.0629
 20
417.0895
 10
362.4047
 20
416.7171
 10
362.7129
 20
416.3132
 10
362.98
 20
415.8864
 10
363.2061
 20
415.4367
 10
363.391
 20
414.964
 10
363.5349
 20
414.4683
 10
363.6376
 20
413.9496
 10
363.6993
 20
413.408
 10
363.7198
 20
412.8433
 10
363.6995
 20
412.2836
 10
363.6386
 20
411.7427
 10
363.537
 20
411.2205
 10
363.3949
 20
410.7171
 10
363.2122
 20
410.2325
 10
362.9888
 20
409.7668
 10
362.7249
 20
409.3198
 10
362.4203
 20
408.8917
 10
362.0871
 20
408.501
 10
361.7325
 20
408.1625
 10
361.3566
 20
407.876
 10
360.9593
 20
407.6417
 10
360.5407
 20
407.4595
 10
360.1007
 20
407.3294
 10
359.6395
 20
407.2513
 10
359.157
 20
407.2253
 10
358.6745
 20
407.2513
 10
358.2132
 20
407.3294
 10
357.7733
 20
407.4595
 10
357.3546
 20
407.6417
 10
356.9572
 20
407.876
 10
356.5811
 20
408.1625
 10
356.2263
 20
408.501
 10
355.8927
 20
408.8917
 10
355.5882
 20
409.3198
 10
355.3244
 20
409.7668
 10
355.1012
 20
410.2325
 10
354.9186
 20
410.7171
 10
354.7767
 20
411.2205
 10
354.6754
 20
411.7427
 10
354.6146
 20
412.2836
 10
354.5943
 20
412.8433
 10
354.6148
 20
413.408
 10
354.6765
 20
413.9496
 10
354.7792
 20
414.4683
 10
354.9229
 20
414.964
 10
355.1077
 20
415.4367
 10
355.3336
 20
415.8864
 10
355.6004
 20
416.3132
 10
355.9083
 20
416.7171
 10
356.2505
 20
417.0895
 10
356.6108
 20
417.4122
 10
356.9894
 20
417.6853
 10
357.3863
 20
417.9087
 10
357.8014
 20
418.0825
 10
358.2349
 20
418.2066
 10
358.6867
 20
418.2811
 10
359.157
 20
418.3059
  0
LWPOLYLINE
  5
72
330
1F
100
AcDbEntity
  8
Layer 1
 62
     7
100
AcDbPolyline
 90
       65
 70
     1
 43
0.0
 10
359.157
 20
428.9982
 10
359.536
 20
428.9789
 10
359.9007
 20
428.9208
 10
360.251
 20
428.8241
 10
360.5869
 20
428.6886
 10
360.9085
 20
428.5143
 10
361.2158
 20
428.3011
 10
361.5087
 20
428.0492
 10
361.7872
 20
427.7583
 10
362.0471
 20
427.4319
 10
362.2724
 20
427.0866
 10
362.463
 20
426.7225
 10
362.6189
 20
426.3396
 10
362.7402
 20
425.9379
 10
362.8269
 20
425.5174
 10
362.8789
 20
425.0782
 10
362.8962
 20
424.6202
 10
362.8789
 20
424.1725
 10
362.8269
 20
423.7392
 10
362.7402
 20
423.3204
 10
362.6189
 20
422.9161
 10
362.463
 20
422.5263
 10
362.2724
 20
422.151
 10
362.0471
 20
421.7902
 10
361.7872
 20
421.444
 10
361.5104
 20
421.1352
 10
361.2187
 20
420.8676
 10
360.9122
 20
420.6411
 10
360.5908
 20
420.4558
 10
360.2546
 20
420.3117
 10
359.9036
 20
420.2088
 10
359.5377
 20
420.147
 10
359.157
 20
420.1264
 10
358.7763
 20
420.147
 10
358.4104
 20
420.2088
 10
358.0594
 20
420.3117
 10
357.7232
 20
420.4558
 10
357.4019
 20
420.6411
 10
357.0953
 20
420.8676
 10
356.8037
 20
421.1352
 10
356.5268
 20
421.444
 10
356.2669
 20
421.7902
 10
356.0416
 20
422.151
 10
355.851
 20
422.5263
 10
355.6951
 20
422.9161
 10
355.5738
 20
423.3204
 10
355.4872
 20
423.7392
 10
355.4352
 20
424.1725
 10
355.4179
 20
424.6202
 10
355.4352
 20
425.0782
 10
355.4872
 20
425.5174
 10
355.5738
 20
425.9379
 10
355.6951
 20
426.3396
 10
355.851
 20
426.7225
 10
356.0416
 20
427.0866
 10
356.2669
 20
427.4319
 10
356.5268
 20
427.7583
 10
356.8054
 20
428.0492
 10
357.0983
 20
428.3011
 10
357.4055
 20
428.5143
 10
357.7271
 20
428.6886
 10
358.0631
 20
428.8241
 10
358.4134
 20
428.9208
 10
358.778
 20
428.9789
 10
359.157
 20
428.9982
  0
LWPOLYLINE
  5
73
330
1F
100
AcDbEntity
  8
Layer 1
 62
     7
100
AcDbPolyline
 90
      121
 70
     1
 43
0.0
 10
359.157
 20
404.5137
 10
359.8831
 20
404.5473
 10
360.5801
 20
404.6481
 10
361.2478
 20
404.8161
 10
361.8863
 20
405.0512
 10
362.4955
 20
405.3536
 10
363.0756
 20
405.7232
 10
363.6263
 20
406.1599
 10
364.1478
 20
406.6639
 10
364.383
 20
406.927
 10
364.6054
 20
407.2035
 10
364.8149
 20
407.4935
 10
365.0115
 20
407.7967
 10
365.1952
 20
408.1133
 10
365.366
 20
408.4432
 10
365.524
 20
408.7863
 10
365.669
 20
409.1425
 10
365.7989
 20
409.5125
 10
365.9115
 20
409.8958
 10
366.0068
 20
410.2925
 10
366.0846
 20
410.7025
 10
366.1452
 20
411.1258
 10
366.1884
 20
411.5623
 10
366.2144
 20
412.0122
 10
366.223
 20
412.4753
 10
366.2084
 20
412.9445
 10
366.1646
 20
413.4124
 10
366.0917
 20
413.8792
 10
365.9895
 20
414.3447
 10
365.8582
 20
414.8089
 10
365.6976
 20
415.2719
 10
365.5079
 20
415.7335
 10
365.289
 20
416.1939
 10
365.0425
 20
416.6435
 10
364.7708
 20
417.0718
 10
364.4739
 20
417.479
 10
364.1518
 20
417.8649
 10
363.8045
 20
418.2297
 10
363.4319
 20
418.5733
 10
363.034
 20
418.8957
 10
362.6109
 20
419.197
 10
363.2124
 20
419.8528
 10
363.7337
 20
420.5225
 10
364.1748
 20
421.2062
 10
364.5358
 20
421.9038
 10
364.8166
 20
422.6155
 10
365.0171
 20
423.341
 10
365.1375
 20
424.0806
 10
365.1776
 20
424.8341
 10
365.1501
 20
425.5769
 10
365.0677
 20
426.2853
 10
364.9303
 20
426.9593
 10
364.7379
 20
427.5988
 10
364.4906
 20
428.2039
 10
364.1883
 20
428.7744
 10
363.8311
 20
429.3103
 10
363.4189
 20
429.8117
 10
362.9833
 20
430.2476
 10
362.5199
 20
430.6254
 10
362.0287
 20
430.9451
 10
361.5097
 20
431.2067
 10
360.9631
 20
431.4101
 10
360.3887
 20
431.5554
 10
359.7867
 20
431.6425
 10
359.157
 20
431.6716
 10
358.527
 20
431.6425
 10
357.9249
 20
431.5554
 10
357.3505
 20
431.4101
 10
356.8039
 20
431.2067
 10
356.2851
 20
430.9451
 10
355.7941
 20
430.6254
 10
355.3308
 20
430.2476
 10
354.8952
 20
429.8117
 10
354.483
 20
429.3107
 10
354.1258
 20
428.7757
 10
353.8235
 20
428.2069
 10
353.5762
 20
427.6041
 10
353.3838
 20
426.9673
 10
353.2464
 20
426.2966
 10
353.164
 20
425.5919
 10
353.1365
 20
424.8532
 10
353.1766
 20
424.0952
 10
353.2968
 20
423.3518
 10
353.4973
 20
422.6229
 10
353.7779
 20
421.9086
 10
354.1388
 20
421.2089
 10
354.58
 20
420.5237
 10
355.1014
 20
419.8531
 10
355.7032
 20
419.197
 10
355.2801
 20
418.8957
 10
354.8822
 20
418.5733
 10
354.5096
 20
418.2297
 10
354.1623
 20
417.8649
 10
353.8401
 20
417.479
 10
353.5433
 20
417.0718
 10
353.2716
 20
416.6435
 10
353.0251
 20
416.1939
 10
352.8061
 20
415.7326
 10
352.6163
 20
415.2681
 10
352.4556
 20
414.8005
 10
352.324
 20
414.3297
 10
352.2217
 20
413.856
 10
352.1485
 20
413.3792
 10
352.1046
 20
412.8994
 10
352.09
 20
412.4168
 10
352.1225
 20
411.5516
 10
352.2198
 20
410.728
 10
352.3821
 20
409.9462
 10
352.6092
 20
409.2062
 10
352.9012
 20
408.5078
 10
353.2581
 20
407.8514
 10
353.6798
 20
407.2367
 10
354.1663
 20
406.6639
 10
354.6878
 20
406.1599
 10
355.2385
 20
405.7232
 10
355.8185
 20
405.3536
 10
356.4278
 20
405.0512
 10
357.0663
 20
404.8161
 10
357.734
 20
404.6481
 10
358.4309
 20
404.5473
 10
359.157
 20
404.5137
  0
LWPOLYLINE
  5
74
330
1F
100
AcDbEntity
  8
Layer 1
 62
     7
100
AcDbPolyline
 90
       87
 70
     1
 43
0.0
 10
369.4873
 20
404.9007
 10
384.6667
 20
404.9007
 10
384.6667
 20
407.6123
 10
374.8425
 20
407.6123
 10
382.3531
 20
416.7171
 10
382.8433
 20
417.3727
 10
383.2681
 20
418.061
 10
383.6276
 20
418.782
 10
383.9218
 20
419.5357
 10
384.1507
 20
420.322
 10
384.3141
 20
421.1411
 10
384.4122
 20
421.9929
 10
384.4449
 20
422.8774
 10
384.4115
 20
423.7816
 10
384.3112
 20
424.6496
 10
384.144
 20
425.4814
 10
383.91
 20
426.2769
 10
383.6091
 20
427.036
 10
383.2413
 20
427.7588
 10
382.8067
 20
428.4451
 10
382.3052
 20
429.095
 10
381.7484
 20
429.6991
 10
381.1668
 20
430.2226
 10
380.5603
 20
430.6655
 10
379.929
 20
431.0278
 10
379.2729
 20
431.3095
 10
378.5921
 20
431.5107
 10
377.8865
 20
431.6314
 10
377.1562
 20
431.6716
 10
376.398
 20
431.6292
 10
375.6679
 20
431.5021
 10
374.9661
 20
431.2903
 10
374.2925
 20
430.9937
 10
373.6471
 20
430.6124
 10
373.0299
 20
430.1464
 10
372.4409
 20
429.5956
 10
371.8801
 20
428.96
 10
371.3806
 20
428.2762
 10
370.9519
 20
427.5567
 10
370.5941
 20
426.8015
 10
370.3072
 20
426.0107
 10
370.091
 20
425.1841
 10
369.9457
 20
424.3219
 10
369.8711
 20
423.424
 10
369.8674
 20
422.4904
 10
372.1175
 20
422.4904
 10
372.0989
 20
423.0959
 10
372.1337
 20
423.6875
 10
372.222
 20
424.2651
 10
372.3636
 20
424.8288
 10
372.5587
 20
425.3786
 10
372.8073
 20
425.9146
 10
373.1094
 20
426.4366
 10
373.4649
 20
426.9448
 10
373.845
 20
427.399
 10
374.2449
 20
427.7927
 10
374.6646
 20
428.1257
 10
375.1042
 20
428.3981
 10
375.5637
 20
428.61
 10
376.043
 20
428.7614
 10
376.5423
 20
428.8521
 10
377.0614
 20
428.8824
 10
377.5707
 20
428.8552
 10
378.0606
 20
428.7735
 10
378.5312
 20
428.6374
 10
378.9825
 20
428.4469
 10
379.4145
 20
428.2018
 10
379.8271
 20
427.9023
 10
380.2204
 20
427.5482
 10
380.5944
 20
427.1396
 10
380.9396
 20
426.6877
 10
381.2389
 20
426.2141
 10
381.4921
 20
425.7189
 10
381.6993
 20
425.2019
 10
381.8605
 20
424.6631
 10
381.9757
 20
424.1025
 10
382.0448
 20
423.52
 10
382.0678
 20
422.9156
 10
382.0455
 20
422.2984
 10
381.9787
 20
421.7054
 10
381.8674
 20
421.1365
 10
381.7115
 20
420.5918
 10
381.5111
 20
420.0712
 10
381.2661
 20
419.5749
 10
380.9765
 20
419.1027
 10
380.6423
 20
418.6547
 10
369.4873
 20
404.9007
  0
LWPOLYLINE
  5
75
330
1F
100
AcDbEntity
  8
Layer 1
 62
     7
100
AcDbPolyline
 90
       13
 70
     1
 43
0.0
 10
397.5637
 20
404.9007
 10
400.3834
 20
404.9007
 10
395.5031
 20
413.4238
 10
400.3834
 20
421.9481
 10
397.5637
 20
421.9481
 10
394.0776
 20
415.3995
 10
390.5915
 20
421.9481
 10
387.7718
 20
421.9481
 10
392.6521
 20
413.4632
 10
387.7718
 20
404.9007
 10
390.5915
 20
404.9007
 10
394.0776
 20
411.5256
 10
397.5637
 20
404.9007
  0
LWPOLYLINE
  5
76
330
1F
100
AcDbEntity
  8
Layer 1
 62
     7
100
AcDbPolyline
 90
      137
 70
     1
 43
0.0
 10
412.4724
 20
405.191
 10
412.7962
 20
405.3683
 10
413.1102
 20
405.5614
 10
413.4143
 20
405.7703
 10
413.7085
 20
405.9949
 10
413.9928
 20
406.2353
 10
414.2672
 20
406.4914
 10
414.5316
 20
406.7633
 10
414.7861
 20
407.0509
 10
415.2872
 20
407.7011
 10
415.7216
 20
408.3876
 10
416.0892
 20
409.1104
 10
416.39
 20
409.8696
 10
416.6239
 20
410.665
 10
416.7911
 20
411.4969
 10
416.8914
 20
412.3651
 10
416.9248
 20
413.2697
 10
416.8909
 20
414.1745
 10
416.7891
 20
415.0442
 10
416.6195
 20
415.8788
 10
416.3822
 20
416.6783
 10
416.077
 20
417.4427
 10
415.704
 20
418.1721
 10
415.2633
 20
418.8663
 10
414.7548
 20
419.5255
 10
414.2288
 20
420.0945
 10
413.6693
 20
420.5958
 10
413.0761
 20
421.0293
 10
412.4492
 20
421.3949
 10
411.7887
 20
421.6928
 10
411.0944
 20
421.9229
 10
410.3665
 20
422.0853
 10
409.6048
 20
422.1798
 10
408.6541
 20
421.4822
 10
415.4035
 20
431.2452
 10
403.806
 20
431.2452
 10
403.806
 20
428.5336
 10
410.9043
 20
428.5336
 10
404.3766
 20
419.2352
 10
406.0562
 20
417.5701
 10
406.4454
 20
418.0056
 10
406.8524
 20
418.3831
 10
407.2772
 20
418.7025
 10
407.7198
 20
418.9639
 10
408.1801
 20
419.1672
 10
408.6584
 20
419.3125
 10
409.1544
 20
419.3996
 10
409.6683
 20
419.4287
 10
410.1815
 20
419.4006
 10
410.6753
 20
419.3162
 10
411.1499
 20
419.1756
 10
411.6052
 20
418.9787
 10
412.0411
 20
418.7254
 10
412.4579
 20
418.4158
 10
412.8554
 20
418.0498
 10
413.2336
 20
417.6274
 10
413.5788
 20
417.166
 10
413.878
 20
416.6822
 10
414.1313
 20
416.1759
 10
414.3385
 20
415.6472
 10
414.4996
 20
415.096
 10
414.6148
 20
414.5224
 10
414.6839
 20
413.9264
 10
414.7069
 20
413.3079
 10
414.6834
 20
412.7033
 10
414.6128
 20
412.1192
 10
414.4952
 20
411.5556
 10
414.3305
 20
411.0126
 10
414.1188
 20
410.4901
 10
413.86
 20
409.9881
 10
413.5542
 20
409.5067
 10
413.2013
 20
409.0458
 10
413.0273
 20
408.8475
 10
412.846
 20
408.6596
 10
412.6571
 20
408.4819
 10
412.4608
 20
408.3145
 10
412.2571
 20
408.1575
 10
412.0459
 20
408.0108
 10
411.8271
 20
407.8745
 10
411.6009
 20
407.7485
 10
411.3653
 20
407.6348
 10
411.1179
 20
407.5363
 10
410.8585
 20
407.453
 10
410.5872
 20
407.3848
 10
410.304
 20
407.3317
 10
410.0089
 20
407.2938
 10
409.7019
 20
407.2711
 10
409.383
 20
407.2635
 10
409.0581
 20
407.2801
 10
408.7333
 20
407.3301
 10
408.4085
 20
407.4133
 10
408.0837
 20
407.5299
 10
407.7589
 20
407.6797
 10
407.4342
 20
407.8629
 10
407.1096
 20
408.0793
 10
406.7851
 20
408.329
 10
406.4721
 20
408.6072
 10
406.1828
 20
408.9091
 10
405.9173
 20
409.2345
 10
405.6756
 20
409.5836
 10
405.4577
 20
409.9563
 10
405.2637
 20
410.3527
 10
405.0935
 20
410.7727
 10
404.9473
 20
411.2163
 10
402.7919
 20
410.3252
 10
402.9967
 20
409.6935
 10
403.2386
 20
409.0923
 10
403.5176
 20
408.5214
 10
403.8338
 20
407.9809
 10
404.1871
 20
407.4706
 10
404.5775
 20
406.9907
 10
405.0052
 20
406.541
 10
405.47
 20
406.1216
 10
405.6984
 20
405.9377
 10
405.9323
 20
405.7642
 10
406.1717
 20
405.601
 10
406.4165
 20
405.4481
 10
406.6668
 20
405.3055
 10
406.9225
 20
405.1731
 10
407.1837
 20
405.0509
 10
407.4504
 20
404.9389
 10
407.7235
 20
404.8391
 10
408.004
 20
404.7527
 10
408.2918
 20
404.6796
 10
408.587
 20
404.6198
 10
408.8896
 20
404.5734
 10
409.1997
 20
404.5402
 10
409.5172
 20
404.5203
 10
409.8422
 20
404.5137
 10
410.171
 20
404.5243
 10
410.4997
 20
404.556
 10
410.8285
 20
404.6088
 10
411.1573
 20
404.6829
 10
411.4861
 20
404.7781
 10
411.8149
 20
404.8945
 10
412.1436
 20
405.0321
 10
412.4724
 20
405.191
  0
LWPOLYLINE
  5
77
330
1F
100
AcDbEntity
  8
Layer 1
 62
     7
100
AcDbPolyline
 90
      137
 70
     1
 43
0.0
 10
428.9503
 20
405.191
 10
429.2741
 20
405.3683
 10
429.5881
 20
405.5614
 10
429.8922
 20
405.7703
 10
430.1864
 20
405.9949
 10
430.4707
 20
406.2353
 10
430.745
 20
406.4914
 10
431.0094
 20
406.7633
 10
431.2639
 20
407.0509
 10
431.7651
 20
407.7011
 10
432.1995
 20
408.3876
 10
432.5671
 20
409.1104
 10
432.8679
 20
409.8696
 10
433.1018
 20
410.665
 10
433.269
 20
411.4969
 10
433.3693
 20
412.3651
 10
433.4027
 20
413.2697
 10
433.3688
 20
414.1745
 10
433.267
 20
415.0442
 10
433.0974
 20
415.8788
 10
432.8601
 20
416.6783
 10
432.5549
 20
417.4427
 10
432.1819
 20
418.1721
 10
431.7412
 20
418.8663
 10
431.2327
 20
419.5255
 10
430.7067
 20
420.0945
 10
430.1472
 20
420.5958
 10
429.5539
 20
421.0293
 10
428.9271
 20
421.3949
 10
428.2665
 20
421.6928
 10
427.5723
 20
421.9229
 10
426.8443
 20
422.0853
 10
426.0826
 20
422.1798
 10
425.132
 20
421.4822
 10
431.8814
 20
431.2452
 10
420.2839
 20
431.2452
 10
420.2839
 20
428.5336
 10
427.3821
 20
428.5336
 10
420.8545
 20
419.2352
 10
422.534
 20
417.5701
 10
422.9232
 20
418.0056
 10
423.3302
 20
418.3831
 10
423.755
 20
418.7025
 10
424.1976
 20
418.9639
 10
424.658
 20
419.1672
 10
425.1362
 20
419.3125
 10
425.6323
 20
419.3996
 10
426.1462
 20
419.4287
 10
426.6594
 20
419.4006
 10
427.1532
 20
419.3162
 10
427.6278
 20
419.1756
 10
428.083
 20
418.9787
 10
428.519
 20
418.7254
 10
428.9357
 20
418.4158
 10
429.3332
 20
418.0498
 10
429.7114
 20
417.6274
 10
430.0566
 20
417.166
 10
430.3559
 20
416.6822
 10
430.6091
 20
416.1759
 10
430.8163
 20
415.6472
 10
430.9775
 20
415.096
 10
431.0927
 20
414.5224
 10
431.1618
 20
413.9264
 10
431.1848
 20
413.3079
 10
431.1613
 20
412.7033
 10
431.0907
 20
412.1192
 10
430.9731
 20
411.5556
 10
430.8084
 20
411.0126
 10
430.5966
 20
410.4901
 10
430.3378
 20
409.9881
 10
430.032
 20
409.5067
 10
429.6791
 20
409.0458
 10
429.5052
 20
408.8475
 10
429.3238
 20
408.6596
 10
429.135
 20
408.4819
 10
428.9387
 20
408.3145
 10
428.7349
 20
408.1575
 10
428.5237
 20
408.0108
 10
428.3049
 20
407.8745
 10
428.0787
 20
407.7485
 10
427.8432
 20
407.6348
 10
427.5957
 20
407.5363
 10
427.3364
 20
407.453
 10
427.0651
 20
407.3848
 10
426.7819
 20
407.3317
 10
426.4868
 20
407.2938
 10
426.1798
 20
407.2711
 10
425.8609
 20
407.2635
 10
425.536
 20
407.2801
 10
425.2111
 20
407.3301
 10
424.8863
 20
407.4133
 10
424.5615
 20
407.5299
 10
424.2367
 20
407.6797
 10
423.912
 20
407.8629
 10
423.5874
 20
408.0793
 10
423.2629
 20
408.329
 10
422.9499
 20
408.6072
 10
422.6606
 20
408.9091
 10
422.3952
 20
409.2345
 10
422.1535
 20
409.5836
 10
421.9356
 20
409.9563
 10
421.7415
 20
410.3527
 10
421.5714
 20
410.7727
 10
421.4251
 20
411.2163
 10
419.2697
 20
410.3252
 10
419.4745
 20
409.6935
 10
419.7164
 20
409.0923
 10
419.9954
 20
408.5214
 10
420.3116
 20
407.9809
 10
420.6649
 20
407.4706
 10
421.0554
 20
406.9907
 10
421.483
 20
406.541
 10
421.9478
 20
406.1216
 10
422.1762
 20
405.9377
 10
422.4101
 20
405.7642
 10
422.6495
 20
405.601
 10
422.8943
 20
405.4481
 10
423.1446
 20
405.3055
 10
423.4004
 20
405.1731
 10
423.6616
 20
405.0509
 10
423.9283
 20
404.9389
 10
424.2014
 20
404.8391
 10
424.4818
 20
404.7527
 10
424.7696
 20
404.6796
 10
425.0648
 20
404.6198
 10
425.3675
 20
404.5734
 10
425.6775
 20
404.5402
 10
425.9951
 20
404.5203
 10
426.3201
 20
404.5137
 10
426.6489
 20
404.5243
 10
426.9776
 20
404.556
 10
427.3064
 20
404.6088
 10
427.6352
 20
404.6829
 10
427.9639
 20
404.7781
 10
428.2927
 20
404.8945
 10
428.6215
 20
405.0321
 10
428.9503
 20
405.191
  0
LWPOLYLINE
  5
78
330
1F
100
AcDbEntity
  8
Layer 1
 62
     7
100
AcDbPolyline
 90
       65
 70
     1
 43
0.0
 10
442.4657
 20
418.3059
 10
442.9357
 20
418.2811
 10
443.3874
 20
418.2066
 10
443.8209
 20
418.0825
 10
444.236
 20
417.9087
 10
444.6329
 20
417.6853
 10
445.0114
 20
417.4122
 10
445.3716
 20
417.0895
 10
445.7134
 20
416.7171
 10
446.0216
 20
416.3132
 10
446.2888
 20
415.8864
 10
446.5148
 20
415.4367
 10
446.6998
 20
414.964
 10
446.8436
 20
414.4683
 10
446.9463
 20
413.9496
 10
447.008
 20
413.408
 10
447.0285
 20
412.8433
 10
447.0082
 20
412.2836
 10
446.9473
 20
411.7427
 10
446.8458
 20
411.2205
 10
446.7037
 20
410.7171
 10
446.5209
 20
410.2325
 10
446.2976
 20
409.7668
 10
446.0336
 20
409.3198
 10
445.729
 20
408.8917
 10
445.3958
 20
408.501
 10
445.0412
 20
408.1625
 10
444.6653
 20
407.876
 10
444.2681
 20
407.6417
 10
443.8494
 20
407.4595
 10
443.4095
 20
407.3294
 10
442.9483
 20
407.2513
 10
442.4657
 20
407.2253
 10
441.9832
 20
407.2513
 10
441.5219
 20
407.3294
 10
441.082
 20
407.4595
 10
440.6633
 20
407.6417
 10
440.2659
 20
407.876
 10
439.8898
 20
408.1625
 10
439.535
 20
408.501
 10
439.2014
 20
408.8917
 10
438.8969
 20
409.3198
 10
438.6331
 20
409.7668
 10
438.4099
 20
410.2325
 10
438.2273
 20
410.7171
 10
438.0854
 20
411.2205
 10
437.9841
 20
411.7427
 10
437.9233
 20
412.2836
 10
437.903
 20
412.8433
 10
437.9235
 20
413.408
 10
437.9852
 20
413.9496
 10
438.0879
 20
414.4683
 10
438.2316
 20
414.964
 10
438.4164
 20
415.4367
 10
438.6423
 20
415.8864
 10
438.9091
 20
416.3132
 10
439.217
 20
416.7171
 10
439.5592
 20
417.0895
 10
439.9195
 20
417.4122
 10
440.2981
 20
417.6853
 10
440.695
 20
417.9087
 10
441.1101
 20
418.0825
 10
441.5436
 20
418.2066
 10
441.9954
 20
418.2811
 10
442.4657
 20
418.3059
  0
LWPOLYLINE
  5
79
330
1F
100
AcDbEntity
  8
Layer 1
 62
     7
100
AcDbPolyline
 90
       65
 70
     1
 43
0.0
 10
442.4657
 20
428.9982
 10
442.8447
 20
428.9789
 10
443.2094
 20
428.9208
 10
443.5597
 20
428.8241
 10
443.8957
 20
428.6886
 10
444.2173
 20
428.5143
 10
444.5245
 20
428.3011
 10
444.8174
 20
428.0492
 10
445.096
 20
427.7583
 10
445.3559
 20
427.4319
 10
445.5812
 20
427.0866
 10
445.7718
 20
426.7225
 10
445.9277
 20
426.3396
 10
446.049
 20
425.9379
 10
446.1356
 20
425.5174
 10
446.1876
 20
425.0782
 10
446.2049
 20
424.6202
 10
446.1876
 20
424.1725
 10
446.1356
 20
423.7392
 10
446.049
 20
423.3204
 10
445.9277
 20
422.9161
 10
445.7718
 20
422.5263
 10
445.5812
 20
422.151
 10
445.3559
 20
421.7902
 10
445.096
 20
421.444
 10
444.8191
 20
421.1352
 10
444.5275
 20
420.8676
 10
444.2209
 20
420.6411
 10
443.8996
 20
420.4558
 10
443.5634
 20
420.3117
 10
443.2123
 20
420.2088
 10
442.8464
 20
420.147
 10
442.4657
 20
420.1264
 10
442.085
 20
420.147
 10
441.7191
 20
420.2088
 10
441.3681
 20
420.3117
 10
441.0319
 20
420.4558
 10
440.7106
 20
420.6411
 10
440.404
 20
420.8676
 10
440.1124
 20
421.1352
 10
439.8355
 20
421.444
 10
439.5756
 20
421.7902
 10
439.3503
 20
422.151
 10
439.1597
 20
422.5263
 10
439.0038
 20
422.9161
 10
438.8825
 20
423.3204
 10
438.7959
 20
423.7392
 10
438.7439
 20
424.1725
 10
438.7266
 20
424.6202
 10
438.7439
 20
425.0782
 10
438.7959
 20
425.5174
 10
438.8825
 20
425.9379
 10
439.0038
 20
426.3396
 10
439.1597
 20
426.7225
 10
439.3503
 20
427.0866
 10
439.5756
 20
427.4319
 10
439.8355
 20
427.7583
 10
440.1141
 20
428.0492
 10
440.407
 20
428.3011
 10
440.7142
 20
428.5143
 10
441.0358
 20
428.6886
 10
441.3718
 20
428.8241
 10
441.7221
 20
428.9208
 10
442.0867
 20
428.9789
 10
442.4657
 20
428.9982
  0
LWPOLYLINE
  5
7A
330
1F
100
AcDbEntity
  8
Layer 1
 62
     7
100
AcDbPolyline
 90
      121
 70
     1
 43
0.0
 10
442.4657
 20
404.5137
 10
443.1918
 20
404.5473
 10
443.8888
 20
404.6481
 10
444.5565
 20
404.8161
 10
445.195
 20
405.0512
 10
445.8042
 20
405.3536
 10
446.3843
 20
405.7232
 10
446.935
 20
406.1599
 10
447.4565
 20
406.6639
 10
447.6917
 20
406.927
 10
447.9141
 20
407.2035
 10
448.1236
 20
407.4935
 10
448.3202
 20
407.7967
 10
448.5039
 20
408.1133
 10
448.6748
 20
408.4432
 10
448.8327
 20
408.7863
 10
448.9778
 20
409.1425
 10
449.1077
 20
409.5125
 10
449.2203
 20
409.8958
 10
449.3155
 20
410.2925
 10
449.3934
 20
410.7025
 10
449.4539
 20
411.1258
 10
449.4971
 20
411.5623
 10
449.5231
 20
412.0122
 10
449.5317
 20
412.4753
 10
449.5171
 20
412.9445
 10
449.4733
 20
413.4124
 10
449.4004
 20
413.8792
 10
449.2982
 20
414.3447
 10
449.1669
 20
414.8089
 10
449.0063
 20
415.2719
 10
448.8166
 20
415.7335
 10
448.5977
 20
416.1939
 10
448.3512
 20
416.6435
 10
448.0795
 20
417.0718
 10
447.7826
 20
417.479
 10
447.4605
 20
417.8649
 10
447.1132
 20
418.2297
 10
446.7406
 20
418.5733
 10
446.3427
 20
418.8957
 10
445.9196
 20
419.197
 10
446.5211
 20
419.8528
 10
447.0424
 20
420.5225
 10
447.4835
 20
421.2062
 10
447.8445
 20
421.9038
 10
448.1253
 20
422.6155
 10
448.3258
 20
423.341
 10
448.4462
 20
424.0806
 10
448.4863
 20
424.8341
 10
448.4588
 20
425.5769
 10
448.3764
 20
426.2853
 10
448.239
 20
426.9593
 10
448.0466
 20
427.5988
 10
447.7993
 20
428.2039
 10
447.497
 20
428.7744
 10
447.1398
 20
429.3103
 10
446.7276
 20
429.8117
 10
446.292
 20
430.2476
 10
445.8286
 20
430.6254
 10
445.3374
 20
430.9451
 10
444.8185
 20
431.2067
 10
444.2718
 20
431.4101
 10
443.6974
 20
431.5554
 10
443.0954
 20
431.6425
 10
442.4657
 20
431.6716
 10
441.8357
 20
431.6425
 10
441.2336
 20
431.5554
 10
440.6592
 20
431.4101
 10
440.1126
 20
431.2067
 10
439.5938
 20
430.9451
 10
439.1028
 20
430.6254
 10
438.6395
 20
430.2476
 10
438.2039
 20
429.8117
 10
437.7917
 20
429.3107
 10
437.4345
 20
428.7757
 10
437.1322
 20
428.2069
 10
436.8849
 20
427.6041
 10
436.6925
 20
426.9673
 10
436.5551
 20
426.2966
 10
436.4727
 20
425.5919
 10
436.4452
 20
424.8532
 10
436.4853
 20
424.0952
 10
436.6055
 20
423.3518
 10
436.806
 20
422.6229
 10
437.0866
 20
421.9086
 10
437.4475
 20
421.2089
 10
437.8887
 20
420.5237
 10
438.4101
 20
419.8531
 10
439.0119
 20
419.197
 10
438.5888
 20
418.8957
 10
438.1909
 20
418.5733
 10
437.8183
 20
418.2297
 10
437.471
 20
417.8649
 10
437.1489
 20
417.479
 10
436.852
 20
417.0718
 10
436.5803
 20
416.6435
 10
436.3338
 20
416.1939
 10
436.1148
 20
415.7326
 10
435.925
 20
415.2681
 10
435.7643
 20
414.8005
 10
435.6328
 20
414.3297
 10
435.5305
 20
413.856
 10
435.4573
 20
413.3792
 10
435.4134
 20
412.8994
 10
435.3988
 20
412.4168
 10
435.4313
 20
411.5516
 10
435.5286
 20
410.728
 10
435.6909
 20
409.9462
 10
435.918
 20
409.2062
 10
436.21
 20
408.5078
 10
436.5668
 20
407.8514
 10
436.9885
 20
407.2367
 10
437.475
 20
406.6639
 10
437.9965
 20
406.1599
 10
438.5472
 20
405.7232
 10
439.1272
 20
405.3536
 10
439.7365
 20
405.0512
 10
440.375
 20
404.8161
 10
441.0427
 20
404.6481
 10
441.7396
 20
404.5473
 10
442.4657
 20
404.5137
  0
LWPOLYLINE
  5
7B
330
1F
100
AcDbEntity
  8
Layer 1
 62
     7
100
AcDbPolyline
 90
      165
 70
     1
 43
0.0
 10
470.8587
 20
404.9784
 10
473.0766
 20
404.9784
 10
473.0766
 20
415.6325
 10
473.0585
 20
416.34
 10
473.0044
 20
417.0141
 10
472.9141
 20
417.6549
 10
472.7876
 20
418.2623
 10
472.6251
 20
418.8364
 10
472.4264
 20
419.3773
 10
472.1917
 20
419.8849
 10
471.9208
 20
420.3593
 10
471.7693
 20
420.586
 10
471.6086
 20
420.8012
 10
471.4384
 20
421.0048
 10
471.2589
 20
421.1968
 10
471.07
 20
421.3774
 10
470.8716
 20
421.5464
 10
470.6638
 20
421.704
 10
470.4464
 20
421.8501
 10
470.2157
 20
421.9821
 10
469.9672
 20
422.0964
 10
469.7009
 20
422.1932
 10
469.4168
 20
422.2723
 10
469.1148
 20
422.3338
 10
468.7949
 20
422.3777
 10
468.4571
 20
422.404
 10
468.1014
 20
422.4128
 10
467.7428
 20
422.3976
 10
467.3957
 20
422.3522
 10
467.0599
 20
422.2764
 10
466.7355
 20
422.1704
 10
466.4224
 20
422.0342
 10
466.1207
 20
421.8677
 10
465.8304
 20
421.6709
 10
465.5514
 20
421.444
 10
465.3093
 20
421.2174
 10
465.078
 20
420.9742
 10
464.8576
 20
420.7143
 10
464.648
 20
420.438
 10
464.4493
 20
420.1453
 10
464.2615
 20
419.8363
 10
464.0847
 20
419.5113
 10
463.9187
 20
419.1703
 10
463.7901
 20
419.4852
 10
463.6494
 20
419.7892
 10
463.4969
 20
420.081
 10
463.3325
 20
420.3593
 10
463.1813
 20
420.586
 10
463.0207
 20
420.8012
 10
462.8507
 20
421.0048
 10
462.6712
 20
421.1968
 10
462.4823
 20
421.3774
 10
462.2839
 20
421.5464
 10
462.0762
 20
421.704
 10
461.8591
 20
421.8501
 10
461.6284
 20
421.9821
 10
461.3798
 20
422.0964
 10
461.1134
 20
422.1932
 10
460.8292
 20
422.2723
 10
460.5271
 20
422.3338
 10
460.2073
 20
422.3777
 10
459.8696
 20
422.404
 10
459.5142
 20
422.4128
 10
459.1556
 20
422.3976
 10
458.8082
 20
422.3522
 10
458.4723
 20
422.2764
 10
458.1477
 20
422.1704
 10
457.8344
 20
422.0342
 10
457.5326
 20
421.8677
 10
457.2421
 20
421.6709
 10
456.9631
 20
421.444
 10
456.7326
 20
421.2285
 10
456.5118
 20
420.9985
 10
456.3009
 20
420.7537
 10
456.0998
 20
420.4941
 10
455.9087
 20
420.2197
 10
455.7274
 20
419.9303
 10
455.5562
 20
419.626
 10
455.395
 20
419.3065
 10
455.395
 20
422.0245
 10
453.1761
 20
422.0245
 10
453.1761
 20
404.9784
 10
455.395
 20
404.9784
 10
455.395
 20
413.7013
 10
455.4463
 20
414.2097
 10
455.5135
 20
414.6983
 10
455.5966
 20
415.1671
 10
455.6956
 20
415.6164
 10
455.8104
 20
416.0463
 10
455.941
 20
416.457
 10
456.0876
 20
416.8486
 10
456.2499
 20
417.2213
 10
456.3822
 20
417.4864
 10
456.5254
 20
417.7393
 10
456.6794
 20
417.9801
 10
456.8443
 20
418.2089
 10
457.0201
 20
418.4255
 10
457.2068
 20
418.6302
 10
457.4044
 20
418.8228
 10
457.6129
 20
419.0035
 10
457.8288
 20
419.1668
 10
458.0487
 20
419.3084
 10
458.2724
 20
419.4281
 10
458.5002
 20
419.526
 10
458.7318
 20
419.6021
 10
458.9675
 20
419.6564
 10
459.2071
 20
419.689
 10
459.4507
 20
419.6999
 10
459.6884
 20
419.6942
 10
459.9102
 20
419.677
 10
460.1163
 20
419.6483
 10
460.3065
 20
419.6081
 10
460.4808
 20
419.5564
 10
460.6392
 20
419.4931
 10
460.7818
 20
419.4184
 10
460.9085
 20
419.332
 10
461.228
 20
419.0432
 10
461.505
 20
418.7049
 10
461.7392
 20
418.317
 10
461.9309
 20
417.8795
 10
462.0799
 20
417.3923
 10
462.1864
 20
416.8554
 10
462.2502
 20
416.2688
 10
462.2715
 20
415.6325
 10
462.2715
 20
404.9784
 10
464.4893
 20
404.9784
 10
464.4893
 20
415.6325
 10
464.4737
 20
416.2843
 10
464.5557
 20
416.5315
 10
464.6438
 20
416.7695
 10
464.738
 20
416.9991
 10
464.8382
 20
417.2213
 10
464.9702
 20
417.4864
 10
465.1132
 20
417.7393
 10
465.2672
 20
417.9801
 10
465.432
 20
418.2089
 10
465.6078
 20
418.4255
 10
465.7944
 20
418.6302
 10
465.9919
 20
418.8228
 10
466.2001
 20
419.0035
 10
466.4161
 20
419.1668
 10
466.636
 20
419.3084
 10
466.86
 20
419.4281
 10
467.0879
 20
419.526
 10
467.3198
 20
419.6021
 10
467.5556
 20
419.6564
 10
467.7953
 20
419.689
 10
468.039
 20
419.6999
 10
468.2766
 20
419.6942
 10
468.4984
 20
419.677
 10
468.7042
 20
419.6483
 10
468.8942
 20
419.6081
 10
469.0683
 20
419.5564
 10
469.2266
 20
419.4931
 10
469.3691
 20
419.4184
 10
469.4957
 20
419.332
 10
469.8152
 20
419.0432
 10
470.0922
 20
418.7049
 10
470.3264
 20
418.317
 10
470.5181
 20
417.8795
 10
470.6671
 20
417.3923
 10
470.7736
 20
416.8554
 10
470.8374
 20
416.2688
 10
470.8587
 20
415.6325
 10
470.8587
 20
404.9784
  0
LWPOLYLINE
  5
7C
330
1F
100
AcDbEntity
  8
Layer 1
 62
     7
100
AcDbPolyline
 90
      165
 70
     1
 43
0.0
 10
495.0366
 20
404.9784
 10
497.2545
 20
404.9784
 10
497.2545
 20
415.6325
 10
497.2364
 20
416.34
 10
497.1823
 20
417.0141
 10
497.092
 20
417.6549
 10
496.9655
 20
418.2623
 10
496.803
 20
418.8364
 10
496.6043
 20
419.3773
 10
496.3696
 20
419.8849
 10
496.0987
 20
420.3593
 10
495.9472
 20
420.586
 10
495.7865
 20
420.8012
 10
495.6164
 20
421.0048
 10
495.4369
 20
421.1968
 10
495.248
 20
421.3774
 10
495.0496
 20
421.5464
 10
494.8417
 20
421.704
 10
494.6243
 20
421.8501
 10
494.3936
 20
421.9821
 10
494.1452
 20
422.0964
 10
493.8789
 20
422.1932
 10
493.5948
 20
422.2723
 10
493.2928
 20
422.3338
 10
492.9729
 20
422.3777
 10
492.6351
 20
422.404
 10
492.2794
 20
422.4128
 10
491.9208
 20
422.3976
 10
491.5736
 20
422.3522
 10
491.2378
 20
422.2764
 10
490.9134
 20
422.1704
 10
490.6003
 20
422.0342
 10
490.2986
 20
421.8677
 10
490.0083
 20
421.6709
 10
489.7293
 20
421.444
 10
489.4872
 20
421.2174
 10
489.2559
 20
420.9742
 10
489.0355
 20
420.7143
 10
488.8259
 20
420.438
 10
488.6273
 20
420.1453
 10
488.4395
 20
419.8363
 10
488.2626
 20
419.5113
 10
488.0967
 20
419.1703
 10
487.968
 20
419.4852
 10
487.8274
 20
419.7892
 10
487.6748
 20
420.081
 10
487.5104
 20
420.3593
 10
487.3593
 20
420.586
 10
487.1987
 20
420.8012
 10
487.0286
 20
421.0048
 10
486.8491
 20
421.1968
 10
486.6602
 20
421.3774
 10
486.4619
 20
421.5464
 10
486.2542
 20
421.704
 10
486.0371
 20
421.8501
 10
485.8064
 20
421.9821
 10
485.5578
 20
422.0964
 10
485.2914
 20
422.1932
 10
485.0071
 20
422.2723
 10
484.7051
 20
422.3338
 10
484.3852
 20
422.3777
 10
484.0476
 20
422.404
 10
483.6922
 20
422.4128
 10
483.3336
 20
422.3976
 10
482.9862
 20
422.3522
 10
482.6503
 20
422.2764
 10
482.3257
 20
422.1704
 10
482.0124
 20
422.0342
 10
481.7106
 20
421.8677
 10
481.4201
 20
421.6709
 10
481.1411
 20
421.444
 10
480.9105
 20
421.2285
 10
480.6898
 20
420.9985
 10
480.4788
 20
420.7537
 10
480.2778
 20
420.4941
 10
480.0866
 20
420.2197
 10
479.9054
 20
419.9303
 10
479.7341
 20
419.626
 10
479.5729
 20
419.3065
 10
479.5729
 20
422.0245
 10
477.354
 20
422.0245
 10
477.354
 20
404.9784
 10
479.5729
 20
404.9784
 10
479.5729
 20
413.7013
 10
479.6242
 20
414.2097
 10
479.6914
 20
414.6983
 10
479.7745
 20
415.1671
 10
479.8735
 20
415.6164
 10
479.9883
 20
416.0463
 10
480.1189
 20
416.457
 10
480.2655
 20
416.8486
 10
480.4278
 20
417.2213
 10
480.5601
 20
417.4864
 10
480.7033
 20
417.7393
 10
480.8573
 20
417.9801
 10
481.0222
 20
418.2089
 10
481.198
 20
418.4255
 10
481.3847
 20
418.6302
 10
481.5823
 20
418.8228
 10
481.7908
 20
419.0035
 10
482.0067
 20
419.1668
 10
482.2266
 20
419.3084
 10
482.4504
 20
419.4281
 10
482.6781
 20
419.526
 10
482.9098
 20
419.6021
 10
483.1454
 20
419.6564
 10
483.385
 20
419.689
 10
483.6286
 20
419.6999
 10
483.8663
 20
419.6942
 10
484.0882
 20
419.677
 10
484.2942
 20
419.6483
 10
484.4844
 20
419.6081
 10
484.6588
 20
419.5564
 10
484.8172
 20
419.4931
 10
484.9598
 20
419.4184
 10
485.0864
 20
419.332
 10
485.4059
 20
419.0432
 10
485.6829
 20
418.7049
 10
485.9171
 20
418.317
 10
486.1088
 20
417.8795
 10
486.2578
 20
417.3923
 10
486.3643
 20
416.8554
 10
486.4281
 20
416.2688
 10
486.4494
 20
415.6325
 10
486.4494
 20
404.9784
 10
488.6673
 20
404.9784
 10
488.6673
 20
415.6325
 10
488.6517
 20
416.2843
 10
488.7336
 20
416.5315
 10
488.8218
 20
416.7695
 10
488.9159
 20
416.9991
 10
489.0161
 20
417.2213
 10
489.1481
 20
417.4864
 10
489.2912
 20
417.7393
 10
489.4451
 20
417.9801
 10
489.61
 20
418.2089
 10
489.7858
 20
418.4255
 10
489.9724
 20
418.6302
 10
490.1699
 20
418.8228
 10
490.3781
 20
419.0035
 10
490.5941
 20
419.1668
 10
490.814
 20
419.3084
 10
491.038
 20
419.4281
 10
491.2659
 20
419.526
 10
491.4977
 20
419.6021
 10
491.7335
 20
419.6564
 10
491.9733
 20
419.689
 10
492.2169
 20
419.6999
 10
492.4546
 20
419.6942
 10
492.6763
 20
419.677
 10
492.8822
 20
419.6483
 10
493.0722
 20
419.6081
 10
493.2463
 20
419.5564
 10
493.4046
 20
419.4931
 10
493.547
 20
419.4184
 10
493.6736
 20
419.332
 10
493.9931
 20
419.0432
 10
494.2701
 20
418.7049
 10
494.5043
 20
418.317
 10
494.696
 20
417.8795
 10
494.845
 20
417.3923
 10
494.9515
 20
416.8554
 10
495.0153
 20
416.2688
 10
495.0366
 20
415.6325
 10
495.0366
 20
404.9784
  0
LWPOLYLINE
  5
7D
330
1F
100
AcDbEntity
  8
Layer 1
 62
     7
370
    18
100
AcDbPolyline
 90
        2
 70
     0
 43
0.0
 10
206.3569
 20
432.3836
 10
206.3569
 20
409.8107
  0
LWPOLYLINE
  5
7E
330
1F
100
AcDbEntity
  8
Layer 1
 62
     7
370
    18
100
AcDbPolyline
 90
        2
 70
     0
 43
0.0
 10
206.354
 20
421.0967
 10
307.7271
 20
421.0967
  0
LWPOLYLINE
  5
7F
330
1F
100
AcDbEntity
  8
Layer 1
 62
     7
370
    18
100
AcDbPolyline
 90
        2
 70
     0
 43
0.0
 10
587.3576
 20
432.3836
 10
587.3576
 20
409.8107
  0
LWPOLYLINE
  5
80
330
1F
100
AcDbEntity
  8
Layer 1
 62
     7
370
    18
100
AcDbPolyline
 90
        2
 70
     0
 43
0.0
 10
587.3604
 20
421.0967
 10
529.6925
 20
421.0967
  0
ENDSEC
  0
SECTION
  2
OBJECTS
  0
DICTIONARY
  5
C
330
0
100
AcDbDictionary
281
     1
  3
ACAD_DETAILVIEWSTYLE
350
88
  3
ACAD_GROUP
350
D
  3
ACAD_LAYOUT
350
1A
  3
ACAD_MATERIAL
350
43
  3
ACAD_MLEADERSTYLE
350
5B
  3
ACAD_MLINESTYLE
350
17
  3
ACAD_PLOTSETTINGS
350
19
  3
ACAD_PLOTSTYLENAME
350
E
  3
ACAD_SCALELIST
350
47
  3
ACAD_SECTIONVIEWSTYLE
350
89
  3
ACAD_TABLESTYLE
350
59
  3
ACAD_VISUALSTYLE
350
2A
  3
ACDB_RECOMPOSE_DATA
350
85
  3
AcDbVariableDictionary
350
81
  0
SUN
  5
5D
330
29
100
AcDbSun
 90
        1
290
     0
 63
     7
421
 16777215
 40
1.0
291
     1
 91
  2455826
 92
 54000000
292
     0
 70
     2
 71
   256
280
     1
  0
DICTIONARY
  5
88
102
{ACAD_REACTORS
330
C
102
}
330
C
100
AcDbDictionary
281
     1
  0
DICTIONARY
  5
D
102
{ACAD_REACTORS
330
C
102
}
330
C
100
AcDbDictionary
281
     1
  0
DICTIONARY
  5
1A
102
{ACAD_REACTORS
330
C
102
}
330
C
100
AcDbDictionary
281
     1
  3
Layout1
350
1E
  3
Layout2
350
26
  3
Model
350
22
  0
DICTIONARY
  5
43
102
{ACAD_REACTORS
330
C
102
}
330
C
100
AcDbDictionary
281
     1
  3
ByBlock
350
45
  3
ByLayer
350
44
  3
Global
350
46
  0
DICTIONARY
  5
5B
102
{ACAD_REACTORS
330
C
102
}
330
C
100
AcDbDictionary
281
     1
  3
Standard
350
5C
  0
DICTIONARY
  5
17
102
{ACAD_REACTORS
330
C
102
}
330
C
100
AcDbDictionary
281
     1
  3
Standard
350
18
  0
DICTIONARY
  5
19
102
{ACAD_REACTORS
330
C
102
}
330
C
100
AcDbDictionary
281
     1
  0
ACDBDICTIONARYWDFLT
  5
E
102
{ACAD_REACTORS
330
C
102
}
330
C
100
AcDbDictionary
281
     1
  3
Normal
350
F
100
AcDbDictionaryWithDefault
340
F
  0
DICTIONARY
  5
47
102
{ACAD_REACTORS
330
C
102
}
330
C
100
AcDbDictionary
281
     1
  3
A0
350
48
  3
A1
350
49
  3
A2
350
4A
  3
A3
350
4B
  3
A4
350
4C
  3
A5
350
4D
  3
A6
350
4E
  3
A7
350
4F
  3
A8
350
50
  3
A9
350
51
  3
B1
350
52
  3
B2
350
53
  3
B3
350
54
  3
B4
350
55
  3
B5
350
56
  3
B6
350
57
  3
B7
350
58
  0
DICTIONARY
  5
89
102
{ACAD_REACTORS
330
C
102
}
330
C
100
AcDbDictionary
281
     1
  0
DICTIONARY
  5
59
102
{ACAD_REACTORS
330
C
102
}
330
C
100
AcDbDictionary
281
     1
  3
Standard
350
5A
  0
DICTIONARY
  5
2A
102
{ACAD_REACTORS
330
C
102
}
330
C
100
AcDbDictionary
281
     1
  3
2dWireframe
350
2F
  3
Basic
350
32
  3
Brighten
350
36
  3
ColorChange
350
3A
  3
Conceptual
350
34
  3
Dim
350
35
  3
EdgeColorOff
350
3D
  3
Facepattern
350
39
  3
Flat
350
2B
  3
FlatWithEdges
350
2C
  3
Gouraud
350
2D
  3
GouraudWithEdges
350
2E
  3
Hidden
350
31
  3
JitterOff
350
3B
  3
Linepattern
350
38
  3
OverhangOff
350
3C
  3
Realistic
350
33
  3
Shaded
350
42
  3
Shaded with edges
350
41
  3
Shades of Gray
350
3E
  3
Sketchy
350
3F
  3
Thicken
350
37
  3
Wireframe
350
30
  3
X-Ray
350
40
  0
XRECORD
  5
85
102
{ACAD_REACTORS
330
C
102
}
330
C
100
AcDbXrecord
280
     1
 90
        1
330
5A
  0
DICTIONARY
  5
81
102
{ACAD_REACTORS
330
C
102
}
330
C
100
AcDbDictionary
281
     1
  3
CANNOSCALE
350
82
  3
CMLEADERSTYLE
350
87
  3
CTABLESTYLE
350
86
  0
LAYOUT
  5
1E
102
{ACAD_REACTORS
330
1A
102
}
330
1A
100
AcDbPlotSettings
  1

  2
none_device
  4

  6

 40
0.0
 41
0.0
 42
0.0
 43
0.0
 44
0.0
 45
0.0
 46
0.0
 47
0.0
 48
0.0
 49
0.0
140
0.0
141
0.0
142
1.0
143
1.0
 70
   688
 72
     0
 73
     0
 74
     5
  7

 75
    16
 76
     0
 77
     2
 78
   300
147
1.0
148
0.0
149
0.0
100
AcDbLayout
  1
Layout1
 70
     1
 71
     1
 10
0.0
 20
0.0
 11
12.0
 21
9.0
 12
0.0
 22
0.0
 32
0.0
 14
1.000000000000000E+20
 24
1.000000000000000E+20
 34
1.000000000000000E+20
 15
-1.000000000000000E+20
 25
-1.000000000000000E+20
 35
-1.000000000000000E+20
146
0.0
 13
0.0
 23
0.0
 33
0.0
 16
1.0
 26
0.0
 36
0.0
 17
0.0
 27
1.0
 37
0.0
 76
     0
330
1B
  0
LAYOUT
  5
26
102
{ACAD_REACTORS
330
1A
102
}
330
1A
100
AcDbPlotSettings
  1

  2
none_device
  4

  6

 40
0.0
 41
0.0
 42
0.0
 43
0.0
 44
0.0
 45
0.0
 46
0.0
 47
0.0
 48
0.0
 49
0.0
140
0.0
141
0.0
142
1.0
143
1.0
 70
   688
 72
     0
 73
     0
 74
     5
  7

 75
    16
 76
     0
 77
     2
 78
   300
147
1.0
148
0.0
149
0.0
100
AcDbLayout
  1
Layout2
 70
     1
 71
     2
 10
0.0
 20
0.0
 11
0.0
 21
0.0
 12
0.0
 22
0.0
 32
0.0
 14
0.0
 24
0.0
 34
0.0
 15
0.0
 25
0.0
 35
0.0
146
0.0
 13
0.0
 23
0.0
 33
0.0
 16
1.0
 26
0.0
 36
0.0
 17
0.0
 27
1.0
 37
0.0
 76
     0
330
23
  0
LAYOUT
  5
22
102
{ACAD_REACTORS
330
1A
102
}
330
1A
100
AcDbPlotSettings
  1

  2
none_device
  4
Letter_(8.50_x_11.00_Inches)
  6

 40
6.35
 41
6.35
 42
6.35000508
 43
6.35000508
 44
215.9
 45
279.4
 46
0.0
 47
0.0
 48
0.0
 49
0.0
140
0.0
141
0.0
142
1.0
143
1.0
 70
  1712
 72
     0
 73
     0
 74
     0
  7

 75
     0
 76
     0
 77
     2
 78
   300
147
1.0
148
0.0
149
0.0
100
AcDbLayout
  1
Model
 70
     1
 71
     0
 10
0.0
 20
0.0
 11
12.0
 21
9.0
 12
0.0
 22
0.0
 32
0.0
 14
171.0169
 24
-430.974
 34
0.0
 15
704.4755
 25
452.3952
 35
0.0
146
0.0
 13
0.0
 23
0.0
 33
0.0
 16
1.0
 26
0.0
 36
0.0
 17
0.0
 27
1.0
 37
0.0
 76
     0
330
1F
331
29
  0
MATERIAL
  5
45
102
{ACAD_REACTORS
330
43
102
}
330
43
100
AcDbMaterial
  1
ByBlock
 72
     1
 94
      127
  0
MATERIAL
  5
44
102
{ACAD_REACTORS
330
43
102
}
330
43
100
AcDbMaterial
  1
ByLayer
 72
     1
 94
      127
  0
MATERIAL
  5
46
102
{ACAD_REACTORS
330
43
102
}
330
43
100
AcDbMaterial
  1
Global
 72
     1
 94
      127
  0
MLEADERSTYLE
  5
5C
102
{ACAD_REACTORS
330
5B
102
}
330
5B
100
AcDbMLeaderStyle
179
     2
170
     2
171
     1
172
     0
 90
        2
 40
0.0
 41
0.0
173
     1
 91
-1056964608
340
14
 92
       -2
290
     1
 42
0.09
291
     1
 43
0.36
  3
Standard
341
0
 44
0.18
300

342
11
174
     1
178
     6
175
     1
176
     0
 93
-1056964608
 45
0.18
292
     0
297
     0
 46
0.18
343
0
 94
-1056964608
 47
1.0
 49
1.0
140
1.0
293
     1
141
0.0
294
     1
177
     0
142
1.0
295
     0
296
     0
143
0.125
271
     0
272
     9
273
     9
298
     0
  0
MLINESTYLE
  5
18
102
{ACAD_REACTORS
330
17
102
}
330
17
100
AcDbMlineStyle
  2
Standard
 70
     0
  3

 62
   256
 51
90.0
 52
90.0
 71
     2
 49
0.5
 62
   256
  6
BYLAYER
 49
-0.5
 62
   256
  6
BYLAYER
  0
ACDBPLACEHOLDER
  5
F
102
{ACAD_REACTORS
330
E
102
}
330
E
  0
SCALE
  5
48
102
{ACAD_REACTORS
330
47
102
}
330
47
100
AcDbScale
 70
     0
300
1:1
140
1.0
141
1.0
290
     1
  0
SCALE
  5
49
102
{ACAD_REACTORS
330
47
102
}
330
47
100
AcDbScale
 70
     0
300
1/128" = 1'-0"
140
0.0078125
141
12.0
290
     0
  0
SCALE
  5
4A
102
{ACAD_REACTORS
330
47
102
}
330
47
100
AcDbScale
 70
     0
300
1/64" = 1'-0"
140
0.015625
141
12.0
290
     0
  0
SCALE
  5
4B
102
{ACAD_REACTORS
330
47
102
}
330
47
100
AcDbScale
 70
     0
300
1/32" = 1'-0"
140
0.03125
141
12.0
290
     0
  0
SCALE
  5
4C
102
{ACAD_REACTORS
330
47
102
}
330
47
100
AcDbScale
 70
     0
300
1/16" = 1'-0"
140
0.0625
141
12.0
290
     0
  0
SCALE
  5
4D
102
{ACAD_REACTORS
330
47
102
}
330
47
100
AcDbScale
 70
     0
300
3/32" = 1'-0"
140
0.09375
141
12.0
290
     0
  0
SCALE
  5
4E
102
{ACAD_REACTORS
330
47
102
}
330
47
100
AcDbScale
 70
     0
300
1/8" = 1'-0"
140
0.125
141
12.0
290
     0
  0
SCALE
  5
4F
102
{ACAD_REACTORS
330
47
102
}
330
47
100
AcDbScale
 70
     0
300
3/16" = 1'-0"
140
0.1875
141
12.0
290
     0
  0
SCALE
  5
50
102
{ACAD_REACTORS
330
47
102
}
330
47
100
AcDbScale
 70
     0
300
1/4" = 1'-0"
140
0.25
141
12.0
290
     0
  0
SCALE
  5
51
102
{ACAD_REACTORS
330
47
102
}
330
47
100
AcDbScale
 70
     0
300
3/8" = 1'-0"
140
0.375
141
12.0
290
     0
  0
SCALE
  5
52
102
{ACAD_REACTORS
330
47
102
}
330
47
100
AcDbScale
 70
     0
300
1/2" = 1'-0"
140
0.5
141
12.0
290
     0
  0
SCALE
  5
53
102
{ACAD_REACTORS
330
47
102
}
330
47
100
AcDbScale
 70
     0
300
3/4" = 1'-0"
140
0.75
141
12.0
290
     0
  0
SCALE
  5
54
102
{ACAD_REACTORS
330
47
102
}
330
47
100
AcDbScale
 70
     0
300
1" = 1'-0"
140
1.0
141
12.0
290
     0
  0
SCALE
  5
55
102
{ACAD_REACTORS
330
47
102
}
330
47
100
AcDbScale
 70
     0
300
1-1/2" = 1'-0"
140
1.5
141
12.0
290
     0
  0
SCALE
  5
56
102
{ACAD_REACTORS
330
47
102
}
330
47
100
AcDbScale
 70
     0
300
3" = 1'-0"
140
3.0
141
12.0
290
     0
  0
SCALE
  5
57
102
{ACAD_REACTORS
330
47
102
}
330
47
100
AcDbScale
 70
     0
300
6" = 1'-0"
140
6.0
141
12.0
290
     0
  0
SCALE
  5
58
102
{ACAD_REACTORS
330
47
102
}
330
47
100
AcDbScale
 70
     0
300
1'-0" = 1'-0"
140
12.0
141
12.0
290
     0
  0
TABLESTYLE
  5
5A
102
{ACAD_REACTORS
330
59
102
}
102
{ACAD_XDICTIONARY
360
83
102
}
330
59
100
AcDbTableStyle
  3
Standard
 70
     0
 71
     0
 40
0.06
 41
0.06
280
     0
281
     0
  7
Standard
140
0.18
170
     2
 62
     0
 63
   257
283
     0
 90
        4
 91
        0
  1

274
    -2
284
     1
 64
     0
275
    -2
285
     1
 65
     0
276
    -2
286
     1
 66
     0
277
    -2
287
     1
 67
     0
278
    -2
288
     1
 68
     0
279
    -2
289
     1
 69
     0
  7
Standard
140
0.25
170
     5
 62
     0
 63
   257
283
     0
 90
        4
 91
        0
  1

274
    -2
284
     1
 64
     0
275
    -2
285
     1
 65
     0
276
    -2
286
     1
 66
     0
277
    -2
287
     1
 67
     0
278
    -2
288
     1
 68
     0
279
    -2
289
     1
 69
     0
  7
Standard
140
0.18
170
     5
 62
     0
 63
   257
283
     0
 90
        4
 91
        0
  1

274
    -2
284
     1
 64
     0
275
    -2
285
     1
 65
     0
276
    -2
286
     1
 66
     0
277
    -2
287
     1
 67
     0
278
    -2
288
     1
 68
     0
279
    -2
289
     1
 69
     0
  0
VISUALSTYLE
  5
2F
102
{ACAD_REACTORS
330
2A
102
}
330
2A
100
AcDbVisualStyle
  2
2dWireframe
 70
     4
177
     3
291
     0
 70
    58
 90
        0
176
     1
 90
        2
176
     1
 90
        0
176
     1
 90
        0
176
     1
 40
0.6
176
     1
 40
30.0
176
     1
 62
     7
420
 16777215
176
     1
 90
        1
176
     1
 90
        4
176
     1
 62
     7
176
     1
 62
   257
176
     1
 90
        1
176
     1
 90
        1
176
     1
 40
1.0
176
     1
 90
        0
176
     1
 62
   257
176
     1
 40
1.0
176
     1
 90
        1
176
     1
 90
        6
176
     1
 90
        2
176
     1
 62
     7
176
     1
 90
        5
176
     1
 90
        0
176
     1
 90
        0
176
     1
290
     0
176
     1
 90
        1
176
     1
 40
0.0
176
     1
 90
        0
176
     1
290
     1
176
     1
290
     1
176
     1
290
     0
176
     1
290
     0
176
     1
290
     0
176
     1
290
     0
176
     1
290
     0
176
     1
290
     0
176
     1
290
     0
176
     1
 90
       50
176
     1
 40
0.0
176
     1
 40
1.0
176
     1
 90
        0
176
     1
 62
    18
420
        0
176
     1
 90
       50
176
     1
 90
        3
176
     1
 62
     5
420
      255
176
     1
290
     0
176
     1
 90
       50
176
     1
 90
       50
176
     1
 90
       50
176
     1
290
     0
176
     1
 90
       50
176
     1
 62
   256
176
     0
 40
1.0
176
     0
 90
        2
176
     1
  1
strokes_ogs.tif
176
     1
290
     0
176
     1
 40
1.0
176
     1
 40
1.0
176
     1
  0
VISUALSTYLE
  5
32
102
{ACAD_REACTORS
330
2A
102
}
330
2A
100
AcDbVisualStyle
  2
Basic
 70
     7
177
     3
291
     1
 70
    58
 90
        1
176
     1
 90
        0
176
     1
 90
        1
176
     1
 90
        0
176
     1
 40
0.6
176
     1
 40
30.0
176
     1
 62
     7
420
 16777215
176
     1
 90
        0
176
     1
 90
        4
176
     1
 62
     7
176
     1
 62
   257
176
     1
 90
        1
176
     1
 90
        1
176
     1
 40
1.0
176
     1
 90
        8
176
     1
 62
     7
176
     1
 40
1.0
176
     1
 90
        1
176
     1
 90
        6
176
     1
 90
        2
176
     1
 62
     7
176
     1
 90
        5
176
     1
 90
        0
176
     1
 90
        0
176
     1
290
     0
176
     1
 90
        1
176
     1
 40
0.0
176
     1
 90
        0
176
     1
290
     0
176
     1
290
     1
176
     1
290
     1
176
     1
290
     0
176
     1
290
     0
176
     1
290
     0
176
     1
290
     0
176
     1
290
     0
176
     1
290
     0
176
     1
 90
       50
176
     1
 40
0.0
176
     1
 40
1.0
176
     1
 90
        0
176
     1
 62
    18
420
        0
176
     1
 90
       50
176
     1
 90
        3
176
     1
 62
     5
420
      255
176
     1
290
     0
176
     1
 90
       50
176
     1
 90
       50
176
     1
 90
       50
176
     1
290
     0
176
     1
 90
       50
176
     1
 62
   256
176
     0
 40
1.0
176
     0
 90
        2
176
     1
  1
strokes_ogs.tif
176
     1
290
     0
176
     1
 40
1.0
176
     1
 40
1.0
176
     1
  0
VISUALSTYLE
  5
36
102
{ACAD_REACTORS
330
2A
102
}
330
2A
100
AcDbVisualStyle
  2
Brighten
 70
    12
177
     3
291
     1
 70
    58
 90
        2
176
     1
 90
        2
176
     1
 90
        0
176
     1
 90
        0
176
     1
 40
0.6
176
     1
 40
30.0
176
     1
 62
     7
420
 16777215
176
     1
 90
        1
176
     1
 90
        4
176
     1
 62
     7
176
     1
 62
   257
176
     1
 90
        1
176
     1
 90
        1
176
     1
 40
1.0
176
     1
 90
        8
176
     1
 62
     7
176
     1
 40
1.0
176
     1
 90
        1
176
     1
 90
        6
176
     1
 90
        2
176
     1
 62
     7
176
     1
 90
        5
176
     1
 90
        0
176
     1
 90
        0
176
     1
290
     0
176
     1
 90
        1
176
     1
 40
50.0
176
     1
 90
        0
176
     1
290
     0
176
     1
290
     1
176
     1
290
     1
176
     1
290
     0
176
     1
290
     0
176
     1
290
     0
176
     1
290
     0
176
     1
290
     0
176
     1
290
     0
176
     1
 90
       50
176
     1
 40
0.0
176
     1
 40
1.0
176
     1
 90
        0
176
     1
 62
    18
420
        0
176
     1
 90
       50
176
     1
 90
        3
176
     1
 62
     5
420
      255
176
     1
290
     0
176
     1
 90
       50
176
     1
 90
       50
176
     1
 90
       50
176
     1
290
     0
176
     1
 90
       50
176
     1
 62
   256
176
     0
 40
1.0
176
     0
 90
        2
176
     1
  1
strokes_ogs.tif
176
     1
290
     0
176
     1
 40
1.0
176
     1
 40
1.0
176
     1
  0
VISUALSTYLE
  5
3A
102
{ACAD_REACTORS
330
2A
102
}
330
2A
100
AcDbVisualStyle
  2
ColorChange
 70
    16
177
     3
291
     1
 70
    58
 90
        2
176
     1
 90
        2
176
     1
 90
        3
176
     1
 90
        0
176
     1
 40
0.6
176
     1
 40
30.0
176
     1
 62
     8
420
  8421504
176
     1
 90
        1
176
     1
 90
        4
176
     1
 62
     7
176
     1
 62
   257
176
     1
 90
        1
176
     1
 90
        1
176
     1
 40
1.0
176
     1
 90
        8
176
     1
 62
     8
420
  8421504
176
     1
 40
1.0
176
     1
 90
        1
176
     1
 90
        6
176
     1
 90
        2
176
     1
 62
     7
176
     1
 90
        5
176
     1
 90
        0
176
     1
 90
        0
176
     1
290
     0
176
     1
 90
        1
176
     1
 40
0.0
176
     1
 90
        0
176
     1
290
     0
176
     1
290
     1
176
     1
290
     1
176
     1
290
     0
176
     1
290
     0
176
     1
290
     0
176
     1
290
     0
176
     1
290
     0
176
     1
290
     0
176
     1
 90
       50
176
     1
 40
0.0
176
     1
 40
1.0
176
     1
 90
        0
176
     1
 62
    18
420
        0
176
     1
 90
       50
176
     1
 90
        3
176
     1
 62
     5
420
      255
176
     1
290
     0
176
     1
 90
       50
176
     1
 90
       50
176
     1
 90
       50
176
     1
290
     0
176
     1
 90
       50
176
     1
 62
   256
176
     0
 40
1.0
176
     0
 90
        2
176
     1
  1
strokes_ogs.tif
176
     1
290
     0
176
     1
 40
1.0
176
     1
 40
1.0
176
     1
  0
VISUALSTYLE
  5
34
102
{ACAD_REACTORS
330
2A
102
}
330
2A
100
AcDbVisualStyle
  2
Conceptual
 70
     9
177
     3
291
     0
 70
    58
 90
        3
176
     1
 90
        2
176
     1
 90
        0
176
     1
 90
        0
176
     1
 40
0.6
176
     1
 40
30.0
176
     1
 62
     7
420
 16777215
176
     1
 90
        2
176
     1
 90
        2
176
     1
 62
     7
176
     1
 62
   257
176
     1
 90
        1
176
     1
 90
        1
176
     1
 40
179.0
176
     1
 90
        8
176
     1
 62
     7
176
     1
 40
1.0
176
     1
 90
        1
176
     1
 90
        6
176
     1
 90
        2
176
     1
 62
     7
176
     1
 90
        3
176
     1
 90
        0
176
     1
 90
        0
176
     1
290
     0
176
     1
 90
        1
176
     1
 40
0.0
176
     1
 90
        0
176
     1
290
     0
176
     1
290
     1
176
     1
290
     1
176
     1
290
     0
176
     1
290
     0
176
     1
290
     0
176
     1
290
     0
176
     1
290
     0
176
     1
290
     0
176
     1
 90
       50
176
     1
 40
0.0
176
     1
 40
1.0
176
     1
 90
        0
176
     1
 62
    18
420
        0
176
     1
 90
       50
176
     1
 90
        3
176
     1
 62
     5
420
      255
176
     1
290
     0
176
     1
 90
       50
176
     1
 90
       50
176
     1
 90
       50
176
     1
290
     0
176
     1
 90
       50
176
     1
 62
   256
176
     0
 40
1.0
176
     0
 90
        2
176
     1
  1
strokes_ogs.tif
176
     1
290
     0
176
     1
 40
1.0
176
     1
 40
1.0
176
     1
  0
VISUALSTYLE
  5
35
102
{ACAD_REACTORS
330
2A
102
}
330
2A
100
AcDbVisualStyle
  2
Dim
 70
    11
177
     3
291
     1
 70
    58
 90
        2
176
     1
 90
        2
176
     1
 90
        0
176
     1
 90
        0
176
     1
 40
0.6
176
     1
 40
30.0
176
     1
 62
     7
420
 16777215
176
     1
 90
        1
176
     1
 90
        4
176
     1
 62
     7
176
     1
 62
   257
176
     1
 90
        1
176
     1
 90
        1
176
     1
 40
1.0
176
     1
 90
        8
176
     1
 62
     7
176
     1
 40
1.0
176
     1
 90
        1
176
     1
 90
        6
176
     1
 90
        2
176
     1
 62
     7
176
     1
 90
        5
176
     1
 90
        0
176
     1
 90
        0
176
     1
290
     0
176
     1
 90
        1
176
     1
 40
-50.0
176
     1
 90
        0
176
     1
290
     0
176
     1
290
     1
176
     1
290
     1
176
     1
290
     0
176
     1
290
     0
176
     1
290
     0
176
     1
290
     0
176
     1
290
     0
176
     1
290
     0
176
     1
 90
       50
176
     1
 40
0.0
176
     1
 40
1.0
176
     1
 90
        0
176
     1
 62
    18
420
        0
176
     1
 90
       50
176
     1
 90
        3
176
     1
 62
     5
420
      255
176
     1
290
     0
176
     1
 90
       50
176
     1
 90
       50
176
     1
 90
       50
176
     1
290
     0
176
     1
 90
       50
176
     1
 62
   256
176
     0
 40
1.0
176
     0
 90
        2
176
     1
  1
strokes_ogs.tif
176
     1
290
     0
176
     1
 40
1.0
176
     1
 40
1.0
176
     1
  0
VISUALSTYLE
  5
3D
102
{ACAD_REACTORS
330
2A
102
}
330
2A
100
AcDbVisualStyle
  2
EdgeColorOff
 70
    22
177
     3
291
     1
 70
    58
 90
        2
176
     0
 90
        2
176
     0
 90
        0
176
     0
 90
        0
176
     0
 40
0.6
176
     0
 40
30.0
176
     0
 62
     7
420
 16777215
176
     0
 90
        1
176
     0
 90
        4
176
     0
 62
     7
176
     0
 62
   257
176
     0
 90
        1
176
     0
 90
        1
176
     0
 40
1.0
176
     0
 90
        8
176
     2
 62
     7
176
     0
 40
1.0
176
     0
 90
        1
176
     0
 90
        6
176
     0
 90
        2
176
     0
 62
     7
176
     0
 90
        5
176
     0
 90
        0
176
     0
 90
        0
176
     0
290
     0
176
     0
 90
        1
176
     0
 40
0.0
176
     0
 90
        0
176
     0
290
     0
176
     0
290
     1
176
     0
290
     1
176
     0
290
     0
176
     0
290
     0
176
     0
290
     0
176
     0
290
     0
176
     0
290
     0
176
     0
290
     0
176
     0
 90
       50
176
     0
 40
0.0
176
     0
 40
1.0
176
     0
 90
        0
176
     0
 62
    18
420
        0
176
     0
 90
       50
176
     0
 90
        3
176
     0
 62
     5
420
      255
176
     0
290
     0
176
     0
 90
       50
176
     0
 90
       50
176
     0
 90
       50
176
     0
290
     0
176
     0
 90
       50
176
     0
 62
   256
176
     0
 40
1.0
176
     0
 90
        2
176
     0
  1
strokes_ogs.tif
176
     0
290
     0
176
     0
 40
1.0
176
     0
 40
1.0
176
     0
  0
VISUALSTYLE
  5
39
102
{ACAD_REACTORS
330
2A
102
}
330
2A
100
AcDbVisualStyle
  2
Facepattern
 70
    15
177
     3
291
     1
 70
    58
 90
        2
176
     1
 90
        2
176
     1
 90
        0
176
     1
 90
        0
176
     1
 40
0.6
176
     1
 40
30.0
176
     1
 62
     7
420
 16777215
176
     1
 90
        1
176
     1
 90
        4
176
     1
 62
     7
176
     1
 62
   257
176
     1
 90
        1
176
     1
 90
        1
176
     1
 40
1.0
176
     1
 90
        8
176
     1
 62
     7
176
     1
 40
1.0
176
     1
 90
        1
176
     1
 90
        6
176
     1
 90
        2
176
     1
 62
     7
176
     1
 90
        5
176
     1
 90
        0
176
     1
 90
        0
176
     1
290
     0
176
     1
 90
        1
176
     1
 40
0.0
176
     1
 90
        0
176
     1
290
     0
176
     1
290
     1
176
     1
290
     1
176
     1
290
     0
176
     1
290
     0
176
     1
290
     0
176
     1
290
     0
176
     1
290
     0
176
     1
290
     0
176
     1
 90
       50
176
     1
 40
0.0
176
     1
 40
1.0
176
     1
 90
        0
176
     1
 62
    18
420
        0
176
     1
 90
       50
176
     1
 90
        3
176
     1
 62
     5
420
      255
176
     1
290
     0
176
     1
 90
       50
176
     1
 90
       50
176
     1
 90
       50
176
     1
290
     0
176
     1
 90
       50
176
     1
 62
   256
176
     0
 40
1.0
176
     0
 90
        2
176
     1
  1
strokes_ogs.tif
176
     1
290
     0
176
     1
 40
1.0
176
     1
 40
1.0
176
     1
  0
VISUALSTYLE
  5
2B
102
{ACAD_REACTORS
330
2A
102
}
330
2A
100
AcDbVisualStyle
  2
Flat
 70
     0
177
     3
291
     1
 70
    58
 90
        2
176
     1
 90
        1
176
     1
 90
        1
176
     1
 90
        2
176
     1
 40
0.6
176
     1
 40
30.0
176
     1
 62
     7
420
 16777215
176
     1
 90
        0
176
     1
 90
        0
176
     1
 62
     7
176
     1
 62
   257
176
     1
 90
        1
176
     1
 90
        1
176
     1
 40
1.0
176
     1
 90
        8
176
     1
 62
     7
176
     1
 40
1.0
176
     1
 90
        1
176
     1
 90
        6
176
     1
 90
        2
176
     1
 62
     7
176
     1
 90
        5
176
     1
 90
        0
176
     1
 90
        0
176
     1
290
     0
176
     1
 90
       13
176
     1
 40
0.0
176
     1
 90
        0
176
     1
290
     0
176
     1
290
     1
176
     1
290
     1
176
     1
290
     0
176
     1
290
     0
176
     1
290
     0
176
     1
290
     0
176
     1
290
     0
176
     1
290
     0
176
     1
 90
       50
176
     1
 40
0.0
176
     1
 40
1.0
176
     1
 90
        0
176
     1
 62
    18
420
        0
176
     1
 90
       50
176
     1
 90
        3
176
     1
 62
     5
420
      255
176
     1
290
     0
176
     1
 90
       50
176
     1
 90
       50
176
     1
 90
       50
176
     1
290
     0
176
     1
 90
       50
176
     1
 62
   256
176
     0
 40
1.0
176
     0
 90
        2
176
     1
  1
strokes_ogs.tif
176
     1
290
     0
176
     1
 40
1.0
176
     1
 40
1.0
176
     1
  0
VISUALSTYLE
  5
2C
102
{ACAD_REACTORS
330
2A
102
}
330
2A
100
AcDbVisualStyle
  2
FlatWithEdges
 70
     1
177
     3
291
     1
 70
    58
 90
        2
176
     1
 90
        1
176
     1
 90
        1
176
     1
 90
        2
176
     1
 40
0.6
176
     1
 40
30.0
176
     1
 62
     7
420
 16777215
176
     1
 90
        1
176
     1
 90
        0
176
     1
 62
     7
176
     1
 62
   257
176
     1
 90
        1
176
     1
 90
        1
176
     1
 40
1.0
176
     1
 90
        0
176
     1
 62
   257
176
     1
 40
1.0
176
     1
 90
        1
176
     1
 90
        6
176
     1
 90
        2
176
     1
 62
     7
176
     1
 90
        5
176
     1
 90
        0
176
     1
 90
        0
176
     1
290
     0
176
     1
 90
       13
176
     1
 40
0.0
176
     1
 90
        0
176
     1
290
     0
176
     1
290
     1
176
     1
290
     1
176
     1
290
     0
176
     1
290
     0
176
     1
290
     0
176
     1
290
     0
176
     1
290
     0
176
     1
290
     0
176
     1
 90
       50
176
     1
 40
0.0
176
     1
 40
1.0
176
     1
 90
        0
176
     1
 62
    18
420
        0
176
     1
 90
       50
176
     1
 90
        3
176
     1
 62
     5
420
      255
176
     1
290
     0
176
     1
 90
       50
176
     1
 90
       50
176
     1
 90
       50
176
     1
290
     0
176
     1
 90
       50
176
     1
 62
   256
176
     0
 40
1.0
176
     0
 90
        2
176
     1
  1
strokes_ogs.tif
176
     1
290
     0
176
     1
 40
1.0
176
     1
 40
1.0
176
     1
  0
VISUALSTYLE
  5
2D
102
{ACAD_REACTORS
330
2A
102
}
330
2A
100
AcDbVisualStyle
  2
Gouraud
 70
     2
177
     3
291
     1
 70
    58
 90
        2
176
     1
 90
        2
176
     1
 90
        1
176
     1
 90
        2
176
     1
 40
0.6
176
     1
 40
30.0
176
     1
 62
     7
420
 16777215
176
     1
 90
        0
176
     1
 90
        0
176
     1
 62
     7
176
     1
 62
   257
176
     1
 90
        1
176
     1
 90
        1
176
     1
 40
1.0
176
     1
 90
        0
176
     1
 62
     7
176
     1
 40
1.0
176
     1
 90
        1
176
     1
 90
        6
176
     1
 90
        2
176
     1
 62
     7
176
     1
 90
        5
176
     1
 90
        0
176
     1
 90
        0
176
     1
290
     0
176
     1
 90
       13
176
     1
 40
0.0
176
     1
 90
        0
176
     1
290
     0
176
     1
290
     1
176
     1
290
     1
176
     1
290
     0
176
     1
290
     0
176
     1
290
     0
176
     1
290
     0
176
     1
290
     0
176
     1
290
     0
176
     1
 90
       50
176
     1
 40
0.0
176
     1
 40
1.0
176
     1
 90
        0
176
     1
 62
    18
420
        0
176
     1
 90
       50
176
     1
 90
        3
176
     1
 62
     5
420
      255
176
     1
290
     0
176
     1
 90
       50
176
     1
 90
       50
176
     1
 90
       50
176
     1
290
     0
176
     1
 90
       50
176
     1
 62
   256
176
     0
 40
1.0
176
     0
 90
        2
176
     1
  1
strokes_ogs.tif
176
     1
290
     0
176
     1
 40
1.0
176
     1
 40
1.0
176
     1
  0
VISUALSTYLE
  5
2E
102
{ACAD_REACTORS
330
2A
102
}
330
2A
100
AcDbVisualStyle
  2
GouraudWithEdges
 70
     3
177
     3
291
     1
 70
    58
 90
        2
176
     1
 90
        2
176
     1
 90
        1
176
     1
 90
        2
176
     1
 40
0.6
176
     1
 40
30.0
176
     1
 62
     7
420
 16777215
176
     1
 90
        1
176
     1
 90
        0
176
     1
 62
     7
176
     1
 62
   257
176
     1
 90
        1
176
     1
 90
        1
176
     1
 40
1.0
176
     1
 90
        0
176
     1
 62
   257
176
     1
 40
1.0
176
     1
 90
        1
176
     1
 90
        6
176
     1
 90
        2
176
     1
 62
     7
176
     1
 90
        5
176
     1
 90
        0
176
     1
 90
        0
176
     1
290
     0
176
     1
 90
       13
176
     1
 40
0.0
176
     1
 90
        0
176
     1
290
     0
176
     1
290
     1
176
     1
290
     1
176
     1
290
     0
176
     1
290
     0
176
     1
290
     0
176
     1
290
     0
176
     1
290
     0
176
     1
290
     0
176
     1
 90
       50
176
     1
 40
0.0
176
     1
 40
1.0
176
     1
 90
        0
176
     1
 62
    18
420
        0
176
     1
 90
       50
176
     1
 90
        3
176
     1
 62
     5
420
      255
176
     1
290
     0
176
     1
 90
       50
176
     1
 90
       50
176
     1
 90
       50
176
     1
290
     0
176
     1
 90
       50
176
     1
 62
   256
176
     0
 40
1.0
176
     0
 90
        2
176
     1
  1
strokes_ogs.tif
176
     1
290
     0
176
     1
 40
1.0
176
     1
 40
1.0
176
     1
  0
VISUALSTYLE
  5
31
102
{ACAD_REACTORS
330
2A
102
}
330
2A
100
AcDbVisualStyle
  2
Hidden
 70
     6
177
     3
291
     0
 70
    58
 90
        1
176
     1
 90
        2
176
     1
 90
        2
176
     1
 90
        0
176
     1
 40
0.6
176
     1
 40
30.0
176
     1
 62
     7
420
 16777215
176
     1
 90
        2
176
     1
 90
        2
176
     1
 62
     7
176
     1
 62
   257
176
     1
 90
        2
176
     1
 90
        1
176
     1
 40
40.0
176
     1
 90
        0
176
     1
 62
   257
176
     1
 40
1.0
176
     1
 90
        1
176
     1
 90
        6
176
     1
 90
        2
176
     1
 62
     7
176
     1
 90
        3
176
     1
 90
        0
176
     1
 90
        0
176
     1
290
     0
176
     1
 90
        1
176
     1
 40
0.0
176
     1
 90
        0
176
     1
290
     0
176
     1
290
     1
176
     1
290
     1
176
     1
290
     0
176
     1
290
     0
176
     1
290
     0
176
     1
290
     0
176
     1
290
     0
176
     1
290
     0
176
     1
 90
       50
176
     1
 40
0.0
176
     1
 40
1.0
176
     1
 90
        0
176
     1
 62
    18
420
        0
176
     1
 90
       50
176
     1
 90
        3
176
     1
 62
     5
420
      255
176
     1
290
     0
176
     1
 90
       50
176
     1
 90
       50
176
     1
 90
       50
176
     1
290
     0
176
     1
 90
       50
176
     1
 62
   256
176
     0
 40
1.0
176
     0
 90
        2
176
     1
  1
strokes_ogs.tif
176
     1
290
     0
176
     1
 40
1.0
176
     1
 40
1.0
176
     1
  0
VISUALSTYLE
  5
3B
102
{ACAD_REACTORS
330
2A
102
}
330
2A
100
AcDbVisualStyle
  2
JitterOff
 70
    20
177
     3
291
     1
 70
    58
 90
        2
176
     0
 90
        2
176
     0
 90
        0
176
     0
 90
        0
176
     0
 40
0.6
176
     0
 40
30.0
176
     0
 62
     7
420
 16777215
176
     0
 90
        1
176
     0
 90
        4
176
     0
 62
     7
176
     0
 62
   257
176
     0
 90
        1
176
     0
 90
        1
176
     0
 40
1.0
176
     0
 90
       10
176
     2
 62
     7
176
     0
 40
1.0
176
     0
 90
        1
176
     0
 90
        6
176
     0
 90
        2
176
     0
 62
     7
176
     0
 90
        5
176
     0
 90
        0
176
     0
 90
        0
176
     0
290
     0
176
     0
 90
        1
176
     0
 40
0.0
176
     0
 90
        0
176
     0
290
     0
176
     0
290
     1
176
     0
290
     1
176
     0
290
     0
176
     0
290
     0
176
     0
290
     0
176
     0
290
     0
176
     0
290
     0
176
     0
290
     0
176
     0
 90
       50
176
     0
 40
0.0
176
     0
 40
1.0
176
     0
 90
        0
176
     0
 62
    18
420
        0
176
     0
 90
       50
176
     0
 90
        3
176
     0
 62
     5
420
      255
176
     0
290
     0
176
     0
 90
       50
176
     0
 90
       50
176
     0
 90
       50
176
     0
290
     0
176
     0
 90
       50
176
     0
 62
   256
176
     0
 40
1.0
176
     0
 90
        2
176
     0
  1
strokes_ogs.tif
176
     0
290
     0
176
     0
 40
1.0
176
     0
 40
1.0
176
     0
  0
VISUALSTYLE
  5
38
102
{ACAD_REACTORS
330
2A
102
}
330
2A
100
AcDbVisualStyle
  2
Linepattern
 70
    14
177
     3
291
     1
 70
    58
 90
        2
176
     1
 90
        2
176
     1
 90
        0
176
     1
 90
        0
176
     1
 40
0.6
176
     1
 40
30.0
176
     1
 62
     7
420
 16777215
176
     1
 90
        1
176
     1
 90
        4
176
     1
 62
     7
176
     1
 62
   257
176
     1
 90
        7
176
     1
 90
        7
176
     1
 40
1.0
176
     1
 90
        8
176
     1
 62
     7
176
     1
 40
1.0
176
     1
 90
        1
176
     1
 90
        6
176
     1
 90
        2
176
     1
 62
     7
176
     1
 90
        5
176
     1
 90
        0
176
     1
 90
        0
176
     1
290
     0
176
     1
 90
        1
176
     1
 40
0.0
176
     1
 90
        0
176
     1
290
     0
176
     1
290
     1
176
     1
290
     1
176
     1
290
     0
176
     1
290
     0
176
     1
290
     0
176
     1
290
     0
176
     1
290
     0
176
     1
290
     0
176
     1
 90
       50
176
     1
 40
0.0
176
     1
 40
1.0
176
     1
 90
        0
176
     1
 62
    18
420
        0
176
     1
 90
       50
176
     1
 90
        3
176
     1
 62
     5
420
      255
176
     1
290
     0
176
     1
 90
       50
176
     1
 90
       50
176
     1
 90
       50
176
     1
290
     0
176
     1
 90
       50
176
     1
 62
   256
176
     0
 40
1.0
176
     0
 90
        2
176
     1
  1
strokes_ogs.tif
176
     1
290
     0
176
     1
 40
1.0
176
     1
 40
1.0
176
     1
  0
VISUALSTYLE
  5
3C
102
{ACAD_REACTORS
330
2A
102
}
330
2A
100
AcDbVisualStyle
  2
OverhangOff
 70
    21
177
     3
291
     1
 70
    58
 90
        2
176
     0
 90
        2
176
     0
 90
        0
176
     0
 90
        0
176
     0
 40
0.6
176
     0
 40
30.0
176
     0
 62
     7
420
 16777215
176
     0
 90
        1
176
     0
 90
        4
176
     0
 62
     7
176
     0
 62
   257
176
     0
 90
        1
176
     0
 90
        1
176
     0
 40
1.0
176
     0
 90
        9
176
     2
 62
     7
176
     0
 40
1.0
176
     0
 90
        1
176
     0
 90
        6
176
     0
 90
        2
176
     0
 62
     7
176
     0
 90
        5
176
     0
 90
        0
176
     0
 90
        0
176
     0
290
     0
176
     0
 90
        1
176
     0
 40
0.0
176
     0
 90
        0
176
     0
290
     0
176
     0
290
     1
176
     0
290
     1
176
     0
290
     0
176
     0
290
     0
176
     0
290
     0
176
     0
290
     0
176
     0
290
     0
176
     0
290
     0
176
     0
 90
       50
176
     0
 40
0.0
176
     0
 40
1.0
176
     0
 90
        0
176
     0
 62
    18
420
        0
176
     0
 90
       50
176
     0
 90
        3
176
     0
 62
     5
420
      255
176
     0
290
     0
176
     0
 90
       50
176
     0
 90
       50
176
     0
 90
       50
176
     0
290
     0
176
     0
 90
       50
176
     0
 62
   256
176
     0
 40
1.0
176
     0
 90
        2
176
     0
  1
strokes_ogs.tif
176
     0
290
     0
176
     0
 40
1.0
176
     0
 40
1.0
176
     0
  0
VISUALSTYLE
  5
33
102
{ACAD_REACTORS
330
2A
102
}
330
2A
100
AcDbVisualStyle
  2
Realistic
 70
     8
177
     3
291
     0
 70
    58
 90
        2
176
     1
 90
        3
176
     1
 90
        0
176
     1
 90
        2
176
     1
 40
0.6
176
     1
 40
30.0
176
     1
 62
     7
420
 16777215
176
     1
 90
        0
176
     1
 90
        0
176
     1
 62
     7
176
     1
 62
   257
176
     1
 90
        1
176
     1
 90
        1
176
     1
 40
1.0
176
     1
 90
        8
176
     1
 62
   257
176
     1
 40
1.0
176
     1
 90
        1
176
     1
 90
        6
176
     1
 90
        2
176
     1
 62
     7
176
     1
 90
        3
176
     1
 90
        0
176
     1
 90
        0
176
     1
290
     0
176
     1
 90
       13
176
     1
 40
0.0
176
     1
 90
        0
176
     1
290
     0
176
     1
290
     1
176
     1
290
     1
176
     1
290
     0
176
     1
290
     0
176
     1
290
     0
176
     1
290
     0
176
     1
290
     0
176
     1
290
     0
176
     1
 90
       50
176
     1
 40
0.0
176
     1
 40
1.0
176
     1
 90
        0
176
     1
 62
    18
420
        0
176
     1
 90
       50
176
     1
 90
        3
176
     1
 62
     5
420
      255
176
     1
290
     0
176
     1
 90
       50
176
     1
 90
       50
176
     1
 90
       50
176
     1
290
     0
176
     1
 90
       50
176
     1
 62
   256
176
     0
 40
1.0
176
     0
 90
        2
176
     1
  1
strokes_ogs.tif
176
     1
290
     0
176
     1
 40
1.0
176
     1
 40
1.0
176
     1
  0
VISUALSTYLE
  5
42
102
{ACAD_REACTORS
330
2A
102
}
330
2A
100
AcDbVisualStyle
  2
Shaded
 70
    27
177
     3
291
     0
 70
    58
 90
        2
176
     1
 90
        2
176
     1
 90
        1
176
     1
 90
        2
176
     1
 40
0.6
176
     1
 40
30.0
176
     1
 62
     7
420
 16777215
176
     1
 90
        0
176
     1
 90
        4
176
     1
 62
     7
176
     1
 62
   257
176
     1
 90
        1
176
     1
 90
        1
176
     1
 40
1.0
176
     1
 90
        8
176
     1
 62
   257
176
     1
 40
1.0
176
     1
 90
        1
176
     1
 90
        6
176
     1
 90
        2
176
     1
 62
     8
420
  7895160
176
     1
 90
        3
176
     1
 90
        0
176
     1
 90
        0
176
     1
290
     0
176
     1
 90
        5
176
     1
 40
0.0
176
     1
 90
        0
176
     1
290
     0
176
     1
290
     1
176
     1
290
     1
176
     1
290
     0
176
     1
290
     0
176
     1
290
     0
176
     1
290
     0
176
     1
290
     0
176
     1
290
     0
176
     1
 90
       50
176
     1
 40
0.0
176
     1
 40
1.0
176
     1
 90
        0
176
     1
 62
    18
420
        0
176
     1
 90
       50
176
     1
 90
        3
176
     1
 62
     5
420
      255
176
     1
290
     0
176
     1
 90
       50
176
     1
 90
       50
176
     1
 90
       50
176
     1
290
     0
176
     1
 90
       50
176
     1
 62
   256
176
     0
 40
1.0
176
     0
 90
        2
176
     1
  1
strokes_ogs.tif
176
     1
290
     0
176
     1
 40
1.0
176
     1
 40
1.0
176
     1
  0
VISUALSTYLE
  5
41
102
{ACAD_REACTORS
330
2A
102
}
330
2A
100
AcDbVisualStyle
  2
Shaded with edges
 70
    26
177
     3
291
     0
 70
    58
 90
        2
176
     1
 90
        2
176
     1
 90
        1
176
     1
 90
        2
176
     1
 40
0.6
176
     1
 40
30.0
176
     1
 62
     7
420
 16777215
176
     1
 90
        1
176
     1
 90
       10
176
     1
 62
     7
176
     1
 62
   257
176
     1
 90
        2
176
     1
 90
        1
176
     1
 40
1.0
176
     1
 90
        8
176
     1
 62
   257
176
     1
 40
1.0
176
     1
 90
        1
176
     1
 90
        6
176
     1
 90
        2
176
     1
 62
     7
176
     1
 90
        3
176
     1
 90
        0
176
     1
 90
        0
176
     1
290
     0
176
     1
 90
        5
176
     1
 40
0.0
176
     1
 90
        0
176
     1
290
     0
176
     1
290
     1
176
     1
290
     1
176
     1
290
     0
176
     1
290
     0
176
     1
290
     0
176
     1
290
     0
176
     1
290
     0
176
     1
290
     0
176
     1
 90
       50
176
     1
 40
0.0
176
     1
 40
1.0
176
     1
 90
        0
176
     1
 62
    18
420
        0
176
     1
 90
       50
176
     1
 90
        3
176
     1
 62
     5
420
      255
176
     1
290
     0
176
     1
 90
       50
176
     1
 90
       50
176
     1
 90
       50
176
     1
290
     0
176
     1
 90
       50
176
     1
 62
   256
176
     0
 40
1.0
176
     0
 90
        2
176
     1
  1
strokes_ogs.tif
176
     1
290
     0
176
     1
 40
1.0
176
     1
 40
1.0
176
     1
  0
VISUALSTYLE
  5
3E
102
{ACAD_REACTORS
330
2A
102
}
330
2A
100
AcDbVisualStyle
  2
Shades of Gray
 70
    23
177
     3
291
     0
 70
    58
 90
        2
176
     1
 90
        2
176
     1
 90
        3
176
     1
 90
        0
176
     1
 40
0.6
176
     1
 40
30.0
176
     1
 62
     7
420
 16777215
176
     1
 90
        2
176
     1
 90
        2
176
     1
 62
     7
176
     1
 62
     7
176
     1
 90
        1
176
     1
 90
        1
176
     1
 40
40.0
176
     1
 90
        8
176
     1
 62
     7
176
     1
 40
1.0
176
     1
 90
        1
176
     1
 90
        6
176
     1
 90
        2
176
     1
 62
     7
176
     1
 90
        3
176
     1
 90
        0
176
     1
 90
        0
176
     1
290
     0
176
     1
 90
        1
176
     1
 40
0.0
176
     1
 90
        0
176
     1
290
     0
176
     1
290
     1
176
     1
290
     1
176
     1
290
     0
176
     1
290
     0
176
     1
290
     0
176
     1
290
     0
176
     1
290
     0
176
     1
290
     0
176
     1
 90
       50
176
     1
 40
0.0
176
     1
 40
1.0
176
     1
 90
        0
176
     1
 62
    18
420
        0
176
     1
 90
       50
176
     1
 90
        3
176
     1
 62
     5
420
      255
176
     1
290
     0
176
     1
 90
       50
176
     1
 90
       50
176
     1
 90
       50
176
     1
290
     0
176
     1
 90
       50
176
     1
 62
   256
176
     0
 40
1.0
176
     0
 90
        2
176
     1
  1
strokes_ogs.tif
176
     1
290
     0
176
     1
 40
1.0
176
     1
 40
1.0
176
     1
  0
VISUALSTYLE
  5
3F
102
{ACAD_REACTORS
330
2A
102
}
330
2A
100
AcDbVisualStyle
  2
Sketchy
 70
    24
177
     3
291
     0
 70
    58
 90
        1
176
     1
 90
        2
176
     1
 90
        2
176
     1
 90
        0
176
     1
 40
0.6
176
     1
 40
30.0
176
     1
 62
     7
420
 16777215
176
     1
 90
        2
176
     1
 90
        2
176
     1
 62
     7
176
     1
 62
     7
176
     1
 90
        1
176
     1
 90
        1
176
     1
 40
40.0
176
     1
 90
       11
176
     1
 62
     7
176
     1
 40
1.0
176
     1
 90
        1
176
     1
 90
        6
176
     1
 90
        2
176
     1
 62
     7
176
     1
 90
        6
176
     1
 90
        0
176
     1
 90
        0
176
     1
290
     0
176
     1
 90
        1
176
     1
 40
0.0
176
     1
 90
        0
176
     1
290
     0
176
     1
290
     1
176
     1
290
     1
176
     1
290
     0
176
     1
290
     0
176
     1
290
     0
176
     1
290
     0
176
     1
290
     0
176
     1
290
     0
176
     1
 90
       50
176
     1
 40
0.0
176
     1
 40
1.0
176
     1
 90
        0
176
     1
 62
    18
420
        0
176
     1
 90
       50
176
     1
 90
        3
176
     1
 62
     5
420
      255
176
     1
290
     0
176
     1
 90
       50
176
     1
 90
       50
176
     1
 90
       50
176
     1
290
     0
176
     1
 90
       50
176
     1
 62
   256
176
     0
 40
1.0
176
     0
 90
        2
176
     1
  1
strokes_ogs.tif
176
     1
290
     0
176
     1
 40
1.0
176
     1
 40
1.0
176
     1
  0
VISUALSTYLE
  5
37
102
{ACAD_REACTORS
330
2A
102
}
330
2A
100
AcDbVisualStyle
  2
Thicken
 70
    13
177
     3
291
     1
 70
    58
 90
        2
176
     1
 90
        2
176
     1
 90
        0
176
     1
 90
        0
176
     1
 40
0.6
176
     1
 40
30.0
176
     1
 62
     7
420
 16777215
176
     1
 90
        1
176
     1
 90
        4
176
     1
 62
     7
176
     1
 62
   257
176
     1
 90
        1
176
     1
 90
        1
176
     1
 40
1.0
176
     1
 90
       12
176
     1
 62
     7
176
     1
 40
1.0
176
     1
 90
        1
176
     1
 90
        6
176
     1
 90
        2
176
     1
 62
     7
176
     1
 90
        5
176
     1
 90
        0
176
     1
 90
        0
176
     1
290
     0
176
     1
 90
        1
176
     1
 40
0.0
176
     1
 90
        0
176
     1
290
     0
176
     1
290
     1
176
     1
290
     1
176
     1
290
     0
176
     1
290
     0
176
     1
290
     0
176
     1
290
     0
176
     1
290
     0
176
     1
290
     0
176
     1
 90
       50
176
     1
 40
0.0
176
     1
 40
1.0
176
     1
 90
        0
176
     1
 62
    18
420
        0
176
     1
 90
       50
176
     1
 90
        3
176
     1
 62
     5
420
      255
176
     1
290
     0
176
     1
 90
       50
176
     1
 90
       50
176
     1
 90
       50
176
     1
290
     0
176
     1
 90
       50
176
     1
 62
   256
176
     0
 40
1.0
176
     0
 90
        2
176
     1
  1
strokes_ogs.tif
176
     1
290
     0
176
     1
 40
1.0
176
     1
 40
1.0
176
     1
  0
VISUALSTYLE
  5
30
102
{ACAD_REACTORS
330
2A
102
}
330
2A
100
AcDbVisualStyle
  2
Wireframe
 70
     5
177
     3
291
     0
 70
    58
 90
        0
176
     1
 90
        2
176
     1
 90
        0
176
     1
 90
        0
176
     1
 40
0.6
176
     1
 40
30.0
176
     1
 62
     7
420
 16777215
176
     1
 90
        1
176
     1
 90
        4
176
     1
 62
     7
176
     1
 62
   257
176
     1
 90
        1
176
     1
 90
        1
176
     1
 40
1.0
176
     1
 90
        0
176
     1
 62
   257
176
     1
 40
1.0
176
     1
 90
        1
176
     1
 90
        6
176
     1
 90
        2
176
     1
 62
     7
176
     1
 90
        3
176
     1
 90
        0
176
     1
 90
        0
176
     1
290
     0
176
     1
 90
        1
176
     1
 40
0.0
176
     1
 90
        0
176
     1
290
     0
176
     1
290
     1
176
     1
290
     1
176
     1
290
     0
176
     1
290
     0
176
     1
290
     0
176
     1
290
     0
176
     1
290
     0
176
     1
290
     0
176
     1
 90
       50
176
     1
 40
0.0
176
     1
 40
1.0
176
     1
 90
        0
176
     1
 62
    18
420
        0
176
     1
 90
       50
176
     1
 90
        3
176
     1
 62
     5
420
      255
176
     1
290
     0
176
     1
 90
       50
176
     1
 90
       50
176
     1
 90
       50
176
     1
290
     0
176
     1
 90
       50
176
     1
 62
   256
176
     0
 40
1.0
176
     0
 90
        2
176
     1
  1
strokes_ogs.tif
176
     1
290
     0
176
     1
 40
1.0
176
     1
 40
1.0
176
     1
  0
VISUALSTYLE
  5
40
102
{ACAD_REACTORS
330
2A
102
}
330
2A
100
AcDbVisualStyle
  2
X-Ray
 70
    25
177
     3
291
     0
 70
    58
 90
        2
176
     1
 90
        2
176
     1
 90
        1
176
     1
 90
        1
176
     1
 40
0.5
176
     1
 40
30.0
176
     1
 62
     7
420
 16777215
176
     1
 90
        1
176
     1
 90
        0
176
     1
 62
     7
176
     1
 62
   257
176
     1
 90
        1
176
     1
 90
        1
176
     1
 40
1.0
176
     1
 90
        8
176
     1
 62
     7
176
     1
 40
1.0
176
     1
 90
        1
176
     1
 90
        6
176
     1
 90
        2
176
     1
 62
     7
176
     1
 90
        3
176
     1
 90
        0
176
     1
 90
        0
176
     1
290
     0
176
     1
 90
       13
176
     1
 40
0.0
176
     1
 90
        0
176
     1
290
     0
176
     1
290
     1
176
     1
290
     1
176
     1
290
     0
176
     1
290
     0
176
     1
290
     0
176
     1
290
     0
176
     1
290
     0
176
     1
290
     0
176
     1
 90
       50
176
     1
 40
0.0
176
     1
 40
1.0
176
     1
 90
        0
176
     1
 62
    18
420
        0
176
     1
 90
       50
176
     1
 90
        3
176
     1
 62
     5
420
      255
176
     1
290
     0
176
     1
 90
       50
176
     1
 90
       50
176
     1
 90
       50
176
     1
290
     0
176
     1
 90
       50
176
     1
 62
   256
176
     0
 40
1.0
176
     0
 90
        2
176
     1
  1
strokes_ogs.tif
176
     1
290
     0
176
     1
 40
1.0
176
     1
 40
1.0
176
     1
  0
DICTIONARYVAR
  5
82
102
{ACAD_REACTORS
330
81
102
}
330
81
100
DictionaryVariables
280
     0
  1
1:1
  0
DICTIONARYVAR
  5
87
102
{ACAD_REACTORS
330
81
102
}
330
81
100
DictionaryVariables
280
     0
  1
Standard
  0
DICTIONARYVAR
  5
86
102
{ACAD_REACTORS
330
81
102
}
330
81
100
DictionaryVariables
280
     0
  1
Standard
  0
DICTIONARY
  5
83
330
5A
100
AcDbDictionary
280
     1
281
     1
  3
ACAD_ROUNDTRIP_2008_TABLESTYLE_CELLSTYLEMAP
360
84
  0
CELLSTYLEMAP
  5
84
102
{ACAD_REACTORS
330
83
102
}
330
83
100
AcDbCellStyleMap
 90
        3
300
CELLSTYLE
  1
TABLEFORMAT_BEGIN
 90
        5
170
     1
 91
        0
 92
    32768
 62
   257
 93
        1
300
CONTENTFORMAT
  1
CONTENTFORMAT_BEGIN
 90
        0
 91
        0
 92
        4
 93
        0
300

 40
0.0
140
1.0
 94
        5
 62
     0
340
11
144
0.25
309
CONTENTFORMAT_END
171
     1
301
MARGIN
  1
CELLMARGIN_BEGIN
 40
0.06
 40
0.06
 40
0.06
 40
0.06
 40
0.06
 40
0.06
309
CELLMARGIN_END
 94
        6
 95
        1
302
GRIDFORMAT
  1
GRIDFORMAT_BEGIN
 90
        0
 91
        1
 62
     0
 92
       -2
340
14
 93
        0
 40
0.045
309
GRIDFORMAT_END
 95
        2
302
GRIDFORMAT
  1
GRIDFORMAT_BEGIN
 90
        0
 91
        1
 62
     0
 92
       -2
340
14
 93
        0
 40
0.045
309
GRIDFORMAT_END
 95
        4
302
GRIDFORMAT
  1
GRIDFORMAT_BEGIN
 90
        0
 91
        1
 62
     0
 92
       -2
340
14
 93
        0
 40
0.045
309
GRIDFORMAT_END
 95
        8
302
GRIDFORMAT
  1
GRIDFORMAT_BEGIN
 90
        0
 91
        1
 62
     0
 92
       -2
340
14
 93
        0
 40
0.045
309
GRIDFORMAT_END
 95
       16
302
GRIDFORMAT
  1
GRIDFORMAT_BEGIN
 90
        0
 91
        1
 62
     0
 92
       -2
340
14
 93
        0
 40
0.045
309
GRIDFORMAT_END
 95
       32
302
GRIDFORMAT
  1
GRIDFORMAT_BEGIN
 90
        0
 91
        1
 62
     0
 92
       -2
340
14
 93
        0
 40
0.045
309
GRIDFORMAT_END
309
TABLEFORMAT_END
  1
CELLSTYLE_BEGIN
 90
        1
 91
        1
300
_TITLE
309
CELLSTYLE_END
300
CELLSTYLE
  1
TABLEFORMAT_BEGIN
 90
        5
170
     1
 91
        0
 92
        0
 62
   257
 93
        1
300
CONTENTFORMAT
  1
CONTENTFORMAT_BEGIN
 90
        0
 91
        0
 92
        4
 93
        0
300

 40
0.0
140
1.0
 94
        5
 62
     0
340
11
144
0.18
309
CONTENTFORMAT_END
171
     1
301
MARGIN
  1
CELLMARGIN_BEGIN
 40
0.06
 40
0.06
 40
0.06
 40
0.06
 40
0.06
 40
0.06
309
CELLMARGIN_END
 94
        6
 95
        1
302
GRIDFORMAT
  1
GRIDFORMAT_BEGIN
 90
        0
 91
        1
 62
     0
 92
       -2
340
14
 93
        0
 40
0.045
309
GRIDFORMAT_END
 95
        2
302
GRIDFORMAT
  1
GRIDFORMAT_BEGIN
 90
        0
 91
        1
 62
     0
 92
       -2
340
14
 93
        0
 40
0.045
309
GRIDFORMAT_END
 95
        4
302
GRIDFORMAT
  1
GRIDFORMAT_BEGIN
 90
        0
 91
        1
 62
     0
 92
       -2
340
14
 93
        0
 40
0.045
309
GRIDFORMAT_END
 95
        8
302
GRIDFORMAT
  1
GRIDFORMAT_BEGIN
 90
        0
 91
        1
 62
     0
 92
       -2
340
14
 93
        0
 40
0.045
309
GRIDFORMAT_END
 95
       16
302
GRIDFORMAT
  1
GRIDFORMAT_BEGIN
 90
        0
 91
        1
 62
     0
 92
       -2
340
14
 93
        0
 40
0.045
309
GRIDFORMAT_END
 95
       32
302
GRIDFORMAT
  1
GRIDFORMAT_BEGIN
 90
        0
 91
        1
 62
     0
 92
       -2
340
14
 93
        0
 40
0.045
309
GRIDFORMAT_END
309
TABLEFORMAT_END
  1
CELLSTYLE_BEGIN
 90
        2
 91
        1
300
_HEADER
309
CELLSTYLE_END
300
CELLSTYLE
  1
TABLEFORMAT_BEGIN
 90
        5
170
     1
 91
        0
 92
        0
 62
   257
 93
        1
300
CONTENTFORMAT
  1
CONTENTFORMAT_BEGIN
 90
        0
 91
        0
 92
        4
 93
        0
300

 40
0.0
140
1.0
 94
        2
 62
     0
340
11
144
0.18
309
CONTENTFORMAT_END
171
     1
301
MARGIN
  1
CELLMARGIN_BEGIN
 40
0.06
 40
0.06
 40
0.06
 40
0.06
 40
0.06
 40
0.06
309
CELLMARGIN_END
 94
        6
 95
        1
302
GRIDFORMAT
  1
GRIDFORMAT_BEGIN
 90
        0
 91
        1
 62
     0
 92
       -2
340
14
 93
        0
 40
0.045
309
GRIDFORMAT_END
 95
        2
302
GRIDFORMAT
  1
GRIDFORMAT_BEGIN
 90
        0
 91
        1
 62
     0
 92
       -2
340
14
 93
        0
 40
0.045
309
GRIDFORMAT_END
 95
        4
302
GRIDFORMAT
  1
GRIDFORMAT_BEGIN
 90
        0
 91
        1
 62
     0
 92
       -2
340
14
 93
        0
 40
0.045
309
GRIDFORMAT_END
 95
        8
302
GRIDFORMAT
  1
GRIDFORMAT_BEGIN
 90
        0
 91
        1
 62
     0
 92
       -2
340
14
 93
        0
 40
0.045
309
GRIDFORMAT_END
 95
       16
302
GRIDFORMAT
  1
GRIDFORMAT_BEGIN
 90
        0
 91
        1
 62
     0
 92
       -2
340
14
 93
        0
 40
0.045
309
GRIDFORMAT_END
 95
       32
302
GRIDFORMAT
  1
GRIDFORMAT_BEGIN
 90
        0
 91
        1
 62
     0
 92
       -2
340
14
 93
        0
 40
0.045
309
GRIDFORMAT_END
309
TABLEFORMAT_END
  1
CELLSTYLE_BEGIN
 90
        3
 91
        2
300
_DATA
309
CELLSTYLE_END
  0
ENDSEC
  0
EOF
